  0
SECTION
  2
HEADER
  9
$ACADVER
  1
AC1009
  9
$INSBASE
 10
4227.2828862748547181
 20
181.5979821847259075
 30
0.0
  9
$EXTMIN
 10
4219.7569032291448821
 20
181.5863324966142898
 30
-0.0015258207003583
  9
$EXTMAX
 10
4234.6179273538009511
 20
194.0201024391394071
 30
0.0000000349246037
  9
$LIMMIN
 10
0.0
 20
0.0
  9
$LIMMAX
 10
11.6929133858000007
 20
8.2677165353999982
  9
$ORTHOMODE
 70
     1
  9
$REGENMODE
 70
     1
  9
$FILLMODE
 70
     1
  9
$QTEXTMODE
 70
     0
  9
$MIRRTEXT
 70
     0
  9
$DRAGMODE
 70
     2
  9
$LTSCALE
 40
0.6431102362
  9
$OSMODE
 70
  4095
  9
$ATTMODE
 70
     1
  9
$TEXTSIZE
 40
0.2
  9
$TRACEWID
 40
0.05
  9
$TEXTSTYLE
  7
STANDARD
  9
$CLAYER
  8
0
  9
$CELTYPE
  6
BYLAYER
  9
$CECOLOR
 62
   256
  9
$DIMSCALE
 40
1.0
  9
$DIMASZ
 40
0.1875
  9
$DIMEXO
 40
0.0625
  9
$DIMDLI
 40
0.4443307087
  9
$DIMRND
 40
0.0
  9
$DIMDLE
 40
0.0
  9
$DIMEXE
 40
0.125
  9
$DIMTP
 40
0.01
  9
$DIMTM
 40
0.01
  9
$DIMTXT
 40
2.0
  9
$DIMCEN
 40
0.1052362205
  9
$DIMTSZ
 40
0.0
  9
$DIMTOL
 70
     1
  9
$DIMLIM
 70
     0
  9
$DIMTIH
 70
     1
  9
$DIMTOH
 70
     1
  9
$DIMSE1
 70
     0
  9
$DIMSE2
 70
     0
  9
$DIMTAD
 70
     0
  9
$DIMZIN
 70
     0
  9
$DIMBLK
  1

  9
$DIMASO
 70
     1
  9
$DIMSHO
 70
     1
  9
$DIMPOST
  1
\X
  9
$DIMAPOST
  1

  9
$DIMALT
 70
     1
  9
$DIMALTD
 70
     2
  9
$DIMALTF
 40
25.3999999999999986
  9
$DIMLFAC
 40
1.0
  9
$DIMTOFL
 70
     0
  9
$DIMTVP
 40
0.0
  9
$DIMTIX
 70
     0
  9
$DIMSOXD
 70
     0
  9
$DIMSAH
 70
     0
  9
$DIMBLK1
  1

  9
$DIMBLK2
  1

  9
$DIMSTYLE
  2
STANDARD
  9
$DIMCLRD
 70
     0
  9
$DIMCLRE
 70
     0
  9
$DIMCLRT
 70
     0
  9
$DIMTFAC
 40
1.0
  9
$DIMGAP
 40
0.09
  9
$LUNITS
 70
     2
  9
$LUPREC
 70
     4
  9
$SKETCHINC
 40
0.1
  9
$FILLETRAD
 40
0.0
  9
$AUNITS
 70
     0
  9
$AUPREC
 70
     0
  9
$MENU
  1
.
  9
$ELEVATION
 40
0.0
  9
$PELEVATION
 40
0.0
  9
$THICKNESS
 40
0.0
  9
$LIMCHECK
 70
     0
  9
$BLIPMODE
 70
     0
  9
$CHAMFERA
 40
0.0
  9
$CHAMFERB
 40
0.0
  9
$SKPOLY
 70
     0
  9
$TDCREATE
 40
2458060.468368056230247
  9
$TDUPDATE
 40
2459463.3831597231328487
  9
$TDINDWG
 40
0.4266621528
  9
$TDUSRTIMER
 40
0.4266621528
  9
$USRTIMER
 70
     1
  9
$ANGBASE
 50
0.0
  9
$ANGDIR
 70
     0
  9
$PDMODE
 70
     0
  9
$PDSIZE
 40
0.3125
  9
$PLINEWID
 40
0.0
  9
$COORDS
 70
     1
  9
$SPLFRAME
 70
     0
  9
$SPLINETYPE
 70
     6
  9
$SPLINESEGS
 70
     8
  9
$ATTDIA
 70
     1
  9
$ATTREQ
 70
     1
  9
$HANDLING
 70
     1
  9
$HANDSEED
  5
CA1B
  9
$SURFTAB1
 70
     6
  9
$SURFTAB2
 70
     6
  9
$SURFTYPE
 70
     6
  9
$SURFU
 70
     6
  9
$SURFV
 70
     6
  9
$UCSNAME
  2

  9
$UCSORG
 10
0.0
 20
0.0
 30
0.0
  9
$UCSXDIR
 10
1.0
 20
0.0
 30
0.0
  9
$UCSYDIR
 10
0.0
 20
1.0
 30
0.0
  9
$PUCSNAME
  2

  9
$PUCSORG
 10
0.0
 20
0.0
 30
0.0
  9
$PUCSXDIR
 10
1.0
 20
0.0
 30
0.0
  9
$PUCSYDIR
 10
0.0
 20
1.0
 30
0.0
  9
$USERI1
 70
     0
  9
$USERI2
 70
     0
  9
$USERI3
 70
     0
  9
$USERI4
 70
     0
  9
$USERI5
 70
     0
  9
$USERR1
 40
0.0
  9
$USERR2
 40
0.0
  9
$USERR3
 40
0.0
  9
$USERR4
 40
0.0
  9
$USERR5
 40
0.0
  9
$WORLDVIEW
 70
     1
  9
$SHADEDGE
 70
     3
  9
$SHADEDIF
 70
    70
  9
$TILEMODE
 70
     1
  9
$MAXACTVP
 70
    64
  9
$PLIMCHECK
 70
     0
  9
$PEXTMIN
 10
1.0000000000000000E+20
 20
1.0000000000000000E+20
 30
1.0000000000000000E+20
  9
$PEXTMAX
 10
-1.0000000000000000E+20
 20
-1.0000000000000000E+20
 30
-1.0000000000000000E+20
  9
$PLIMMIN
 10
0.0
 20
0.0
  9
$PLIMMAX
 10
12.0
 20
9.0
  9
$UNITMODE
 70
     0
  9
$VISRETAIN
 70
     1
  9
$PLINEGEN
 70
     0
  9
$PSLTSCALE
 70
     1
  0
ENDSEC
  0
SECTION
  2
TABLES
  0
TABLE
  2
VPORT
 70
     1
  0
VPORT
  2
*ACTIVE
 70
     0
 10
0.0
 20
0.0
 11
1.0
 21
1.0
 12
423.6433479086608145
 22
61.8079552711269713
 13
0.0
 23
0.0
 14
1.0
 24
1.0
 15
0.0
 25
0.0
 16
0.0
 26
0.0
 36
17.1152628219792007
 17
3803.5440673828129547
 27
125.9952621967499056
 37
0.0
 40
12.5420466038532599
 41
2.7718023255813948
 42
50.0
 43
0.0
 44
0.0
 50
0.0
 51
0.0
 71
     0
 72
   100
 73
     1
 74
     1
 75
     0
 76
     0
 77
     0
 78
     0
  0
ENDTAB
  0
TABLE
  2
LTYPE
 70
     2
  0
LTYPE
  2
CONTINUOUS
 70
     0
  3
Solid line
 72
    65
 73
     0
 40
0.0
  0
LTYPE
  2
PHANTOM2
 70
     0
  3
___ _ _ ___ _ _ ___ _ _ ___ _ _
 72
    65
 73
     6
 40
1.25
 49
0.625
 49
-0.125
 49
0.125
 49
-0.125
 49
0.125
 49
-0.125
  0
ENDTAB
  0
TABLE
  2
LAYER
 70
     2
  0
LAYER
  2
0
 70
     0
 62
   255
  6
CONTINUOUS
  0
LAYER
  2
DEFPOINTS
 70
     0
 62
     7
  6
CONTINUOUS
  0
ENDTAB
  0
TABLE
  2
STYLE
 70
     1
  0
STYLE
  2
STANDARD
 70
     0
 40
0.0
 41
0.8
 50
0.0
 71
     0
 42
0.2
  3
txt
  4

  0
ENDTAB
  0
TABLE
  2
VIEW
 70
     0
  0
ENDTAB
  0
TABLE
  2
UCS
 70
     0
  0
ENDTAB
  0
TABLE
  2
APPID
 70
     9
  0
APPID
  2
ACAD
 70
     0
  0
APPID
  2
ACAD_MLEADERVER
 70
     0
  0
APPID
  2
ACAD_EXEMPT_FROM_CAD_STANDARDS
 70
     0
  0
APPID
  2
ACAD_NAV_VCDISPLAY
 70
     0
  0
APPID
  2
ACAECLAYERSTANDARD
 70
     0
  0
APPID
  2
ACCMTRANSPARENCY
 70
     0
  0
APPID
  2
ACAD_DSTYLE_DIMJAG
 70
     0
  0
APPID
  2
ACAD_DSTYLE_DIMTALN
 70
     0
  0
APPID
  2
ACDBATTR
 70
     0
  0
ENDTAB
  0
TABLE
  2
DIMSTYLE
 70
     1
  0
DIMSTYLE
  2
STANDARD
 70
     0
  3

  4

  5

  6

  7

 40
1.0
 41
0.1875
 42
0.0625
 43
0.38
 44
0.125
 45
0.0
 46
0.0
 47
0.01
 48
0.01
140
0.15625
141
0.09
142
0.0
143
25.3999999999999986
144
1.0
145
0.0
146
1.0
147
0.09
 71
     1
 72
     0
 73
     1
 74
     1
 75
     0
 76
     0
 77
     0
 78
     4
170
     0
171
     2
172
     0
173
     0
174
     0
175
     0
176
     0
177
     0
178
     0
  0
ENDTAB
  0
ENDSEC
  0
SECTION
  2
BLOCKS
  0
BLOCK
  8
0
  2
$MODEL_SPACE
 70
     0
 10
0.0
 20
0.0
 30
0.0
  3
$MODEL_SPACE
  1

  0
ENDBLK
  5
21
  8
0
  0
BLOCK
 67
     1
  8
0
  2
$PAPER_SPACE
 70
     0
 10
0.0
 20
0.0
 30
0.0
  3
$PAPER_SPACE
  1

  0
ENDBLK
  5
1D
 67
     1
  8
0
  0
BLOCK
  8
0
  2
_FILLED
 70
     0
 10
0.0
 20
0.0
 30
0.0
  3
_FILLED
  1

  0
SOLID
  5
AD0B
  8
0
  6
BYBLOCK
 62
     0
 10
0.0
 20
0.0
 30
0.0
 11
-1.0
 21
0.1666666667
 31
0.0
 12
-1.0
 22
-0.1666666667
 32
0.0
 13
-1.0
 23
-0.1666666667
 33
0.0
  0
ENDBLK
  5
AD0C
  8
0
  6
BYBLOCK
 62
     0
  0
ENDSEC
  0
SECTION
  2
ENTITIES
  0
ATTDEF
  5
C32B
  8
DEFPOINTS
 10
4227.2834756083730099
 20
181.6020278650331079
 30
0.0
 40
0.001
  1
K-EX27104T-9
  3

  2
MODELNUMBER
 70
     0
1001
ACDBATTR
1070
     0
1070
     1
  0
ATTDEF
  5
C32C
  8
DEFPOINTS
 10
4227.2834756083730099
 20
181.6003611983664996
 30
0.0
 40
0.001
  1

  3

  2
TRADENAME
 70
     0
1001
ACDBATTR
1070
     0
1070
     1
  0
ATTDEF
  5
C32D
  8
DEFPOINTS
 10
4227.2834756083730099
 20
181.598694531699806
 30
0.0
 40
0.001
  1
DECH-MOUNT BATH FAUCET TRIM
  3

  2
PRODUCT
 70
     0
1001
ACDBATTR
1070
     0
1070
     1
  0
LINE
  5
C7CF
  8
0
 10
4226.0013433347821774
 20
181.5979821847259075
 30
0.0
 11
4227.2828862748547181
 21
181.5979821847259075
 31
0.0
  0
LINE
  5
C7D0
  8
0
 10
4225.9136903160051588
 20
181.8080447227258958
 30
0.0
 11
4227.2828862748547181
 21
181.8080447227258958
 31
0.0
  0
ARC
  5
C7D1
  8
0
 10
4226.0014778738295718
 20
181.6257308569842053
 30
0.0
 40
0.0277489917836417
 50
203.2581521284307939
 51
269.7250415435735249
  0
LINE
  5
C7D2
  8
0
 10
4225.9759839028620263
 20
181.6147734855258875
 30
0.0
 11
4225.9064246564948917
 21
181.7766135230019131
 31
0.0
  0
ARC
  5
C7D3
  8
0
 10
4225.9332415014823709
 20
181.7869665879941863
 30
0.0
 40
0.0287495458420227
 50
132.7133998263884962
 51
179.9902625744059037
  0
ARC
  5
C7D4
  8
0
 10
4224.6527396976753153
 20
183.2805886812797951
 30
0.0
 40
1.938652142766103
 50
310.5756861770983051
 51
334.6776737129425214
  0
ARC
  5
C7D5
  8
0
 10
4224.1012461169539165
 20
183.5415414677416948
 30
0.0
 40
2.54876813693377
 50
334.6776737129425214
 51
356.6135324205425263
  0
ARC
  5
C7D6
  8
0
 10
4173.8078162022466131
 20
185.472665698120295
 30
0.0
 40
52.8787381599497692
 50
357.7438494741771819
 51
358.3260525052818934
  0
LINE
  5
C7D7
  8
0
 10
4226.6639881538158079
 20
193.5543126534259102
 30
0.0
 11
4226.6639881538158079
 21
183.927985791306611
 31
0.0
  0
ARC
  5
C7D8
  8
0
 10
4227.2842600400636002
 20
193.973976444902803
 30
0.0
 40
0.0402281629415987
 50
91.956990900114576
 51
106.4411133223983938
  0
ARC
  5
C7D9
  8
0
 10
4227.5905051374838877
 20
192.942755309288998
 30
0.0
 40
1.1159618502197859
 50
106.5364462757628985
 51
145.463497128949399
  0
ARC
  5
C7DA
  8
0
 10
4226.7078244499916764
 20
193.5511054466535086
 30
0.0
 40
0.0439534644557437
 50
146.4000892339282132
 51
175.8155091232669918
  0
LINE
  5
C7DB
  8
0
 10
4227.2828862767073588
 20
189.4717933847259133
 30
0.0
 11
4226.6919020986988471
 21
189.4717933847259133
 31
0.0
  0
LINE
  5
C7DC
  8
0
 10
4227.0024785929726931
 20
189.4036831485258858
 30
0.0
 11
4227.2828862748547181
 21
189.4036831485258858
 31
0.0
  0
ARC
  5
C7DD
  8
0
 10
4227.1490891236617244
 20
189.5350430731259053
 30
0.0
 40
0.1968503937000171
 50
198.7420708678353947
 51
221.8598285100991916
  0
ARC
  5
C7DE
  8
0
 10
4226.6915521210248698
 20
189.4993534330598095
 30
0.0
 40
0.0275622703807089
 50
180.0020671225805131
 51
270.7275446546585158
  0
LINE
  5
C7DF
  8
0
 10
4226.8941672298869889
 20
183.734773535509504
 30
0.0
 11
4226.8941672298869889
 21
189.4717933847259133
 31
0.0
  0
ARC
  5
C7E0
  8
0
 10
4226.4920090959049048
 20
181.6226029723449074
 30
0.0
 40
0.0256748992536332
 50
197.7551771166438073
 51
253.5250637670795868
  0
LINE
  5
C7E1
  8
0
 10
4226.4675571370617035
 20
181.6147734027258878
 30
0.0
 11
4226.4247927658616391
 21
181.7767690143259074
 31
0.0
  0
ARC
  5
C7E2
  8
0
 10
4226.467809694285279
 20
181.7864350058011098
 30
0.0
 40
0.0440895398272428
 50
150.6388843058865064
 51
192.6641331005164091
  0
ARC
  5
C7E3
  8
0
 10
4224.6112567846539605
 20
183.057958976130891
 30
0.0
 40
2.2063206763922238
 50
325.4926724190933101
 51
341.1663936019891139
  0
ARC
  5
C7E4
  8
0
 10
4223.5483754534307081
 20
183.4217134711342112
 30
0.0
 40
3.329723171987883
 50
341.1464535343218927
 51
355.385028951404081
  0
ARC
  5
C7E5
  8
0
 10
4217.8656897059481707
 20
183.8611454785973081
 30
0.0
 40
9.0293618970698812
 50
355.5069768985878227
 51
359.1980811633900998
  0
LINE
  5
C7E6
  8
0
 10
4227.2828862767073588
 20
189.4717933847259133
 30
0.0
 11
4227.2828862767073588
 21
194.0141811444775897
 31
0.0
  0
ARC
  5
C7E8
  8
0
 10
4225.946101488459135
 20
181.789376150532604
 30
0.0
 40
0.0416789593949267
 50
183.3075290697545086
 51
197.8311389363122998
  0
LINE
  5
C7E9
  8
0
 10
4228.5644292149281682
 20
181.5979821847259075
 30
0.0
 11
4227.2828862748547181
 21
181.5979821847259075
 31
0.0
  0
LINE
  5
C7EA
  8
0
 10
4228.6520822337060963
 20
181.8080447227258958
 30
0.0
 11
4227.2828862748547181
 21
181.8080447227258958
 31
0.0
  0
ARC
  5
C7EB
  8
0
 10
4228.5642946758798644
 20
181.6257308569842053
 30
0.0
 40
0.0277489917836417
 50
270.2749584564264751
 51
336.7418478715691776
  0
LINE
  5
C7EC
  8
0
 10
4228.5897886468492288
 20
181.6147734855258875
 30
0.0
 11
4228.659347893215454
 21
181.7766135230019131
 31
0.0
  0
ARC
  5
C7ED
  8
0
 10
4228.6325459189511093
 20
181.7869730997466888
 30
0.0
 40
0.0287346747503559
 50
359.9967582988080039
 51
47.2995793054356781
  0
ARC
  5
C7EE
  8
0
 10
4229.9130328520359399
 20
183.2805886812797951
 30
0.0
 40
1.938652142766103
 50
205.322326287057507
 51
229.4243138229016949
  0
ARC
  5
C7EF
  8
0
 10
4230.4645264327573386
 20
183.5415414677416948
 30
0.0
 40
2.54876813693377
 50
183.3864675794575021
 51
205.322326287057507
  0
ARC
  5
C7F0
  8
0
 10
4280.7579563474637325
 20
185.472665698120295
 30
0.0
 40
52.8787381599497692
 50
181.6739474947181066
 51
182.2561505258227044
  0
LINE
  5
C7F1
  8
0
 10
4227.9017843958954472
 20
193.5543126534259102
 30
0.0
 11
4227.9017843958954472
 21
183.927985791306611
 31
0.0
  0
ARC
  5
C7F2
  8
0
 10
4227.2815125079623613
 20
193.9739764376354003
 30
0.0
 40
0.0402281703888322
 50
73.5588873051856922
 51
88.0430017820537643
  0
ARC
  5
C7F3
  8
0
 10
4226.9752674122273675
 20
192.942755309288998
 30
0.0
 40
1.1159618502197859
 50
34.5365028710505797
 51
73.4635537242370447
  0
ARC
  5
C7F4
  8
0
 10
4227.8579480997177598
 20
193.5511054466535086
 30
0.0
 40
0.0439534644557437
 50
4.1844908767329656
 51
33.5999107660717726
  0
LINE
  5
C7F5
  8
0
 10
4227.2828862767073588
 20
189.4717933847259133
 30
0.0
 11
4227.873870451012408
 21
189.4717933847259133
 31
0.0
  0
LINE
  5
C7F6
  8
0
 10
4227.5632939567376525
 20
189.4036831485258858
 30
0.0
 11
4227.2828862748547181
 21
189.4036831485258858
 31
0.0
  0
ARC
  5
C7F7
  8
0
 10
4227.4166834260477117
 20
189.5350430731259053
 30
0.0
 40
0.1968503937000171
 50
318.1401714899008084
 51
341.2579291321645769
  0
ARC
  5
C7F8
  8
0
 10
4227.8742204286863853
 20
189.4993534330598095
 30
0.0
 40
0.0275622703807089
 50
269.2724553453415979
 51
359.9979328774194869
  0
LINE
  5
C7F9
  8
0
 10
4227.6716053198242662
 20
183.734773535509504
 30
0.0
 11
4227.6716053198242662
 21
189.4717933847259133
 31
0.0
  0
ARC
  5
C7FA
  8
0
 10
4228.0737634538063503
 20
181.6226029723449074
 30
0.0
 40
0.0256748992536332
 50
286.4749362329204132
 51
342.2448228833562212
  0
LINE
  5
C7FB
  8
0
 10
4228.0982154126477326
 20
181.6147734027258878
 30
0.0
 11
4228.1409797838477971
 21
181.7767690143259074
 31
0.0
  0
ARC
  5
C7FC
  8
0
 10
4228.0979628554259762
 20
181.7864350058011098
 30
0.0
 40
0.0440895398272428
 50
347.3358668994836194
 51
29.3611156941134688
  0
ARC
  5
C7FD
  8
0
 10
4229.9545157650572946
 20
183.057958976130891
 30
0.0
 40
2.2063206763922238
 50
198.8336063980108861
 51
214.5073275809068036
  0
ARC
  5
C7FE
  8
0
 10
4231.017397096278728
 20
183.4217134711342112
 30
0.0
 40
3.329723171987883
 50
184.6149710485958906
 51
198.8535464656781073
  0
ARC
  5
C7FF
  8
0
 10
4236.7000828437621749
 20
183.8611454785973081
 30
0.0
 40
9.0293618970698812
 50
180.8019188366099002
 51
184.4930231014122057
  0
ARC
  5
C800
  8
0
 10
4228.6183985548987039
 20
181.7896135887656897
 30
0.0
 40
0.0429633566942996
 50
342.3870715643411131
 51
356.4742604346270127
  0
LINE
  5
C801
  8
0
 10
4222.5831516805619685
 20
181.5979817906612084
 30
0.0
 11
4220.1716121058134377
 21
181.5979817035648978
 31
0.0
  0
LINE
  5
C802
  8
0
 10
4222.266550266748709
 20
181.9616312162258964
 30
0.0
 11
4220.4894362528593774
 21
181.9616312162258964
 31
0.0
  0
LINE
  5
C803
  8
0
 10
4222.6080824941027458
 20
181.9222827906611997
 30
0.0
 11
4220.1455083557120815
 21
181.9222827188110898
 31
0.0
  0
ARC
  5
C804
  8
0
 10
4222.6080805289402633
 20
181.8829100060087001
 30
0.0
 40
0.0393727847015406
 50
30.3726253780410893
 51
89.9971402699024026
  0
LINE
  5
C805
  8
0
 10
4222.6420496092778194
 20
181.902817737072894
 30
0.0
 11
4222.6722410861575554
 21
181.8513012332394112
 31
0.0
  0
ARC
  5
C806
  8
0
 10
4222.6379520500768194
 20
181.8312614154523033
 30
0.0
 40
0.0397156429176301
 50
0.1940505438190038
 51
30.30364069368839
  0
LINE
  5
C807
  8
0
 10
4222.6776674652146539
 20
181.8313959249647951
 30
0.0
 11
4222.6776674652146539
 21
181.7370041555869022
 31
0.0
  0
ARC
  5
C808
  8
0
 10
4222.6376158805833256
 20
181.7372280050221889
 30
0.0
 40
0.0400522101766242
 50
329.9718275425580032
 51
359.679775607835893
  0
ARC
  5
C809
  8
0
 10
4204.2962649482933557
 20
192.3842517742012035
 30
0.0
 40
21.2476986195096416
 50
329.5455036630650056
 51
329.865340786436775
  0
ARC
  5
C80A
  8
0
 10
4222.5831094288287204
 20
181.6320304050956054
 30
0.0
 40
0.0340486406499854
 50
269.9289003442664807
 51
329.5455036630622772
  0
LINE
  5
C80B
  8
0
 10
4222.6722402271316241
 20
181.8513027000066984
 30
0.0
 11
4220.0828998575880178
 21
181.8513026281567022
 31
0.0
  0
LINE
  5
C80C
  8
0
 10
4222.6722923856414127
 20
181.717185061773904
 30
0.0
 11
4220.0824564798822394
 21
181.7171849900036875
 31
0.0
  0
LINE
  5
C80D
  8
0
 10
4222.425177067819277
 20
183.0238764257258879
 30
0.0
 11
4220.3295717452001554
 21
183.0238764257258879
 31
0.0
  0
LINE
  5
C80E
  8
0
 10
4222.1676145854071365
 20
183.1165192162258961
 30
0.0
 11
4220.587435524459579
 21
183.1165192162258961
 31
0.0
  0
ARC
  5
C80F
  8
0
 10
4222.1673774864502775
 20
183.0774144891466051
 30
0.0
 40
0.0391054458594171
 50
51.8884779146057014
 51
89.6526096955006722
  0
LINE
  5
C810
  8
0
 10
4222.1915131374598786
 20
183.1081830810259135
 30
0.0
 11
4222.2897503623617013
 21
183.03270161919869
 31
0.0
  0
ARC
  5
C811
  8
0
 10
4222.3149105316042551
 20
183.0641320507556031
 30
0.0
 40
0.0402604786877613
 50
231.3226069240400022
 51
269.110313269691801
  0
ARC
  5
C812
  8
0
 10
4222.4239511640844285
 20
182.9844182994879134
 30
0.0
 40
0.0394771651234613
 50
0.0054186533190446
 51
88.2204800256815673
  0
ARC
  5
C813
  8
0
 10
4212.4245168273118907
 20
183.3981965722855136
 30
0.0
 40
10.0474351706650609
 50
352.2841692555358009
 51
357.639771674667486
  0
ARC
  5
C814
  8
0
 10
4222.341676330320297
 20
182.0545523641416992
 30
0.0
 40
0.0396665699364531
 50
304.9161703441558871
 51
352.2860934070960752
  0
LINE
  5
C815
  8
0
 10
4222.3643805752590197
 20
182.022026158825895
 30
0.0
 11
4222.2878377048100447
 21
181.9685969911078871
 31
0.0
  0
ARC
  5
C816
  8
0
 10
4222.2656557750997308
 20
182.0003749252342118
 30
0.0
 40
0.0387540333776759
 50
271.322575834451527
 51
304.9161703441558871
  0
ARC
  5
C817
  8
0
 10
4221.8621857435309721
 20
183.0821588090782086
 30
0.0
 40
0.0352049558591903
 50
47.7337784681533108
 51
77.4246485237065372
  0
LINE
  5
C818
  8
0
 10
4221.8858637642588292
 20
183.1082114529259002
 30
0.0
 11
4221.9466662740032916
 21
183.0321126437488033
 31
0.0
  0
ARC
  5
C819
  8
0
 10
4221.9692090523039951
 20
183.0563999316036075
 30
0.0
 40
0.033136825509302
 50
227.1333909248072018
 51
258.9592710066680183
  0
ARC
  5
C81A
  8
0
 10
4222.0267290894116741
 20
182.9939314570347051
 30
0.0
 40
0.0302474843140345
 50
40.9069458502230674
 51
81.8898379783629053
  0
ARC
  5
C81B
  8
0
 10
4222.0169973824449698
 20
182.9854995228205894
 30
0.0
 40
0.0431239603492934
 50
356.9181411857056787
 51
40.9069458502230674
  0
ARC
  5
C81C
  8
0
 10
4204.5862545873042109
 20
183.4592607192855951
 30
0.0
 40
17.4802886588972903
 50
355.3730388988018944
 51
358.4393433774662867
  0
ARC
  5
C81D
  8
0
 10
4221.9715282532597485
 20
182.0512258993404089
 30
0.0
 40
0.0381032161702672
 50
309.8511262075076047
 51
356.8942410905415272
  0
LINE
  5
C81E
  8
0
 10
4221.9959446036600639
 20
182.0219736017259038
 30
0.0
 11
4221.9481212294267607
 21
181.9684621225987087
 31
0.0
  0
ARC
  5
C81F
  8
0
 10
4221.9285436802856566
 20
181.9924973297044062
 30
0.0
 40
0.0309995421096185
 50
275.3179029060041785
 51
309.1640669237189059
  0
ARC
  5
C820
  8
0
 10
4222.137323525863394
 20
181.8870376427337021
 30
0.0
 40
0.0370971681873538
 50
25.1763713544076992
 51
71.8211219216560011
  0
LINE
  5
C821
  8
0
 10
4222.1708965582593009
 20
181.9028190046259112
 30
0.0
 11
4222.189675373800128
 21
181.8513026866162932
 31
0.0
  0
ARC
  5
C822
  8
0
 10
4222.1593916075726156
 20
181.8360871631421958
 30
0.0
 40
0.0338912769235184
 50
351.8535821014634735
 51
26.6764026260333686
  0
LINE
  5
C823
  8
0
 10
4222.1929408938030974
 20
181.8312846591067
 30
0.0
 11
4222.1940899650599022
 21
181.7370040963259044
 31
0.0
  0
ARC
  5
C824
  8
0
 10
4222.1469055318239043
 20
181.7370453637288961
 30
0.0
 40
0.0471844512818333
 50
335.1080703074920848
 51
359.9498892482059773
  0
LINE
  5
C825
  8
0
 10
4222.1897067037452871
 20
181.717185048400296
 30
0.0
 11
4222.1535719115599932
 21
181.617533564025905
 31
0.0
  0
ARC
  5
C826
  8
0
 10
4222.1175082566542187
 20
181.6348940759056916
 30
0.0
 40
0.0400246746129551
 50
292.7444182656205953
 51
334.294521949171326
  0
ARC
  5
C827
  8
0
 10
4221.840257985453718
 20
181.9617208126757077
 30
0.0
 40
0.0396553012370733
 50
180.1294531283481035
 51
263.9939570966183169
  0
ARC
  5
C828
  8
0
 10
4220.1467192111067561
 20
181.8828585810171035
 30
0.0
 40
0.039442728247313
 50
91.7592040047447597
 51
149.6003304134708003
  0
LINE
  5
C829
  8
0
 10
4220.1126992037407035
 20
181.902817737072894
 30
0.0
 11
4220.082507726860058
 21
181.8513012332394112
 31
0.0
  0
ARC
  5
C82A
  8
0
 10
4220.1167960775110259
 20
181.8312617032636922
 30
0.0
 40
0.0397149059167277
 50
149.6962188316726952
 51
179.8063610763605027
  0
LINE
  5
C82B
  8
0
 10
4220.0770813984036067
 20
181.8313959249647951
 30
0.0
 11
4220.0770813984036067
 21
181.7370041555869022
 31
0.0
  0
ARC
  5
C82C
  8
0
 10
4220.1171322277859872
 20
181.7372277116614043
 30
0.0
 40
0.0400514533004086
 50
180.3198107685988134
 51
210.0283135658893059
  0
ARC
  5
C82D
  8
0
 10
4238.4584838647242577
 20
192.3842517742012035
 30
0.0
 40
21.2476986195096416
 50
210.1346592135631965
 51
210.4544963369349091
  0
ARC
  5
C82E
  8
0
 10
4220.1716395826251755
 20
181.6320306060310941
 30
0.0
 40
0.0340489135528013
 50
210.4546185633797108
 51
269.9537634146980736
  0
ARC
  5
C82F
  8
0
 10
4220.5873684178668555
 20
183.0774198084999114
 30
0.0
 40
0.0390994653137347
 50
89.9016629422256841
 51
128.1129793757789912
  0
LINE
  5
C830
  8
0
 10
4220.5632356755586443
 20
183.1081830810259135
 30
0.0
 11
4220.4649984506568217
 21
183.03270161919869
 31
0.0
  0
ARC
  5
C831
  8
0
 10
4220.4398382814151773
 20
183.0641320507556031
 30
0.0
 40
0.0402604786877613
 50
270.889686730308199
 51
308.6773930759600262
  0
ARC
  5
C832
  8
0
 10
4220.3307976098340077
 20
182.9844183880261141
 30
0.0
 40
0.0394770754136375
 50
91.7794672413401713
 51
179.9947098360619862
  0
ARC
  5
C833
  8
0
 10
4230.3302089728467763
 20
183.3981940003604052
 30
0.0
 40
10.0474120208531694
 50
182.3602190875488986
 51
187.7158338299248896
  0
ARC
  5
C834
  8
0
 10
4220.4130724826982259
 20
182.0545523641416992
 30
0.0
 40
0.0396665699364531
 50
187.7139065929038964
 51
235.0838296558441129
  0
LINE
  5
C835
  8
0
 10
4220.3903682377585938
 20
182.022026158825895
 30
0.0
 11
4220.4669111082075688
 21
181.9685969911078871
 31
0.0
  0
ARC
  5
C836
  8
0
 10
4220.4890532052168055
 20
182.0002950952134029
 30
0.0
 40
0.038665776390179
 50
235.0645208369217869
 51
270.5676175230416902
  0
ARC
  5
C837
  8
0
 10
4220.8925630694875508
 20
183.0821588090782086
 30
0.0
 40
0.0352049558591903
 50
102.575351476293406
 51
132.2662215318466963
  0
LINE
  5
C838
  8
0
 10
4220.8688850487587843
 20
183.1082114529259002
 30
0.0
 11
4220.8080825390152313
 21
183.0321126437488033
 31
0.0
  0
ARC
  5
C839
  8
0
 10
4220.7855397607136183
 20
183.0563999316036075
 30
0.0
 40
0.033136825509302
 50
281.0407289933319817
 51
312.8666090751927982
  0
ARC
  5
C83A
  8
0
 10
4220.7280197236068489
 20
182.9939314570347051
 30
0.0
 40
0.0302474843140345
 50
98.1101620216370947
 51
139.09305414977689
  0
ARC
  5
C83B
  8
0
 10
4220.7377514305753721
 20
182.9854995228205894
 30
0.0
 40
0.0431239603492934
 50
139.09305414977689
 51
183.0818588142942929
  0
ARC
  5
C83C
  8
0
 10
4238.168494225716131
 20
183.4592607192855951
 30
0.0
 40
17.4802886588972903
 50
181.5606566225335996
 51
184.6269611011979919
  0
ARC
  5
C83D
  8
0
 10
4220.783220559757865
 20
182.0512258993404089
 30
0.0
 40
0.0381032161702672
 50
183.1057589094585012
 51
230.1488737924923953
  0
LINE
  5
C83E
  8
0
 10
4220.7588042093593685
 20
182.0219736017259038
 30
0.0
 11
4220.8066275835908527
 21
181.9684621225987087
 31
0.0
  0
ARC
  5
C83F
  8
0
 10
4220.8262051327328663
 20
181.9924973297044062
 30
0.0
 40
0.0309995421096185
 50
230.8359330762810941
 51
264.6820970939958215
  0
ARC
  5
C840
  8
0
 10
4220.6174252871569479
 20
181.8870376427337021
 30
0.0
 40
0.0370971681873538
 50
108.1788780783439989
 51
154.8236286455922937
  0
LINE
  5
C841
  8
0
 10
4220.5838522547601315
 20
181.9028190046259112
 30
0.0
 11
4220.5650734392183949
 21
181.8513026866162932
 31
0.0
  0
ARC
  5
C842
  8
0
 10
4220.5953572054449978
 20
181.8360871631421958
 30
0.0
 40
0.0338912769235184
 50
153.3235973739666065
 51
188.1464178985364981
  0
LINE
  5
C843
  8
0
 10
4220.561807919216335
 20
181.8312846591067
 30
0.0
 11
4220.5606588479604397
 21
181.7370040963259044
 31
0.0
  0
ARC
  5
C844
  8
0
 10
4220.6078432811964376
 20
181.7370453637288961
 30
0.0
 40
0.0471844512818333
 50
180.0501107517939943
 51
204.8919296925078868
  0
LINE
  5
C845
  8
0
 10
4220.5650421092732358
 20
181.717185048400296
 30
0.0
 11
4220.6011769014594393
 21
181.617533564025905
 31
0.0
  0
ARC
  5
C846
  8
0
 10
4220.6372405563652137
 20
181.6348940759056916
 30
0.0
 40
0.0400246746129551
 50
205.7054780508287024
 51
247.255581734379291
  0
ARC
  5
C847
  8
0
 10
4220.9144908275657144
 20
181.9617208126757077
 30
0.0
 40
0.0396553012370733
 50
276.0060429033816263
 51
359.8705468716518112
  0
LINE
  5
C848
  8
0
 10
4222.3809072327276226
 20
182.0486895093133057
 30
0.0
 11
4220.3738415802909003
 21
182.0486895093133057
 31
0.0
  0
LINE
  5
C84A
  8
0
 10
4231.982620872852749
 20
181.5979817906612084
 30
0.0
 11
4234.3941604476021894
 21
181.5979817035648978
 31
0.0
  0
LINE
  5
C84B
  8
0
 10
4232.2992222866650991
 20
181.9616312162258964
 30
0.0
 11
4234.0763363005562496
 21
181.9616312162258964
 31
0.0
  0
LINE
  5
C84C
  8
0
 10
4231.9576900593128812
 20
181.9222827906611997
 30
0.0
 11
4234.4202641977017265
 21
181.9222827188110898
 31
0.0
  0
ARC
  5
C84D
  8
0
 10
4231.9576920244753637
 20
181.8829100060087001
 30
0.0
 40
0.0393727847015406
 50
90.0028597300976116
 51
149.6273746219588929
  0
LINE
  5
C84E
  8
0
 10
4231.9237229441368981
 20
181.902817737072894
 30
0.0
 11
4231.8935314672562527
 21
181.8513012332394112
 31
0.0
  0
ARC
  5
C84F
  8
0
 10
4231.9278205033369886
 20
181.8312614154523033
 30
0.0
 40
0.0397156429176301
 50
149.6963593063115923
 51
179.805949456180997
  0
LINE
  5
C850
  8
0
 10
4231.8881050882009731
 20
181.8313959249647951
 30
0.0
 11
4231.8881050882009731
 21
181.7370041555869022
 31
0.0
  0
ARC
  5
C851
  8
0
 10
4231.9281566728313919
 20
181.7372280050221889
 30
0.0
 40
0.0400522101766242
 50
180.320224392164107
 51
210.0281724574419968
  0
ARC
  5
C852
  8
0
 10
4250.2695076051213618
 20
192.3842517742012035
 30
0.0
 40
21.2476986195096416
 50
210.1346592135631965
 51
210.4544963369349091
  0
ARC
  5
C853
  8
0
 10
4231.9826631245850876
 20
181.6320304050956054
 30
0.0
 40
0.0340486406499854
 50
210.4544963369376944
 51
270.0710996557335193
  0
LINE
  5
C854
  8
0
 10
4231.8935323262830934
 20
181.8513027000066984
 30
0.0
 11
4234.4828726958266998
 21
181.8513026281567022
 31
0.0
  0
LINE
  5
C855
  8
0
 10
4231.8934801677751238
 20
181.717185061773904
 30
0.0
 11
4234.4833160735315687
 21
181.7171849900036875
 31
0.0
  0
LINE
  5
C856
  8
0
 10
4232.1405954855954406
 20
183.0238764257258879
 30
0.0
 11
4234.2362008082145621
 21
183.0238764257258879
 31
0.0
  0
LINE
  5
C857
  8
0
 10
4232.3981579680094001
 20
183.1165192162258961
 30
0.0
 11
4233.978337028956048
 21
183.1165192162258961
 31
0.0
  0
ARC
  5
C858
  8
0
 10
4232.39839506696444
 20
183.0774144891466051
 30
0.0
 40
0.0391054458594171
 50
90.3473903044993136
 51
128.1115220853943129
  0
LINE
  5
C859
  8
0
 10
4232.3742594159557484
 20
183.1081830810259135
 30
0.0
 11
4232.2760221910530163
 21
183.03270161919869
 31
0.0
  0
ARC
  5
C85A
  8
0
 10
4232.250862021809553
 20
183.0641320507556031
 30
0.0
 40
0.0402604786877613
 50
270.889686730308199
 51
308.6773930759600262
  0
ARC
  5
C85B
  8
0
 10
4232.1418213893311986
 20
182.9844182994879134
 30
0.0
 40
0.0394771651234613
 50
91.7795199743184469
 51
179.9945813466810023
  0
ARC
  5
C85C
  8
0
 10
4242.1412557261019174
 20
183.3981965722855136
 30
0.0
 40
10.0474351706650609
 50
182.3602283253324003
 51
187.7158307444641139
  0
ARC
  5
C85D
  8
0
 10
4232.2240962230953301
 20
182.0545523641416992
 30
0.0
 40
0.0396665699364531
 50
187.7139065929038964
 51
235.0838296558441129
  0
LINE
  5
C85E
  8
0
 10
4232.2013919781556979
 20
182.022026158825895
 30
0.0
 11
4232.2779348486037634
 21
181.9685969911078871
 31
0.0
  0
ARC
  5
C85F
  8
0
 10
4232.3001167783158962
 20
182.0003749252342118
 30
0.0
 40
0.0387540333776759
 50
235.0838296558441129
 51
268.677424165548473
  0
ARC
  5
C860
  8
0
 10
4232.7035868098837454
 20
183.0821588090782086
 30
0.0
 40
0.0352049558591903
 50
102.575351476293406
 51
132.2662215318466963
  0
LINE
  5
C861
  8
0
 10
4232.6799087891558884
 20
183.1082114529259002
 30
0.0
 11
4232.6191062794114259
 21
183.0321126437488033
 31
0.0
  0
ARC
  5
C862
  8
0
 10
4232.5965635011098129
 20
183.0563999316036075
 30
0.0
 40
0.033136825509302
 50
281.0407289933319817
 51
312.8666090751927982
  0
ARC
  5
C863
  8
0
 10
4232.539043464003953
 20
182.9939314570347051
 30
0.0
 40
0.0302474843140345
 50
98.1101620216370947
 51
139.09305414977689
  0
ARC
  5
C864
  8
0
 10
4232.5487751709706572
 20
182.9854995228205894
 30
0.0
 40
0.0431239603492934
 50
139.09305414977689
 51
183.0818588142942929
  0
ARC
  5
C865
  8
0
 10
4249.9795179661132352
 20
183.4592607192855951
 30
0.0
 40
17.4802886588972903
 50
181.5606566225335996
 51
184.6269611011979919
  0
ARC
  5
C866
  8
0
 10
4232.5942443001540596
 20
182.0512258993404089
 30
0.0
 40
0.0381032161702672
 50
183.1057589094585012
 51
230.1488737924923953
  0
LINE
  5
C867
  8
0
 10
4232.5698279497546537
 20
182.0219736017259038
 30
0.0
 11
4232.6176513239870474
 21
181.9684621225987087
 31
0.0
  0
ARC
  5
C868
  8
0
 10
4232.637228873129061
 20
181.9924973297044062
 30
0.0
 40
0.0309995421096185
 50
230.8359330762810941
 51
264.6820970939958215
  0
ARC
  5
C869
  8
0
 10
4232.4284490275531425
 20
181.8870376427337021
 30
0.0
 40
0.0370971681873538
 50
108.1788780783439989
 51
154.8236286455922937
  0
LINE
  5
C86A
  8
0
 10
4232.3948759951554166
 20
181.9028190046259112
 30
0.0
 11
4232.3760971796136801
 21
181.8513026866162932
 31
0.0
  0
ARC
  5
C86B
  8
0
 10
4232.4063809458421019
 20
181.8360871631421958
 30
0.0
 40
0.0338912769235184
 50
153.3235973739666065
 51
188.1464178985364981
  0
LINE
  5
C86C
  8
0
 10
4232.3728316596116201
 20
181.8312846591067
 30
0.0
 11
4232.3716825883557249
 21
181.7370040963259044
 31
0.0
  0
ARC
  5
C86D
  8
0
 10
4232.4188670215917227
 20
181.7370453637288961
 30
0.0
 40
0.0471844512818333
 50
180.0501107517939943
 51
204.8919296925078868
  0
LINE
  5
C86E
  8
0
 10
4232.37606584967034
 20
181.717185048400296
 30
0.0
 11
4232.4122006418556339
 21
181.617533564025905
 31
0.0
  0
ARC
  5
C86F
  8
0
 10
4232.4482642967623178
 20
181.6348940759056916
 30
0.0
 40
0.0400246746129551
 50
205.7054780508287024
 51
247.255581734379291
  0
ARC
  5
C870
  8
0
 10
4232.7255145679619091
 20
181.9617208126757077
 30
0.0
 40
0.0396553012370733
 50
276.0060429033816263
 51
359.8705468716518112
  0
ARC
  5
C871
  8
0
 10
4234.4190533423088709
 20
181.8828585810171035
 30
0.0
 40
0.039442728247313
 50
30.3996695865291606
 51
88.2407959952552545
  0
LINE
  5
C872
  8
0
 10
4234.453073349674014
 20
181.902817737072894
 30
0.0
 11
4234.48326482655375
 21
181.8513012332394112
 31
0.0
  0
ARC
  5
C873
  8
0
 10
4234.4489764759046011
 20
181.8312617032636922
 30
0.0
 40
0.0397149059167277
 50
0.1936389236410765
 51
30.3037811683273191
  0
LINE
  5
C874
  8
0
 10
4234.4886911550102013
 20
181.8313959249647951
 30
0.0
 11
4234.4886911550102013
 21
181.7370041555869022
 31
0.0
  0
ARC
  5
C875
  8
0
 10
4234.4486403256287304
 20
181.7372277116614043
 30
0.0
 40
0.0400514533004086
 50
329.9716864341107225
 51
359.6801892314010729
  0
ARC
  5
C876
  8
0
 10
4216.1072886886886408
 20
192.3842517742012035
 30
0.0
 40
21.2476986195096416
 50
329.5455036630650056
 51
329.865340786436775
  0
ARC
  5
C877
  8
0
 10
4234.3941329707904515
 20
181.6320306060310941
 30
0.0
 40
0.0340489135528013
 50
270.0462365853019264
 51
329.5453814366202892
  0
ARC
  5
C878
  8
0
 10
4233.9784041355469526
 20
183.0774198084999114
 30
0.0
 40
0.0390994653137347
 50
51.8870206242210088
 51
90.0983370577743159
  0
LINE
  5
C879
  8
0
 10
4234.0025368778560733
 20
183.1081830810259135
 30
0.0
 11
4234.1007741027578959
 21
183.03270161919869
 31
0.0
  0
ARC
  5
C87A
  8
0
 10
4234.1259342720004497
 20
183.0641320507556031
 30
0.0
 40
0.0402604786877613
 50
231.3226069240400022
 51
269.110313269691801
  0
ARC
  5
C87B
  8
0
 10
4234.2349749435807098
 20
182.9844183880261141
 30
0.0
 40
0.0394770754136375
 50
0.0052901639379895
 51
88.2205327586598145
  0
ARC
  5
C87C
  8
0
 10
4224.2355635805688507
 20
183.3981940003604052
 30
0.0
 40
10.0474120208531694
 50
352.2841661700750251
 51
357.6397809124509877
  0
ARC
  5
C87D
  8
0
 10
4234.1527000707155821
 20
182.0545523641416992
 30
0.0
 40
0.0396665699364531
 50
304.9161703441558871
 51
352.2860934070960752
  0
LINE
  5
C87E
  8
0
 10
4234.1754043156561238
 20
182.022026158825895
 30
0.0
 11
4234.0988614452071488
 21
181.9685969911078871
 31
0.0
  0
ARC
  5
C87F
  8
0
 10
4234.0767193481970025
 20
182.0002950952134029
 30
0.0
 40
0.038665776390179
 50
269.4323824769583098
 51
304.9354791630781847
  0
ARC
  5
C880
  8
0
 10
4233.6732094839280762
 20
183.0821588090782086
 30
0.0
 40
0.0352049558591903
 50
47.7337784681533108
 51
77.4246485237065372
  0
LINE
  5
C881
  8
0
 10
4233.6968875046550238
 20
183.1082114529259002
 30
0.0
 11
4233.7576900144003957
 21
183.0321126437488033
 31
0.0
  0
ARC
  5
C882
  8
0
 10
4233.7802327927001897
 20
183.0563999316036075
 30
0.0
 40
0.033136825509302
 50
227.1333909248072018
 51
258.9592710066680183
  0
ARC
  5
C883
  8
0
 10
4233.8377528298078687
 20
182.9939314570347051
 30
0.0
 40
0.0302474843140345
 50
40.9069458502230674
 51
81.8898379783629053
  0
ARC
  5
C884
  8
0
 10
4233.828021122840255
 20
182.9854995228205894
 30
0.0
 40
0.0431239603492934
 50
356.9181411857056787
 51
40.9069458502230674
  0
ARC
  5
C885
  8
0
 10
4216.3972783277004055
 20
183.4592607192855951
 30
0.0
 40
17.4802886588972903
 50
355.3730388988018944
 51
358.4393433774662867
  0
ARC
  5
C886
  8
0
 10
4233.7825519936568526
 20
182.0512258993404089
 30
0.0
 40
0.0381032161702672
 50
309.8511262075076047
 51
356.8942410905415272
  0
LINE
  5
C887
  8
0
 10
4233.806968344055349
 20
182.0219736017259038
 30
0.0
 11
4233.7591449698229553
 21
181.9684621225987087
 31
0.0
  0
ARC
  5
C888
  8
0
 10
4233.7395674206827607
 20
181.9924973297044062
 30
0.0
 40
0.0309995421096185
 50
275.3179029060041785
 51
309.1640669237189059
  0
ARC
  5
C889
  8
0
 10
4233.9483472662586792
 20
181.8870376427337021
 30
0.0
 40
0.0370971681873538
 50
25.1763713544076992
 51
71.8211219216560011
  0
LINE
  5
C88A
  8
0
 10
4233.9819202986545861
 20
181.9028190046259112
 30
0.0
 11
4234.0006991141963226
 21
181.8513026866162932
 31
0.0
  0
ARC
  5
C88B
  8
0
 10
4233.9704153479697197
 20
181.8360871631421958
 30
0.0
 40
0.0338912769235184
 50
351.8535821014634735
 51
26.6764026260333686
  0
LINE
  5
C88C
  8
0
 10
4234.0039646341983826
 20
181.8312846591067
 30
0.0
 11
4234.0051137054551873
 21
181.7370040963259044
 31
0.0
  0
ARC
  5
C88D
  8
0
 10
4233.9579292722200989
 20
181.7370453637288961
 30
0.0
 40
0.0471844512818333
 50
335.1080703074920848
 51
359.9498892482059773
  0
LINE
  5
C88E
  8
0
 10
4234.0007304441405722
 20
181.717185048400296
 30
0.0
 11
4233.9645956519552783
 21
181.617533564025905
 31
0.0
  0
ARC
  5
C88F
  8
0
 10
4233.9285319970504133
 20
181.6348940759056916
 30
0.0
 40
0.0400246746129551
 50
292.7444182656205953
 51
334.294521949171326
  0
ARC
  5
C890
  8
0
 10
4233.6512817258499126
 20
181.9617208126757077
 30
0.0
 40
0.0396553012370733
 50
180.1294531283481035
 51
263.9939570966183169
  0
LINE
  5
C891
  8
0
 10
4232.1848653206870949
 20
182.0486895093133057
 30
0.0
 11
4234.1919309731238172
 21
182.0486895093133057
 31
0.0
  0
ENDSEC
  0
EOF
