  0
SECTION
  2
HEADER
  9
$ACADVER
  1
AC1009
  9
$INSBASE
 10
4110.2654610818999572
 20
148.5578433980770967
 30
0.0
  9
$EXTMIN
 10
4106.6052069406787268
 20
144.3912400909771065
 30
0.0
  9
$EXTMAX
 10
4113.9257152231202781
 20
148.5629837892728062
 30
0.0
  9
$LIMMIN
 10
0.0
 20
0.0
  9
$LIMMAX
 10
11.6929133858000007
 20
8.2677165353999982
  9
$ORTHOMODE
 70
     0
  9
$REGENMODE
 70
     1
  9
$FILLMODE
 70
     1
  9
$QTEXTMODE
 70
     0
  9
$MIRRTEXT
 70
     0
  9
$DRAGMODE
 70
     2
  9
$LTSCALE
 40
0.6431102362
  9
$OSMODE
 70
  4095
  9
$ATTMODE
 70
     1
  9
$TEXTSIZE
 40
0.2
  9
$TRACEWID
 40
0.05
  9
$TEXTSTYLE
  7
STANDARD
  9
$CLAYER
  8
0
  9
$CELTYPE
  6
BYLAYER
  9
$CECOLOR
 62
   256
  9
$DIMSCALE
 40
1.0
  9
$DIMASZ
 40
0.1875
  9
$DIMEXO
 40
0.0625
  9
$DIMDLI
 40
0.4443307087
  9
$DIMRND
 40
0.0
  9
$DIMDLE
 40
0.0
  9
$DIMEXE
 40
0.125
  9
$DIMTP
 40
0.01
  9
$DIMTM
 40
0.01
  9
$DIMTXT
 40
2.0
  9
$DIMCEN
 40
0.1052362205
  9
$DIMTSZ
 40
0.0
  9
$DIMTOL
 70
     1
  9
$DIMLIM
 70
     0
  9
$DIMTIH
 70
     1
  9
$DIMTOH
 70
     1
  9
$DIMSE1
 70
     0
  9
$DIMSE2
 70
     0
  9
$DIMTAD
 70
     0
  9
$DIMZIN
 70
     0
  9
$DIMBLK
  1

  9
$DIMASO
 70
     1
  9
$DIMSHO
 70
     1
  9
$DIMPOST
  1
\X
  9
$DIMAPOST
  1

  9
$DIMALT
 70
     1
  9
$DIMALTD
 70
     2
  9
$DIMALTF
 40
25.3999999999999986
  9
$DIMLFAC
 40
1.0
  9
$DIMTOFL
 70
     0
  9
$DIMTVP
 40
0.0
  9
$DIMTIX
 70
     0
  9
$DIMSOXD
 70
     0
  9
$DIMSAH
 70
     0
  9
$DIMBLK1
  1

  9
$DIMBLK2
  1

  9
$DIMSTYLE
  2
STANDARD
  9
$DIMCLRD
 70
     0
  9
$DIMCLRE
 70
     0
  9
$DIMCLRT
 70
     0
  9
$DIMTFAC
 40
1.0
  9
$DIMGAP
 40
0.09
  9
$LUNITS
 70
     2
  9
$LUPREC
 70
     4
  9
$SKETCHINC
 40
0.1
  9
$FILLETRAD
 40
0.0
  9
$AUNITS
 70
     0
  9
$AUPREC
 70
     0
  9
$MENU
  1
.
  9
$ELEVATION
 40
0.0
  9
$PELEVATION
 40
0.0
  9
$THICKNESS
 40
0.0
  9
$LIMCHECK
 70
     0
  9
$BLIPMODE
 70
     0
  9
$CHAMFERA
 40
0.0
  9
$CHAMFERB
 40
0.0
  9
$SKPOLY
 70
     0
  9
$TDCREATE
 40
2458060.468368056230247
  9
$TDUPDATE
 40
2459341.6085069449618459
  9
$TDINDWG
 40
0.3771829861
  9
$TDUSRTIMER
 40
0.3771829861
  9
$USRTIMER
 70
     1
  9
$ANGBASE
 50
0.0
  9
$ANGDIR
 70
     0
  9
$PDMODE
 70
     0
  9
$PDSIZE
 40
0.3125
  9
$PLINEWID
 40
0.0
  9
$COORDS
 70
     1
  9
$SPLFRAME
 70
     0
  9
$SPLINETYPE
 70
     6
  9
$SPLINESEGS
 70
     8
  9
$ATTDIA
 70
     1
  9
$ATTREQ
 70
     1
  9
$HANDLING
 70
     1
  9
$HANDSEED
  5
8983
  9
$SURFTAB1
 70
     6
  9
$SURFTAB2
 70
     6
  9
$SURFTYPE
 70
     6
  9
$SURFU
 70
     6
  9
$SURFV
 70
     6
  9
$UCSNAME
  2

  9
$UCSORG
 10
0.0
 20
0.0
 30
0.0
  9
$UCSXDIR
 10
1.0
 20
0.0
 30
0.0
  9
$UCSYDIR
 10
0.0
 20
1.0
 30
0.0
  9
$PUCSNAME
  2

  9
$PUCSORG
 10
0.0
 20
0.0
 30
0.0
  9
$PUCSXDIR
 10
1.0
 20
0.0
 30
0.0
  9
$PUCSYDIR
 10
0.0
 20
1.0
 30
0.0
  9
$USERI1
 70
     0
  9
$USERI2
 70
     0
  9
$USERI3
 70
     0
  9
$USERI4
 70
     0
  9
$USERI5
 70
     0
  9
$USERR1
 40
0.0
  9
$USERR2
 40
0.0
  9
$USERR3
 40
0.0
  9
$USERR4
 40
0.0
  9
$USERR5
 40
0.0
  9
$WORLDVIEW
 70
     1
  9
$SHADEDGE
 70
     3
  9
$SHADEDIF
 70
    70
  9
$TILEMODE
 70
     1
  9
$MAXACTVP
 70
    64
  9
$PLIMCHECK
 70
     0
  9
$PEXTMIN
 10
1.0000000000000000E+20
 20
1.0000000000000000E+20
 30
1.0000000000000000E+20
  9
$PEXTMAX
 10
-1.0000000000000000E+20
 20
-1.0000000000000000E+20
 30
-1.0000000000000000E+20
  9
$PLIMMIN
 10
0.0
 20
0.0
  9
$PLIMMAX
 10
12.0
 20
9.0
  9
$UNITMODE
 70
     0
  9
$VISRETAIN
 70
     1
  9
$PLINEGEN
 70
     0
  9
$PSLTSCALE
 70
     1
  0
ENDSEC
  0
SECTION
  2
TABLES
  0
TABLE
  2
VPORT
 70
     1
  0
VPORT
  2
*ACTIVE
 70
     0
 10
0.0
 20
0.0
 11
1.0
 21
1.0
 12
0.0
 22
0.0
 13
0.0
 23
0.0
 14
1.0
 24
1.0
 15
0.0
 25
0.0
 16
0.0
 26
0.0
 36
23.8748966609995108
 17
4110.265380859375
 27
146.4771095704176105
 37
0.0
 40
8.4260078985417834
 41
2.1186252771618621
 42
50.0
 43
0.0
 44
0.0
 50
0.0
 51
0.0
 71
     0
 72
   100
 73
     1
 74
     1
 75
     0
 76
     0
 77
     0
 78
     0
  0
ENDTAB
  0
TABLE
  2
LTYPE
 70
     2
  0
LTYPE
  2
CONTINUOUS
 70
     0
  3
Solid line
 72
    65
 73
     0
 40
0.0
  0
LTYPE
  2
PHANTOM2
 70
     0
  3
___ _ _ ___ _ _ ___ _ _ ___ _ _
 72
    65
 73
     6
 40
1.25
 49
0.625
 49
-0.125
 49
0.125
 49
-0.125
 49
0.125
 49
-0.125
  0
ENDTAB
  0
TABLE
  2
LAYER
 70
     2
  0
LAYER
  2
0
 70
     0
 62
   255
  6
CONTINUOUS
  0
LAYER
  2
DEFPOINTS
 70
     0
 62
     7
  6
CONTINUOUS
  0
ENDTAB
  0
TABLE
  2
STYLE
 70
     1
  0
STYLE
  2
STANDARD
 70
     0
 40
0.0
 41
0.8
 50
0.0
 71
     0
 42
0.2
  3
txt
  4

  0
ENDTAB
  0
TABLE
  2
VIEW
 70
     0
  0
ENDTAB
  0
TABLE
  2
UCS
 70
     0
  0
ENDTAB
  0
TABLE
  2
APPID
 70
     9
  0
APPID
  2
ACAD
 70
     0
  0
APPID
  2
ACAD_MLEADERVER
 70
     0
  0
APPID
  2
ACAD_EXEMPT_FROM_CAD_STANDARDS
 70
     0
  0
APPID
  2
ACAD_NAV_VCDISPLAY
 70
     0
  0
APPID
  2
ACAECLAYERSTANDARD
 70
     0
  0
APPID
  2
ACCMTRANSPARENCY
 70
     0
  0
APPID
  2
ACAD_DSTYLE_DIMJAG
 70
     0
  0
APPID
  2
ACAD_DSTYLE_DIMTALN
 70
     0
  0
APPID
  2
ACDBATTR
 70
     0
  0
ENDTAB
  0
TABLE
  2
DIMSTYLE
 70
     1
  0
DIMSTYLE
  2
STANDARD
 70
     0
  3

  4

  5

  6

  7

 40
1.0
 41
0.1875
 42
0.0625
 43
0.38
 44
0.125
 45
0.0
 46
0.0
 47
0.01
 48
0.01
140
0.15625
141
0.09
142
0.0
143
25.3999999999999986
144
1.0
145
0.0
146
1.0
147
0.09
 71
     1
 72
     0
 73
     1
 74
     1
 75
     0
 76
     0
 77
     0
 78
     4
170
     0
171
     2
172
     0
173
     0
174
     0
175
     0
176
     0
177
     0
178
     0
  0
ENDTAB
  0
ENDSEC
  0
SECTION
  2
BLOCKS
  0
BLOCK
  8
0
  2
$MODEL_SPACE
 70
     0
 10
0.0
 20
0.0
 30
0.0
  3
$MODEL_SPACE
  1

  0
ENDBLK
  5
21
  8
0
  0
BLOCK
 67
     1
  8
0
  2
$PAPER_SPACE
 70
     0
 10
0.0
 20
0.0
 30
0.0
  3
$PAPER_SPACE
  1

  0
ENDBLK
  5
1D
 67
     1
  8
0
  0
BLOCK
  8
0
  2
_FILLED
 70
     0
 10
0.0
 20
0.0
 30
0.0
  3
_FILLED
  1

  0
SOLID
  5
8409
  8
0
  6
BYBLOCK
 62
     0
 10
0.0
 20
0.0
 30
0.0
 11
-1.0
 21
0.1666666667
 31
0.0
 12
-1.0
 22
-0.1666666667
 32
0.0
 13
-1.0
 23
-0.1666666667
 33
0.0
  0
ENDBLK
  5
840A
  8
0
  6
BYBLOCK
 62
     0
  0
ENDSEC
  0
SECTION
  2
ENTITIES
  0
ATTDEF
  5
3930
  8
DEFPOINTS
 10
4110.2635351370008721
 20
148.5619837892726878
 30
0.0
 40
0.001
  1
K-EX27039T-4
  3

  2
MODELNUMBER
 70
     0
1001
ACDBATTR
1070
     0
1070
     1
  0
ATTDEF
  5
3931
  8
DEFPOINTS
 10
4110.2635351370008721
 20
148.5603171226061079
 30
0.0
 40
0.001
  1
OCCASION
  3

  2
TRADENAME
 70
     0
1001
ACDBATTR
1070
     0
1070
     1
  0
ATTDEF
  5
3932
  8
DEFPOINTS
 10
4110.2635351370008721
 20
148.5586504559393859
 30
0.0
 40
0.001
  1
VALVE TRIM
  3

  2
PRODUCT
 70
     0
1001
ACDBATTR
1070
     0
1070
     1
  0
LINE
  5
87CB
  8
0
 10
4113.9138992933503687
 20
148.5578433980770967
 30
0.0
 11
4106.6170228704513647
 21
148.5578433980770967
 31
0.0
  0
ARC
  5
87CC
  8
0
 10
4106.6173821018310264
 20
148.5456684388134079
 30
0.0
 40
0.0121802578075398
 50
91.6900649697859933
 51
178.3424479042008954
  0
LINE
  5
87CD
  8
0
 10
4106.6052069406787268
 20
148.5460207613747059
 30
0.0
 11
4106.6186375655315715
 21
148.1610197992968949
 31
0.0
  0
ARC
  5
87CE
  8
0
 10
4106.6579831886574539
 20
148.1624072567786925
 30
0.0
 40
0.0393700787066783
 50
182.0196028246299136
 51
226.9999999837579878
  0
LINE
  5
87CF
  8
0
 10
4106.6311328595347732
 20
148.1336138039910963
 30
0.0
 11
4106.797506245524346
 21
147.9784681115665137
 31
0.0
  0
ARC
  5
87D0
  8
0
 10
4106.8244082376586448
 20
148.0072139434246878
 30
0.0
 40
0.0393705477481415
 50
226.8977489333063886
 51
270.0200082644408894
  0
LINE
  5
87D1
  8
0
 10
4106.8244219862499449
 20
147.9678433980770933
 30
0.0
 11
4113.706500177550879
 21
147.9678433980770933
 31
0.0
  0
LINE
  5
87D2
  8
0
 10
4109.3993193496507956
 20
147.9678433980770933
 30
0.0
 11
4109.3993193496507956
 21
146.4712292247770904
 31
0.0
  0
ARC
  5
87D3
  8
0
 10
4109.4190043890503148
 20
146.4712292247770904
 30
0.0
 40
0.0196850394000006
 50
180.0
 51
269.9999997089124122
  0
LINE
  5
87D4
  8
0
 10
4109.4190043889502704
 20
146.4515441853770881
 30
0.0
 11
4111.111917774849644
 21
146.4515441853770881
 31
0.0
  0
LINE
  5
87D5
  8
0
 10
4109.4879020267499072
 20
146.4515441850271031
 30
0.0
 11
4109.4879020267499072
 21
146.4043000909771024
 31
0.0
  0
LINE
  5
87D6
  8
0
 10
4109.5961697433504014
 20
147.9678433980770933
 30
0.0
 11
4109.5961697433504014
 21
146.4712292247770904
 31
0.0
  0
LINE
  5
87D7
  8
0
 10
4109.5961697433504014
 20
146.4712292247770904
 30
0.0
 11
4109.6158554745497895
 21
146.4515441854771041
 31
0.0
  0
LINE
  5
87D8
  8
0
 10
4109.6847524204504225
 20
146.4515441840271137
 30
0.0
 11
4109.6847524204504225
 21
146.4043000909771024
 31
0.0
  0
ARC
  5
87D9
  8
0
 10
4113.9135400619697975
 20
148.5456684388134079
 30
0.0
 40
0.0121802578075398
 50
1.6575520957990171
 51
88.3099350302140067
  0
LINE
  5
87DA
  8
0
 10
4113.9257152231202781
 20
148.5460207613747059
 30
0.0
 11
4113.9122845982692525
 21
148.1610197992968949
 31
0.0
  0
ARC
  5
87DB
  8
0
 10
4113.8729389751442795
 20
148.1624072567786925
 30
0.0
 40
0.0393700787066783
 50
313.0000000162420974
 51
357.9803971753700012
  0
LINE
  5
87DC
  8
0
 10
4113.8997893042660507
 20
148.1336138039910963
 30
0.0
 11
4113.7334159182755684
 21
147.9784681115665137
 31
0.0
  0
ARC
  5
87DD
  8
0
 10
4113.7065139261430886
 20
148.0072139434246878
 30
0.0
 40
0.0393705477481415
 50
269.9799917355591106
 51
313.1022510666936114
  0
LINE
  5
87DE
  8
0
 10
4111.1316028141500283
 20
147.9678433980770933
 30
0.0
 11
4111.1316028141500283
 21
146.4712292247770904
 31
0.0
  0
ARC
  5
87DF
  8
0
 10
4111.1119177747495996
 20
146.4712292247770904
 30
0.0
 40
0.0196850394000006
 50
270.0000002910877015
 51
0.0
  0
LINE
  5
87E0
  8
0
 10
4111.0430201370509167
 20
146.4515441850271031
 30
0.0
 11
4111.0430201370509167
 21
146.4043000909771024
 31
0.0
  0
LINE
  5
87E1
  8
0
 10
4110.9347524204504225
 20
147.9678433980770933
 30
0.0
 11
4110.9347524204504225
 21
146.4712292247770904
 31
0.0
  0
LINE
  5
87E2
  8
0
 10
4110.9347524204504225
 20
146.4712292247770904
 30
0.0
 11
4110.9150666892501249
 21
146.4515441854771041
 31
0.0
  0
LINE
  5
87E3
  8
0
 10
4110.8461697433504014
 20
146.4515441840271137
 30
0.0
 11
4110.8461697433504014
 21
146.4043000909771024
 31
0.0
  0
LINE
  5
87E4
  8
0
 10
4106.6311328595347732
 20
148.1336138039910963
 30
0.0
 11
4113.8997893042633223
 21
148.13361380398851
 31
0.0
  0
LINE
  5
87E6
  8
0
 10
4111.1588514240502263
 20
146.4043000909771024
 30
0.0
 11
4109.3720707397505976
 21
146.4043000909771024
 31
0.0
  0
ARC
  5
87E7
  8
0
 10
4109.3720707397505976
 20
146.3649212257743102
 30
0.0
 40
0.0393788652028206
 50
90.0
 51
134.9947043933200064
  0
LINE
  5
87E8
  8
0
 10
4109.3442282508503922
 20
146.3927688618771015
 30
0.0
 11
4109.2892856316402685
 21
146.3378363979564938
 31
0.0
  0
ARC
  5
87E9
  8
0
 10
4109.336141996823244
 20
146.297294042741413
 30
0.0
 40
0.0619612905323142
 50
139.1320824078366911
 51
168.173936977879606
  0
LINE
  5
87EA
  8
0
 10
4109.2754958802106557
 20
146.3099924703770967
 30
0.0
 11
4109.2754958802106557
 21
144.5255477115771896
 31
0.0
  0
ARC
  5
87EB
  8
0
 10
4109.3362037557326403
 20
144.5382926825367065
 30
0.0
 40
0.0620312859388275
 50
191.856449990977012
 51
220.8626243703355101
  0
LINE
  5
87EC
  8
0
 10
4109.2892907091263623
 20
144.4977088619525034
 30
0.0
 11
4109.3840238369039071
 21
144.402975734023812
 31
0.0
  0
ARC
  5
87ED
  8
0
 10
4109.4120688692682961
 20
144.4306179568191055
 30
0.0
 40
0.0393778658817249
 50
224.5855625189358875
 51
269.997426471149879
  0
LINE
  5
87EE
  8
0
 10
4109.4120671005503027
 20
144.3912400909771065
 30
0.0
 11
4111.1188550632496117
 21
144.3912400909771065
 31
0.0
  0
ARC
  5
87EF
  8
0
 10
4109.5744710162598494
 20
146.3631870082890885
 30
0.0
 40
0.0415098389058474
 50
97.9281252916247666
 51
134.5493241564016955
  0
LINE
  5
87F0
  8
0
 10
4109.5453509087246857
 20
146.3927688619016863
 30
0.0
 11
4109.4904099942295943
 21
146.3378313200771004
 31
0.0
  0
ARC
  5
87F1
  8
0
 10
4109.5227365296859716
 20
146.3081389658869966
 30
0.0
 40
0.0438935165133112
 50
137.4321107458187043
 51
177.5798139604985124
  0
LINE
  5
87F2
  8
0
 10
4109.4788821655420179
 20
146.3099924861562897
 30
0.0
 11
4109.4788821655420179
 21
144.8333177115771093
 31
0.0
  0
ARC
  5
87F3
  8
0
 10
4109.5221930789393809
 20
144.8349500271446004
 30
0.0
 40
0.0433416620983473
 50
182.1583601465029005
 51
222.8415425617583878
  0
LINE
  5
87F4
  8
0
 10
4109.4904133669260773
 20
144.8054788619525084
 30
0.0
 11
4109.5853509087255588
 21
144.7105413200524993
 31
0.0
  0
ARC
  5
87F5
  8
0
 10
4109.613189758380031
 20
144.7383801698690888
 30
0.0
 40
0.039370078891951
 50
225.0000001679451032
 51
269.999999958155513
  0
LINE
  5
87F6
  8
0
 10
4109.6131897583509271
 20
144.6990100909771115
 30
0.0
 11
4110.9177324054498968
 21
144.6990100909771115
 31
0.0
  0
ARC
  5
87F7
  8
0
 10
4109.8421887442127627
 20
146.3752050795937976
 30
0.0
 40
0.0299631076587425
 50
103.8255463147996949
 51
144.1138922134784082
  0
LINE
  5
87F8
  8
0
 10
4109.8179131200504344
 20
146.3927687321771032
 30
0.0
 11
4109.7849129356500271
 21
146.337831263577101
 31
0.0
  0
ARC
  5
87F9
  8
0
 10
4109.8108539323757213
 20
146.3179225800562051
 30
0.0
 40
0.0327000151478465
 50
142.4951949795091082
 51
194.7621632863400123
  0
LINE
  5
87FA
  8
0
 10
4109.7792332836497735
 20
146.309590379577088
 30
0.0
 11
4109.7792344338504336
 21
144.8337193935770983
 31
0.0
  0
ARC
  5
87FB
  8
0
 10
4109.8402703843430572
 20
144.8388771884505957
 30
0.0
 40
0.0612547692781459
 50
184.8297703490331969
 51
213.2080923641161974
  0
LINE
  5
87FC
  8
0
 10
4109.7890193171497231
 20
144.8053290905770893
 30
0.0
 11
4109.8508043134597756
 21
144.7109408182741106
 31
0.0
  0
ARC
  5
87FD
  8
0
 10
4109.8795394876133287
 20
144.7297503863032944
 30
0.0
 40
0.0343439963182368
 50
213.2080923641175048
 51
243.517476896243096
  0
ARC
  5
87FE
  8
0
 10
4110.2654491546018107
 20
145.3496004172118035
 30
0.0
 40
0.0388565113962834
 50
80.5645423330000057
 51
99.5206650356109037
  0
ARC
  5
87FF
  8
0
 10
4110.3820873638651392
 20
144.6541389566015994
 30
0.0
 40
0.7440310394773824
 50
99.5206650355595173
 51
124.4665304494417057
  0
ARC
  5
8800
  8
0
 10
4109.9763917946411311
 20
145.2385536383050066
 30
0.0
 40
0.0328273400976766
 50
117.9179735794463966
 51
179.0532997198712053
  0
ARC
  5
8801
  8
0
 10
4110.2916461483173407
 20
145.1933000989021991
 30
0.0
 40
0.3510769324883507
 50
172.5047428498716044
 51
187.496064949182994
  0
ARC
  5
8802
  8
0
 10
4109.976396215173736
 20
145.1480487065331033
 30
0.0
 40
0.0328312317145918
 50
180.9589009648366016
 51
242.0756203991111022
  0
ARC
  5
8803
  8
0
 10
4110.3821953853930609
 20
145.7327344505241911
 30
0.0
 40
0.7443174364912484
 50
235.5384564147489925
 51
260.4746125156988796
  0
ARC
  5
8804
  8
0
 10
4110.2654639055153893
 20
145.0370683633817066
 30
0.0
 40
0.0389256707365568
 50
260.4746125156988796
 51
279.5171884565390883
  0
ARC
  5
8805
  8
0
 10
4110.2654610892541314
 20
145.2825725971169959
 30
0.0
 40
0.0575311707600769
 50
83.5127175029481776
 51
96.4873228552640541
  0
ARC
  5
8806
  8
0
 10
4110.3188112099878708
 20
144.8134016836316107
 30
0.0
 40
0.5297256025814784
 50
96.4873228552640541
 51
126.8451583966211018
  0
ARC
  5
8807
  8
0
 10
4110.2746499035038141
 20
145.1933030130030886
 30
0.0
 40
0.277010452149243
 50
170.857074206853099
 51
189.1444214771921963
  0
ARC
  5
8808
  8
0
 10
4110.265461073348888
 20
145.1040242236111055
 30
0.0
 40
0.0575278535340753
 50
263.5123422195288754
 51
276.4881440418608918
  0
ARC
  5
8809
  8
0
 10
4110.3816952736060557
 20
145.7314935369290083
 30
0.0
 40
0.6955431289323175
 50
236.8313563187070088
 51
259.8364777688008758
  0
ARC
  5
880A
  8
0
 10
4111.1588514240502263
 20
146.3649212257743102
 30
0.0
 40
0.0393788652028206
 50
45.0052956066799723
 51
90.0
  0
LINE
  5
880B
  8
0
 10
4111.1866939129513412
 20
146.3927688618771015
 30
0.0
 11
4111.2416365321596459
 21
146.3378363979564938
 31
0.0
  0
ARC
  5
880C
  8
0
 10
4111.1947801669793989
 20
146.297294042741413
 30
0.0
 40
0.0619612905323142
 50
11.82606302212033
 51
40.8679175921632378
  0
LINE
  5
880D
  8
0
 10
4111.2554262835901682
 20
146.3099924703770967
 30
0.0
 11
4111.2554262835901682
 21
144.5255477115771896
 31
0.0
  0
ARC
  5
880E
  8
0
 10
4111.1947184080672741
 20
144.5382926825367065
 30
0.0
 40
0.0620312859388275
 50
319.1373756296645183
 51
348.1435500090228743
  0
LINE
  5
880F
  8
0
 10
4111.2416314546753711
 20
144.4977088619525034
 30
0.0
 11
4111.1468983268969168
 21
144.402975734023812
 31
0.0
  0
ARC
  5
8810
  8
0
 10
4111.1188532945334373
 20
144.4306179568191055
 30
0.0
 40
0.0393778658817249
 50
270.002573528850121
 51
315.4144374810641125
  0
ARC
  5
8811
  8
0
 10
4110.9564511475409745
 20
146.3631870082890885
 30
0.0
 40
0.0415098389058474
 50
45.4506758435982405
 51
82.0718747083752191
  0
LINE
  5
8812
  8
0
 10
4110.9855712550752287
 20
146.3927688619016863
 30
0.0
 11
4111.0405121695703201
 21
146.3378313200771004
 31
0.0
  0
ARC
  5
8813
  8
0
 10
4111.0081856341148523
 20
146.3081389658869966
 30
0.0
 40
0.0438935165133112
 50
2.42018603950154
 51
42.567889254181253
  0
LINE
  5
8814
  8
0
 10
4111.052039998258806
 20
146.3099924861562897
 30
0.0
 11
4111.052039998258806
 21
144.8333177115771093
 31
0.0
  0
ARC
  5
8815
  8
0
 10
4111.008729084861443
 20
144.8349500271446004
 30
0.0
 40
0.0433416620983473
 50
317.1584574382416122
 51
357.8416398534970995
  0
LINE
  5
8816
  8
0
 10
4111.0405087968747466
 20
144.8054788619525084
 30
0.0
 11
4110.9455712550752651
 21
144.7105413200524993
 31
0.0
  0
ARC
  5
8817
  8
0
 10
4110.9177324054207929
 20
144.7383801698690888
 30
0.0
 40
0.039370078891951
 50
270.000000041844487
 51
314.9999998320549821
  0
ARC
  5
8818
  8
0
 10
4110.6887334195880612
 20
146.3752050795937976
 30
0.0
 40
0.0299631076587425
 50
35.8861077865216131
 51
76.1744536852003051
  0
LINE
  5
8819
  8
0
 10
4110.713009043751299
 20
146.3927687321771032
 30
0.0
 11
4110.7460092281498873
 21
146.337831263577101
 31
0.0
  0
ARC
  5
881A
  8
0
 10
4110.7200682314251026
 20
146.3179225800562051
 30
0.0
 40
0.0327000151478465
 50
345.2378367136599877
 51
37.5048050204909202
  0
LINE
  5
881B
  8
0
 10
4110.7516888801510504
 20
146.309590379577088
 30
0.0
 11
4110.7516877299503903
 21
144.8337193935770983
 31
0.0
  0
ARC
  5
881C
  8
0
 10
4110.6906517794568572
 20
144.8388771884505957
 30
0.0
 40
0.0612547692781459
 50
326.7919076358837742
 51
355.1702296509668031
  0
LINE
  5
881D
  8
0
 10
4110.7419028466501913
 20
144.8053290905770893
 30
0.0
 11
4110.6801178503419578
 21
144.7109408182741106
 31
0.0
  0
ARC
  5
881E
  8
0
 10
4110.6513826761865857
 20
144.7297503863032944
 30
0.0
 40
0.0343439963182368
 50
296.4825231037568756
 51
326.7919076358825237
  0
ARC
  5
881F
  8
0
 10
4110.1488749271111374
 20
144.6542136992700875
 30
0.0
 40
0.7439467084635858
 50
55.53275980242109
 51
80.487692984936217
  0
ARC
  5
8820
  8
0
 10
4110.5545303691587833
 20
145.2385536383050066
 30
0.0
 40
0.0328273400976766
 50
0.9467002801287513
 51
62.0820264205535679
  0
ARC
  5
8821
  8
0
 10
4110.2392760154853022
 20
145.1933000989021991
 30
0.0
 40
0.3510769324883507
 50
352.503935050817006
 51
7.4952571501283574
  0
ARC
  5
8822
  8
0
 10
4110.5545259486279974
 20
145.1480487065331033
 30
0.0
 40
0.0328312317145918
 50
297.9243796008888125
 51
359.0410990351634268
  0
ARC
  5
8823
  8
0
 10
4110.1487173553332468
 20
145.7327520042449862
 30
0.0
 40
0.7443372417201557
 50
279.525879156897588
 51
304.4613770531121872
  0
ARC
  5
8824
  8
0
 10
4110.2121109420713765
 20
144.8134016626707989
 30
0.0
 40
0.5297256263962126
 50
53.1548419465591806
 51
83.5126789416416386
  0
ARC
  5
8825
  8
0
 10
4110.2562722602961003
 20
145.1933030130030886
 30
0.0
 40
0.277010452149243
 50
350.8555785228061836
 51
9.1429257931468904
  0
ARC
  5
8826
  8
0
 10
4110.1492265643491919
 20
145.7314941650820117
 30
0.0
 40
0.6955438330080542
 50
280.1635782696232013
 51
303.1686378398479746
  0
LINE
  5
8827
  8
0
 10
4109.4904133669260773
 20
144.8054788619525084
 30
0.0
 11
4111.0405087968747466
 21
144.8054788619525084
 31
0.0
  0
LINE
  5
8828
  8
0
 10
4109.2892907091263623
 20
144.4977088619525034
 30
0.0
 11
4111.2416314546753711
 21
144.4977088619525034
 31
0.0
  0
LINE
  5
8829
  8
0
 10
4109.2754958802106557
 20
146.3099924703770967
 30
0.0
 11
4111.2554262835901682
 21
146.3099924703770967
 31
0.0
  0
LINE
  5
882A
  8
0
 10
4110.0011588585721256
 20
145.2373193615711955
 30
0.0
 11
4109.9484061867206037
 21
145.2557128925776908
 31
0.0
  0
LINE
  5
882B
  8
0
 10
4110.0011600076932154
 20
145.1492795250725862
 30
0.0
 11
4109.9484081574601078
 21
145.1308860027428977
 31
0.0
  0
LINE
  5
882C
  8
0
 10
4110.529762156106699
 20
145.1492795250725862
 30
0.0
 11
4110.5825140063398067
 21
145.1308860027428977
 31
0.0
  0
LINE
  5
882D
  8
0
 10
4110.5297633052286983
 20
145.2373193615711955
 30
0.0
 11
4110.5825159770802202
 21
145.2557128925776908
 31
0.0
  0
LINE
  5
882E
  8
0
 10
4110.2654610818999572
 20
148.5578433980770967
 30
0.0
 11
4110.2654610818999572
 21
147.9678433980770933
 31
0.0
  0
LINE
  5
882F
  8
0
 10
4110.265461073348888
 20
145.0464963700769943
 30
0.0
 11
4110.2654611203834065
 21
144.9981426927448069
 31
0.0
  0
LINE
  5
8830
  8
0
 10
4110.2654491546018107
 20
145.3884569286080932
 30
0.0
 11
4110.2654610892541314
 21
145.3401037678771104
 31
0.0
  0
LINE
  5
8831
  8
0
 10
4110.2654610818999572
 20
144.3912400909771065
 30
0.0
 11
4110.2654610818999572
 21
144.6990100909771115
 31
0.0
  0
ENDSEC
  0
EOF
