  0
SECTION
  2
HEADER
  9
$ACADVER
  1
AC1009
  9
$INSBASE
 10
4109.1001960599669474
 20
149.2671858553842128
 30
0.0
  9
$EXTMIN
 10
4105.4399419187448075
 20
144.4018181624842043
 30
0.0
  9
$EXTMAX
 10
4112.7604502011872682
 20
149.2727096676902931
 30
0.0
  9
$LIMMIN
 10
0.0
 20
0.0
  9
$LIMMAX
 10
11.6929133858000007
 20
8.2677165353999982
  9
$ORTHOMODE
 70
     0
  9
$REGENMODE
 70
     1
  9
$FILLMODE
 70
     1
  9
$QTEXTMODE
 70
     0
  9
$MIRRTEXT
 70
     0
  9
$DRAGMODE
 70
     2
  9
$LTSCALE
 40
0.6431102362
  9
$OSMODE
 70
  4095
  9
$ATTMODE
 70
     1
  9
$TEXTSIZE
 40
0.2
  9
$TRACEWID
 40
0.05
  9
$TEXTSTYLE
  7
STANDARD
  9
$CLAYER
  8
0
  9
$CELTYPE
  6
BYLAYER
  9
$CECOLOR
 62
   256
  9
$DIMSCALE
 40
1.0
  9
$DIMASZ
 40
0.1875
  9
$DIMEXO
 40
0.0625
  9
$DIMDLI
 40
0.4443307087
  9
$DIMRND
 40
0.0
  9
$DIMDLE
 40
0.0
  9
$DIMEXE
 40
0.125
  9
$DIMTP
 40
0.01
  9
$DIMTM
 40
0.01
  9
$DIMTXT
 40
2.0
  9
$DIMCEN
 40
0.1052362205
  9
$DIMTSZ
 40
0.0
  9
$DIMTOL
 70
     1
  9
$DIMLIM
 70
     0
  9
$DIMTIH
 70
     1
  9
$DIMTOH
 70
     1
  9
$DIMSE1
 70
     0
  9
$DIMSE2
 70
     0
  9
$DIMTAD
 70
     0
  9
$DIMZIN
 70
     0
  9
$DIMBLK
  1

  9
$DIMASO
 70
     1
  9
$DIMSHO
 70
     1
  9
$DIMPOST
  1
\X
  9
$DIMAPOST
  1

  9
$DIMALT
 70
     1
  9
$DIMALTD
 70
     2
  9
$DIMALTF
 40
25.3999999999999986
  9
$DIMLFAC
 40
1.0
  9
$DIMTOFL
 70
     0
  9
$DIMTVP
 40
0.0
  9
$DIMTIX
 70
     0
  9
$DIMSOXD
 70
     0
  9
$DIMSAH
 70
     0
  9
$DIMBLK1
  1

  9
$DIMBLK2
  1

  9
$DIMSTYLE
  2
STANDARD
  9
$DIMCLRD
 70
     0
  9
$DIMCLRE
 70
     0
  9
$DIMCLRT
 70
     0
  9
$DIMTFAC
 40
1.0
  9
$DIMGAP
 40
0.09
  9
$LUNITS
 70
     2
  9
$LUPREC
 70
     4
  9
$SKETCHINC
 40
0.1
  9
$FILLETRAD
 40
0.0
  9
$AUNITS
 70
     0
  9
$AUPREC
 70
     0
  9
$MENU
  1
.
  9
$ELEVATION
 40
0.0
  9
$PELEVATION
 40
0.0
  9
$THICKNESS
 40
0.0
  9
$LIMCHECK
 70
     0
  9
$BLIPMODE
 70
     0
  9
$CHAMFERA
 40
0.0
  9
$CHAMFERB
 40
0.0
  9
$SKPOLY
 70
     0
  9
$TDCREATE
 40
2458060.468368056230247
  9
$TDUPDATE
 40
2459341.5966319441795349
  9
$TDINDWG
 40
0.3750186343
  9
$TDUSRTIMER
 40
0.3750186343
  9
$USRTIMER
 70
     1
  9
$ANGBASE
 50
0.0
  9
$ANGDIR
 70
     0
  9
$PDMODE
 70
     0
  9
$PDSIZE
 40
0.3125
  9
$PLINEWID
 40
0.0
  9
$COORDS
 70
     1
  9
$SPLFRAME
 70
     0
  9
$SPLINETYPE
 70
     6
  9
$SPLINESEGS
 70
     8
  9
$ATTDIA
 70
     1
  9
$ATTREQ
 70
     1
  9
$HANDLING
 70
     1
  9
$HANDSEED
  5
8869
  9
$SURFTAB1
 70
     6
  9
$SURFTAB2
 70
     6
  9
$SURFTYPE
 70
     6
  9
$SURFU
 70
     6
  9
$SURFV
 70
     6
  9
$UCSNAME
  2

  9
$UCSORG
 10
0.0
 20
0.0
 30
0.0
  9
$UCSXDIR
 10
1.0
 20
0.0
 30
0.0
  9
$UCSYDIR
 10
0.0
 20
1.0
 30
0.0
  9
$PUCSNAME
  2

  9
$PUCSORG
 10
0.0
 20
0.0
 30
0.0
  9
$PUCSXDIR
 10
1.0
 20
0.0
 30
0.0
  9
$PUCSYDIR
 10
0.0
 20
1.0
 30
0.0
  9
$USERI1
 70
     0
  9
$USERI2
 70
     0
  9
$USERI3
 70
     0
  9
$USERI4
 70
     0
  9
$USERI5
 70
     0
  9
$USERR1
 40
0.0
  9
$USERR2
 40
0.0
  9
$USERR3
 40
0.0
  9
$USERR4
 40
0.0
  9
$USERR5
 40
0.0
  9
$WORLDVIEW
 70
     1
  9
$SHADEDGE
 70
     3
  9
$SHADEDIF
 70
    70
  9
$TILEMODE
 70
     1
  9
$MAXACTVP
 70
    64
  9
$PLIMCHECK
 70
     0
  9
$PEXTMIN
 10
1.0000000000000000E+20
 20
1.0000000000000000E+20
 30
1.0000000000000000E+20
  9
$PEXTMAX
 10
-1.0000000000000000E+20
 20
-1.0000000000000000E+20
 30
-1.0000000000000000E+20
  9
$PLIMMIN
 10
0.0
 20
0.0
  9
$PLIMMAX
 10
12.0
 20
9.0
  9
$UNITMODE
 70
     0
  9
$VISRETAIN
 70
     1
  9
$PLINEGEN
 70
     0
  9
$PSLTSCALE
 70
     1
  0
ENDSEC
  0
SECTION
  2
TABLES
  0
TABLE
  2
VPORT
 70
     1
  0
VPORT
  2
*ACTIVE
 70
     0
 10
0.0
 20
0.0
 11
1.0
 21
1.0
 12
0.0
 22
0.0
 13
0.0
 23
0.0
 14
1.0
 24
1.0
 15
0.0
 25
0.0
 16
0.0
 26
0.0
 36
24.9140583618876796
 17
4109.1000976562490905
 27
146.837267309431013
 37
0.0
 40
8.7927523005751134
 41
2.1186252771618621
 42
50.0
 43
0.0
 44
0.0
 50
0.0
 51
0.0
 71
     0
 72
   100
 73
     1
 74
     1
 75
     0
 76
     0
 77
     0
 78
     0
  0
ENDTAB
  0
TABLE
  2
LTYPE
 70
     2
  0
LTYPE
  2
CONTINUOUS
 70
     0
  3
Solid line
 72
    65
 73
     0
 40
0.0
  0
LTYPE
  2
PHANTOM2
 70
     0
  3
___ _ _ ___ _ _ ___ _ _ ___ _ _
 72
    65
 73
     6
 40
1.25
 49
0.625
 49
-0.125
 49
0.125
 49
-0.125
 49
0.125
 49
-0.125
  0
ENDTAB
  0
TABLE
  2
LAYER
 70
     2
  0
LAYER
  2
0
 70
     0
 62
   255
  6
CONTINUOUS
  0
LAYER
  2
DEFPOINTS
 70
     0
 62
     7
  6
CONTINUOUS
  0
ENDTAB
  0
TABLE
  2
STYLE
 70
     1
  0
STYLE
  2
STANDARD
 70
     0
 40
0.0
 41
0.8
 50
0.0
 71
     0
 42
0.2
  3
txt
  4

  0
ENDTAB
  0
TABLE
  2
VIEW
 70
     0
  0
ENDTAB
  0
TABLE
  2
UCS
 70
     0
  0
ENDTAB
  0
TABLE
  2
APPID
 70
     9
  0
APPID
  2
ACAD
 70
     0
  0
APPID
  2
ACAD_MLEADERVER
 70
     0
  0
APPID
  2
ACAD_EXEMPT_FROM_CAD_STANDARDS
 70
     0
  0
APPID
  2
ACAD_NAV_VCDISPLAY
 70
     0
  0
APPID
  2
ACAECLAYERSTANDARD
 70
     0
  0
APPID
  2
ACCMTRANSPARENCY
 70
     0
  0
APPID
  2
ACAD_DSTYLE_DIMJAG
 70
     0
  0
APPID
  2
ACAD_DSTYLE_DIMTALN
 70
     0
  0
APPID
  2
ACDBATTR
 70
     0
  0
ENDTAB
  0
TABLE
  2
DIMSTYLE
 70
     1
  0
DIMSTYLE
  2
STANDARD
 70
     0
  3

  4

  5

  6

  7

 40
1.0
 41
0.1875
 42
0.0625
 43
0.38
 44
0.125
 45
0.0
 46
0.0
 47
0.01
 48
0.01
140
0.15625
141
0.09
142
0.0
143
25.3999999999999986
144
1.0
145
0.0
146
1.0
147
0.09
 71
     1
 72
     0
 73
     1
 74
     1
 75
     0
 76
     0
 77
     0
 78
     4
170
     0
171
     2
172
     0
173
     0
174
     0
175
     0
176
     0
177
     0
178
     0
  0
ENDTAB
  0
ENDSEC
  0
SECTION
  2
BLOCKS
  0
BLOCK
  8
0
  2
$MODEL_SPACE
 70
     0
 10
0.0
 20
0.0
 30
0.0
  3
$MODEL_SPACE
  1

  0
ENDBLK
  5
21
  8
0
  0
BLOCK
 67
     1
  8
0
  2
$PAPER_SPACE
 70
     0
 10
0.0
 20
0.0
 30
0.0
  3
$PAPER_SPACE
  1

  0
ENDBLK
  5
1D
 67
     1
  8
0
  0
BLOCK
  8
0
  2
_FILLED
 70
     0
 10
0.0
 20
0.0
 30
0.0
  3
_FILLED
  1

  0
SOLID
  5
8409
  8
0
  6
BYBLOCK
 62
     0
 10
0.0
 20
0.0
 30
0.0
 11
-1.0
 21
0.1666666667
 31
0.0
 12
-1.0
 22
-0.1666666667
 32
0.0
 13
-1.0
 23
-0.1666666667
 33
0.0
  0
ENDBLK
  5
840A
  8
0
  6
BYBLOCK
 62
     0
  0
ENDSEC
  0
SECTION
  2
ENTITIES
  0
ATTDEF
  5
3930
  8
DEFPOINTS
 10
4109.0974005757780105
 20
149.2717096676902884
 30
0.0
 40
0.001
  1
K-EX27039T-3
  3

  2
MODELNUMBER
 70
     0
1001
ACDBATTR
1070
     0
1070
     1
  0
ATTDEF
  5
3931
  8
DEFPOINTS
 10
4109.0974005757780105
 20
149.2700430010235948
 30
0.0
 40
0.001
  1
OCCASION
  3

  2
TRADENAME
 70
     0
1001
ACDBATTR
1070
     0
1070
     1
  0
ATTDEF
  5
3932
  8
DEFPOINTS
 10
4109.0974005757780105
 20
149.2683763343569012
 30
0.0
 40
0.001
  1
VALVE TRIM
  3

  2
PRODUCT
 70
     0
1001
ACDBATTR
1070
     0
1070
     1
  0
LINE
  5
8743
  8
0
 10
4112.7486342714164493
 20
149.2671858553842128
 30
0.0
 11
4105.4517578485156264
 21
149.2671858553842128
 31
0.0
  0
ARC
  5
8744
  8
0
 10
4105.4521170798980165
 20
149.2550108961204955
 30
0.0
 40
0.0121802578075398
 50
91.6900649697859933
 51
178.3424479042008954
  0
LINE
  5
8745
  8
0
 10
4105.4399419187448075
 20
149.2553632186817936
 30
0.0
 11
4105.4533725435985616
 21
148.870362256604011
 31
0.0
  0
ARC
  5
8746
  8
0
 10
4105.492718166724444
 20
148.8717497140858086
 30
0.0
 40
0.0393700787066783
 50
182.0196028246299136
 51
226.9999999837579878
  0
LINE
  5
8747
  8
0
 10
4105.4658678376017633
 20
148.8429562612982124
 30
0.0
 11
4105.6322412235913362
 21
148.6878105688736014
 31
0.0
  0
ARC
  5
8748
  8
0
 10
4105.659143215723816
 20
148.7165564007318039
 30
0.0
 40
0.0393705477481415
 50
226.8977489333063886
 51
270.0200082644408894
  0
LINE
  5
8749
  8
0
 10
4105.659156964316935
 20
148.6771858553842947
 30
0.0
 11
4112.5412351556160502
 21
148.6771858553842947
 31
0.0
  0
LINE
  5
874A
  8
0
 10
4108.2340543277159668
 20
148.6771858553842947
 30
0.0
 11
4108.2340543277159668
 21
147.1805716820842065
 31
0.0
  0
ARC
  5
874B
  8
0
 10
4108.2537393671173049
 20
147.1805716820842065
 30
0.0
 40
0.0196850394000006
 50
180.0
 51
269.9999997089124122
  0
LINE
  5
874C
  8
0
 10
4108.253739367016351
 20
147.1608866426842042
 30
0.0
 11
4109.9466527529157247
 21
147.1608866426842042
 31
0.0
  0
LINE
  5
874D
  8
0
 10
4108.3226370048168974
 20
147.1608866423343045
 30
0.0
 11
4108.3226370048168974
 21
147.1136425482843038
 31
0.0
  0
LINE
  5
874E
  8
0
 10
4109.9545262846158948
 20
147.1136425482843038
 30
0.0
 11
4108.2458658353170904
 21
147.1136425482843038
 31
0.0
  0
ARC
  5
874F
  8
0
 10
4108.2458658353170904
 20
147.1018310406743126
 30
0.0
 40
0.0118115076099166
 50
90.0
 51
179.9976521434529957
  0
LINE
  5
8750
  8
0
 10
4108.2340543277159668
 20
147.1018315246842008
 30
0.0
 11
4108.2339893346461395
 21
145.5157769418158864
 31
0.0
  0
ARC
  5
8751
  8
0
 10
4108.2731997137452709
 20
145.5157753350596863
 30
0.0
 40
0.039210379132406
 50
179.9976521434514041
 51
225.2305060417508003
  0
LINE
  5
8752
  8
0
 10
4108.2455855567168328
 20
145.4879380908841995
 30
0.0
 11
4108.3012632560657948
 21
145.4322603915341858
 31
0.0
  0
ARC
  5
8753
  8
0
 10
4108.3291021104569154
 20
145.4600992486240045
 30
0.0
 40
0.0393700873486659
 50
225.0000027776104048
 51
270.0141989883957194
  0
LINE
  5
8754
  8
0
 10
4108.3291118671158983
 20
145.4207291624842071
 30
0.0
 11
4109.8712802528170869
 21
145.4207291624842071
 31
0.0
  0
LINE
  5
8755
  8
0
 10
4108.4309047214155726
 20
148.6771858553842947
 30
0.0
 11
4108.4309047214155726
 21
147.1805716820842065
 31
0.0
  0
LINE
  5
8756
  8
0
 10
4108.4309047214155726
 20
147.1805716820842065
 30
0.0
 11
4108.4505904526158702
 21
147.1608866427843054
 31
0.0
  0
LINE
  5
8757
  8
0
 10
4108.5194873985155937
 20
147.1608866413342014
 30
0.0
 11
4108.5194873985155937
 21
147.1136425482843038
 31
0.0
  0
ARC
  5
8758
  8
0
 10
4108.4428792160051671
 20
147.1017761463828037
 30
0.0
 40
0.0119746226403902
 50
97.7088497526875983
 51
179.7350267851051058
  0
LINE
  5
8759
  8
0
 10
4108.4309047214155726
 20
147.1018315246842008
 30
0.0
 11
4108.4309047398928669
 21
145.515738797751311
 31
0.0
  0
ARC
  5
875A
  8
0
 10
4108.4702748001163854
 20
145.5157769404841872
 30
0.0
 40
0.0393700787000162
 50
180.0555096162086102
 51
224.9999999996049951
  0
LINE
  5
875B
  8
0
 10
4108.4424359504919266
 20
145.4879380908598137
 30
0.0
 11
4108.4981136497672196
 21
145.4322603915842933
 31
0.0
  0
ARC
  5
875C
  8
0
 10
4108.5259524994171443
 20
145.4600992411841958
 30
0.0
 40
0.0393700786999833
 50
224.9999999493450105
 51
270.0
  0
ARC
  5
875D
  8
0
 10
4108.8050403287552399
 20
145.400986602613699
 30
0.0
 40
0.0198443522026796
 50
95.8058059783332538
 51
179.833923285643607
  0
LINE
  5
875E
  8
0
 10
4108.7851960599164158
 20
145.4010441230842048
 30
0.0
 11
4108.7845284732520668
 21
145.1707301300133963
 31
0.0
  0
ARC
  5
875F
  8
0
 10
4108.2881616222675802
 20
145.1483459521631971
 30
0.0
 40
0.4968713134935089
 50
272.1306843597621992
 51
2.5820631981272801
  0
LINE
  5
8760
  8
0
 10
4108.3066347446156215
 20
144.6518181624842043
 30
0.0
 11
4107.8640452783165529
 21
144.6518181624842043
 31
0.0
  0
ARC
  5
8761
  8
0
 10
4107.861134270772709
 20
144.6123882303866992
 30
0.0
 40
0.0395372420653496
 50
85.7776643520328435
 51
181.9048624839302022
  0
LINE
  5
8762
  8
0
 10
4107.8216188770438748
 20
144.6110740125409109
 30
0.0
 11
4107.8261593282168178
 21
144.4810525018841929
 31
0.0
  0
ARC
  5
8763
  8
0
 10
4107.865972813658118
 20
144.4800846256341913
 30
0.0
 40
0.0398252483664441
 50
178.6073989000865936
 51
225.9879517585056874
  0
LINE
  5
8764
  8
0
 10
4107.8383018480162718
 20
144.4514425574841994
 30
0.0
 11
4107.8763950232169009
 21
144.4133493915842053
 31
0.0
  0
ARC
  5
8765
  8
0
 10
4107.9042338729641415
 20
144.4411882414200079
 30
0.0
 40
0.0393700789357965
 50
225.0000000914589009
 51
269.9999999317356014
  0
LINE
  5
8766
  8
0
 10
4107.9042338729168478
 20
144.4018181624842043
 30
0.0
 11
4110.296158247017047
 21
144.4018181624842043
 31
0.0
  0
LINE
  5
8767
  8
0
 10
4109.3403449405159336
 20
144.6518181624842043
 30
0.0
 11
4108.8600471794170517
 21
144.6518181624842043
 31
0.0
  0
ARC
  5
8768
  8
0
 10
4108.8615273285140574
 20
144.6078252401350142
 30
0.0
 40
0.044017815236235
 50
91.926999011059408
 51
175.873988453157807
  0
LINE
  5
8769
  8
0
 10
4108.8176235977171018
 20
144.6109923334842051
 30
0.0
 11
4108.8223146014170197
 21
144.4810375331842067
 31
0.0
  0
ARC
  5
876A
  8
0
 10
4108.8613277999957063
 20
144.4796274874422011
 30
0.0
 40
0.039038671754848
 50
177.9300718248136093
 51
225.0747744539822008
  0
LINE
  5
876B
  8
0
 10
4108.8337593395199292
 20
144.4519869758809989
 30
0.0
 11
4108.8723969238171776
 21
144.4133493915842053
 31
0.0
  0
ARC
  5
876C
  8
0
 10
4108.9002462276412189
 20
144.4412029613621087
 30
0.0
 40
0.0393878797710833
 50
225.004387944805103
 51
269.2833658715903198
  0
ARC
  5
876D
  8
0
 10
4112.7482750400349687
 20
149.2550108961204955
 30
0.0
 40
0.0121802578075398
 50
1.6575520957990171
 51
88.3099350302140067
  0
LINE
  5
876E
  8
0
 10
4112.7604502011872682
 20
149.2553632186817936
 30
0.0
 11
4112.7470195763344236
 21
148.870362256604011
 31
0.0
  0
ARC
  5
876F
  8
0
 10
4112.7076739532103602
 20
148.8717497140858086
 30
0.0
 40
0.0393700787066783
 50
313.0000000162420974
 51
357.9803971753700012
  0
LINE
  5
8770
  8
0
 10
4112.7345242823321314
 20
148.8429562612982124
 30
0.0
 11
4112.5681508963416491
 21
148.6878105688736014
 31
0.0
  0
ARC
  5
8771
  8
0
 10
4112.5412489042091693
 20
148.7165564007318039
 30
0.0
 40
0.0393705477481415
 50
269.9799917355591106
 51
313.1022510666936114
  0
LINE
  5
8772
  8
0
 10
4109.9663377922170184
 20
148.6771858553842947
 30
0.0
 11
4109.9663377922170184
 21
147.1805716820842065
 31
0.0
  0
ARC
  5
8773
  8
0
 10
4109.9466527528165898
 20
147.1805716820842065
 30
0.0
 40
0.0196850394000006
 50
270.0000002910877015
 51
0.0
  0
LINE
  5
8774
  8
0
 10
4109.8777551151169973
 20
147.1608866423343045
 30
0.0
 11
4109.8777551151169973
 21
147.1136425482843038
 31
0.0
  0
ARC
  5
8775
  8
0
 10
4109.9545262846158948
 20
147.1018310406743126
 30
0.0
 40
0.0118115076099166
 50
0.0023478565469762
 51
90.0
  0
LINE
  5
8776
  8
0
 10
4109.9663377922170184
 20
147.1018315246842008
 30
0.0
 11
4109.9664027852859363
 21
145.5157769418158864
 31
0.0
  0
ARC
  5
8777
  8
0
 10
4109.9271924061877144
 20
145.5157753350596863
 30
0.0
 40
0.039210379132406
 50
314.7694939582490861
 51
0.0023478565486047
  0
LINE
  5
8778
  8
0
 10
4109.9548065632170619
 20
145.4879380908841995
 30
0.0
 11
4109.8991288638662809
 21
145.4322603915341858
 31
0.0
  0
ARC
  5
8779
  8
0
 10
4109.8712900094760698
 20
145.4600992486240045
 30
0.0
 40
0.0393700873486659
 50
269.9858010116042806
 51
314.9999972223897089
  0
LINE
  5
877A
  8
0
 10
4109.7694873985174127
 20
148.6771858553842947
 30
0.0
 11
4109.7694873985174127
 21
147.1805716820842065
 31
0.0
  0
LINE
  5
877B
  8
0
 10
4109.7694873985174127
 20
147.1805716820842065
 30
0.0
 11
4109.7498016673171151
 21
147.1608866427843054
 31
0.0
  0
LINE
  5
877C
  8
0
 10
4109.6809047214155726
 20
147.1608866413342014
 30
0.0
 11
4109.6809047214155726
 21
147.1136425482843038
 31
0.0
  0
ARC
  5
877D
  8
0
 10
4109.7575129039296371
 20
147.1017761463828037
 30
0.0
 40
0.0119746226403902
 50
0.2649732148949315
 51
82.2911502473124159
  0
LINE
  5
877E
  8
0
 10
4109.7694873985174127
 20
147.1018315246842008
 30
0.0
 11
4109.7694873800401183
 21
145.515738797751311
 31
0.0
  0
ARC
  5
877F
  8
0
 10
4109.7301173198156903
 20
145.5157769404841872
 30
0.0
 40
0.0393700787000162
 50
315.0000000003950049
 51
359.9444903837912761
  0
LINE
  5
8780
  8
0
 10
4109.7579561694419681
 20
145.4879380908598137
 30
0.0
 11
4109.7022784701648561
 21
145.4322603915842933
 31
0.0
  0
ARC
  5
8781
  8
0
 10
4109.6744396205158409
 20
145.4600992411841958
 30
0.0
 40
0.0393700786999833
 50
270.0
 51
315.0000000506548758
  0
ARC
  5
8782
  8
0
 10
4109.3953517911768358
 20
145.400986602613699
 30
0.0
 40
0.0198443522026796
 50
0.1660767143563463
 51
84.1941940216667462
  0
LINE
  5
8783
  8
0
 10
4109.4151960600156599
 20
145.4010441230842048
 30
0.0
 11
4109.415863646681828
 21
145.1707301300133963
 31
0.0
  0
ARC
  5
8784
  8
0
 10
4109.912230497663586
 20
145.1483459521631971
 30
0.0
 40
0.4968713134935089
 50
177.4179368018727132
 51
267.8693156402378008
  0
LINE
  5
8785
  8
0
 10
4109.8937573753164543
 20
144.6518181624842043
 30
0.0
 11
4110.3363468416164324
 21
144.6518181624842043
 31
0.0
  0
ARC
  5
8786
  8
0
 10
4110.3392578491593667
 20
144.6123882303866992
 30
0.0
 40
0.0395372420653496
 50
358.0951375160697125
 51
94.222335647967185
  0
LINE
  5
8787
  8
0
 10
4110.3787732428891104
 20
144.6110740125409109
 30
0.0
 11
4110.3742327917170769
 21
144.4810525018841929
 31
0.0
  0
ARC
  5
8788
  8
0
 10
4110.3344193062739578
 20
144.4800846256341913
 30
0.0
 40
0.0398252483664441
 50
314.0120482414943126
 51
1.39260109991336
  0
LINE
  5
8789
  8
0
 10
4110.3620902719158039
 20
144.4514425574841994
 30
0.0
 11
4110.3239970967169938
 21
144.4133493915842053
 31
0.0
  0
ARC
  5
878A
  8
0
 10
4110.2961582469697532
 20
144.4411882414200079
 30
0.0
 40
0.0393700789357965
 50
270.0000000682643986
 51
314.9999999085410991
  0
LINE
  5
878B
  8
0
 10
4109.3827685222158834
 20
144.6109923334842051
 30
0.0
 11
4109.3780775185159655
 21
144.4810375331842067
 31
0.0
  0
ARC
  5
878C
  8
0
 10
4109.3390643199372789
 20
144.4796274874422011
 30
0.0
 40
0.039038671754848
 50
314.9252255460178276
 51
2.0699281751863441
  0
LINE
  5
878D
  8
0
 10
4109.366632780413056
 20
144.4519869758809989
 30
0.0
 11
4109.3279951961167171
 21
144.4133493915842053
 31
0.0
  0
ARC
  5
878E
  8
0
 10
4109.3001458922926759
 20
144.4412029613621087
 30
0.0
 40
0.0393878797710833
 50
270.7166341284096802
 51
314.9956120551947834
  0
ARC
  5
878F
  8
0
 10
4109.3388647914189278
 20
144.6078252401350142
 30
0.0
 40
0.044017815236235
 50
4.126011546842248
 51
88.0730009889406062
  0
LINE
  5
8790
  8
0
 10
4105.4658678376017633
 20
148.8429562612982124
 30
0.0
 11
4112.7345242823303124
 21
148.8429562612957113
 31
0.0
  0
LINE
  5
8792
  8
0
 10
4109.1001960599669474
 20
149.2671858553842128
 30
0.0
 11
4109.1001960599669474
 21
148.6771858553842947
 31
0.0
  0
LINE
  5
8793
  8
0
 10
4108.2339893346461395
 20
145.5157769418158864
 30
0.0
 11
4109.9664027823791912
 21
145.5158479323546885
 31
0.0
  0
LINE
  5
8794
  8
0
 10
4107.8261593282168178
 20
144.4810525018841929
 30
0.0
 11
4110.3742327917170769
 21
144.4810525018841929
 31
0.0
  0
ARC
  5
8795
  8
0
 10
4108.8024304448572366
 20
144.8074577167301982
 30
0.0
 40
0.5599782812634605
 50
343.8627903259931031
 51
355.5454992113312187
  0
ARC
  5
8796
  8
0
 10
4109.4144275255057437
 20
144.7597814753200112
 30
0.0
 40
0.053873044969629
 50
80.6221699537782541
 51
175.5454992113311903
  0
ARC
  5
8797
  8
0
 10
4109.3661827639916737
 20
144.5784935753461014
 30
0.0
 40
0.2412761638948649
 50
49.6391502054383622
 51
76.3294114429125443
  0
ARC
  5
8798
  8
0
 10
4109.7964615067376144
 20
145.189756767268193
 30
0.0
 40
0.5077159279913279
 50
237.3348830070825102
 51
262.3430640484455125
  0
ARC
  5
8799
  8
0
 10
4109.3981382083311473
 20
144.8074803206247907
 30
0.0
 40
0.560154142066995
 50
184.4554185321046873
 51
196.1344119420166976
  0
ARC
  5
879A
  8
0
 10
4108.7859664950274237
 20
144.7597814753200112
 30
0.0
 40
0.053873044969629
 50
4.454500788668823
 51
99.3778300462217601
  0
ARC
  5
879B
  8
0
 10
4108.8342112565405841
 20
144.5784935753461014
 30
0.0
 40
0.2412761638948649
 50
103.6705885570873988
 51
130.3608497945616023
  0
ARC
  5
879C
  8
0
 10
4108.403932513793734
 20
145.189756767268193
 30
0.0
 40
0.5077159279913279
 50
277.6566088153093119
 51
302.6651169929173761
  0
ENDSEC
  0
EOF
