  0
SECTION
  2
HEADER
  9
$ACADVER
  1
AC1009
  9
$INSBASE
 10
4114.2353893578929274
 20
143.3461628167679862
 30
0.0
  9
$EXTMIN
 10
4110.7513047909924353
 20
138.2258188264378873
 30
0.0
  9
$EXTMAX
 10
4114.2478517412846486
 20
147.026329476137704
 30
0.0
  9
$LIMMIN
 10
0.0
 20
0.0
  9
$LIMMAX
 10
11.6929133858000007
 20
8.2677165353999982
  9
$ORTHOMODE
 70
     0
  9
$REGENMODE
 70
     1
  9
$FILLMODE
 70
     1
  9
$QTEXTMODE
 70
     0
  9
$MIRRTEXT
 70
     0
  9
$DRAGMODE
 70
     2
  9
$LTSCALE
 40
0.6431102362
  9
$OSMODE
 70
  4095
  9
$ATTMODE
 70
     1
  9
$TEXTSIZE
 40
0.2
  9
$TRACEWID
 40
0.05
  9
$TEXTSTYLE
  7
STANDARD
  9
$CLAYER
  8
0
  9
$CELTYPE
  6
BYLAYER
  9
$CECOLOR
 62
   256
  9
$DIMSCALE
 40
1.0
  9
$DIMASZ
 40
0.1875
  9
$DIMEXO
 40
0.0625
  9
$DIMDLI
 40
0.4443307087
  9
$DIMRND
 40
0.0
  9
$DIMDLE
 40
0.0
  9
$DIMEXE
 40
0.125
  9
$DIMTP
 40
0.01
  9
$DIMTM
 40
0.01
  9
$DIMTXT
 40
2.0
  9
$DIMCEN
 40
0.1052362205
  9
$DIMTSZ
 40
0.0
  9
$DIMTOL
 70
     1
  9
$DIMLIM
 70
     0
  9
$DIMTIH
 70
     1
  9
$DIMTOH
 70
     1
  9
$DIMSE1
 70
     0
  9
$DIMSE2
 70
     0
  9
$DIMTAD
 70
     0
  9
$DIMZIN
 70
     0
  9
$DIMBLK
  1

  9
$DIMASO
 70
     1
  9
$DIMSHO
 70
     1
  9
$DIMPOST
  1
\X
  9
$DIMAPOST
  1

  9
$DIMALT
 70
     1
  9
$DIMALTD
 70
     2
  9
$DIMALTF
 40
25.3999999999999986
  9
$DIMLFAC
 40
1.0
  9
$DIMTOFL
 70
     0
  9
$DIMTVP
 40
0.0
  9
$DIMTIX
 70
     0
  9
$DIMSOXD
 70
     0
  9
$DIMSAH
 70
     0
  9
$DIMBLK1
  1

  9
$DIMBLK2
  1

  9
$DIMSTYLE
  2
STANDARD
  9
$DIMCLRD
 70
     0
  9
$DIMCLRE
 70
     0
  9
$DIMCLRT
 70
     0
  9
$DIMTFAC
 40
1.0
  9
$DIMGAP
 40
0.09
  9
$LUNITS
 70
     2
  9
$LUPREC
 70
     4
  9
$SKETCHINC
 40
0.1
  9
$FILLETRAD
 40
0.0
  9
$AUNITS
 70
     0
  9
$AUPREC
 70
     0
  9
$MENU
  1
.
  9
$ELEVATION
 40
0.0
  9
$PELEVATION
 40
0.0
  9
$THICKNESS
 40
0.0
  9
$LIMCHECK
 70
     0
  9
$BLIPMODE
 70
     0
  9
$CHAMFERA
 40
0.0
  9
$CHAMFERB
 40
0.0
  9
$SKPOLY
 70
     0
  9
$TDCREATE
 40
2458060.468368056230247
  9
$TDUPDATE
 40
2459369.5967013891786337
  9
$TDINDWG
 40
0.3694862269
  9
$TDUSRTIMER
 40
0.3694862269
  9
$USRTIMER
 70
     1
  9
$ANGBASE
 50
0.0
  9
$ANGDIR
 70
     0
  9
$PDMODE
 70
     0
  9
$PDSIZE
 40
0.3125
  9
$PLINEWID
 40
0.0
  9
$COORDS
 70
     1
  9
$SPLFRAME
 70
     0
  9
$SPLINETYPE
 70
     6
  9
$SPLINESEGS
 70
     8
  9
$ATTDIA
 70
     1
  9
$ATTREQ
 70
     1
  9
$HANDLING
 70
     1
  9
$HANDSEED
  5
8A12
  9
$SURFTAB1
 70
     6
  9
$SURFTAB2
 70
     6
  9
$SURFTYPE
 70
     6
  9
$SURFU
 70
     6
  9
$SURFV
 70
     6
  9
$UCSNAME
  2

  9
$UCSORG
 10
0.0
 20
0.0
 30
0.0
  9
$UCSXDIR
 10
1.0
 20
0.0
 30
0.0
  9
$UCSYDIR
 10
0.0
 20
1.0
 30
0.0
  9
$PUCSNAME
  2

  9
$PUCSORG
 10
0.0
 20
0.0
 30
0.0
  9
$PUCSXDIR
 10
1.0
 20
0.0
 30
0.0
  9
$PUCSYDIR
 10
0.0
 20
1.0
 30
0.0
  9
$USERI1
 70
     0
  9
$USERI2
 70
     0
  9
$USERI3
 70
     0
  9
$USERI4
 70
     0
  9
$USERI5
 70
     0
  9
$USERR1
 40
0.0
  9
$USERR2
 40
0.0
  9
$USERR3
 40
0.0
  9
$USERR4
 40
0.0
  9
$USERR5
 40
0.0
  9
$WORLDVIEW
 70
     1
  9
$SHADEDGE
 70
     3
  9
$SHADEDIF
 70
    70
  9
$TILEMODE
 70
     1
  9
$MAXACTVP
 70
    64
  9
$PLIMCHECK
 70
     0
  9
$PEXTMIN
 10
1.0000000000000000E+20
 20
1.0000000000000000E+20
 30
1.0000000000000000E+20
  9
$PEXTMAX
 10
-1.0000000000000000E+20
 20
-1.0000000000000000E+20
 30
-1.0000000000000000E+20
  9
$PLIMMIN
 10
0.0
 20
0.0
  9
$PLIMMAX
 10
12.0
 20
9.0
  9
$UNITMODE
 70
     0
  9
$VISRETAIN
 70
     1
  9
$PLINEGEN
 70
     0
  9
$PSLTSCALE
 70
     1
  0
ENDSEC
  0
SECTION
  2
TABLES
  0
TABLE
  2
VPORT
 70
     1
  0
VPORT
  2
*ACTIVE
 70
     0
 10
0.0
 20
0.0
 11
1.0
 21
1.0
 12
308.9555108833259851
 22
16.6308119545378901
 13
0.0
 23
0.0
 14
1.0
 24
1.0
 15
0.0
 25
0.0
 16
0.0
 26
0.0
 36
17.1152628219792007
 17
3803.5440673828129547
 27
125.9952621967499056
 37
0.0
 40
8.9023478413782424
 41
2.5847619047619039
 42
50.0
 43
0.0
 44
0.0
 50
0.0
 51
0.0
 71
     0
 72
   100
 73
     1
 74
     1
 75
     0
 76
     0
 77
     0
 78
     0
  0
ENDTAB
  0
TABLE
  2
LTYPE
 70
     2
  0
LTYPE
  2
CONTINUOUS
 70
     0
  3
Solid line
 72
    65
 73
     0
 40
0.0
  0
LTYPE
  2
PHANTOM2
 70
     0
  3
___ _ _ ___ _ _ ___ _ _ ___ _ _
 72
    65
 73
     6
 40
1.25
 49
0.625
 49
-0.125
 49
0.125
 49
-0.125
 49
0.125
 49
-0.125
  0
ENDTAB
  0
TABLE
  2
LAYER
 70
     2
  0
LAYER
  2
0
 70
     0
 62
   255
  6
CONTINUOUS
  0
LAYER
  2
DEFPOINTS
 70
     0
 62
     7
  6
CONTINUOUS
  0
ENDTAB
  0
TABLE
  2
STYLE
 70
     1
  0
STYLE
  2
STANDARD
 70
     0
 40
0.0
 41
0.8
 50
0.0
 71
     0
 42
0.2
  3
txt
  4

  0
ENDTAB
  0
TABLE
  2
VIEW
 70
     0
  0
ENDTAB
  0
TABLE
  2
UCS
 70
     0
  0
ENDTAB
  0
TABLE
  2
APPID
 70
     9
  0
APPID
  2
ACAD
 70
     0
  0
APPID
  2
ACAD_MLEADERVER
 70
     0
  0
APPID
  2
ACAD_EXEMPT_FROM_CAD_STANDARDS
 70
     0
  0
APPID
  2
ACAD_NAV_VCDISPLAY
 70
     0
  0
APPID
  2
ACAECLAYERSTANDARD
 70
     0
  0
APPID
  2
ACCMTRANSPARENCY
 70
     0
  0
APPID
  2
ACAD_DSTYLE_DIMJAG
 70
     0
  0
APPID
  2
ACAD_DSTYLE_DIMTALN
 70
     0
  0
APPID
  2
ACDBATTR
 70
     0
  0
ENDTAB
  0
TABLE
  2
DIMSTYLE
 70
     1
  0
DIMSTYLE
  2
STANDARD
 70
     0
  3

  4

  5

  6

  7

 40
1.0
 41
0.1875
 42
0.0625
 43
0.38
 44
0.125
 45
0.0
 46
0.0
 47
0.01
 48
0.01
140
0.15625
141
0.09
142
0.0
143
25.3999999999999986
144
1.0
145
0.0
146
1.0
147
0.09
 71
     1
 72
     0
 73
     1
 74
     1
 75
     0
 76
     0
 77
     0
 78
     4
170
     0
171
     2
172
     0
173
     0
174
     0
175
     0
176
     0
177
     0
178
     0
  0
ENDTAB
  0
ENDSEC
  0
SECTION
  2
BLOCKS
  0
BLOCK
  8
0
  2
$MODEL_SPACE
 70
     0
 10
0.0
 20
0.0
 30
0.0
  3
$MODEL_SPACE
  1

  0
ENDBLK
  5
21
  8
0
  0
BLOCK
 67
     1
  8
0
  2
$PAPER_SPACE
 70
     0
 10
0.0
 20
0.0
 30
0.0
  3
$PAPER_SPACE
  1

  0
ENDBLK
  5
1D
 67
     1
  8
0
  0
ENDSEC
  0
SECTION
  2
ENTITIES
  0
ATTDEF
  5
3930
  8
DEFPOINTS
 10
4114.2371850746158088
 20
143.3458544468753928
 30
0.0
 40
0.001
  1
K-EX27037T-4
  3

  2
MODELNUMBER
 70
     0
1001
ACDBATTR
1070
     0
1070
     1
  0
ATTDEF
  5
3931
  8
DEFPOINTS
 10
4114.2371850746158088
 20
143.3441877802086992
 30
0.0
 40
0.001
  1
OCCASION
  3

  2
TRADENAME
 70
     0
1001
ACDBATTR
1070
     0
1070
     1
  0
ATTDEF
  5
3932
  8
DEFPOINTS
 10
4114.2371850746158088
 20
143.3425211135420057
 30
0.0
 40
0.001
  1
VALVE TRIM
  3

  2
PRODUCT
 70
     0
1001
ACDBATTR
1070
     0
1070
     1
  0
LINE
  5
887A
  8
0
 10
4114.2353893578929274
 20
139.6738961573983886
 30
0.0
 11
4114.2353893578929274
 21
147.0184294761376123
 31
0.0
  0
LINE
  5
887B
  8
0
 10
4113.6453893578927818
 20
139.8860642576813973
 30
0.0
 11
4113.6453893578927818
 21
146.80044412593071
 31
0.0
  0
LINE
  5
887C
  8
0
 10
4113.8393367371227214
 20
139.6795459302493896
 30
0.0
 11
4114.2272136518677144
 21
139.6660009698649958
 31
0.0
  0
LINE
  5
887D
  8
0
 10
4113.8106428238806984
 20
139.692622499891911
 30
0.0
 11
4113.6564575853817587
 21
139.8579659252509089
 31
0.0
  0
LINE
  5
887E
  8
0
 10
4113.8396023519399023
 20
147.0123748893311131
 30
0.0
 11
4114.2272052280077332
 21
147.0263243650038021
 31
0.0
  0
LINE
  5
887F
  8
0
 10
4113.8105328671508687
 20
146.9988431716215018
 30
0.0
 11
4113.6560380818109479
 21
146.8280857526875991
 31
0.0
  0
ARC
  5
8880
  8
0
 10
4113.8410841432332745
 20
146.9712015448646127
 30
0.0
 40
0.0412
 50
92.061133532788844
 51
137.8624093343786114
  0
ARC
  5
8881
  8
0
 10
4113.8407745963922935
 20
139.7207208323223995
 30
0.0
 40
0.0412
 50
222.999999992314514
 51
267.9999999921228095
  0
ARC
  5
8882
  8
0
 10
4113.6865893578924442
 20
139.8860642576813973
 30
0.0
 40
0.0412
 50
179.9999999999967031
 51
222.9999999923120981
  0
ARC
  5
8883
  8
0
 10
4113.6865893578924442
 20
146.80044412593071
 30
0.0
 40
0.0412
 50
137.8624093343713071
 51
180.0000000000015916
  0
LINE
  5
8884
  8
0
 10
4112.2196413263927752
 20
141.1978288264378989
 30
0.0
 11
4112.2196413263927752
 21
143.127828826437991
 31
0.0
  0
LINE
  5
8885
  8
0
 10
4112.247241326393123
 20
141.1978288264378989
 30
0.0
 11
4113.6453893578927818
 21
141.1978288264378989
 31
0.0
  0
LINE
  5
8886
  8
0
 10
4112.0881013336957039
 20
141.2093688192337879
 30
0.0
 11
4112.0331813192387926
 21
141.2642888335913085
 31
0.0
  0
LINE
  5
8887
  8
0
 10
4112.0216413263915456
 20
141.2921488407955053
 30
0.0
 11
4112.0216413263915456
 21
143.033508812080413
 31
0.0
  0
ARC
  5
8888
  8
0
 10
4112.247241326393123
 20
141.2254288264379056
 30
0.0
 40
0.0276
 50
180.0000000000032117
 51
270.0
  0
LINE
  5
8889
  8
0
 10
4112.1159613408499354
 20
141.1978288264378989
 30
0.0
 11
4112.2196413263927752
 21
141.1978288264378989
 31
0.0
  0
ARC
  5
888A
  8
0
 10
4112.1159613408499354
 20
141.2372288264378994
 30
0.0
 40
0.0394
 50
225.0000000521565084
 51
270.0
  0
ARC
  5
888B
  8
0
 10
4112.0610413263930241
 20
141.2921488407955053
 30
0.0
 40
0.0394
 50
179.9999999999951115
 51
225.0000000521552863
  0
LINE
  5
888C
  8
0
 10
4111.9519247909920523
 20
141.265299444474806
 30
0.0
 11
4111.9519247909920523
 21
141.9544465671258138
 31
0.0
  0
ARC
  5
888D
  8
0
 10
4111.932224790993132
 20
141.265299444474806
 30
0.0
 40
0.0197
 50
315.1861634661223093
 51
0.0
  0
LINE
  5
888E
  8
0
 10
4111.878868334974868
 20
141.1836441571850003
 30
0.0
 11
4111.9461999818586264
 21
141.2514147752218889
 31
0.0
  0
LINE
  5
888F
  8
0
 10
4111.8648931441093737
 20
141.1778288264378887
 30
0.0
 11
4111.4166440042918111
 21
141.1778288264378887
 31
0.0
  0
ARC
  5
8890
  8
0
 10
4111.8648931441093737
 20
141.1975288264378889
 30
0.0
 40
0.0197
 50
270.0
 51
315.1861634661073026
  0
ARC
  5
8891
  8
0
 10
4111.9822712476916422
 20
141.3379800079378867
 30
0.0
 40
0.0393700786999955
 50
0.0
 51
81.3607534241211141
  0
ARC
  5
8892
  8
0
 10
4112.1626446002383091
 20
142.5251427328171872
 30
0.0
 40
1.161417113791325
 50
259.5467398954453984
 51
261.3607534241211283
  0
LINE
  5
8893
  8
0
 10
4111.755074397293356
 20
143.1989026278378958
 30
0.0
 11
4111.755074397293356
 21
142.4772311403822869
 31
0.0
  0
LINE
  5
8894
  8
0
 10
4112.0881013336957039
 20
141.2093688192337879
 30
0.0
 11
4112.0881013336957039
 21
143.1162888336419883
 31
0.0
  0
LINE
  5
8895
  8
0
 10
4113.8106428238806984
 20
139.692622499891911
 30
0.0
 11
4113.8106428238806984
 21
146.9989642190178927
 31
0.0
  0
LINE
  5
8896
  8
0
 10
4114.2272134288414236
 20
139.6707520469313977
 30
0.0
 11
4114.1172791216931728
 21
139.6745941468061858
 31
0.0
  0
LINE
  5
8897
  8
0
 10
4114.1172791216931728
 20
139.6745941468061858
 30
0.0
 11
4114.1172791216931728
 21
139.695770614106209
 31
0.0
  0
LINE
  5
8898
  8
0
 10
4114.1172791216931728
 20
139.695770614106209
 30
0.0
 11
4114.2272124310302388
 21
139.6919146384188082
 31
0.0
  0
ARC
  5
8899
  8
0
 10
4114.2274893578924093
 20
139.6998097832251062
 30
0.0
 40
0.0079
 50
267.9911402893458217
 51
0.0000000000390827
  0
ARC
  5
889A
  8
0
 10
4114.2274893578924093
 20
139.6786472266734052
 30
0.0
 40
0.0079
 50
267.9983814768453954
 51
0.0000000000260551
  0
ARC
  5
889B
  8
0
 10
4114.2274893578924093
 20
139.6738961573983886
 30
0.0
 40
0.0079
 50
267.9999999921229232
 51
359.9999999999935199
  0
ARC
  5
889C
  8
0
 10
4114.2274893578924093
 20
147.0184294761376123
 30
0.0
 40
0.0079
 50
0.0
 51
92.061133532788844
  0
LINE
  5
889D
  8
0
 10
4112.0881013336957039
 20
143.1162888336419883
 30
0.0
 11
4112.0331813192387926
 21
143.0613688192844961
 31
0.0
  0
ARC
  5
889E
  8
0
 10
4112.247241326393123
 20
143.100228826437899
 30
0.0
 40
0.0276
 50
90.0
 51
179.9999999999967031
  0
LINE
  5
889F
  8
0
 10
4112.1159613408499354
 20
143.127828826437991
 30
0.0
 11
4112.2196413263927752
 21
143.127828826437991
 31
0.0
  0
ARC
  5
88A0
  8
0
 10
4112.1159613408499354
 20
143.0884288264379052
 30
0.0
 40
0.0394
 50
90.0
 51
134.9999999478434916
  0
ARC
  5
88A1
  8
0
 10
4112.0610413263930241
 20
143.033508812080413
 30
0.0
 40
0.0394
 50
134.9999999478447137
 51
180.0000000000048885
  0
ARC
  5
88A2
  8
0
 10
4111.9822712476916422
 20
142.9876776449378895
 30
0.0
 40
0.0393700786999955
 50
278.6392465758788717
 51
0.0
  0
ARC
  5
88A3
  8
0
 10
4112.1626446002383091
 20
141.8005149200587027
 30
0.0
 40
1.161417113791325
 50
98.6392465758788859
 51
110.5438975325754996
  0
LINE
  5
88A4
  8
0
 10
4112.247241326393123
 20
143.1278288264379057
 30
0.0
 11
4113.6453893578927818
 21
143.1278288264379057
 31
0.0
  0
LINE
  5
88A5
  8
0
 10
4110.762556883743855
 20
143.1017243322694128
 30
0.0
 11
4110.8577066345242201
 21
143.1988717286122039
 31
0.0
  0
LINE
  5
88A6
  8
0
 10
4110.7513047909924353
 20
141.3121488407954871
 30
0.0
 11
4110.7513047909924353
 21
143.074155231495098
 31
0.0
  0
LINE
  5
88A7
  8
0
 10
4110.857764798171047
 20
141.1893688192591867
 30
0.0
 11
4110.7628447838142165
 21
141.2842888336166993
 31
0.0
  0
LINE
  5
88A8
  8
0
 10
4111.0775783955150473
 20
138.2258188264378873
 30
0.0
 11
4111.266020541146645
 21
138.2258188264378873
 31
0.0
  0
LINE
  5
88A9
  8
0
 10
4111.2880822726920087
 20
138.2349570948377107
 30
0.0
 11
4111.3288057358386141
 21
138.2756805578835042
 31
0.0
  0
LINE
  5
88AA
  8
0
 10
4111.3379440042926944
 20
138.2977422894836934
 30
0.0
 11
4111.3379440042926944
 21
141.0991288264378909
 31
0.0
  0
ARC
  5
88AB
  8
0
 10
4111.4166440042918111
 20
141.0991288264378909
 30
0.0
 40
0.0787
 50
90.0
 51
180.0
  0
LINE
  5
88AC
  8
0
 10
4111.014248329340262
 20
138.2756564680001929
 30
0.0
 11
4111.0556700415618252
 21
138.2348047762199883
 31
0.0
  0
LINE
  5
88AD
  8
0
 10
4111.0049566832931305
 20
138.2978705182179908
 30
0.0
 11
4111.0049566832931305
 21
141.0995288264379042
 31
0.0
  0
ARC
  5
88AE
  8
0
 10
4111.0361566832925746
 20
138.2978705182179908
 30
0.0
 40
0.0312
 50
180.0
 51
225.3969599093088902
  0
ARC
  5
88AF
  8
0
 10
4111.0775783955150473
 20
138.2570188264378999
 30
0.0
 40
0.0312
 50
225.3969599093099987
 51
270.0
  0
ARC
  5
88B0
  8
0
 10
4111.266020541146645
 20
138.2570188264378999
 30
0.0
 40
0.0312
 50
270.0
 51
314.9999999293415271
  0
ARC
  5
88B1
  8
0
 10
4111.3067440042923408
 20
138.2977422894836934
 30
0.0
 40
0.0312
 50
314.9999999293460746
 51
359.9999999999984084
  0
ARC
  5
88B2
  8
0
 10
4110.7907047909930043
 20
141.3121488407954871
 30
0.0
 40
0.0394
 50
180.0
 51
224.999999999986187
  0
ARC
  5
88B3
  8
0
 10
4110.7907047909930043
 20
143.074155231495098
 30
0.0
 40
0.0394
 50
135.5951858588468042
 51
180.0
  0
LINE
  5
88B4
  8
0
 10
4110.8858545417733694
 20
143.2107026278378896
 30
0.0
 11
4111.7432743972931348
 21
143.2107026278378896
 31
0.0
  0
ARC
  5
88B5
  8
0
 10
4110.8858545417733694
 20
143.1713026278378891
 30
0.0
 40
0.0394
 50
90.0
 51
135.5951858588491064
  0
ARC
  5
88B6
  8
0
 10
4111.7432743972931348
 20
143.1989026278378958
 30
0.0
 40
0.0118
 50
0.0000000000081422
 51
90.0
  0
LINE
  5
88B7
  8
0
 10
4111.9506116994371041
 20
141.9615184549857076
 30
0.0
 11
4111.7577005804068904
 21
142.4630873646624991
 31
0.0
  0
ARC
  5
88B8
  8
0
 10
4111.932224790993132
 20
141.9544465671258138
 30
0.0
 40
0.0197
 50
359.9999999999690772
 51
21.0375110177720401
  0
ARC
  5
88B9
  8
0
 10
4111.7944743972930155
 20
142.4772311403822869
 30
0.0
 40
0.0394
 50
180.0000000000146088
 51
201.0375110177340048
  0
ARC
  5
88BA
  8
0
 10
4110.9266566832920944
 20
141.0995288264379042
 30
0.0
 40
0.0783
 50
0.0
 51
90.0
  0
ARC
  5
88BB
  8
0
 10
4110.6854942235740964
 20
142.1440985690011871
 30
0.0
 40
0.9959099092643924
 50
284.0136404034976749
 51
293.1759062712346235
  0
ARC
  5
88BC
  8
0
 10
4111.1652306761443469
 20
140.9511729284938895
 30
0.0
 40
0.2909459004467759
 50
87.5274498805181054
 51
107.562296291629707
  0
ARC
  5
88BD
  8
0
 10
4111.1324732391231009
 20
139.5663148821352024
 30
0.0
 40
1.676145579830346
 50
83.9375896844063334
 51
88.4510091232065037
  0
ARC
  5
88BE
  8
0
 10
4111.30906212836544
 20
141.1052460233642023
 30
0.0
 40
0.1278412330472152
 50
58.9892601139380233
 51
89.8065233999933668
  0
ARC
  5
88BF
  8
0
 10
4112.7107645086189223
 20
142.6795416198380053
 30
0.0
 40
1.982394812740603
 50
227.6350123623666946
 51
229.2464534454896068
  0
LINE
  5
88C0
  8
0
 10
4110.857764798171047
 20
141.1893688192591867
 30
0.0
 11
4110.857764798171047
 21
143.1989309883464045
 31
0.0
  0
LINE
  5
88C1
  8
0
 10
4111.878868334974868
 20
141.1836441571850003
 30
0.0
 11
4111.878868334974868
 21
142.1480512026577117
 31
0.0
  0
LINE
  5
88C2
  8
0
 10
4111.8727949168242048
 20
141.3142158450648083
 30
0.0
 11
4111.9461999818586264
 21
141.3880994771261044
 31
0.0
  0
ARC
  5
88C3
  8
0
 10
4111.858819725957801
 20
141.3281005143176969
 30
0.0
 40
0.0197
 50
270.0
 51
315.1861634661223093
  0
ARC
  5
88C4
  8
0
 10
4111.932224790993132
 20
141.401984146378993
 30
0.0
 40
0.0197
 50
315.1861634661211156
 51
359.9999999999951115
  0
LINE
  5
88C5
  8
0
 10
4110.857764798171047
 20
141.3199405071389947
 30
0.0
 11
4110.7628447838142165
 21
141.4148605214965073
 31
0.0
  0
LINE
  5
88C6
  8
0
 10
4110.8856248053498348
 20
141.3084005143176967
 30
0.0
 11
4111.858819725957801
 21
141.3084005143176967
 31
0.0
  0
ARC
  5
88C7
  8
0
 10
4110.8856248053498348
 20
141.3478005143176972
 30
0.0
 40
0.0394
 50
224.9999999999872955
 51
270.0
  0
ARC
  5
88C8
  8
0
 10
4110.7907047909930043
 20
141.4427205286752098
 30
0.0
 40
0.0394
 50
180.0
 51
224.999999999986187
  0
LINE
  5
88C9
  8
0
 10
4110.762556883743855
 20
142.4596212910213069
 30
0.0
 11
4110.857716125722618
 21
142.4892646199504043
 31
0.0
  0
ARC
  5
88CA
  8
0
 10
4110.7907047909930043
 20
142.4320521902471057
 30
0.0
 40
0.0394
 50
135.5951858588468042
 51
180.0
  0
LINE
  5
88CB
  8
0
 10
4110.8858545417733694
 20
142.4937909910632925
 30
0.0
 11
4111.7432743972931348
 21
142.4937909910632925
 31
0.0
  0
ARC
  5
88CC
  8
0
 10
4110.8833359822438069
 20
142.4197226121306983
 30
0.0
 40
0.0741111860639082
 50
88.0525123266577623
 51
110.2242187231240962
  0
ARC
  5
88CD
  8
0
 10
4111.7432743972931348
 20
142.4819909910632987
 30
0.0
 40
0.0118
 50
0.0000000000081422
 51
90.0
  0
LINE
  5
88CE
  8
0
 10
4113.8393367371227214
 20
140.1080152399420058
 30
0.0
 11
4114.2272136518677144
 21
140.0944702795574983
 31
0.0
  0
LINE
  5
88CF
  8
0
 10
4113.8106428238806984
 20
140.1210918095844988
 30
0.0
 11
4113.6564575853817587
 21
140.2864352349434114
 31
0.0
  0
ARC
  5
88D0
  8
0
 10
4113.8407745963922935
 20
140.1491901420149873
 30
0.0
 40
0.0412
 50
222.999999992314514
 51
267.9999999921228095
  0
ARC
  5
88D1
  8
0
 10
4113.6865893578924442
 20
140.3145335673738998
 30
0.0
 40
0.0412
 50
179.9999999999967031
 51
222.9999999923120981
  0
ARC
  5
88D2
  8
0
 10
4114.2274893578924093
 20
140.1023654670910048
 30
0.0
 40
0.0079
 50
267.9999999921229232
 51
359.9999999999935199
  0
LINE
  5
88D3
  8
0
 10
4111.3287816459551323
 20
138.2756564680001929
 30
0.0
 11
4111.014248329340262
 21
138.2756564680001929
 31
0.0
  0
LINE
  5
88D4
  8
0
 10
4113.8164706915631541
 20
144.4244151950688888
 30
0.0
 11
4113.6732606047917216
 21
144.3754517295637072
 31
0.0
  0
LINE
  5
88D5
  8
0
 10
4114.2274035295740759
 20
144.4309531778498012
 30
0.0
 11
4113.8293518336859051
 21
144.4266283519874889
 31
0.0
  0
ARC
  5
88D6
  8
0
 10
4114.2274893578924093
 20
144.4230536440977062
 30
0.0
 40
0.0079
 50
0.0000000000130276
 51
90.6224933136879542
  0
ARC
  5
88D7
  8
0
 10
4113.8297994446647863
 20
144.3854307835590873
 30
0.0
 40
0.0412
 50
90.6224933136879542
 51
108.875535583460703
  0
ARC
  5
88D8
  8
0
 10
4113.6865893578924442
 20
144.3364673180539057
 30
0.0
 40
0.0412
 50
108.8755355834602057
 51
180.0
  0
LINE
  5
88D9
  8
0
 10
4111.153440872889405
 20
138.2756564680001929
 30
0.0
 11
4111.1948625851100587
 21
138.2348047762199883
 31
0.0
  0
LINE
  5
88DA
  8
0
 10
4111.144149226841364
 20
138.2978705182179908
 30
0.0
 11
4111.144149226841364
 21
141.1540290396457067
 31
0.0
  0
ARC
  5
88DB
  8
0
 10
4111.1753492268398986
 20
138.2978705182179908
 30
0.0
 40
0.0312
 50
180.0
 51
225.3969599093088902
  0
ARC
  5
88DC
  8
0
 10
4111.2167709390623713
 20
138.2570188264378999
 30
0.0
 40
0.0312
 50
225.3969599093099987
 51
270.0
  0
LINE
  5
88DD
  8
0
 10
4111.2484629011987636
 20
138.2349570948377107
 30
0.0
 11
4111.2891863643462784
 21
138.2756805578835042
 31
0.0
  0
LINE
  5
88DE
  8
0
 10
4111.2983246328012683
 20
138.2977422894836934
 30
0.0
 11
4111.2983246328012683
 21
141.1383783955014053
 31
0.0
  0
ARC
  5
88DF
  8
0
 10
4111.2264011696533998
 20
138.2570188264378999
 30
0.0
 40
0.0312
 50
270.0
 51
314.9999999293415271
  0
ARC
  5
88E0
  8
0
 10
4111.2671246327990957
 20
138.2977422894836934
 30
0.0
 40
0.0312
 50
314.9999999293460746
 51
359.9999999999984084
  0
ARC
  5
88E1
  8
0
 10
4111.3815622525398794
 20
141.131562922261196
 30
0.0
 40
0.0835161781658994
 50
94.5577244677788968
 51
175.319079560818011
  0
ARC
  5
88E2
  8
0
 10
4111.0542373885473353
 20
141.140669987718212
 30
0.0
 40
0.0908988610143446
 50
8.4511488390317506
 51
75.2112171687903128
  0
LINE
  5
88E4
  8
0
 10
4110.8856248053498348
 20
141.1778288264378887
 30
0.0
 11
4110.9266566832920944
 21
141.1778288264378887
 31
0.0
  0
ARC
  5
88E5
  8
0
 10
4110.8856248053498348
 20
141.2172288264378892
 30
0.0
 40
0.0394
 50
224.9999999999872955
 51
270.0
  0
LINE
  5
88E6
  8
0
 10
4112.4046806963915515
 20
144.2545547029224053
 30
0.0
 11
4112.4046806963915515
 21
145.191773141713611
 31
0.0
  0
LINE
  5
88E7
  8
0
 10
4112.4242600864081396
 20
144.2348550721332003
 30
0.0
 11
4113.6453893578927818
 21
144.2273787704679933
 31
0.0
  0
LINE
  5
88E8
  8
0
 10
4112.4242600864081396
 20
145.2114727725027876
 30
0.0
 11
4113.6453893578927818
 21
145.2189490741679947
 31
0.0
  0
ARC
  5
88E9
  8
0
 10
4112.4243806963932002
 20
144.2545547029224053
 30
0.0
 40
0.0197
 50
180.0
 51
269.649213895995274
  0
ARC
  5
88EA
  8
0
 10
4112.4243806963932002
 20
145.191773141713611
 30
0.0
 40
0.0197
 50
90.3507861040046834
 51
180.0000000000048885
  0
LINE
  5
88EB
  8
0
 10
4112.284002495893219
 20
144.2448174656680067
 30
0.0
 11
4111.8228805216658657
 21
144.2448174656680067
 31
0.0
  0
LINE
  5
88EC
  8
0
 10
4112.3116024958917478
 20
145.1739103790679906
 30
0.0
 11
4112.3116024958917478
 21
144.2724174656680134
 31
0.0
  0
LINE
  5
88ED
  8
0
 10
4112.284002495893219
 20
145.2015103790679973
 30
0.0
 11
4111.8228805216504043
 21
145.2015103790679973
 31
0.0
  0
ARC
  5
88EE
  8
0
 10
4112.284002495893219
 20
145.1739103790679906
 30
0.0
 40
0.0276
 50
359.9999999999885745
 51
90.0
  0
ARC
  5
88EF
  8
0
 10
4112.284002495893219
 20
144.2724174656680134
 30
0.0
 40
0.0276
 50
270.0
 51
0.0
  0
ARC
  5
88F0
  8
0
 10
4117.9401137754921365
 20
144.7231639224731055
 30
0.0
 40
6.161417330998038
 50
175.7857939616332033
 51
184.2142060403313906
  0
ARC
  5
88F1
  8
0
 10
4111.8228805216504043
 20
145.1739103790679906
 30
0.0
 40
0.0276
 50
90.0
 51
175.7857939616444867
  0
ARC
  5
88F2
  8
0
 10
4111.8228805216658657
 20
144.2724174656680134
 30
0.0
 40
0.0276
 50
184.2142060403232904
 51
270.0
  0
ARC
  5
88F3
  8
0
 10
4111.9669129148342108
 20
145.090939565827
 30
0.0
 40
0.0237287000274304
 50
92.5756749424446639
 51
127.9331365544317975
  0
ARC
  5
88F4
  8
0
 10
4112.030666453946651
 20
145.0275803921541069
 30
0.0
 40
0.1134614279294269
 50
133.666516995783013
 51
160.1470514911501084
  0
ARC
  5
88F5
  8
0
 10
4112.4746609807643836
 20
144.8537799499459879
 30
0.0
 40
0.5902284432859431
 50
158.9153557422804113
 51
169.7445718344411887
  0
ARC
  5
88F6
  8
0
 10
4112.6446268302515819
 20
144.7261673659307064
 30
0.0
 40
0.7859990989561806
 50
162.7794956442158991
 51
193.2652206779991104
  0
ARC
  5
88F7
  8
0
 10
4115.4357150188643573
 20
145.3841640092198872
 30
0.0
 40
3.6535996393360222
 50
193.2652206779991104
 51
194.2071713280294887
  0
ARC
  5
88F8
  8
0
 10
4114.0248991878843299
 20
145.0269848272587012
 30
0.0
 40
2.198272089617296
 50
194.2071713280294887
 51
197.1052090736287141
  0
ARC
  5
88F9
  8
0
 10
4112.0705166456737061
 20
144.438863957864811
 30
0.0
 40
0.1578709683596605
 50
201.7306705565582945
 51
215.1743287842533903
  0
ARC
  5
88FA
  8
0
 10
4112.015784636682838
 20
144.4098339750202058
 30
0.0
 40
0.0967246839092496
 50
219.7997902671976931
 51
229.8600816101001953
  0
ARC
  5
88FB
  8
0
 10
4111.965000064367814
 20
144.3496105654384962
 30
0.0
 40
0.0179469469100718
 50
229.8600816101013038
 51
272.7006223778155913
  0
LINE
  5
88FC
  8
0
 10
4111.9658456760698755
 20
144.3316835510680107
 30
0.0
 11
4112.142728357715896
 21
144.3316835510680107
 31
0.0
  0
LINE
  5
88FD
  8
0
 10
4111.9658465738975792
 20
145.1146442936679932
 30
0.0
 11
4112.1427274598872827
 21
145.1146442936679932
 31
0.0
  0
ARC
  5
88FE
  8
0
 10
4112.1416611189497416
 20
145.090939565827
 30
0.0
 40
0.0237287000274304
 50
52.0668634455681598
 51
87.4243250575553645
  0
ARC
  5
88FF
  8
0
 10
4112.0779075798382109
 20
145.0275803921541069
 30
0.0
 40
0.1134614279294269
 50
19.8529485088498312
 51
46.3334830042170083
  0
ARC
  5
8900
  8
0
 10
4111.6339130530213879
 20
144.8537799499459879
 30
0.0
 40
0.5902284432859431
 50
10.2554281655587793
 51
21.08464425771961
  0
ARC
  5
8901
  8
0
 10
4111.4639472035332801
 20
144.7261673659307064
 30
0.0
 40
0.7859990989561806
 50
346.7347793220008043
 51
17.2205043557841115
  0
ARC
  5
8902
  8
0
 10
4108.6728590149214142
 20
145.3841640092198872
 30
0.0
 40
3.6535996393360222
 50
345.7928286719704261
 51
346.7347793220008043
  0
ARC
  5
8903
  8
0
 10
4110.0836748459023511
 20
145.0269848272587012
 30
0.0
 40
2.198272089617296
 50
342.8947909263712859
 51
345.7928286719704261
  0
ARC
  5
8904
  8
0
 10
4112.0380573881111559
 20
144.438863957864811
 30
0.0
 40
0.1578709683596605
 50
324.8256712157465245
 51
338.2693294434416771
  0
ARC
  5
8905
  8
0
 10
4112.0927893971020239
 20
144.4098339750202058
 30
0.0
 40
0.0967246839092496
 50
310.1399183898997762
 51
320.2002097328023069
  0
ARC
  5
8906
  8
0
 10
4112.1435739694161384
 20
144.3496105654384962
 30
0.0
 40
0.0179469469100718
 50
267.2993776221844087
 51
310.1399183898986962
  0
LINE
  5
8907
  8
0
 10
4112.3311993474053452
 20
144.3262748374073965
 30
0.0
 11
4112.4046806963915515
 21
144.3266595883679884
 31
0.0
  0
LINE
  5
8908
  8
0
 10
4112.3311993474053452
 20
145.1200530073286075
 30
0.0
 11
4112.4046806963915515
 21
145.1196682563679872
 31
0.0
  0
ARC
  5
8909
  8
0
 10
4112.3313024958915776
 20
144.3065751074501009
 30
0.0
 40
0.0197
 50
90.3000000007680939
 51
180.0
  0
ARC
  5
890A
  8
0
 10
4112.3313024958915776
 20
145.1397527372859031
 30
0.0
 40
0.0197
 50
180.0000000000048885
 51
269.6999999992319204
  0
LINE
  5
890B
  8
0
 10
4111.7953579520917629
 20
144.2703515121064868
 30
0.0
 11
4111.7953579520917629
 21
145.175976332835404
 31
0.0
  0
ENDSEC
  0
EOF
