  0
SECTION
  2
HEADER
  9
$ACADVER
  1
AC1009
  9
$INSBASE
 10
4122.4460707948092022
 20
144.6949173493538012
 30
0.0
  9
$EXTMIN
 10
4118.7679138040730322
 20
141.2090803439996876
 30
-0.0015258207003583
  9
$EXTMAX
 10
4126.3013218376936493
 20
144.7088524239644016
 30
0.0000000349246037
  9
$LIMMIN
 10
0.0
 20
0.0
  9
$LIMMAX
 10
11.6929133858000007
 20
8.2677165353999982
  9
$ORTHOMODE
 70
     0
  9
$REGENMODE
 70
     1
  9
$FILLMODE
 70
     1
  9
$QTEXTMODE
 70
     0
  9
$MIRRTEXT
 70
     0
  9
$DRAGMODE
 70
     2
  9
$LTSCALE
 40
0.6431102362
  9
$OSMODE
 70
  4095
  9
$ATTMODE
 70
     1
  9
$TEXTSIZE
 40
0.2
  9
$TRACEWID
 40
0.05
  9
$TEXTSTYLE
  7
STANDARD
  9
$CLAYER
  8
0
  9
$CELTYPE
  6
BYLAYER
  9
$CECOLOR
 62
   256
  9
$DIMSCALE
 40
1.0
  9
$DIMASZ
 40
0.1875
  9
$DIMEXO
 40
0.0625
  9
$DIMDLI
 40
0.4443307087
  9
$DIMRND
 40
0.0
  9
$DIMDLE
 40
0.0
  9
$DIMEXE
 40
0.125
  9
$DIMTP
 40
0.01
  9
$DIMTM
 40
0.01
  9
$DIMTXT
 40
2.0
  9
$DIMCEN
 40
0.1052362205
  9
$DIMTSZ
 40
0.0
  9
$DIMTOL
 70
     1
  9
$DIMLIM
 70
     0
  9
$DIMTIH
 70
     1
  9
$DIMTOH
 70
     1
  9
$DIMSE1
 70
     0
  9
$DIMSE2
 70
     0
  9
$DIMTAD
 70
     0
  9
$DIMZIN
 70
     0
  9
$DIMBLK
  1

  9
$DIMASO
 70
     1
  9
$DIMSHO
 70
     1
  9
$DIMPOST
  1
\X
  9
$DIMAPOST
  1

  9
$DIMALT
 70
     1
  9
$DIMALTD
 70
     2
  9
$DIMALTF
 40
25.3999999999999986
  9
$DIMLFAC
 40
1.0
  9
$DIMTOFL
 70
     0
  9
$DIMTVP
 40
0.0
  9
$DIMTIX
 70
     0
  9
$DIMSOXD
 70
     0
  9
$DIMSAH
 70
     0
  9
$DIMBLK1
  1

  9
$DIMBLK2
  1

  9
$DIMSTYLE
  2
STANDARD
  9
$DIMCLRD
 70
     0
  9
$DIMCLRE
 70
     0
  9
$DIMCLRT
 70
     0
  9
$DIMTFAC
 40
1.0
  9
$DIMGAP
 40
0.09
  9
$LUNITS
 70
     2
  9
$LUPREC
 70
     4
  9
$SKETCHINC
 40
0.1
  9
$FILLETRAD
 40
0.0
  9
$AUNITS
 70
     0
  9
$AUPREC
 70
     0
  9
$MENU
  1
.
  9
$ELEVATION
 40
0.0
  9
$PELEVATION
 40
0.0
  9
$THICKNESS
 40
0.0
  9
$LIMCHECK
 70
     0
  9
$BLIPMODE
 70
     0
  9
$CHAMFERA
 40
0.0
  9
$CHAMFERB
 40
0.0
  9
$SKPOLY
 70
     0
  9
$TDCREATE
 40
2458060.468368056230247
  9
$TDUPDATE
 40
2459369.5965625001117587
  9
$TDINDWG
 40
0.3692315972
  9
$TDUSRTIMER
 40
0.3692315972
  9
$USRTIMER
 70
     1
  9
$ANGBASE
 50
0.0
  9
$ANGDIR
 70
     0
  9
$PDMODE
 70
     0
  9
$PDSIZE
 40
0.3125
  9
$PLINEWID
 40
0.0
  9
$COORDS
 70
     1
  9
$SPLFRAME
 70
     0
  9
$SPLINETYPE
 70
     6
  9
$SPLINESEGS
 70
     8
  9
$ATTDIA
 70
     1
  9
$ATTREQ
 70
     1
  9
$HANDLING
 70
     1
  9
$HANDSEED
  5
8B72
  9
$SURFTAB1
 70
     6
  9
$SURFTAB2
 70
     6
  9
$SURFTYPE
 70
     6
  9
$SURFU
 70
     6
  9
$SURFV
 70
     6
  9
$UCSNAME
  2

  9
$UCSORG
 10
0.0
 20
0.0
 30
0.0
  9
$UCSXDIR
 10
1.0
 20
0.0
 30
0.0
  9
$UCSYDIR
 10
0.0
 20
1.0
 30
0.0
  9
$PUCSNAME
  2

  9
$PUCSORG
 10
0.0
 20
0.0
 30
0.0
  9
$PUCSXDIR
 10
1.0
 20
0.0
 30
0.0
  9
$PUCSYDIR
 10
0.0
 20
1.0
 30
0.0
  9
$USERI1
 70
     0
  9
$USERI2
 70
     0
  9
$USERI3
 70
     0
  9
$USERI4
 70
     0
  9
$USERI5
 70
     0
  9
$USERR1
 40
0.0
  9
$USERR2
 40
0.0
  9
$USERR3
 40
0.0
  9
$USERR4
 40
0.0
  9
$USERR5
 40
0.0
  9
$WORLDVIEW
 70
     1
  9
$SHADEDGE
 70
     3
  9
$SHADEDIF
 70
    70
  9
$TILEMODE
 70
     1
  9
$MAXACTVP
 70
    64
  9
$PLIMCHECK
 70
     0
  9
$PEXTMIN
 10
1.0000000000000000E+20
 20
1.0000000000000000E+20
 30
1.0000000000000000E+20
  9
$PEXTMAX
 10
-1.0000000000000000E+20
 20
-1.0000000000000000E+20
 30
-1.0000000000000000E+20
  9
$PLIMMIN
 10
0.0
 20
0.0
  9
$PLIMMAX
 10
12.0
 20
9.0
  9
$UNITMODE
 70
     0
  9
$VISRETAIN
 70
     1
  9
$PLINEGEN
 70
     0
  9
$PSLTSCALE
 70
     1
  0
ENDSEC
  0
SECTION
  2
TABLES
  0
TABLE
  2
VPORT
 70
     1
  0
VPORT
  2
*ACTIVE
 70
     0
 10
0.0
 20
0.0
 11
1.0
 21
1.0
 12
318.9905504380712955
 22
16.9637041872321817
 13
0.0
 23
0.0
 14
1.0
 24
1.0
 15
0.0
 25
0.0
 16
0.0
 26
0.0
 36
17.1152628219792007
 17
3803.5440673828129547
 27
125.9952621967499056
 37
0.0
 40
3.539693434489025
 41
2.5847619047619039
 42
50.0
 43
0.0
 44
0.0
 50
0.0
 51
0.0
 71
     0
 72
   100
 73
     1
 74
     1
 75
     0
 76
     0
 77
     0
 78
     0
  0
ENDTAB
  0
TABLE
  2
LTYPE
 70
     2
  0
LTYPE
  2
CONTINUOUS
 70
     0
  3
Solid line
 72
    65
 73
     0
 40
0.0
  0
LTYPE
  2
PHANTOM2
 70
     0
  3
___ _ _ ___ _ _ ___ _ _ ___ _ _
 72
    65
 73
     6
 40
1.25
 49
0.625
 49
-0.125
 49
0.125
 49
-0.125
 49
0.125
 49
-0.125
  0
ENDTAB
  0
TABLE
  2
LAYER
 70
     2
  0
LAYER
  2
0
 70
     0
 62
   255
  6
CONTINUOUS
  0
LAYER
  2
DEFPOINTS
 70
     0
 62
     7
  6
CONTINUOUS
  0
ENDTAB
  0
TABLE
  2
STYLE
 70
     1
  0
STYLE
  2
STANDARD
 70
     0
 40
0.0
 41
0.8
 50
0.0
 71
     0
 42
0.2
  3
txt
  4

  0
ENDTAB
  0
TABLE
  2
VIEW
 70
     0
  0
ENDTAB
  0
TABLE
  2
UCS
 70
     0
  0
ENDTAB
  0
TABLE
  2
APPID
 70
     9
  0
APPID
  2
ACAD
 70
     0
  0
APPID
  2
ACAD_MLEADERVER
 70
     0
  0
APPID
  2
ACAD_EXEMPT_FROM_CAD_STANDARDS
 70
     0
  0
APPID
  2
ACAD_NAV_VCDISPLAY
 70
     0
  0
APPID
  2
ACAECLAYERSTANDARD
 70
     0
  0
APPID
  2
ACCMTRANSPARENCY
 70
     0
  0
APPID
  2
ACAD_DSTYLE_DIMJAG
 70
     0
  0
APPID
  2
ACAD_DSTYLE_DIMTALN
 70
     0
  0
APPID
  2
ACDBATTR
 70
     0
  0
ENDTAB
  0
TABLE
  2
DIMSTYLE
 70
     1
  0
DIMSTYLE
  2
STANDARD
 70
     0
  3

  4

  5

  6

  7

 40
1.0
 41
0.1875
 42
0.0625
 43
0.38
 44
0.125
 45
0.0
 46
0.0
 47
0.01
 48
0.01
140
0.15625
141
0.09
142
0.0
143
25.3999999999999986
144
1.0
145
0.0
146
1.0
147
0.09
 71
     1
 72
     0
 73
     1
 74
     1
 75
     0
 76
     0
 77
     0
 78
     4
170
     0
171
     2
172
     0
173
     0
174
     0
175
     0
176
     0
177
     0
178
     0
  0
ENDTAB
  0
ENDSEC
  0
SECTION
  2
BLOCKS
  0
BLOCK
  8
0
  2
$MODEL_SPACE
 70
     0
 10
0.0
 20
0.0
 30
0.0
  3
$MODEL_SPACE
  1

  0
ENDBLK
  5
21
  8
0
  0
BLOCK
 67
     1
  8
0
  2
$PAPER_SPACE
 70
     0
 10
0.0
 20
0.0
 30
0.0
  3
$PAPER_SPACE
  1

  0
ENDBLK
  5
1D
 67
     1
  8
0
  0
ENDSEC
  0
SECTION
  2
ENTITIES
  0
ATTDEF
  5
3930
  8
DEFPOINTS
 10
4122.443021013355974
 20
144.700021602441609
 30
0.0
 40
0.001
  1
K-EX27037T-4
  3

  2
MODELNUMBER
 70
     0
1001
ACDBATTR
1070
     0
1070
     1
  0
ATTDEF
  5
3931
  8
DEFPOINTS
 10
4122.443021013355974
 20
144.6983549357748871
 30
0.0
 40
0.001
  1
OCCASION
  3

  2
TRADENAME
 70
     0
1001
ACDBATTR
1070
     0
1070
     1
  0
ATTDEF
  5
3932
  8
DEFPOINTS
 10
4122.443021013355974
 20
144.6966882691083072
 30
0.0
 40
0.001
  1
VALVE TRIM
  3

  2
PRODUCT
 70
     0
1001
ACDBATTR
1070
     0
1070
     1
  0
LINE
  5
8A24
  8
0
 10
4121.4378509783591653
 20
141.3451527301157
 30
0.0
 11
4121.4378509783591653
 21
142.2673690983405095
 31
0.0
  0
LINE
  5
8A25
  8
0
 10
4121.5721709261197248
 20
141.2108327824537923
 30
0.0
 11
4123.3199706635059556
 21
141.2108327824537923
 31
0.0
  0
LINE
  5
8A26
  8
0
 10
4121.5443109189563984
 20
141.2223727752603963
 30
0.0
 11
4121.4493909711945889
 21
141.3172927229223035
 31
0.0
  0
LINE
  5
8A27
  8
0
 10
4122.4460707948128402
 20
142.2146023887538036
 30
0.0
 11
4122.4460707948128402
 21
141.2108327824537923
 31
0.0
  0
LINE
  5
8A28
  8
0
 10
4121.5697583801156725
 20
142.4114527824538072
 30
0.0
 11
4121.6661955647759896
 21
142.4114527824538072
 31
0.0
  0
ARC
  5
8A29
  8
0
 10
4122.0694850592853982
 20
141.5245795718039119
 30
0.0
 40
1.0205576977490589
 50
119.9535954810163929
 51
127.075545341071404
  0
ARC
  5
8A2A
  8
0
 10
4122.8083371262628134
 20
142.6221726230538138
 30
0.0
 40
1.1614173228001019
 50
188.6392465759030017
 51
200.5438953203031929
  0
ARC
  5
8A2B
  8
0
 10
4121.6211741947290648
 20
142.4417992391097982
 30
0.0
 40
0.039370078718105
 50
8.6392465759045916
 51
90.0
  0
LINE
  5
8A2C
  8
0
 10
4121.5753430275208302
 20
142.4811693178538121
 30
0.0
 11
4122.0444535478309263
 21
142.4811693178538121
 31
0.0
  0
LINE
  5
8A2D
  8
0
 10
4122.8476880417947541
 20
142.4811693178538121
 30
0.0
 11
4123.3167985621057596
 21
142.4811693178538121
 31
0.0
  0
LINE
  5
8A2E
  8
0
 10
4121.4925630059842661
 20
142.5476293250324886
 30
0.0
 11
4121.5474830203420424
 21
142.4927093106751101
 31
0.0
  0
LINE
  5
8A2F
  8
0
 10
4121.4810230131633944
 20
142.5754893322113048
 30
0.0
 11
4121.4810230131633944
 21
142.6791693178537912
 31
0.0
  0
LINE
  5
8A30
  8
0
 10
4121.4810230131633944
 20
142.7067693178537979
 30
0.0
 11
4121.4810230131633944
 21
144.1049173493537978
 31
0.0
  0
ARC
  5
8A31
  8
0
 10
4121.5204230131630538
 20
142.5754893322113048
 30
0.0
 40
0.0394
 50
180.0
 51
224.9999999999918998
  0
ARC
  5
8A32
  8
0
 10
4121.5753430275208302
 20
142.5205693178538127
 30
0.0
 40
0.0394
 50
224.9999999999918998
 51
270.0
  0
LINE
  5
8A33
  8
0
 10
4121.4810230131633944
 20
142.6791693178537912
 30
0.0
 11
4122.0078445359058605
 21
142.6791693178537912
 31
0.0
  0
LINE
  5
8A34
  8
0
 10
4122.8842970537198198
 20
142.6791693178537912
 30
0.0
 11
4123.4111185764631955
 21
142.6791693178537912
 31
0.0
  0
ARC
  5
8A35
  8
0
 10
4121.5086230131628326
 20
142.7067693178537979
 30
0.0
 40
0.0276
 50
180.0000000000146088
 51
270.0
  0
LINE
  5
8A36
  8
0
 10
4119.0097608166752252
 20
144.1049173493537978
 30
0.0
 11
4125.8823807729513646
 21
144.1049173493537978
 31
0.0
  0
LINE
  5
8A37
  8
0
 10
4118.982890081282676
 20
144.1155020135149982
 30
0.0
 11
4118.8164828119197409
 21
144.2706793026976868
 31
0.0
  0
LINE
  5
8A38
  8
0
 10
4118.798301755355169
 20
144.6949173493538012
 30
0.0
 11
4126.0938398342632354
 21
144.6949173493538012
 31
0.0
  0
ARC
  5
8A39
  8
0
 10
4119.0097608166752252
 20
144.1443173493537984
 30
0.0
 40
0.0394
 50
226.9999999892893925
 51
270.0
  0
LINE
  5
8A3A
  8
0
 10
4118.8039775487268344
 20
144.2981195983610121
 30
0.0
 11
4118.7904061700319289
 21
144.6874657866916039
 31
0.0
  0
ARC
  5
8A3B
  8
0
 10
4118.8433535473113807
 20
144.2994946385364869
 30
0.0
 40
0.0394
 50
182.0000000078881897
 51
226.9999999892926894
  0
ARC
  5
8A3C
  8
0
 10
4118.7983085552814373
 20
144.687001329731487
 30
0.0
 40
0.0079160225428604
 50
90.0492175355632156
 51
176.636351710213205
  0
ARC
  5
8A3D
  8
0
 10
4121.5721709261197248
 20
141.2502327824537929
 30
0.0
 40
0.0394
 50
225.0000000301446903
 51
270.0
  0
ARC
  5
8A3E
  8
0
 10
4121.4772509783579153
 20
141.3451527301157
 30
0.0
 40
0.0394
 50
180.0000000000098055
 51
225.0000000301446903
  0
ARC
  5
8A3F
  8
0
 10
4121.6723836530645713
 20
142.2629538587154059
 30
0.0
 40
0.2345742309933477
 50
163.7435313600375935
 51
178.9214947664164868
  0
ARC
  5
8A40
  8
0
 10
4121.4661004686040542
 20
142.3231051924769872
 30
0.0
 40
0.0197
 50
127.075545341071404
 51
163.7435313600408051
  0
ARC
  5
8A41
  8
0
 10
4121.5697583801156725
 20
142.391752782453807
 30
0.0
 40
0.0197
 50
90.0
 51
119.9535954810154976
  0
LINE
  5
8A42
  8
0
 10
4121.4509509783592875
 20
142.2146023887538036
 30
0.0
 11
4123.4411906112673023
 21
142.2146023887538036
 31
0.0
  0
ARC
  5
8A43
  8
0
 10
4121.4509509783592875
 20
142.201502388753795
 30
0.0
 40
0.0131
 50
90.0
 51
180.0
  0
LINE
  5
8A44
  8
0
 10
4121.6268241608586322
 20
142.2491794796106888
 30
0.0
 11
4121.6261644323622022
 21
142.2146023887538036
 31
0.0
  0
LINE
  5
8A45
  8
0
 10
4121.5906067321921
 20
142.3608875441516943
 30
0.0
 11
4121.625807406394415
 21
142.2558131030978075
 31
0.0
  0
ARC
  5
8A46
  8
0
 10
4121.5777764747308538
 20
142.3953629525938993
 30
0.0
 40
0.0192347696450669
 50
26.1282900678588312
 51
56.7720543300746385
  0
ARC
  5
8A47
  8
0
 10
4121.7395993537265895
 20
142.3671900664267866
 30
0.0
 40
0.1491258631459164
 50
165.7754795736996982
 51
182.4222190943675059
  0
ARC
  5
8A48
  8
0
 10
4121.6071277457103861
 20
142.2495552858460997
 30
0.0
 40
0.0197
 50
358.9069331279678181
 51
18.5212105340539317
  0
ARC
  5
8A49
  8
0
 10
4121.5809533971505516
 20
142.3508495640805052
 30
0.0
 40
0.013926518636449
 50
46.1190585438343632
 51
74.5931422124413643
  0
ARC
  5
8A4A
  8
0
 10
4121.6752620153429234
 20
142.2035724923152031
 30
0.0
 40
0.1844869558549854
 50
119.4154722500317973
 51
138.5793849321993036
  0
ARC
  5
8A4B
  8
0
 10
4121.5951492930498716
 20
142.2720511867015034
 30
0.0
 40
0.0791255519248114
 50
137.3839463790714035
 51
177.1978904379650999
  0
ARC
  5
8A4C
  8
0
 10
4121.5959397726219322
 20
142.2767771641379113
 30
0.0
 40
0.0798260331501578
 50
180.6157065979361107
 51
231.1579999209602931
  0
LINE
  5
8A4D
  8
0
 10
4121.6265624073694198
 20
142.2527776958538084
 30
0.0
 11
4121.7072296903343158
 21
142.2527776958538084
 31
0.0
  0
LINE
  5
8A4E
  8
0
 10
4121.4925630059842661
 20
142.5476293250324886
 30
0.0
 11
4122.0444535478309263
 21
142.5476293250324886
 31
0.0
  0
LINE
  5
8A4F
  8
0
 10
4122.8476880417947541
 20
142.5476293250324886
 30
0.0
 11
4123.3995785836432333
 21
142.5476293250324886
 31
0.0
  0
LINE
  5
8A50
  8
0
 10
4121.4493909711945889
 20
141.3172927229223035
 30
0.0
 11
4123.4427506184320009
 21
141.3172927229223035
 31
0.0
  0
LINE
  5
8A51
  8
0
 10
4118.8164828119197409
 20
144.2706793026976868
 30
0.0
 11
4126.0756587777068489
 21
144.2706793026976868
 31
0.0
  0
LINE
  5
8A52
  8
0
 10
4123.4542906112674245
 20
141.3451527301157
 30
0.0
 11
4123.4542906112674245
 21
142.2673690983405095
 31
0.0
  0
LINE
  5
8A53
  8
0
 10
4123.347830670669282
 20
141.2223727752603963
 30
0.0
 11
4123.4427506184320009
 21
141.3172927229223035
 31
0.0
  0
LINE
  5
8A54
  8
0
 10
4123.3223832095109174
 20
142.4114527824538072
 30
0.0
 11
4123.2259460248506002
 21
142.4114527824538072
 31
0.0
  0
ARC
  5
8A55
  8
0
 10
4122.8226565303402822
 20
141.5245795718039119
 30
0.0
 40
1.0205576977490589
 50
52.9244546589286315
 51
60.0464045189836213
  0
ARC
  5
8A56
  8
0
 10
4122.083804463362867
 20
142.6221726230538138
 30
0.0
 40
1.1614173228001019
 50
339.4561046796966934
 51
351.3607534240970267
  0
ARC
  5
8A57
  8
0
 10
4123.2709673948966156
 20
142.4417992391097982
 30
0.0
 40
0.039370078718105
 50
90.0
 51
171.3607534240954067
  0
LINE
  5
8A58
  8
0
 10
4123.3995785836432333
 20
142.5476293250324886
 30
0.0
 11
4123.3446585692836379
 21
142.4927093106751101
 31
0.0
  0
LINE
  5
8A59
  8
0
 10
4123.4111185764631955
 20
142.5754893322113048
 30
0.0
 11
4123.4111185764631955
 21
142.6791693178537912
 31
0.0
  0
LINE
  5
8A5A
  8
0
 10
4123.4111185764631955
 20
142.7067693178537979
 30
0.0
 11
4123.4111185764631955
 21
144.1049173493537978
 31
0.0
  0
ARC
  5
8A5B
  8
0
 10
4123.3717185764626265
 20
142.5754893322113048
 30
0.0
 40
0.0394
 50
315.0000000000069917
 51
0.0
  0
ARC
  5
8A5C
  8
0
 10
4123.3167985621057596
 20
142.5205693178538127
 30
0.0
 40
0.0394
 50
270.0
 51
315.0000000000069917
  0
ARC
  5
8A5D
  8
0
 10
4123.3835185764628477
 20
142.7067693178537979
 30
0.0
 40
0.0276
 50
270.0
 51
359.9999999999852776
  0
LINE
  5
8A5E
  8
0
 10
4125.9092515083430044
 20
144.1155020135149982
 30
0.0
 11
4126.0756587777068489
 21
144.2706793026976868
 31
0.0
  0
ARC
  5
8A5F
  8
0
 10
4125.8823807729513646
 20
144.1443173493537984
 30
0.0
 40
0.0394
 50
270.0
 51
313.0000000107106075
  0
LINE
  5
8A60
  8
0
 10
4126.088164040898846
 20
144.2981195983610121
 30
0.0
 11
4126.1017354195937514
 21
144.6874657866916039
 31
0.0
  0
ARC
  5
8A61
  8
0
 10
4126.0487880423152092
 20
144.2994946385364869
 30
0.0
 40
0.0394
 50
313.0000000107071969
 51
357.9999999921117251
  0
ARC
  5
8A62
  8
0
 10
4126.0938330343451526
 20
144.687001329731487
 30
0.0
 40
0.0079160225428604
 50
3.3636482897868052
 51
89.9507824644367844
  0
ARC
  5
8A63
  8
0
 10
4123.3199706635059556
 20
141.2502327824537929
 30
0.0
 40
0.0394
 50
270.0
 51
314.9999999698553097
  0
ARC
  5
8A64
  8
0
 10
4123.4148906112668556
 20
141.3451527301157
 30
0.0
 40
0.0394
 50
314.9999999698553097
 51
359.9999999999902229
  0
ARC
  5
8A65
  8
0
 10
4123.2197579365611091
 20
142.2629538587154059
 30
0.0
 40
0.2345742309933477
 50
1.078505233583511
 51
16.2564686399623213
  0
ARC
  5
8A66
  8
0
 10
4123.4260411210234452
 20
142.3231051924769872
 30
0.0
 40
0.0197
 50
16.2564686399591913
 51
52.9244546589286315
  0
ARC
  5
8A67
  8
0
 10
4123.3223832095109174
 20
142.391752782453807
 30
0.0
 40
0.0197
 50
60.0464045189844384
 51
90.0
  0
ARC
  5
8A68
  8
0
 10
4123.4411906112673023
 20
142.201502388753795
 30
0.0
 40
0.0131
 50
0.0
 51
90.0
  0
LINE
  5
8A69
  8
0
 10
4123.2653174287661386
 20
142.2491794796106888
 30
0.0
 11
4123.2659771572625687
 21
142.2146023887538036
 31
0.0
  0
LINE
  5
8A6A
  8
0
 10
4123.3015348574353993
 20
142.3608875441516943
 30
0.0
 11
4123.2663341832312653
 21
142.2558131030978075
 31
0.0
  0
ARC
  5
8A6B
  8
0
 10
4123.314365114895736
 20
142.3953629525938993
 30
0.0
 40
0.0192347696450669
 50
123.2279456699253046
 51
153.8717099321411865
  0
ARC
  5
8A6C
  8
0
 10
4123.1525422358981814
 20
142.3671900664267866
 30
0.0
 40
0.1491258631459164
 50
357.5777809056324941
 51
14.2245204263002893
  0
ARC
  5
8A6D
  8
0
 10
4123.2850138439152943
 20
142.2495552858460997
 30
0.0
 40
0.0197
 50
161.4787894659461074
 51
181.0930668720322103
  0
ARC
  5
8A6E
  8
0
 10
4123.3111881924760382
 20
142.3508495640805052
 30
0.0
 40
0.013926518636449
 50
105.406857787558593
 51
133.8809414561656013
  0
ARC
  5
8A6F
  8
0
 10
4123.2168795742818475
 20
142.2035724923152031
 30
0.0
 40
0.1844869558549854
 50
41.4206150678006395
 51
60.58452774996816
  0
ARC
  5
8A70
  8
0
 10
4123.2969922965758087
 20
142.2720511867015034
 30
0.0
 40
0.0791255519248114
 50
2.8021095620349081
 51
42.616053620928561
  0
ARC
  5
8A71
  8
0
 10
4123.2962018170037481
 20
142.2767771641379113
 30
0.0
 40
0.0798260331501578
 50
308.8420000790396784
 51
359.3842934020622124
  0
LINE
  5
8A72
  8
0
 10
4123.26557918225717
 20
142.2527776958538084
 30
0.0
 11
4123.1849118992931835
 21
142.2527776958538084
 31
0.0
  0
LINE
  5
8A73
  8
0
 10
4122.4460707948128402
 20
144.6949173493538012
 30
0.0
 11
4122.4460707948128402
 21
144.1049173493537978
 31
0.0
  0
LINE
  5
8A75
  8
0
 10
4122.9146800142580105
 20
142.8642086878519137
 30
0.0
 11
4121.9774615754668048
 21
142.8642086878519137
 31
0.0
  0
LINE
  5
8A76
  8
0
 10
4122.9343796450475566
 20
142.8837880778675071
 30
0.0
 11
4122.9418559467130763
 21
144.1049173493520072
 31
0.0
  0
LINE
  5
8A77
  8
0
 10
4121.9577619446781682
 20
142.8837880778675071
 30
0.0
 11
4121.950285643013558
 21
144.1049173493520072
 31
0.0
  0
ARC
  5
8A78
  8
0
 10
4122.9146800142580105
 20
142.883908687851914
 30
0.0
 40
0.0197
 50
270.0
 51
359.6492138960101101
  0
ARC
  5
8A79
  8
0
 10
4121.9774615754668048
 20
142.883908687851914
 30
0.0
 40
0.0197
 50
180.3507861040110072
 51
270.0
  0
LINE
  5
8A7A
  8
0
 10
4121.9953243381132779
 20
142.7711304873519111
 30
0.0
 11
4122.8968172515133119
 21
142.7711304873519111
 31
0.0
  0
LINE
  5
8A7B
  8
0
 10
4121.9677243381120206
 20
142.7435304873519044
 30
0.0
 11
4121.9677243381120206
 21
142.7288039163273083
 31
0.0
  0
LINE
  5
8A7C
  8
0
 10
4121.9677243381120206
 20
142.2988169227639901
 30
0.0
 11
4121.9677243381120206
 21
142.2824085131090897
 31
0.0
  0
ARC
  5
8A7D
  8
0
 10
4121.9953243381132779
 20
142.7435304873519044
 30
0.0
 40
0.0276
 50
90.0
 51
180.0000000000032117
  0
ARC
  5
8A7E
  8
0
 10
4122.4460707947073388
 20
148.3996417669519019
 30
0.0
 40
6.161417330998038
 50
265.7857939616393992
 51
274.2142060403460846
  0
ARC
  5
8A7F
  8
0
 10
4121.9953243381132779
 20
142.2824085131090897
 30
0.0
 40
0.0276
 50
179.9999999999967031
 51
265.7857939616395129
  0
LINE
  5
8A80
  8
0
 10
4122.8429598797738436
 20
142.7907273388642011
 30
0.0
 11
4122.8425751288132233
 21
142.8642086878519137
 31
0.0
  0
LINE
  5
8A81
  8
0
 10
4122.0491817098527463
 20
142.7907273388642011
 30
0.0
 11
4122.0495664608133666
 21
142.8642086878519137
 31
0.0
  0
ARC
  5
8A82
  8
0
 10
4122.8626596097310539
 20
142.7908304873519114
 30
0.0
 40
0.0197
 50
180.300000000754892
 51
270.0
  0
ARC
  5
8A83
  8
0
 10
4122.0294819798964454
 20
142.7908304873519114
 30
0.0
 40
0.0197
 50
270.0
 51
359.6999999992336257
  0
ARC
  5
8A84
  8
0
 10
4125.5413894815828826
 20
138.5558808245743876
 30
0.0
 40
5.1835818305400521
 50
132.896752308012907
 51
133.4528561954529948
  0
ARC
  5
8A85
  8
0
 10
4121.9953243381132779
 20
142.2988169227639901
 30
0.0
 40
0.0276
 50
133.4528561954529948
 51
180.0
  0
ARC
  5
8A86
  8
0
 10
4124.8841460658159122
 20
145.7720282822037063
 30
0.0
 40
4.2236106667535527
 50
226.4909901852664973
 51
227.1721704672575868
  0
ARC
  5
8A87
  8
0
 10
4121.9953243381132779
 20
142.7288039163273083
 30
0.0
 40
0.0276
 50
180.0
 51
226.4909901852653888
  0
LINE
  5
8A88
  8
0
 10
4122.0444535478309263
 20
142.602266688755293
 30
0.0
 11
4122.0444535478309263
 21
142.4253629064089068
 31
0.0
  0
ARC
  5
8A89
  8
0
 10
4121.9460535478319798
 20
142.602266688755293
 30
0.0
 40
0.0984
 50
359.9999999999984084
 51
47.1721704672586668
  0
ARC
  5
8A8A
  8
0
 10
4121.9460535478319798
 20
142.4253629064089068
 30
0.0
 40
0.0984
 50
312.8967523080119122
 51
0.0000000000048853
  0
LINE
  5
8A8B
  8
0
 10
4122.1715707734310854
 20
142.4253737219432878
 30
0.0
 11
4122.1715707734310854
 21
142.6016284100782059
 31
0.0
  0
ARC
  5
8A8C
  8
0
 10
4122.1527941778485911
 20
142.4264459388176078
 30
0.0
 40
0.0188071845508828
 50
318.301344086901679
 51
356.7317367819883884
  0
ARC
  5
8A8D
  8
0
 10
4122.1164761437048583
 20
142.4588025986419098
 30
0.0
 40
0.0674482478523416
 50
297.9959898379419201
 51
318.301344086901679
  0
ARC
  5
8A8E
  8
0
 10
4121.8979971498965824
 20
142.8697712129282138
 30
0.0
 40
0.532881672375552
 50
291.4312908935656878
 51
297.9959898379419201
  0
ARC
  5
8A8F
  8
0
 10
4121.2360003514722848
 20
144.5562761678000925
 30
0.0
 40
2.344659452328965
 50
290.0266340047696758
 51
291.4312908935656878
  0
ARC
  5
8A90
  8
0
 10
4122.0869646672927047
 20
142.2216482089787917
 30
0.0
 40
0.1402204185925157
 50
110.0266340047697042
 51
123.0894804294722036
  0
ARC
  5
8A91
  8
0
 10
4121.7369602574799501
 20
142.7598705931860934
 30
0.0
 40
0.5017971222454611
 50
298.4928648426487143
 51
303.0208370492828749
  0
ARC
  5
8A92
  8
0
 10
4122.1554126556602569
 20
142.6019423915587083
 30
0.0
 40
0.016161168099117
 50
358.8867793791137046
 51
34.1840086936934071
  0
ARC
  5
8A93
  8
0
 10
4122.1286747989352079
 20
142.5837822700079869
 30
0.0
 40
0.0484830337160838
 50
34.1840086936920713
 51
64.5625895311069655
  0
ARC
  5
8A94
  8
0
 10
4121.5698903773300117
 20
141.4089653289508988
 30
0.0
 40
1.3494191869622041
 50
64.5625895311069655
 51
69.6595642762951996
  0
ARC
  5
8A95
  8
0
 10
4122.2901528569082075
 20
143.203633718849602
 30
0.0
 40
0.5859719506930334
 50
237.6172789707966899
 51
244.6147383789603111
  0
LINE
  5
8A96
  8
0
 10
4122.9244172515127502
 20
142.7435304873519044
 30
0.0
 11
4122.9244172515127502
 21
142.7288039163273083
 31
0.0
  0
LINE
  5
8A97
  8
0
 10
4122.9244172515127502
 20
142.2988169227639901
 30
0.0
 11
4122.9244172515127502
 21
142.2824085131090897
 31
0.0
  0
ARC
  5
8A98
  8
0
 10
4122.8968172515133119
 20
142.7435304873519044
 30
0.0
 40
0.0276
 50
359.9999999999968168
 51
90.0
  0
ARC
  5
8A99
  8
0
 10
4122.8968172515133119
 20
142.2824085131090897
 30
0.0
 40
0.0276
 50
274.2142060383604871
 51
0.0000000000032569
  0
ARC
  5
8A9A
  8
0
 10
4119.3507521080437073
 20
138.5558808245743876
 30
0.0
 40
5.1835818305400521
 50
46.547143804546927
 51
47.1032476919870504
  0
ARC
  5
8A9B
  8
0
 10
4122.8968172515133119
 20
142.2988169227639901
 30
0.0
 40
0.0276
 50
0.0
 51
46.547143804546927
  0
ARC
  5
8A9C
  8
0
 10
4120.0079955238106777
 20
145.7720282822037063
 30
0.0
 40
4.2236106667535527
 50
312.8278295327424985
 51
313.5090098147334743
  0
ARC
  5
8A9D
  8
0
 10
4122.8968172515133119
 20
142.7288039163273083
 30
0.0
 40
0.0276
 50
313.5090098147346112
 51
0.0
  0
LINE
  5
8A9E
  8
0
 10
4122.8476880417947541
 20
142.602266688755293
 30
0.0
 11
4122.8476880417947541
 21
142.4253629064089068
 31
0.0
  0
ARC
  5
8A9F
  8
0
 10
4122.9460880417937005
 20
142.602266688755293
 30
0.0
 40
0.0984
 50
132.8278295327413048
 51
180.0000000000015916
  0
ARC
  5
8AA0
  8
0
 10
4122.9460880417937005
 20
142.4253629064089068
 30
0.0
 40
0.0984
 50
179.9999999999951115
 51
227.1032476919880878
  0
LINE
  5
8AA1
  8
0
 10
4122.7205708161936855
 20
142.4253737219432878
 30
0.0
 11
4122.7205708161936855
 21
142.6016284100782059
 31
0.0
  0
ARC
  5
8AA2
  8
0
 10
4122.7393474117779988
 20
142.4264459388176078
 30
0.0
 40
0.0188071845508828
 50
183.2682632180116116
 51
221.6986559130982926
  0
ARC
  5
8AA3
  8
0
 10
4122.7756654459217316
 20
142.4588025986419098
 30
0.0
 40
0.0674482478523416
 50
221.6986559130982926
 51
242.0040101620581083
  0
ARC
  5
8AA4
  8
0
 10
4122.9941444397281884
 20
142.8697712129282138
 30
0.0
 40
0.532881672375552
 50
242.0040101620581083
 51
248.5687091064343122
  0
ARC
  5
8AA5
  8
0
 10
4123.656141238154305
 20
144.5562761678000925
 30
0.0
 40
2.344659452328965
 50
248.5687091064343122
 51
249.9733659952302958
  0
ARC
  5
8AA6
  8
0
 10
4122.8051769223338852
 20
142.2216482089787917
 30
0.0
 40
0.1402204185925157
 50
56.9105195705277396
 51
69.9733659952302673
  0
ARC
  5
8AA7
  8
0
 10
4123.1551813321466398
 20
142.7598705931860934
 30
0.0
 40
0.5017971222454611
 50
236.9791629507170967
 51
241.5071351573512004
  0
ARC
  5
8AA8
  8
0
 10
4122.736728933968152
 20
142.6019423915587083
 30
0.0
 40
0.016161168099117
 50
145.8159913063066142
 51
181.1132206208862954
  0
ARC
  5
8AA9
  8
0
 10
4122.7634667906913819
 20
142.5837822700079869
 30
0.0
 40
0.0484830337160838
 50
115.4374104688930061
 51
145.8159913063078932
  0
ARC
  5
8AAA
  8
0
 10
4123.3222512122956687
 20
141.4089653289508988
 30
0.0
 40
1.3494191869622041
 50
110.3404357233737016
 51
115.4374104688930061
  0
ARC
  5
8AAB
  8
0
 10
4122.6019887327192919
 20
143.203633718849602
 30
0.0
 40
0.5859719506930334
 50
295.3852616216644833
 51
302.3827210292031964
  0
LINE
  5
8AAC
  8
0
 10
4122.8988832053046281
 20
142.254885943553802
 30
0.0
 11
4121.9932583843201428
 21
142.254885943553802
 31
0.0
  0
ENDSEC
  0
EOF
