  0
SECTION
  2
HEADER
  9
$ACADVER
  1
AC1009
  9
$INSBASE
 10
3684.1935820492631137
 20
283.9014661171271996
 30
0.0
  9
$EXTMIN
 10
3640.846863846962151
 20
260.3189686608797047
 30
-0.0000000000112498
  9
$EXTMAX
 10
3727.6548046381672066
 20
307.4738741851243731
 30
0.0000000000002956
  9
$LIMMIN
 10
0.0
 20
0.0
  9
$LIMMAX
 10
11.6929133858000007
 20
8.2677165353999982
  9
$ORTHOMODE
 70
     0
  9
$REGENMODE
 70
     1
  9
$FILLMODE
 70
     1
  9
$QTEXTMODE
 70
     0
  9
$MIRRTEXT
 70
     0
  9
$DRAGMODE
 70
     2
  9
$LTSCALE
 40
0.6431102362
  9
$OSMODE
 70
     7
  9
$ATTMODE
 70
     1
  9
$TEXTSIZE
 40
0.2
  9
$TRACEWID
 40
0.05
  9
$TEXTSTYLE
  7
STANDARD
  9
$CLAYER
  8
0
  9
$CELTYPE
  6
BYLAYER
  9
$CECOLOR
 62
   256
  9
$DIMSCALE
 40
1.0
  9
$DIMASZ
 40
0.1875
  9
$DIMEXO
 40
0.0625
  9
$DIMDLI
 40
0.4443307087
  9
$DIMRND
 40
0.0
  9
$DIMDLE
 40
0.0
  9
$DIMEXE
 40
0.125
  9
$DIMTP
 40
0.01
  9
$DIMTM
 40
0.01
  9
$DIMTXT
 40
2.0
  9
$DIMCEN
 40
0.1052362205
  9
$DIMTSZ
 40
0.0
  9
$DIMTOL
 70
     1
  9
$DIMLIM
 70
     0
  9
$DIMTIH
 70
     1
  9
$DIMTOH
 70
     1
  9
$DIMSE1
 70
     0
  9
$DIMSE2
 70
     0
  9
$DIMTAD
 70
     0
  9
$DIMZIN
 70
     0
  9
$DIMBLK
  1

  9
$DIMASO
 70
     1
  9
$DIMSHO
 70
     1
  9
$DIMPOST
  1
\X
  9
$DIMAPOST
  1

  9
$DIMALT
 70
     1
  9
$DIMALTD
 70
     2
  9
$DIMALTF
 40
25.3999999999999986
  9
$DIMLFAC
 40
1.0
  9
$DIMTOFL
 70
     0
  9
$DIMTVP
 40
0.0
  9
$DIMTIX
 70
     0
  9
$DIMSOXD
 70
     0
  9
$DIMSAH
 70
     0
  9
$DIMBLK1
  1

  9
$DIMBLK2
  1

  9
$DIMSTYLE
  2
STANDARD
  9
$DIMCLRD
 70
     0
  9
$DIMCLRE
 70
     0
  9
$DIMCLRT
 70
     0
  9
$DIMTFAC
 40
1.0
  9
$DIMGAP
 40
0.09
  9
$LUNITS
 70
     2
  9
$LUPREC
 70
     4
  9
$SKETCHINC
 40
0.1
  9
$FILLETRAD
 40
0.0
  9
$AUNITS
 70
     0
  9
$AUPREC
 70
     0
  9
$MENU
  1
.
  9
$ELEVATION
 40
0.0
  9
$PELEVATION
 40
0.0
  9
$THICKNESS
 40
0.0
  9
$LIMCHECK
 70
     0
  9
$BLIPMODE
 70
     0
  9
$CHAMFERA
 40
0.0
  9
$CHAMFERB
 40
0.0
  9
$SKPOLY
 70
     0
  9
$TDCREATE
 40
2458060.468368056230247
  9
$TDUPDATE
 40
2459646.5826736111193895
  9
$TDINDWG
 40
1.0155626156999999
  9
$TDUSRTIMER
 40
1.0155626156999999
  9
$USRTIMER
 70
     1
  9
$ANGBASE
 50
0.0
  9
$ANGDIR
 70
     0
  9
$PDMODE
 70
     0
  9
$PDSIZE
 40
0.3125
  9
$PLINEWID
 40
0.0
  9
$COORDS
 70
     1
  9
$SPLFRAME
 70
     0
  9
$SPLINETYPE
 70
     6
  9
$SPLINESEGS
 70
     8
  9
$ATTDIA
 70
     1
  9
$ATTREQ
 70
     1
  9
$HANDLING
 70
     1
  9
$HANDSEED
  5
2D05C
  9
$SURFTAB1
 70
     6
  9
$SURFTAB2
 70
     6
  9
$SURFTYPE
 70
     6
  9
$SURFU
 70
     6
  9
$SURFV
 70
     6
  9
$UCSNAME
  2

  9
$UCSORG
 10
0.0
 20
0.0
 30
0.0
  9
$UCSXDIR
 10
1.0
 20
0.0
 30
0.0
  9
$UCSYDIR
 10
0.0
 20
1.0
 30
0.0
  9
$PUCSNAME
  2

  9
$PUCSORG
 10
0.0
 20
0.0
 30
0.0
  9
$PUCSXDIR
 10
1.0
 20
0.0
 30
0.0
  9
$PUCSYDIR
 10
0.0
 20
1.0
 30
0.0
  9
$USERI1
 70
     0
  9
$USERI2
 70
     0
  9
$USERI3
 70
     0
  9
$USERI4
 70
     0
  9
$USERI5
 70
     0
  9
$USERR1
 40
0.0
  9
$USERR2
 40
0.0
  9
$USERR3
 40
0.0
  9
$USERR4
 40
0.0
  9
$USERR5
 40
0.0
  9
$WORLDVIEW
 70
     1
  9
$SHADEDGE
 70
     3
  9
$SHADEDIF
 70
    70
  9
$TILEMODE
 70
     1
  9
$MAXACTVP
 70
    64
  9
$PLIMCHECK
 70
     0
  9
$PEXTMIN
 10
1.0000000000000000E+20
 20
1.0000000000000000E+20
 30
1.0000000000000000E+20
  9
$PEXTMAX
 10
-1.0000000000000000E+20
 20
-1.0000000000000000E+20
 30
-1.0000000000000000E+20
  9
$PLIMMIN
 10
0.0
 20
0.0
  9
$PLIMMAX
 10
12.0
 20
9.0
  9
$UNITMODE
 70
     0
  9
$VISRETAIN
 70
     1
  9
$PLINEGEN
 70
     0
  9
$PSLTSCALE
 70
     1
  0
ENDSEC
  0
SECTION
  2
TABLES
  0
TABLE
  2
VPORT
 70
     1
  0
VPORT
  2
*ACTIVE
 70
     0
 10
0.0
 20
0.0
 11
1.0
 21
1.0
 12
420.8617961566268946
 22
132.1747188473183883
 13
0.0
 23
0.0
 14
1.0
 24
1.0
 15
0.0
 25
0.0
 16
0.0
 26
0.0
 36
92.3385285193394054
 17
3263.3890380859379547
 27
151.7217025756835938
 37
0.0
 40
47.4925301461366303
 41
2.2831541218637992
 42
50.0
 43
0.0
 44
0.0
 50
0.0
 51
0.0
 71
     0
 72
   100
 73
     1
 74
     1
 75
     0
 76
     0
 77
     0
 78
     0
  0
ENDTAB
  0
TABLE
  2
LTYPE
 70
     2
  0
LTYPE
  2
CONTINUOUS
 70
     0
  3
Solid line
 72
    65
 73
     0
 40
0.0
  0
LTYPE
  2
PHANTOM2
 70
     0
  3
___ _ _ ___ _ _ ___ _ _ ___ _ _
 72
    65
 73
     6
 40
1.25
 49
0.625
 49
-0.125
 49
0.125
 49
-0.125
 49
0.125
 49
-0.125
  0
ENDTAB
  0
TABLE
  2
LAYER
 70
     2
  0
LAYER
  2
0
 70
     0
 62
   255
  6
CONTINUOUS
  0
LAYER
  2
DEFPOINTS
 70
     0
 62
     7
  6
CONTINUOUS
  0
ENDTAB
  0
TABLE
  2
STYLE
 70
     1
  0
STYLE
  2
STANDARD
 70
     0
 40
0.0
 41
0.8
 50
0.0
 71
     0
 42
0.2
  3
txt
  4

  0
ENDTAB
  0
TABLE
  2
VIEW
 70
     0
  0
ENDTAB
  0
TABLE
  2
UCS
 70
     0
  0
ENDTAB
  0
TABLE
  2
APPID
 70
    11
  0
APPID
  2
ACAD
 70
     0
  0
APPID
  2
ACAD_MLEADERVER
 70
     0
  0
APPID
  2
ACAD_EXEMPT_FROM_CAD_STANDARDS
 70
     0
  0
APPID
  2
ACAD_NAV_VCDISPLAY
 70
     0
  0
APPID
  2
ACAECLAYERSTANDARD
 70
     0
  0
APPID
  2
ACCMTRANSPARENCY
 70
     0
  0
APPID
  2
ACAD_DSTYLE_DIMJAG
 70
     0
  0
APPID
  2
ACAD_DSTYLE_DIMTALN
 70
     0
  0
APPID
  2
ACDBATTR
 70
     0
  0
APPID
  2
ACADANNOTATIVE
 70
     0
  0
APPID
  2
DCO15
 70
     0
  0
ENDTAB
  0
TABLE
  2
DIMSTYLE
 70
     1
  0
DIMSTYLE
  2
STANDARD
 70
     0
  3

  4

  5

  6

  7

 40
1.0
 41
0.1875
 42
0.0625
 43
0.38
 44
0.125
 45
0.0
 46
0.0
 47
0.01
 48
0.01
140
0.15625
141
0.09
142
0.0
143
25.3999999999999986
144
1.0
145
0.0
146
1.0
147
0.09
 71
     1
 72
     0
 73
     1
 74
     1
 75
     0
 76
     0
 77
     0
 78
     4
170
     0
171
     2
172
     0
173
     0
174
     0
175
     0
176
     0
177
     0
178
     0
  0
ENDTAB
  0
ENDSEC
  0
SECTION
  2
BLOCKS
  0
BLOCK
  8
0
  2
$MODEL_SPACE
 70
     0
 10
0.0
 20
0.0
 30
0.0
  3
$MODEL_SPACE
  1

  0
ENDBLK
  5
21
  8
0
  0
BLOCK
 67
     1
  8
0
  2
$PAPER_SPACE
 70
     0
 10
0.0
 20
0.0
 30
0.0
  3
$PAPER_SPACE
  1

  0
ENDBLK
  5
1D
 67
     1
  8
0
  0
ENDSEC
  0
SECTION
  2
ENTITIES
  0
ATTDEF
  5
2143C
  8
DEFPOINTS
 10
3684.1937006595398998
 20
283.9049484213140886
 30
0.0
 40
0.001
  1
K-EX24430T-XVBW
  3

  2
MODELNUMBER
 70
     0
1001
ACDBATTR
1070
     0
1070
     1
  0
ATTDEF
  5
2143D
  8
DEFPOINTS
 10
3684.1937006595398998
 20
283.9032817546474803
 30
0.0
 40
0.001
  1

  3

  2
TRADENAME
 70
     0
1001
ACDBATTR
1070
     0
1070
     1
  0
ATTDEF
  5
2143E
  8
DEFPOINTS
 10
3684.1937006595398998
 20
283.9016150879808151
 30
0.0
 40
0.001
  1
BATH
  3

  2
PRODUCT
 70
     0
1001
ACDBATTR
1070
     0
1070
     1
  0
ARC
  5
2CEA1
  8
0
 10
3721.4104767245730727
 20
266.5526655557187041
 30
0.0
 40
3.4536725835356501
 50
160.2858167526752027
 51
199.7141832473247973
  0
ARC
  5
2CEA2
  8
0
 10
3721.2831518384009541
 20
266.4962616494029248
 30
0.0
 40
3.3147994804946652
 50
199.5387829789578973
 51
243.3306502583457984
  0
ARC
  5
2CEA3
  8
0
 10
3721.2595160762789419
 20
266.4737131154167855
 30
0.0
 40
3.284059572695845
 50
243.5225720259792013
 51
296.4774279740200882
  0
ARC
  5
2CEA4
  8
0
 10
3721.2407290488690705
 20
266.5292411451629846
 30
0.0
 40
3.3421488104651118
 50
296.3413015906261876
 51
336.8925510038558855
  0
ARC
  5
2CEA5
  8
0
 10
3721.2939810242460226
 20
266.5123856003099263
 30
0.0
 40
3.286558573372929
 50
336.7984829254103829
 51
23.2015170745896313
  0
ARC
  5
2CEA6
  8
0
 10
3721.2737947188170438
 20
266.4891006928273782
 30
0.0
 40
3.3143130643097098
 50
23.4340159137558999
 51
72.2413475225040997
  0
ARC
  5
2CEA7
  8
0
 10
3721.2172508138851299
 20
266.3606281990312823
 30
0.0
 40
3.4539412923888451
 50
71.998085747876047
 51
108.0019142521238962
  0
ARC
  5
2CEA8
  8
0
 10
3721.106346861433849
 20
266.6661998612501066
 30
0.0
 40
3.1290732663269711
 50
107.7997951042758018
 51
160.3643355423529044
  0
ARC
  5
2CEA9
  8
0
 10
3720.5960193067949149
 20
267.2948432462284245
 30
0.0
 40
2.29967791948205
 50
332.528180252230527
 51
27.4718197477695192
  0
ARC
  5
2CEAA
  8
0
 10
3720.4054158647968507
 20
267.3631939275609852
 30
0.0
 40
2.5004683777144612
 50
302.2641196693339793
 51
333.1533879226000749
  0
ARC
  5
2CEAB
  8
0
 10
3720.4819092339571398
 20
267.1727229694658945
 30
0.0
 40
2.2988706256340321
 50
236.8137913163018879
 51
303.1862086836979984
  0
ARC
  5
2CEAC
  8
0
 10
3720.4159860552649661
 20
267.0038806734648915
 30
0.0
 40
2.1218102870087652
 50
205.5443257174777898
 51
235.807950258924393
  0
ARC
  5
2CEAD
  8
0
 10
3720.5915433081790979
 20
267.0627759091563007
 30
0.0
 40
2.3057137371747691
 50
155.01637606048169
 51
204.9836239395181963
  0
ARC
  5
2CEAE
  8
0
 10
3720.7663018262101104
 20
267.0047976193663999
 30
0.0
 40
2.4886983002083318
 50
112.7684166207847056
 51
155.505784869806007
  0
ARC
  5
2CEAF
  8
0
 10
3720.7091693671400208
 20
267.1850586755994073
 30
0.0
 40
2.300436533080346
 50
66.8061306541580677
 51
113.1938693458419039
  0
ARC
  5
2CEB0
  8
0
 10
3720.7648112554670661
 20
267.3551466080521095
 30
0.0
 40
2.1222404741676821
 50
28.1295642582264698
 51
66.3783936915633603
  0
ARC
  5
2CEB1
  8
0
 10
3720.7039652892872255
 20
267.1919317811166934
 30
0.0
 40
2.272689897031551
 50
68.0292924349627839
 51
111.9707075650372019
  0
ARC
  5
2CEB2
  8
0
 10
3720.7779340055340072
 20
267.3752806019232935
 30
0.0
 40
2.0749826359751249
 50
26.4086803663418301
 51
68.0292924349627839
  0
ARC
  5
2CEB3
  8
0
 10
3720.5942895459747888
 20
267.2953510428487789
 30
0.0
 40
2.2750354860830431
 50
333.8454641111881074
 51
26.1545358888118997
  0
ARC
  5
2CEB4
  8
0
 10
3720.4099768567630235
 20
267.3599939495633748
 30
0.0
 40
2.469079481959175
 50
301.2347227968205061
 51
334.3842963890684246
  0
ARC
  5
2CEB5
  8
0
 10
3720.481276640572105
 20
267.1766309124935219
 30
0.0
 40
2.2755784890337671
 50
237.9062245349039983
 51
302.0937754650959732
  0
ARC
  5
2CEB6
  8
0
 10
3720.4191861465428701
 20
267.0146635928837213
 30
0.0
 40
2.1056397346942921
 50
204.3976368199265039
 51
236.995922858704688
  0
ARC
  5
2CEB7
  8
0
 10
3720.5803902502070741
 20
267.0680427718929195
 30
0.0
 40
2.2745686254094668
 50
156.055168951585614
 51
203.944831048414386
  0
ARC
  5
2CEB8
  8
0
 10
3720.7622891140308639
 20
267.0077630497307837
 30
0.0
 40
2.4653487770258158
 50
111.6263882040340008
 51
156.4905372850193999
  0
LINE
  5
2CEB9
  8
0
 10
3727.4456753282688624
 20
260.9243360815996766
 30
0.0
 11
3727.4456753282688624
 21
306.8785961526547226
 31
0.0
  0
LINE
  5
2CEBA
  8
0
 10
3640.9414887702569104
 20
306.8785961526231745
 30
0.0
 11
3640.9414887702569104
 21
260.9243360816312247
 31
0.0
  0
LINE
  5
2CEBB
  8
0
 10
3726.8557545323888007
 20
307.4685184819870756
 30
0.0
 11
3641.5314095661360625
 21
307.4685184819870756
 31
0.0
  0
LINE
  5
2CEBC
  8
0
 10
3726.8557545323888007
 20
260.3344137522673236
 30
0.0
 11
3641.5314095661360625
 21
260.3344137522673236
 31
0.0
  0
ARC
  5
2CEBD
  8
0
 10
3726.8556192132741671
 20
260.9244698669122045
 30
0.0
 40
0.5900561301613818
 50
270.013139791042704
 51
359.9870091446595097
  0
LINE
  5
2CEBE
  8
0
 10
3665.0966403377587994
 20
300.1031951603324046
 30
0.0
 11
3703.2905237607669733
 21
300.1031951603324046
 31
0.0
  0
ARC
  5
2CEBF
  8
0
 10
3671.1728397070869505
 20
284.5464936487654768
 30
0.0
 40
11.2337808878818493
 50
90.5429571396473136
 51
111.317346902550895
  0
ARC
  5
2CEC0
  8
0
 10
3671.34510360596596
 20
284.1672888660381773
 30
0.0
 40
11.6496865681366106
 50
111.4286181109657008
 51
146.8966725152023116
  0
ARC
  5
2CEC1
  8
0
 10
3667.9736256734267954
 20
282.8067097042392106
 30
0.0
 40
14.5128257520765001
 50
90.204304074880767
 51
110.8330967374845955
  0
ARC
  5
2CEC2
  8
0
 10
3667.7024661052000738
 20
283.4235103004385223
 30
0.0
 40
13.8399562058849792
 50
110.6920589401329948
 51
144.9433571353154093
  0
ARC
  5
2CEC3
  8
0
 10
3685.4629601274218658
 20
333.5336375745885107
 30
0.0
 40
40.2387561696119604
 50
244.1558258543398949
 51
246.3490345544076092
  0
ARC
  5
2CEC4
  8
0
 10
3659.981364522090189
 20
275.3496995850626945
 30
0.0
 40
23.280393341088029
 50
62.4200145718175889
 51
66.3490345544075524
  0
ARC
  5
2CEC5
  8
0
 10
3669.9229925692238794
 20
294.3403468212829921
 30
0.0
 40
1.845005515655872
 50
52.992128715130292
 51
63.0256711851314009
  0
ARC
  5
2CEC6
  8
0
 10
3670.7934783608770886
 20
295.548349345943393
 30
0.0
 40
0.3578183188383626
 50
40.2973872017864423
 51
47.8616311476990077
  0
ARC
  5
2CEC7
  8
0
 10
3657.179524600438981
 20
290.2000411073840951
 30
0.0
 40
0.1973960200055523
 50
135.0600122414548139
 51
224.6349671700056092
  0
ARC
  5
2CEC8
  8
0
 10
3657.1778637156589866
 20
290.1992479456648084
 30
0.0
 40
0.1956578009147261
 50
224.8114030131216055
 51
315.1979457781404221
  0
ARC
  5
2CEC9
  8
0
 10
3657.1769661011931021
 20
290.2007722671389729
 30
0.0
 40
0.1973693378948793
 50
315.0675839890359953
 51
44.6590834757804274
  0
ARC
  5
2CECA
  8
0
 10
3657.1785895691527912
 20
290.2017949743748773
 30
0.0
 40
0.1954961526314873
 50
44.7803188675104593
 51
135.230289944912613
  0
ARC
  5
2CECB
  8
0
 10
3657.1725790127002256
 20
290.1993860450248235
 30
0.0
 40
0.1956578009147261
 50
269.2771578732538842
 51
315.1979457781404221
  0
ARC
  5
2CECC
  8
0
 10
3657.1716813982338863
 20
290.200910366498988
 30
0.0
 40
0.1973693378948793
 50
315.0675839890359953
 51
44.6590834757804274
  0
ARC
  5
2CECD
  8
0
 10
3657.1733048661931207
 20
290.2019330737348923
 30
0.0
 40
0.1954961526314873
 50
44.7803188675104593
 51
87.7283875579904446
  0
ARC
  5
2CECE
  8
0
 10
3655.4851194065381605
 20
286.2627380630841003
 30
0.0
 40
0.1973960200055523
 50
135.0600122414548139
 51
224.6349671700056092
  0
ARC
  5
2CECF
  8
0
 10
3655.4834585217590757
 20
286.2619449013648136
 30
0.0
 40
0.1956578009147261
 50
224.8114030131216055
 51
315.1979457781404221
  0
ARC
  5
2CED0
  8
0
 10
3655.4825609072941006
 20
286.2634692228389781
 30
0.0
 40
0.1973693378948793
 50
315.0675839890359953
 51
44.6590834757804274
  0
ARC
  5
2CED1
  8
0
 10
3655.4841843752528803
 20
286.2644919300748825
 30
0.0
 40
0.1954961526314873
 50
44.7803188675104593
 51
135.230289944912613
  0
ARC
  5
2CED2
  8
0
 10
3655.4781738187998599
 20
286.2620830007247719
 30
0.0
 40
0.1956578009147261
 50
269.2771578732538842
 51
315.1979457781404221
  0
ARC
  5
2CED3
  8
0
 10
3655.4772762043339753
 20
286.2636073221989932
 30
0.0
 40
0.1973693378948793
 50
315.0675839890359953
 51
44.6590834757804274
  0
ARC
  5
2CED4
  8
0
 10
3655.4788996722941192
 20
286.2646300294350112
 30
0.0
 40
0.1954961526314873
 50
44.7803188675104593
 51
87.7283875579904446
  0
CIRCLE
  5
2CED5
  8
0
 10
3698.6292775899578373
 20
283.9014661245323055
 30
0.0
 40
0.984251968499997
  0
CIRCLE
  5
2CED6
  8
0
 10
3698.6292775899578373
 20
283.9014661245323055
 30
0.0
 40
2.5507039322999989
  0
CIRCLE
  5
2CED7
  8
0
 10
3698.6292775899578373
 20
283.9014661245323055
 30
0.0
 40
1.5359000583000011
  0
ARC
  5
2CED8
  8
0
 10
3691.4674222543999349
 20
295.3894113242848789
 30
0.0
 40
0.2271990261136236
 50
147.3046309019073874
 51
212.6953690980994054
  0
ARC
  5
2CED9
  8
0
 10
3691.681532410762884
 20
295.5212557955809984
 30
0.0
 40
0.4786262089164545
 50
212.1324800939667057
 51
233.2354203733270879
  0
ARC
  5
2CEDA
  8
0
 10
3692.0997089640659397
 20
296.0826188897149791
 30
0.0
 40
1.1786260340945749
 50
233.2835424711273049
 51
247.8380770789615042
  0
ARC
  5
2CEDB
  8
0
 10
3692.8454164972131366
 20
298.0050027043033083
 30
0.0
 40
3.2404710603780922
 50
248.4490881808658003
 51
260.9174349090446867
  0
ARC
  5
2CEDC
  8
0
 10
3691.8279133006622033
 20
295.4595025105286936
 30
0.0
 40
0.1878640238036335
 50
150.2352574215815082
 51
209.7647425784184065
  0
ARC
  5
2CEDD
  8
0
 10
3691.9849932443780745
 20
295.5493347235166084
 30
0.0
 40
0.3688168773541265
 50
209.7647425784184065
 51
233.2418253140511126
  0
ARC
  5
2CEDE
  8
0
 10
3692.4161027666100381
 20
296.1403882296385177
 30
0.0
 40
1.100374445911356
 50
233.6749461932824943
 51
250.9659391799550008
  0
ARC
  5
2CEDF
  8
0
 10
3693.0477087661429323
 20
297.9669258196389023
 30
0.0
 40
3.0330319457260999
 50
250.9397980006677074
 51
262.6958407721264734
  0
ARC
  5
2CEE0
  8
0
 10
3691.9849932443780745
 20
295.3696702975406083
 30
0.0
 40
0.3688168773541265
 50
126.7581746859489016
 51
150.2352574215815082
  0
ARC
  5
2CEE1
  8
0
 10
3692.4161027666100381
 20
294.778616791418699
 30
0.0
 40
1.100374445911356
 50
109.0340608200449992
 51
126.3250538067174062
  0
ARC
  5
2CEE2
  8
0
 10
3693.0477087661429323
 20
292.9520792014183144
 30
0.0
 40
3.0330319457260999
 50
97.304159227873555
 51
109.0602019993323069
  0
ARC
  5
2CEE3
  8
0
 10
3691.9849932443780745
 20
295.7354952345909282
 30
0.0
 40
0.3688168773541265
 50
209.7320197588281019
 51
233.2418253140511126
  0
ARC
  5
2CEE4
  8
0
 10
3692.4161027666100381
 20
296.3265487407127807
 30
0.0
 40
1.100374445911356
 50
233.6749461932824943
 51
250.9659391799550008
  0
ARC
  5
2CEE5
  8
0
 10
3693.0477087661429323
 20
298.1530863307132222
 30
0.0
 40
3.0330319457260999
 50
250.9397980006677074
 51
262.6958407721264734
  0
ARC
  5
2CEE6
  8
0
 10
3691.6721452073279579
 20
295.2341749002079041
 30
0.0
 40
0.4837548103206806
 50
122.2784364905982954
 51
144.9287324688451122
  0
ARC
  5
2CEE7
  8
0
 10
3692.2091382246089779
 20
294.3840277226815942
 30
0.0
 40
1.4892953237084701
 50
108.8009179584961004
 51
122.2784364905982954
  0
ARC
  5
2CEE8
  8
0
 10
3692.8162362071529969
 20
292.5127516580864722
 30
0.0
 40
3.4565002594718561
 50
98.6003381294819974
 51
108.3306324451346967
  0
ARC
  5
2CEE9
  8
0
 10
3693.1524760174429503
 20
290.4669121910075091
 30
0.0
 40
5.5296805819307107
 50
94.412566867820729
 51
98.8751439175482147
  0
ARC
  5
2CEEA
  8
0
 10
3695.1892087768487727
 20
295.3737149292240929
 30
0.0
 40
0.1934336964110789
 50
326.405101785405293
 51
34.3392098986565699
  0
ARC
  5
2CEEB
  8
0
 10
3694.9450228357591186
 20
295.5212557955809984
 30
0.0
 40
0.4786262089164545
 50
306.7645796266729121
 51
327.8675199060331806
  0
ARC
  5
2CEEC
  8
0
 10
3694.5268462824551534
 20
296.0826188897149791
 30
0.0
 40
1.1786260340945749
 50
292.1619229210385242
 51
306.7164575288728088
  0
ARC
  5
2CEED
  8
0
 10
3693.7811387493079565
 20
298.0050027043033083
 30
0.0
 40
3.2404710603780922
 50
279.0825650909553133
 51
291.5509118191342282
  0
ARC
  5
2CEEE
  8
0
 10
3694.7986419458588898
 20
295.4595025105286936
 30
0.0
 40
0.1878640238036335
 50
330.2352574215815935
 51
29.7647425784184492
  0
ARC
  5
2CEEF
  8
0
 10
3694.6415620021430186
 20
295.5493347235166084
 30
0.0
 40
0.3688168773541265
 50
306.7581746859489158
 51
330.2352574215815935
  0
ARC
  5
2CEF0
  8
0
 10
3694.210452479911055
 20
296.1403882296385177
 30
0.0
 40
1.100374445911356
 50
289.0340608200449992
 51
306.325053806717392
  0
ARC
  5
2CEF1
  8
0
 10
3693.5788464803781608
 20
297.9669258196389023
 30
0.0
 40
3.0330319457260999
 50
277.3041592278735266
 51
289.0602019993323211
  0
ARC
  5
2CEF2
  8
0
 10
3694.6415620021430186
 20
295.3696702975406083
 30
0.0
 40
0.3688168773541265
 50
29.7647425784184492
 51
53.2418253140510771
  0
ARC
  5
2CEF3
  8
0
 10
3694.210452479911055
 20
294.778616791418699
 30
0.0
 40
1.100374445911356
 50
53.6749461932825511
 51
70.9659391799549866
  0
ARC
  5
2CEF4
  8
0
 10
3693.5788464803781608
 20
292.9520792014183144
 30
0.0
 40
3.0330319457260999
 50
70.9397980006676789
 51
81.97298406744099
  0
ARC
  5
2CEF5
  8
0
 10
3694.6415620021430186
 20
295.7354952345909282
 30
0.0
 40
0.3688168773541265
 50
306.7581746859489158
 51
330.2679802411719265
  0
ARC
  5
2CEF6
  8
0
 10
3694.210452479911055
 20
296.3265487407127807
 30
0.0
 40
1.100374445911356
 50
289.0340608200449992
 51
306.325053806717392
  0
ARC
  5
2CEF7
  8
0
 10
3693.5788464803781608
 20
298.1530863307132222
 30
0.0
 40
3.0330319457260999
 50
277.3041592278735266
 51
289.0602019993323211
  0
ARC
  5
2CEF8
  8
0
 10
3694.9221939024459971
 20
295.1576306192197876
 30
0.0
 40
0.5365233294652244
 50
37.3096197080746919
 51
57.2316357357429695
  0
ARC
  5
2CEF9
  8
0
 10
3694.3251013405501908
 20
294.1704683767187021
 30
0.0
 40
1.690074025826825
 50
58.3240394371945925
 51
70.6421765918941276
  0
ARC
  5
2CEFA
  8
0
 10
3693.7316384262180691
 20
292.4072656359874145
 30
0.0
 40
3.5503954198811258
 50
71.0380478583279427
 51
80.3167735504777625
  0
ARC
  5
2CEFB
  8
0
 10
3693.3415516813870454
 20
290.363801933962975
 30
0.0
 40
5.6305062407147464
 50
79.9014195261991915
 51
84.6356626772212053
  0
ARC
  5
2CEFC
  8
0
 10
3693.2358117473759194
 20
289.3075079718253733
 30
0.0
 40
6.692062665151095
 50
84.5797941701572142
 51
94.360227206131654
  0
ARC
  5
2CEFD
  8
0
 10
3693.2751239290751073
 20
291.4629216427813958
 30
0.0
 40
4.539162801861651
 50
92.5473010961694627
 51
97.7616466049760646
  0
ARC
  5
2CEFE
  8
0
 10
3693.3132776232610013
 20
300.068095208156592
 30
0.0
 40
4.9663045193966431
 50
262.4657241111229951
 51
277.5342758888770049
  0
ARC
  5
2CEFF
  8
0
 10
3693.3132776232610013
 20
299.8818543857448731
 30
0.0
 40
4.9662249014302944
 50
262.4656026213719997
 51
277.5343973786280003
  0
ARC
  5
2CF00
  8
0
 10
3693.3132776232610013
 20
300.9355659785827015
 30
0.0
 40
6.2081460660598742
 50
260.9231259097169868
 51
279.0768740902830132
  0
ARC
  5
2CF01
  8
0
 10
3665.0872244578040409
 20
283.5337363299116191
 30
0.0
 40
16.5694615057884604
 50
89.9674406913714932
 51
111.2607463088028936
  0
ARC
  5
2CF02
  8
0
 10
3665.0127252284851238
 20
283.725204461137082
 30
0.0
 40
16.3640103426276191
 50
111.2607463088028936
 51
144.9781585673738107
  0
ARC
  5
2CF03
  8
0
 10
3696.8778840819218203
 20
284.7289957376116831
 30
0.0
 40
11.0492856414512204
 50
68.0476485537795241
 51
88.4200455309805022
  0
ARC
  5
2CF04
  8
0
 10
3696.6712092863308499
 20
284.2708978087557057
 30
0.0
 40
11.5514496421542407
 50
32.8588751110099579
 51
67.9462817599740845
  0
ARC
  5
2CF05
  8
0
 10
3700.0195504420071302
 20
283.346132153801193
 30
0.0
 40
13.9709098353451697
 50
68.1785893719313236
 51
89.1770724278997164
  0
ARC
  5
2CF06
  8
0
 10
3700.1971962203460862
 20
283.7449113830098781
 30
0.0
 40
13.5346810634835393
 50
33.1497681340167318
 51
68.2492204015905486
  0
ARC
  5
2CF07
  8
0
 10
3621.6777715286448256
 20
472.4238690528421785
 30
0.0
 40
191.9161780054085114
 50
293.6826636460515942
 51
294.1579709862526215
  0
ARC
  5
2CF08
  8
0
 10
3702.5463948464189343
 20
287.6153923761976898
 30
0.0
 40
9.8125980869925957
 50
112.6669449124423039
 51
121.6173345944040989
  0
ARC
  5
2CF09
  8
0
 10
3698.1303404686650538
 20
294.9284878837328279
 30
0.0
 40
1.2720212310115
 50
124.9195188389435032
 51
136.2546066932495137
  0
ARC
  5
2CF0A
  8
0
 10
3698.2085997970839344
 20
294.930763563729613
 30
0.0
 40
1.3281546397238759
 50
138.6606279420007013
 51
140.5834257934095888
  0
ARC
  5
2CF0B
  8
0
 10
3703.2161897885807775
 20
283.6435164532020963
 30
0.0
 40
16.4598465570423187
 50
68.3856181546471902
 51
89.7412468370736178
  0
ARC
  5
2CF0C
  8
0
 10
3703.2808901008061184
 20
283.8056016194429958
 30
0.0
 40
16.2853256960356596
 50
34.1859393672614118
 51
68.3871855087222826
  0
ARC
  5
2CF0D
  8
0
 10
3671.2120269909842136
 20
278.5544155580431038
 30
0.0
 40
17.2259702667520216
 50
89.9701039533263298
 51
90.484427612296102
  0
ARC
  5
2CF0E
  8
0
 10
3696.7203605381241687
 20
278.60342677862252
 30
0.0
 40
17.1768728255631196
 50
88.4581718326233641
 51
90.0288177977172381
  0
LINE
  5
2CF0F
  8
0
 10
3696.7117211648587727
 20
295.7802974315324036
 30
0.0
 11
3694.8397546269570739
 21
295.7803037506802184
 31
0.0
  0
LINE
  5
2CF10
  8
0
 10
3691.6910801844278467
 20
295.7803143795770211
 30
0.0
 11
3671.2210152339589513
 21
295.7803834798323805
 31
0.0
  0
LINE
  5
2CF11
  8
0
 10
3665.0966403377587994
 20
267.6997370739219946
 30
0.0
 11
3703.2905237607669733
 21
267.6997370739219946
 31
0.0
  0
ARC
  5
2CF12
  8
0
 10
3671.1728397070869505
 20
283.2564385854889224
 30
0.0
 40
11.2337808878818493
 50
248.682653097449105
 51
269.4570428603527148
  0
ARC
  5
2CF13
  8
0
 10
3671.34510360596596
 20
283.6356433682162219
 30
0.0
 40
11.6496865681366106
 50
213.1033274847976884
 51
248.5713818890343134
  0
ARC
  5
2CF14
  8
0
 10
3667.9736256734267954
 20
284.9962225300151886
 30
0.0
 40
14.5128257520765001
 50
249.1669032625154045
 51
269.7956959251192757
  0
ARC
  5
2CF15
  8
0
 10
3667.7024661052000738
 20
284.3794219338159905
 30
0.0
 40
13.8399562058849792
 50
215.0566428646858981
 51
249.3079410598670052
  0
ARC
  5
2CF16
  8
0
 10
3685.4629601274218658
 20
234.2692946596658885
 30
0.0
 40
40.2387561696119604
 50
113.650965445592405
 51
115.8441741456601051
  0
ARC
  5
2CF17
  8
0
 10
3659.981364522090189
 20
292.4532326491917047
 30
0.0
 40
23.280393341088029
 50
293.6509654455924192
 51
297.5799854281823968
  0
ARC
  5
2CF18
  8
0
 10
3669.9229925692238794
 20
273.4625854129714071
 30
0.0
 40
1.845005515655872
 50
296.9743288148686133
 51
307.0078712848696796
  0
ARC
  5
2CF19
  8
0
 10
3670.7934783608770886
 20
272.2545828883110062
 30
0.0
 40
0.3578183188383626
 50
312.1383688523010278
 51
319.7026127982135222
  0
ARC
  5
2CF1A
  8
0
 10
3657.179524600438981
 20
277.6028911268703041
 30
0.0
 40
0.1973960200055523
 50
135.3650328299943908
 51
224.9399877585451009
  0
ARC
  5
2CF1B
  8
0
 10
3657.1778637156589866
 20
277.6036842885897045
 30
0.0
 40
0.1956578009147261
 50
44.8020542218595565
 51
135.1885969868783945
  0
ARC
  5
2CF1C
  8
0
 10
3657.1769661011931021
 20
277.6021599671154263
 30
0.0
 40
0.1973693378948793
 50
315.3409165242194945
 51
44.9324160109640331
  0
ARC
  5
2CF1D
  8
0
 10
3657.1785895691527912
 20
277.6011372598795219
 30
0.0
 40
0.1954961526314873
 50
224.769710055087387
 51
315.2196811324894838
  0
ARC
  5
2CF1E
  8
0
 10
3657.1725790127002256
 20
277.6035461892295757
 30
0.0
 40
0.1956578009147261
 50
44.8020542218595565
 51
90.7228421267461016
  0
ARC
  5
2CF1F
  8
0
 10
3657.1716813982338863
 20
277.6020218677554112
 30
0.0
 40
0.1973693378948793
 50
315.3409165242194945
 51
44.9324160109640331
  0
ARC
  5
2CF20
  8
0
 10
3657.1733048661931207
 20
277.6009991605195069
 30
0.0
 40
0.1954961526314873
 50
272.2716124420094843
 51
315.2196811324894838
  0
ARC
  5
2CF21
  8
0
 10
3655.4851194065381605
 20
281.5401941711702989
 30
0.0
 40
0.1973960200055523
 50
135.3650328299943908
 51
224.9399877585451009
  0
ARC
  5
2CF22
  8
0
 10
3655.4834585217590757
 20
281.5409873328896992
 30
0.0
 40
0.1956578009147261
 50
44.8020542218595565
 51
135.1885969868783945
  0
ARC
  5
2CF23
  8
0
 10
3655.4825609072941006
 20
281.5394630114154211
 30
0.0
 40
0.1973693378948793
 50
315.3409165242194945
 51
44.9324160109640331
  0
ARC
  5
2CF24
  8
0
 10
3655.4841843752528803
 20
281.5384403041795167
 30
0.0
 40
0.1954961526314873
 50
224.769710055087387
 51
315.2196811324894838
  0
ARC
  5
2CF25
  8
0
 10
3655.4781738187998599
 20
281.5408492335296273
 30
0.0
 40
0.1956578009147261
 50
44.8020542218595565
 51
90.7228421267461016
  0
ARC
  5
2CF26
  8
0
 10
3655.4772762043339753
 20
281.5393249120552923
 30
0.0
 40
0.1973693378948793
 50
315.3409165242194945
 51
44.9324160109640331
  0
ARC
  5
2CF27
  8
0
 10
3655.4788996722941192
 20
281.5383022048195016
 30
0.0
 40
0.1954961526314873
 50
272.2716124420094843
 51
315.2196811324894838
  0
CIRCLE
  5
2CF28
  8
0
 10
3698.6292775899578373
 20
283.90146610972198
 30
0.0
 40
0.984251968499997
  0
CIRCLE
  5
2CF29
  8
0
 10
3698.6292775899578373
 20
283.90146610972198
 30
0.0
 40
2.5507039322999989
  0
CIRCLE
  5
2CF2A
  8
0
 10
3698.6292775899578373
 20
283.90146610972198
 30
0.0
 40
1.5359000583000011
  0
ARC
  5
2CF2B
  8
0
 10
3665.0872244578040409
 20
284.2691959043427801
 30
0.0
 40
16.5694615057884604
 50
248.7392536911970922
 51
270.0325593086286062
  0
ARC
  5
2CF2C
  8
0
 10
3665.0127252284851238
 20
284.0777277731173172
 30
0.0
 40
16.3640103426276191
 50
215.0218414326261041
 51
248.7392536911970922
  0
ARC
  5
2CF2D
  8
0
 10
3696.8778840819218203
 20
283.0739364966427161
 30
0.0
 40
11.0492856414512204
 50
271.5799544690195262
 51
291.9523514462205185
  0
ARC
  5
2CF2E
  8
0
 10
3696.6712092863308499
 20
283.5320344254985798
 30
0.0
 40
11.5514496421542407
 50
292.0537182400258871
 51
327.1411248889900207
  0
ARC
  5
2CF2F
  8
0
 10
3700.0195504420071302
 20
284.4568000804532062
 30
0.0
 40
13.9709098353451697
 50
270.8229275721002978
 51
291.8214106280685769
  0
ARC
  5
2CF30
  8
0
 10
3700.1971962203460862
 20
284.0580208512445211
 30
0.0
 40
13.5346810634835393
 50
291.7507795984095083
 51
326.8502318659831758
  0
ARC
  5
2CF31
  8
0
 10
3621.6777715286448256
 20
95.379063181412107
 30
0.0
 40
191.9161780054085114
 50
65.842029013747478
 51
66.3173363539484342
  0
ARC
  5
2CF32
  8
0
 10
3702.5463948464189343
 20
280.1875398580567094
 30
0.0
 40
9.8125980869925957
 50
238.3826654055959011
 51
247.3330550875577103
  0
ARC
  5
2CF33
  8
0
 10
3698.1303404686650538
 20
272.8744443505216282
 30
0.0
 40
1.2720212310115
 50
223.7453933067517085
 51
235.0804811610564968
  0
ARC
  5
2CF34
  8
0
 10
3698.2085997970839344
 20
272.8721686705247862
 30
0.0
 40
1.3281546397238759
 50
219.4165742065904112
 51
221.339372057998105
  0
ARC
  5
2CF35
  8
0
 10
3703.2161897885807775
 20
284.1594157810523029
 30
0.0
 40
16.4598465570423187
 50
270.2587531629263822
 51
291.6143818453527956
  0
ARC
  5
2CF36
  8
0
 10
3703.2808901008061184
 20
283.9973306148114034
 30
0.0
 40
16.2853256960356596
 50
291.6128144912776747
 51
325.814060632738574
  0
ARC
  5
2CF37
  8
0
 10
3671.2120269909842136
 20
289.2485166762111817
 30
0.0
 40
17.2259702667520216
 50
269.5155723877039122
 51
270.0298960466736844
  0
ARC
  5
2CF38
  8
0
 10
3696.7203605381241687
 20
289.1995054556318792
 30
0.0
 40
17.1768728255631196
 50
269.9711822022828187
 51
271.5418281673765932
  0
LINE
  5
2CF39
  8
0
 10
3696.7117211648587727
 20
272.0226348027219956
 30
0.0
 11
3671.2210152339589513
 21
272.0225487544220186
 31
0.0
  0
ARC
  5
2CF3A
  8
0
 10
3721.4104767245730727
 20
301.2502666785358088
 30
0.0
 40
3.4536725835356501
 50
160.2858167526752027
 51
199.7141832473247973
  0
ARC
  5
2CF3B
  8
0
 10
3721.2831518384009541
 20
301.3066705848514744
 30
0.0
 40
3.3147994804946652
 50
116.6693497416542016
 51
160.4612170210421027
  0
ARC
  5
2CF3C
  8
0
 10
3721.2595160762789419
 20
301.3292191188376137
 30
0.0
 40
3.284059572695845
 50
63.5225720259799473
 51
116.4774279740207987
  0
ARC
  5
2CF3D
  8
0
 10
3721.2407290488690705
 20
301.2736910890914146
 30
0.0
 40
3.3421488104651118
 50
23.1074489961440683
 51
63.6586984093738408
  0
ARC
  5
2CF3E
  8
0
 10
3721.2939810242460226
 20
301.2905466339444729
 30
0.0
 40
3.286558573372929
 50
336.7984829254103829
 51
23.2015170745896313
  0
ARC
  5
2CF3F
  8
0
 10
3721.2737947188170438
 20
301.313831541427021
 30
0.0
 40
3.3143130643097098
 50
287.7586524774959003
 51
336.5659840862426222
  0
ARC
  5
2CF40
  8
0
 10
3721.2172508138851299
 20
301.4423040352231169
 30
0.0
 40
3.4539412923888451
 50
251.9980857478761038
 51
288.0019142521239246
  0
ARC
  5
2CF41
  8
0
 10
3721.106346861433849
 20
301.1367323730044063
 30
0.0
 40
3.1290732663269711
 50
199.6356644576470103
 51
252.2002048957241982
  0
ARC
  5
2CF42
  8
0
 10
3720.5960193067949149
 20
300.5080889880260884
 30
0.0
 40
2.29967791948205
 50
332.528180252230527
 51
27.4718197477695192
  0
ARC
  5
2CF43
  8
0
 10
3720.4054158647968507
 20
300.439738306693414
 30
0.0
 40
2.5004683777144612
 50
26.8466120773999606
 51
57.7358803306659425
  0
ARC
  5
2CF44
  8
0
 10
3720.4819092339571398
 20
300.6302092647885047
 30
0.0
 40
2.2988706256340321
 50
56.8137913163019093
 51
123.1862086836980978
  0
ARC
  5
2CF45
  8
0
 10
3720.4159860552649661
 20
300.7990515607895077
 30
0.0
 40
2.1218102870087652
 50
124.192049741075607
 51
154.4556742825220965
  0
ARC
  5
2CF46
  8
0
 10
3720.5915433081790979
 20
300.7401563250979848
 30
0.0
 40
2.3057137371747691
 50
155.01637606048169
 51
204.9836239395181963
  0
ARC
  5
2CF47
  8
0
 10
3720.7663018262101104
 20
300.7981346148878856
 30
0.0
 40
2.4886983002083318
 50
204.4942151301924866
 51
247.2315833792152944
  0
ARC
  5
2CF48
  8
0
 10
3720.7091693671400208
 20
300.6178735586551056
 30
0.0
 40
2.300436533080346
 50
246.8061306541580961
 51
293.1938693458420175
  0
ARC
  5
2CF49
  8
0
 10
3720.7648112554670661
 20
300.4477856262022897
 30
0.0
 40
2.1222404741676821
 50
293.6216063084366965
 51
331.8704357417735196
  0
ARC
  5
2CF4A
  8
0
 10
3720.7039652892872255
 20
300.6110004531377058
 30
0.0
 40
2.272689897031551
 50
248.0292924349627981
 51
291.9707075650371735
  0
ARC
  5
2CF4B
  8
0
 10
3720.7779340055340072
 20
300.4276516323312194
 30
0.0
 40
2.0749826359751249
 50
291.9707075650371735
 51
333.5913196336580882
  0
ARC
  5
2CF4C
  8
0
 10
3720.5942895459747888
 20
300.5075811914056203
 30
0.0
 40
2.2750354860830431
 50
333.8454641111881074
 51
26.1545358888118997
  0
ARC
  5
2CF4D
  8
0
 10
3720.4099768567630235
 20
300.4429382846910244
 30
0.0
 40
2.469079481959175
 50
25.6157036109315897
 51
58.765277203179501
  0
ARC
  5
2CF4E
  8
0
 10
3720.481276640572105
 20
300.6263013217608773
 30
0.0
 40
2.2755784890337671
 50
57.9062245349040268
 51
122.0937754650959022
  0
ARC
  5
2CF4F
  8
0
 10
3720.4191861465428701
 20
300.7882686413706779
 30
0.0
 40
2.1056397346942921
 50
123.0040771412952978
 51
155.6023631800734961
  0
ARC
  5
2CF50
  8
0
 10
3720.5803902502070741
 20
300.7348894623614797
 30
0.0
 40
2.2745686254094668
 50
156.055168951585614
 51
203.944831048414386
  0
ARC
  5
2CF51
  8
0
 10
3720.7622891140308639
 20
300.7951691845236155
 30
0.0
 40
2.4653487770258158
 50
203.5094627149806001
 51
248.3736117959660135
  0
ARC
  5
2CF52
  8
0
 10
3726.8556192132741671
 20
306.8784623673423084
 30
0.0
 40
0.5900561301613818
 50
0.0129908553404932
 51
89.9868602089573386
  0
ARC
  5
2CF53
  8
0
 10
3646.9766873739531547
 20
266.5526655557187041
 30
0.0
 40
3.4536725835356501
 50
340.2858167526752027
 51
19.7141832473247902
  0
ARC
  5
2CF54
  8
0
 10
3647.1040122601248186
 20
266.4962616494029248
 30
0.0
 40
3.3147994804946652
 50
296.6693497416541732
 51
340.4612170210421027
  0
ARC
  5
2CF55
  8
0
 10
3647.1276480222468308
 20
266.4737131154167855
 30
0.0
 40
3.284059572695845
 50
243.5225720259799118
 51
296.4774279740208272
  0
ARC
  5
2CF56
  8
0
 10
3647.1464350496557927
 20
266.5292411451629846
 30
0.0
 40
3.3421488104651118
 50
203.1074489961440861
 51
243.6586984093738124
  0
ARC
  5
2CF57
  8
0
 10
3647.0931830742788406
 20
266.5123856003099263
 30
0.0
 40
3.286558573372929
 50
156.7984829254104113
 51
203.2015170745895887
  0
ARC
  5
2CF58
  8
0
 10
3647.1133693797091837
 20
266.4891006928273782
 30
0.0
 40
3.3143130643097098
 50
107.7586524774959003
 51
156.5659840862441001
  0
ARC
  5
2CF59
  8
0
 10
3647.1699132846401881
 20
266.3606281990312823
 30
0.0
 40
3.4539412923888451
 50
71.998085747876047
 51
108.0019142521238962
  0
ARC
  5
2CF5A
  8
0
 10
3647.2808172370919237
 20
266.6661998612501066
 30
0.0
 40
3.1290732663269711
 50
19.6356644576470813
 51
72.200204895724184
  0
ARC
  5
2CF5B
  8
0
 10
3647.7911447917290388
 20
267.2948432462284245
 30
0.0
 40
2.29967791948205
 50
152.5281802522304986
 51
207.4718197477695014
  0
ARC
  5
2CF5C
  8
0
 10
3647.9817482337280126
 20
267.3631939275609852
 30
0.0
 40
2.5004683777144612
 50
206.8466120774000103
 51
237.735880330665907
  0
ARC
  5
2CF5D
  8
0
 10
3647.9052548645681782
 20
267.1727229694658945
 30
0.0
 40
2.2988706256340321
 50
236.8137913163018879
 51
303.1862086836979984
  0
ARC
  5
2CF5E
  8
0
 10
3647.9711780432608066
 20
267.0038806734648915
 30
0.0
 40
2.1218102870087652
 50
304.192049741075607
 51
334.4556742825221818
  0
ARC
  5
2CF5F
  8
0
 10
3647.79562079034622
 20
267.0627759091563007
 30
0.0
 40
2.3057137371747691
 50
335.0163760604817753
 51
24.9836239395182389
  0
ARC
  5
2CF60
  8
0
 10
3647.620862272316117
 20
267.0047976193663999
 30
0.0
 40
2.4886983002083318
 50
24.4942151301939397
 51
67.2315833792153086
  0
ARC
  5
2CF61
  8
0
 10
3647.6779947313862067
 20
267.1850586755994073
 30
0.0
 40
2.300436533080346
 50
66.8061306541580677
 51
113.1938693458419039
  0
ARC
  5
2CF62
  8
0
 10
3647.6223528430577971
 20
267.3551466080521095
 30
0.0
 40
2.1222404741676821
 50
113.621606308436597
 51
151.8704357417734911
  0
ARC
  5
2CF63
  8
0
 10
3647.683198809239002
 20
267.1919317811166934
 30
0.0
 40
2.272689897031551
 50
68.0292924349627839
 51
111.9707075650372019
  0
ARC
  5
2CF64
  8
0
 10
3647.6092300929908561
 20
267.3752806019232935
 30
0.0
 40
2.0749826359751249
 50
111.9707075650372019
 51
153.5913196336580882
  0
ARC
  5
2CF65
  8
0
 10
3647.7928745525500744
 20
267.2953510428487789
 30
0.0
 40
2.2750354860830431
 50
153.8454641111881074
 51
206.1545358888118074
  0
ARC
  5
2CF66
  8
0
 10
3647.9771872417632039
 20
267.3599939495633748
 30
0.0
 40
2.469079481959175
 50
205.6157036109316039
 51
238.7652772031794939
  0
ARC
  5
2CF67
  8
0
 10
3647.9058874579541225
 20
267.1766309124935219
 30
0.0
 40
2.2755784890337671
 50
237.9062245349039983
 51
302.0937754650959732
  0
ARC
  5
2CF68
  8
0
 10
3647.9679779519819931
 20
267.0146635928837213
 30
0.0
 40
2.1056397346942921
 50
303.0040771412952836
 51
335.6023631800736098
  0
ARC
  5
2CF69
  8
0
 10
3647.8067738483177891
 20
267.0680427718929195
 30
0.0
 40
2.2745686254094668
 50
336.0551689515855855
 51
23.9448310484143896
  0
ARC
  5
2CF6A
  8
0
 10
3647.6248749844939994
 20
267.0077630497307837
 30
0.0
 40
2.4653487770258158
 50
23.5094627149806001
 51
68.3736117959659708
  0
ARC
  5
2CF6B
  8
0
 10
3641.5315448852511508
 20
260.9244698669122045
 30
0.0
 40
0.5900561301613818
 50
180.0129908553404903
 51
269.986860208957296
  0
ARC
  5
2CF6C
  8
0
 10
3646.9766873739531547
 20
301.2502666785358088
 30
0.0
 40
3.4536725835356501
 50
340.2858167526752027
 51
19.7141832473247902
  0
ARC
  5
2CF6D
  8
0
 10
3647.1040122601248186
 20
301.3066705848514744
 30
0.0
 40
3.3147994804946652
 50
19.5387829789579115
 51
63.3306502583457984
  0
ARC
  5
2CF6E
  8
0
 10
3647.1276480222468308
 20
301.3292191188376137
 30
0.0
 40
3.284059572695845
 50
63.5225720259792226
 51
116.4774279740200029
  0
ARC
  5
2CF6F
  8
0
 10
3647.1464350496557927
 20
301.2736910890914146
 30
0.0
 40
3.3421488104651118
 50
116.3413015906261023
 51
156.8925510038559139
  0
ARC
  5
2CF70
  8
0
 10
3647.0931830742788406
 20
301.2905466339444729
 30
0.0
 40
3.286558573372929
 50
156.7984829254104113
 51
203.2015170745895887
  0
ARC
  5
2CF71
  8
0
 10
3647.1133693797091837
 20
301.313831541427021
 30
0.0
 40
3.3143130643097098
 50
203.4340159137558999
 51
252.2413475225040997
  0
ARC
  5
2CF72
  8
0
 10
3647.1699132846401881
 20
301.4423040352231169
 30
0.0
 40
3.4539412923888451
 50
251.9980857478761038
 51
288.0019142521239246
  0
ARC
  5
2CF73
  8
0
 10
3647.2808172370919237
 20
301.1367323730044063
 30
0.0
 40
3.1290732663269711
 50
287.7997951042758018
 51
340.364335542352876
  0
ARC
  5
2CF74
  8
0
 10
3647.7911447917290388
 20
300.5080889880260884
 30
0.0
 40
2.29967791948205
 50
152.5281802522304986
 51
207.4718197477695014
  0
ARC
  5
2CF75
  8
0
 10
3647.9817482337280126
 20
300.439738306693414
 30
0.0
 40
2.5004683777144612
 50
122.264119669334093
 51
153.1533879225999897
  0
ARC
  5
2CF76
  8
0
 10
3647.9052548645681782
 20
300.6302092647885047
 30
0.0
 40
2.2988706256340321
 50
56.8137913163019093
 51
123.1862086836980978
  0
ARC
  5
2CF77
  8
0
 10
3647.9711780432608066
 20
300.7990515607895077
 30
0.0
 40
2.1218102870087652
 50
25.5443257174778111
 51
55.8079502589244214
  0
ARC
  5
2CF78
  8
0
 10
3647.79562079034622
 20
300.7401563250979848
 30
0.0
 40
2.3057137371747691
 50
335.0163760604817753
 51
24.9836239395182389
  0
ARC
  5
2CF79
  8
0
 10
3647.620862272316117
 20
300.7981346148878856
 30
0.0
 40
2.4886983002083318
 50
292.7684166207847056
 51
335.5057848698074849
  0
ARC
  5
2CF7A
  8
0
 10
3647.6779947313862067
 20
300.6178735586551056
 30
0.0
 40
2.300436533080346
 50
246.8061306541580961
 51
293.1938693458420175
  0
ARC
  5
2CF7B
  8
0
 10
3647.6223528430577971
 20
300.4477856262022897
 30
0.0
 40
2.1222404741676821
 50
208.1295642582265089
 51
246.3783936915633888
  0
ARC
  5
2CF7C
  8
0
 10
3647.683198809239002
 20
300.6110004531377058
 30
0.0
 40
2.272689897031551
 50
248.0292924349627981
 51
291.9707075650371735
  0
ARC
  5
2CF7D
  8
0
 10
3647.6092300929908561
 20
300.4276516323312194
 30
0.0
 40
2.0749826359751249
 50
206.4086803663417982
 51
248.0292924349627981
  0
ARC
  5
2CF7E
  8
0
 10
3647.7928745525500744
 20
300.5075811914056203
 30
0.0
 40
2.2750354860830431
 50
153.8454641111881074
 51
206.1545358888118074
  0
ARC
  5
2CF7F
  8
0
 10
3647.9771872417632039
 20
300.4429382846910244
 30
0.0
 40
2.469079481959175
 50
121.2347227968205061
 51
154.3842963890683961
  0
ARC
  5
2CF80
  8
0
 10
3647.9058874579541225
 20
300.6263013217608773
 30
0.0
 40
2.2755784890337671
 50
57.9062245349040268
 51
122.0937754650959022
  0
ARC
  5
2CF81
  8
0
 10
3647.9679779519819931
 20
300.7882686413706779
 30
0.0
 40
2.1056397346942921
 50
24.3976368199264897
 51
56.9959228587047093
  0
ARC
  5
2CF82
  8
0
 10
3647.8067738483177891
 20
300.7348894623614797
 30
0.0
 40
2.2745686254094668
 50
336.0551689515855855
 51
23.9448310484143896
  0
ARC
  5
2CF83
  8
0
 10
3647.6248749844939994
 20
300.7951691845236155
 30
0.0
 40
2.4653487770258158
 50
291.6263882040340718
 51
336.4905372850193999
  0
ARC
  5
2CF84
  8
0
 10
3641.5315448852511508
 20
306.8784623673423084
 30
0.0
 40
0.5900561301613818
 50
90.0131397910426756
 51
179.9870091446595097
  0
ARC
  5
2CF85
  8
0
 10
3664.772953359244184
 20
283.9014661171271996
 30
0.0
 40
16.0665000162278488
 50
145.0022094547738902
 51
214.9977905452261098
  0
ARC
  5
2CF86
  8
0
 10
3667.0166026294700714
 20
283.9014661171271996
 30
0.0
 40
13.0039880882792804
 50
144.931447289746302
 51
215.068552710253698
  0
ARC
  5
2CF87
  8
0
 10
3671.7380240907241387
 20
283.9014661171271996
 30
0.0
 40
12.1240129011273492
 50
146.8584761627348882
 51
213.1415238372651118
  0
ARC
  5
2CF88
  8
0
 10
3696.1204306957511108
 20
283.9014661171271996
 30
0.0
 40
12.2145574714082592
 50
327.0872312015849843
 51
32.912768798414973
  0
ARC
  5
2CF89
  8
0
 10
3700.436529561433872
 20
283.9014661171271996
 30
0.0
 40
13.2486919167245105
 50
326.8510968317422112
 51
33.1489031682577888
  0
ARC
  5
2CF8A
  8
0
 10
3703.4138903374559959
 20
283.9014661171271996
 30
0.0
 40
16.1214417079023491
 50
325.8303048072145884
 51
34.1696951927853689
  0
ARC
  5
2CF8C
  8
0
 10
3678.8781073081968316
 20
298.4149804952778027
 30
0.0
 40
0.1385359742569342
 50
53.0940639535358017
 51
126.3759497561976985
  0
ARC
  5
2CF8D
  8
0
 10
3678.8791356760461895
 20
298.637328576743414
 30
0.0
 40
0.1385603378058916
 50
233.1015567618233035
 51
306.3684569479116249
  0
ARC
  5
2CF8E
  8
0
 10
3689.5095672718130118
 20
298.4367462840792768
 30
0.0
 40
0.1409700229091026
 50
54.6043402203503305
 51
126.4239798313965935
  0
ARC
  5
2CF8F
  8
0
 10
3689.5075188010791862
 20
298.6650129152508271
 30
0.0
 40
0.1409060312538669
 50
234.5854954450620937
 51
306.4428246066946144
  0
ARC
  5
2CF90
  8
0
 10
3678.8781073081968316
 20
269.3879517389765965
 30
0.0
 40
0.1385359742569342
 50
233.6240502438012925
 51
306.9059360464642054
  0
ARC
  5
2CF91
  8
0
 10
3678.8791356760461895
 20
269.1656036575109283
 30
0.0
 40
0.1385603378058916
 50
53.6315430520884178
 51
126.8984432381766965
  0
ARC
  5
2CF92
  8
0
 10
3689.5095672718130118
 20
269.3661859501751223
 30
0.0
 40
0.1409700229091026
 50
233.5760201686034065
 51
305.3956597796496908
  0
ARC
  5
2CF93
  8
0
 10
3689.5075188010791862
 20
269.1379193190035721
 30
0.0
 40
0.1409060312538669
 50
53.5571753933053571
 51
125.4145045549388016
  0
ENDSEC
  0
EOF
