  0
SECTION
  2
HEADER
  9
$ACADVER
  1
AC1009
  9
$INSBASE
 10
109.9126955243372947
 20
-7.631099354886242
 30
0.0
  9
$EXTMIN
 10
108.9134889305191933
 20
-7.6320358080725681
 30
-0.0015258207003583
  9
$EXTMAX
 10
111.4064697688138068
 20
5.1158089252197518
 30
0.0000000349246037
  9
$LIMMIN
 10
0.0
 20
0.0
  9
$LIMMAX
 10
11.6929133858000007
 20
8.2677165353999982
  9
$ORTHOMODE
 70
     0
  9
$REGENMODE
 70
     1
  9
$FILLMODE
 70
     1
  9
$QTEXTMODE
 70
     0
  9
$MIRRTEXT
 70
     0
  9
$DRAGMODE
 70
     2
  9
$LTSCALE
 40
0.6431102362
  9
$OSMODE
 70
  4095
  9
$ATTMODE
 70
     1
  9
$TEXTSIZE
 40
0.2
  9
$TRACEWID
 40
0.05
  9
$TEXTSTYLE
  7
STANDARD
  9
$CLAYER
  8
0
  9
$CELTYPE
  6
BYLAYER
  9
$CECOLOR
 62
   256
  9
$DIMSCALE
 40
1.0
  9
$DIMASZ
 40
0.1875
  9
$DIMEXO
 40
0.0625
  9
$DIMDLI
 40
0.4443307087
  9
$DIMRND
 40
0.0
  9
$DIMDLE
 40
0.0
  9
$DIMEXE
 40
0.125
  9
$DIMTP
 40
0.01
  9
$DIMTM
 40
0.01
  9
$DIMTXT
 40
1.0
  9
$DIMCEN
 40
0.1052362205
  9
$DIMTSZ
 40
0.0
  9
$DIMTOL
 70
     1
  9
$DIMLIM
 70
     0
  9
$DIMTIH
 70
     1
  9
$DIMTOH
 70
     1
  9
$DIMSE1
 70
     0
  9
$DIMSE2
 70
     0
  9
$DIMTAD
 70
     0
  9
$DIMZIN
 70
     0
  9
$DIMBLK
  1

  9
$DIMASO
 70
     1
  9
$DIMSHO
 70
     1
  9
$DIMPOST
  1
\X
  9
$DIMAPOST
  1

  9
$DIMALT
 70
     1
  9
$DIMALTD
 70
     2
  9
$DIMALTF
 40
25.3999999999999986
  9
$DIMLFAC
 40
1.0
  9
$DIMTOFL
 70
     0
  9
$DIMTVP
 40
0.0
  9
$DIMTIX
 70
     0
  9
$DIMSOXD
 70
     0
  9
$DIMSAH
 70
     0
  9
$DIMBLK1
  1

  9
$DIMBLK2
  1

  9
$DIMSTYLE
  2
STANDARD
  9
$DIMCLRD
 70
     0
  9
$DIMCLRE
 70
     0
  9
$DIMCLRT
 70
     0
  9
$DIMTFAC
 40
1.0
  9
$DIMGAP
 40
0.09
  9
$LUNITS
 70
     2
  9
$LUPREC
 70
     4
  9
$SKETCHINC
 40
0.1
  9
$FILLETRAD
 40
0.0
  9
$AUNITS
 70
     0
  9
$AUPREC
 70
     0
  9
$MENU
  1
.
  9
$ELEVATION
 40
0.0
  9
$PELEVATION
 40
0.0
  9
$THICKNESS
 40
0.0
  9
$LIMCHECK
 70
     0
  9
$BLIPMODE
 70
     0
  9
$CHAMFERA
 40
0.0
  9
$CHAMFERB
 40
0.0
  9
$SKPOLY
 70
     0
  9
$TDCREATE
 40
2458172.4620254631154239
  9
$TDUPDATE
 40
2459073.8846296300180256
  9
$TDINDWG
 40
0.0801679745
  9
$TDUSRTIMER
 40
0.0801679745
  9
$USRTIMER
 70
     1
  9
$ANGBASE
 50
0.0
  9
$ANGDIR
 70
     0
  9
$PDMODE
 70
     0
  9
$PDSIZE
 40
0.3125
  9
$PLINEWID
 40
0.0
  9
$COORDS
 70
     1
  9
$SPLFRAME
 70
     0
  9
$SPLINETYPE
 70
     6
  9
$SPLINESEGS
 70
     8
  9
$ATTDIA
 70
     1
  9
$ATTREQ
 70
     1
  9
$HANDLING
 70
     1
  9
$HANDSEED
  5
6A80
  9
$SURFTAB1
 70
     6
  9
$SURFTAB2
 70
     6
  9
$SURFTYPE
 70
     6
  9
$SURFU
 70
     6
  9
$SURFV
 70
     6
  9
$UCSNAME
  2

  9
$UCSORG
 10
0.0
 20
0.0
 30
0.0
  9
$UCSXDIR
 10
1.0
 20
0.0
 30
0.0
  9
$UCSYDIR
 10
0.0
 20
1.0
 30
0.0
  9
$PUCSNAME
  2

  9
$PUCSORG
 10
0.0
 20
0.0
 30
0.0
  9
$PUCSXDIR
 10
1.0
 20
0.0
 30
0.0
  9
$PUCSYDIR
 10
0.0
 20
1.0
 30
0.0
  9
$USERI1
 70
     0
  9
$USERI2
 70
     0
  9
$USERI3
 70
     0
  9
$USERI4
 70
     0
  9
$USERI5
 70
     0
  9
$USERR1
 40
0.0
  9
$USERR2
 40
0.0
  9
$USERR3
 40
0.0
  9
$USERR4
 40
0.0
  9
$USERR5
 40
0.0
  9
$WORLDVIEW
 70
     1
  9
$SHADEDGE
 70
     3
  9
$SHADEDIF
 70
    70
  9
$TILEMODE
 70
     1
  9
$MAXACTVP
 70
    64
  9
$PLIMCHECK
 70
     0
  9
$PEXTMIN
 10
1.0000000000000000E+20
 20
1.0000000000000000E+20
 30
1.0000000000000000E+20
  9
$PEXTMAX
 10
-1.0000000000000000E+20
 20
-1.0000000000000000E+20
 30
-1.0000000000000000E+20
  9
$PLIMMIN
 10
0.0
 20
0.0
  9
$PLIMMAX
 10
12.0
 20
9.0
  9
$UNITMODE
 70
     0
  9
$VISRETAIN
 70
     1
  9
$PLINEGEN
 70
     0
  9
$PSLTSCALE
 70
     1
  0
ENDSEC
  0
SECTION
  2
TABLES
  0
TABLE
  2
VPORT
 70
     1
  0
VPORT
  2
*ACTIVE
 70
     0
 10
0.0
 20
0.0
 11
1.0
 21
1.0
 12
-14.4511792504060708
 22
-6.5703876118042324
 13
0.0
 23
0.0
 14
1.0
 24
1.0
 15
0.0
 25
0.0
 16
0.0
 26
0.0
 36
30.6214257250603907
 17
124.6111586000725993
 27
5.3122741703778242
 37
0.0
 40
12.8621751793308192
 41
2.8398203592814371
 42
50.0
 43
0.0
 44
0.0
 50
0.0
 51
0.0
 71
     0
 72
   100
 73
     1
 74
     1
 75
     0
 76
     0
 77
     0
 78
     0
  0
ENDTAB
  0
TABLE
  2
LTYPE
 70
     2
  0
LTYPE
  2
CONTINUOUS
 70
     0
  3
Solid line
 72
    65
 73
     0
 40
0.0
  0
LTYPE
  2
PHANTOM2
 70
     0
  3
___ _ _ ___ _ _ ___ _ _ ___ _ _
 72
    65
 73
     6
 40
1.25
 49
0.625
 49
-0.125
 49
0.125
 49
-0.125
 49
0.125
 49
-0.125
  0
ENDTAB
  0
TABLE
  2
LAYER
 70
     2
  0
LAYER
  2
0
 70
     0
 62
   255
  6
CONTINUOUS
  0
LAYER
  2
DEFPOINTS
 70
     0
 62
     7
  6
CONTINUOUS
  0
ENDTAB
  0
TABLE
  2
STYLE
 70
     1
  0
STYLE
  2
STANDARD
 70
     0
 40
0.0
 41
0.8
 50
0.0
 71
     0
 42
0.2
  3
txt
  4

  0
ENDTAB
  0
TABLE
  2
VIEW
 70
     0
  0
ENDTAB
  0
TABLE
  2
UCS
 70
     0
  0
ENDTAB
  0
TABLE
  2
APPID
 70
     9
  0
APPID
  2
ACAD
 70
     0
  0
APPID
  2
ACAD_MLEADERVER
 70
     0
  0
APPID
  2
ACAD_EXEMPT_FROM_CAD_STANDARDS
 70
     0
  0
APPID
  2
ACAD_DSTYLE_DIMJAG
 70
     0
  0
APPID
  2
ACAD_DSTYLE_DIMTALN
 70
     0
  0
APPID
  2
ACAD_NAV_VCDISPLAY
 70
     0
  0
APPID
  2
ACAECLAYERSTANDARD
 70
     0
  0
APPID
  2
ACCMTRANSPARENCY
 70
     0
  0
APPID
  2
ACDBATTR
 70
     0
  0
ENDTAB
  0
TABLE
  2
DIMSTYLE
 70
     1
  0
DIMSTYLE
  2
STANDARD
 70
     0
  3

  4

  5

  6

  7

 40
1.0
 41
0.1875
 42
0.0625
 43
0.38
 44
0.125
 45
0.0
 46
0.0
 47
0.01
 48
0.01
140
0.15625
141
0.09
142
0.0
143
25.3999999999999986
144
1.0
145
0.0
146
1.0
147
0.09
 71
     1
 72
     0
 73
     1
 74
     1
 75
     0
 76
     0
 77
     0
 78
     4
170
     0
171
     2
172
     0
173
     0
174
     0
175
     0
176
     0
177
     0
178
     0
  0
ENDTAB
  0
ENDSEC
  0
SECTION
  2
BLOCKS
  0
BLOCK
  8
0
  2
$MODEL_SPACE
 70
     0
 10
0.0
 20
0.0
 30
0.0
  3
$MODEL_SPACE
  1

  0
ENDBLK
  5
21
  8
0
  0
BLOCK
 67
     1
  8
0
  2
$PAPER_SPACE
 70
     0
 10
0.0
 20
0.0
 30
0.0
  3
$PAPER_SPACE
  1

  0
ENDBLK
  5
1D
 67
     1
  8
0
  0
BLOCK
  8
0
  2
_FILLED
 70
     0
 10
0.0
 20
0.0
 30
0.0
  3
_FILLED
  1

  0
SOLID
  5
3BD9
  8
0
  6
BYBLOCK
 62
     0
 10
0.0
 20
0.0
 30
0.0
 11
-1.0
 21
0.1666666667
 31
0.0
 12
-1.0
 22
-0.1666666667
 32
0.0
 13
-1.0
 23
-0.1666666667
 33
0.0
  0
ENDBLK
  5
3BDA
  8
0
  6
BYBLOCK
 62
     0
  0
BLOCK
  8
0
  2
A$C226D500F
 70
     2
 10
0.0
 20
0.0
 30
0.0
  3
A$C226D500F
  1

  0
ATTDEF
  5
564D
  8
DEFPOINTS
 10
0.000291919742196
 20
0.0005288174062983
 30
0.0
 40
0.001
  1
BATHROOM SINK FAUCET
  3

  2
PRODUCT
 70
     0
1001
ACDBATTR
1070
     0
1070
     1
  0
ATTDEF
  5
564E
  8
DEFPOINTS
 10
0.000291919742196
 20
0.0021954840729634
 30
0.0
 40
0.001
  1
ALEO
  3

  2
TRADENAME
 70
     0
1001
ACDBATTR
1070
     0
1070
     1
  0
ATTDEF
  5
564F
  8
DEFPOINTS
 10
0.000291919742196
 20
0.0038621507396286
 30
0.0
 40
0.001
  1
K-98868T-4
  3

  2
MODELNUMBER
 70
     0
1001
ACDBATTR
1070
     0
1070
     1
  0
ENDBLK
  5
5653
  8
0
  0
BLOCK
  8
0
  2
A$C393A5527
 70
     2
 10
0.0
 20
0.0
 30
0.0
  3
A$C393A5527
  1

  0
ATTDEF
  5
5655
  8
DEFPOINTS
 10
0.0000000879847164
 20
-0.0000001116000696
 30
0.0
 40
0.001
  1
BATHROOM SINK FAUCET
  3

  2
PRODUCT
 70
     0
1001
ACDBATTR
1070
     0
1070
     1
  0
ATTDEF
  5
5656
  8
DEFPOINTS
 10
0.0000000879847164
 20
0.0016665550665955
 30
0.0
 40
0.001
  1
ALEO
  3

  2
TRADENAME
 70
     0
1001
ACDBATTR
1070
     0
1070
     1
  0
ATTDEF
  5
5657
  8
DEFPOINTS
 10
0.0000000879847164
 20
0.0033332217332607
 30
0.0
 40
0.001
  1
K-98868T-4
  3

  2
MODELNUMBER
 70
     0
1001
ACDBATTR
1070
     0
1070
     1
  0
ENDBLK
  5
565B
  8
0
  0
ENDSEC
  0
SECTION
  2
ENTITIES
  0
ATTDEF
  5
383D
  8
DEFPOINTS
 10
109.9128887288618017
 20
-7.6266202042012496
 30
0.0
 40
0.001
  1
K-98868T-4
  3

  2
MODELNUMBER
 70
     0
1001
ACDBATTR
1070
     0
1070
     1
  0
ATTDEF
  5
383E
  8
DEFPOINTS
 10
109.9128887288618017
 20
-7.6282868708679148
 30
0.0
 40
0.001
  1
ALEO
  3

  2
TRADENAME
 70
     0
1001
ACDBATTR
1070
     0
1070
     1
  0
ATTDEF
  5
383F
  8
DEFPOINTS
 10
109.9128887288618017
 20
-7.6299535375345799
 30
0.0
 40
0.001
  1
BATHROOM SINK FAUCET
  3

  2
PRODUCT
 70
     0
1001
ACDBATTR
1070
     0
1070
     1
  0
LINE
  5
636B
  8
0
 10
110.9056939823372971
 20
-7.631099354886242
 30
0.0
 11
108.9196970663373065
 21
-7.631099354886242
 31
0.0
  0
LINE
  5
636C
  8
0
 10
108.9196970663373065
 20
-7.631099354886242
 30
0.0
 11
108.9197426798372987
 21
1.5353854530137541
 31
0.0
  0
ARC
  5
636D
  8
0
 10
-38167.2228068435724708
 20
1.7258520129628621
 30
0.0
 40
38276.1425499972974649
 50
359.9997148895030818
 51
0.002860208187281
  0
ARC
  5
636E
  8
0
 10
108.9512089387189064
 20
3.6366005413681259
 30
0.0
 40
0.0315134773208668
 50
90.0279150802048065
 51
180.0028602081868883
  0
LINE
  5
636F
  8
0
 10
108.9511935850333941
 20
3.668114014948757
 30
0.0
 11
110.8738546918652048
 21
3.6681139578983748
 31
0.0
  0
ARC
  5
6370
  8
0
 10
109.9127430728863004
 20
-26.3862458352671716
 30
0.0
 40
31.5012094725189904
 50
90.0000890688696558
 51
91.7564174546135263
  0
ARC
  5
6371
  8
0
 10
108.9463723372119972
 20
5.0805314084735871
 30
0.0
 40
0.0196499617409216
 50
87.5383759724892769
 51
180.257708339219306
  0
ARC
  5
6372
  8
0
 10
40310.4621255849706358
 20
4.4128072256835811
 30
0.0
 40
40201.535405529270065
 50
179.9990479836766895
 51
180.0008762285922899
  0
ARC
  5
6373
  8
0
 10
108.9651494963061964
 20
3.7965459493225691
 30
0.0
 40
0.0384523235831777
 50
177.8296397680603036
 51
206.8798147083469132
  0
ARC
  5
6374
  8
0
 10
108.9357248397735987
 20
3.7820256000673722
 30
0.0
 40
0.0056528195120868
 50
210.4495686703403976
 51
270.0000000000179057
  0
LINE
  5
6375
  8
0
 10
108.9357248397735987
 20
3.776372780555286
 30
0.0
 11
110.8893591018434961
 21
3.7763809448842611
 31
0.0
  0
ARC
  5
6376
  8
0
 10
109.3144730986032016
 20
3.6694486159380029
 30
0.0
 40
0.3151676521800409
 50
168.709976144742086
 51
180.2426242471950957
  0
ARC
  5
6377
  8
0
 10
109.9126938814876979
 20
3.5500030600737822
 30
0.0
 40
0.9251966234508042
 50
165.8375271111615064
 51
168.7089095352031904
  0
ARC
  5
6378
  8
0
 10
109.9126933686868028
 20
2.0459569753844429
 30
0.0
 40
0.9617105694291453
 50
89.9696238942081976
 51
92.1462900020122362
  0
ARC
  5
6379
  8
0
 10
109.9076860562820031
 20
2.1000083785835222
 30
0.0
 40
0.9075144472437681
 50
91.9581783431933104
 51
95.5549351569537038
  0
ARC
  5
637A
  8
0
 10
109.8876045874026062
 20
2.2606531271941899
 30
0.0
 40
0.7456934223594988
 50
95.2140339675796668
 51
102.1723343287423944
  0
ARC
  5
637B
  8
0
 10
109.8252372476249974
 20
2.5463134431563912
 30
0.0
 40
0.4533056360671263
 50
102.0796986774159052
 51
109.6833064590717015
  0
ARC
  5
637C
  8
0
 10
109.7447807638718018
 20
2.7665799657190369
 30
0.0
 40
0.2188157360114574
 50
109.2735337279300012
 51
122.3812121732919991
  0
ARC
  5
637D
  8
0
 10
109.6659440784351034
 20
2.8881192960339361
 30
0.0
 40
0.073969314695926
 50
121.2289444051971969
 51
149.6471440764811973
  0
LINE
  5
637E
  8
0
 10
109.8755162721813008
 20
2.9991212213132821
 30
0.0
 11
109.8952013115612942
 21
2.9981296433045919
 31
0.0
  0
LINE
  5
637F
  8
0
 10
109.8952013115612942
 20
2.9981296433045919
 30
0.0
 11
109.9050438312554974
 21
2.9847117417621951
 31
0.0
  0
LINE
  5
6380
  8
0
 10
109.9050438312554974
 20
2.9847117417621951
 30
0.0
 11
109.8952013115813031
 21
2.9723828838840669
 31
0.0
  0
LINE
  5
6381
  8
0
 10
109.8952013115813031
 20
2.9723828838840669
 30
0.0
 11
109.8755162721813008
 21
2.9733451536132849
 31
0.0
  0
LINE
  5
6382
  8
0
 10
109.8755162721813008
 20
2.9733451536132849
 30
0.0
 11
109.8656737525813014
 21
2.9866649327132828
 31
0.0
  0
LINE
  5
6383
  8
0
 10
109.8656737525813014
 20
2.9866649327132828
 30
0.0
 11
109.8755162721813008
 21
2.9991212213132821
 31
0.0
  0
LINE
  5
6384
  8
0
 10
109.8755162721813008
 20
2.9991212213132821
 30
0.0
 11
109.8755162721813008
 21
2.9733451536132849
 31
0.0
  0
LINE
  5
6385
  8
0
 10
109.8952013115813031
 20
2.9723828838840669
 30
0.0
 11
109.8952013115612942
 21
2.9981296433045919
 31
0.0
  0
LINE
  5
6386
  8
0
 10
109.8476774225812989
 20
2.9804312471080632
 30
0.0
 11
109.8673624619813012
 21
2.9784891278833259
 31
0.0
  0
LINE
  5
6387
  8
0
 10
109.8673624619813012
 20
2.9784891278833259
 30
0.0
 11
109.8772049816227963
 21
2.965593818295714
 31
0.0
  0
LINE
  5
6388
  8
0
 10
109.8772049816227963
 20
2.965593818295714
 30
0.0
 11
109.8673624619813012
 21
2.9546950372817848
 31
0.0
  0
LINE
  5
6389
  8
0
 10
109.8673624619813012
 20
2.9546950372817848
 30
0.0
 11
109.8476774225486992
 21
2.9565879016900078
 31
0.0
  0
LINE
  5
638A
  8
0
 10
109.8476774225486992
 20
2.9565879016900078
 30
0.0
 11
109.8378349028788961
 21
2.9694278729692849
 31
0.0
  0
LINE
  5
638B
  8
0
 10
109.8378349028788961
 20
2.9694278729692849
 30
0.0
 11
109.8476774225812989
 21
2.9804312471080632
 31
0.0
  0
LINE
  5
638C
  8
0
 10
109.8476774225812989
 20
2.9804312471080632
 30
0.0
 11
109.8476774225486992
 21
2.9565879016900078
 31
0.0
  0
LINE
  5
638D
  8
0
 10
109.8673624619813012
 20
2.9546950372817848
 30
0.0
 11
109.8673624619813012
 21
2.9784891278833259
 31
0.0
  0
LINE
  5
638E
  8
0
 10
109.8297372284065005
 20
3.0041690126464049
 30
0.0
 11
109.8395236123030969
 21
3.0027641644499719
 31
0.0
  0
LINE
  5
638F
  8
0
 10
109.8395236123030969
 20
3.0027641644499719
 30
0.0
 11
109.8493661319306938
 21
2.9882887309277262
 31
0.0
  0
LINE
  5
6390
  8
0
 10
109.8493661319306938
 20
2.9882887309277262
 30
0.0
 11
109.8395236122812975
 21
2.9768794597053421
 31
0.0
  0
LINE
  5
6391
  8
0
 10
109.8395236122812975
 20
2.9768794597053421
 30
0.0
 11
109.8198385728564972
 21
2.9797972778011839
 31
0.0
  0
LINE
  5
6392
  8
0
 10
109.8198385728564972
 20
2.9797972778011839
 30
0.0
 11
109.8099960532456976
 21
2.994213234393948
 31
0.0
  0
LINE
  5
6393
  8
0
 10
109.8099960532456976
 20
2.994213234393948
 30
0.0
 11
109.8198385728812951
 21
3.003260996413283
 31
0.0
  0
LINE
  5
6394
  8
0
 10
109.8198385728812951
 20
3.003260996413283
 30
0.0
 11
109.8198385728564972
 21
2.9797972778011839
 31
0.0
  0
LINE
  5
6395
  8
0
 10
109.8395236122812975
 20
2.9768794597053421
 30
0.0
 11
109.8395236123030969
 21
3.0027641644499719
 31
0.0
  0
LINE
  5
6396
  8
0
 10
109.7919997232812932
 20
2.9897447029769371
 30
0.0
 11
109.8116847626812955
 21
2.9857961817878031
 31
0.0
  0
LINE
  5
6397
  8
0
 10
109.8116847626812955
 20
2.9857961817878031
 30
0.0
 11
109.8214056350325052
 21
2.971992093998705
 31
0.0
  0
LINE
  5
6398
  8
0
 10
109.8214056350325052
 20
2.971992093998705
 30
0.0
 11
109.8115631153908964
 21
2.9618364713870569
 31
0.0
  0
LINE
  5
6399
  8
0
 10
109.8115631153908964
 20
2.9618364713870569
 30
0.0
 11
109.7919997232538947
 21
2.9656600456603051
 31
0.0
  0
LINE
  5
639A
  8
0
 10
109.7919997232538947
 20
2.9656600456603051
 30
0.0
 11
109.7821572036023952
 21
2.9796162918930822
 31
0.0
  0
LINE
  5
639B
  8
0
 10
109.7821572036023952
 20
2.9796162918930822
 30
0.0
 11
109.7919997232812932
 21
2.9897447029769371
 31
0.0
  0
LINE
  5
639C
  8
0
 10
109.7919997232812932
 20
2.9897447029769371
 30
0.0
 11
109.7919997232538947
 21
2.9656600456603051
 31
0.0
  0
LINE
  5
639D
  8
0
 10
109.8115631153908964
 20
2.9618364713870569
 30
0.0
 11
109.8116847626812955
 21
2.9857961817878031
 31
0.0
  0
LINE
  5
639E
  8
0
 10
109.8198385728812951
 20
2.9646436024379539
 30
0.0
 11
109.8395236123869978
 21
2.961773432465614
 31
0.0
  0
LINE
  5
639F
  8
0
 10
109.8395236123869978
 20
2.961773432465614
 30
0.0
 11
109.8493661320285071
 21
2.9493398734404561
 31
0.0
  0
LINE
  5
63A0
  8
0
 10
109.8493661320285071
 20
2.9493398734404561
 30
0.0
 11
109.8395236123869978
 21
2.9397957168530642
 31
0.0
  0
LINE
  5
63A1
  8
0
 10
109.8395236123869978
 20
2.9397957168530642
 30
0.0
 11
109.8201910844913982
 21
2.9425474587902598
 31
0.0
  0
LINE
  5
63A2
  8
0
 10
109.8201910844913982
 20
2.9425474587902598
 30
0.0
 11
109.8099960532283035
 21
2.955017075213747
 31
0.0
  0
LINE
  5
63A3
  8
0
 10
109.8099960532283035
 20
2.955017075213747
 30
0.0
 11
109.8198385728812951
 21
2.9646436024379539
 31
0.0
  0
LINE
  5
63A4
  8
0
 10
109.8198385728812951
 20
2.9646436024379539
 30
0.0
 11
109.8201910844913982
 21
2.9425474587902598
 31
0.0
  0
LINE
  5
63A5
  8
0
 10
109.8395236123869978
 20
2.9397957168530642
 30
0.0
 11
109.8395236123869978
 21
2.961773432465614
 31
0.0
  0
LINE
  5
63A6
  8
0
 10
109.7641608735813037
 20
2.9765953748656289
 30
0.0
 11
109.783845912981306
 21
2.9717085371772258
 31
0.0
  0
LINE
  5
63A7
  8
0
 10
109.783845912981306
 20
2.9717085371772258
 30
0.0
 11
109.7936884326440037
 21
2.9581791849959682
 31
0.0
  0
LINE
  5
63A8
  8
0
 10
109.7936884326440037
 20
2.9581791849959682
 30
0.0
 11
109.783845912981306
 21
2.9495127009580679
 31
0.0
  0
LINE
  5
63A9
  8
0
 10
109.783845912981306
 20
2.9495127009580679
 30
0.0
 11
109.7641608736189056
 21
2.9542892053888159
 31
0.0
  0
LINE
  5
63AA
  8
0
 10
109.7641608736189056
 20
2.9542892053888159
 30
0.0
 11
109.7543183539745968
 21
2.9678409589236781
 31
0.0
  0
LINE
  5
63AB
  8
0
 10
109.7543183539745968
 20
2.9678409589236781
 30
0.0
 11
109.7641608735813037
 21
2.9765953748656289
 31
0.0
  0
LINE
  5
63AC
  8
0
 10
109.7641608735813037
 20
2.9765953748656289
 30
0.0
 11
109.7641608736189056
 21
2.9542892053888159
 31
0.0
  0
LINE
  5
63AD
  8
0
 10
109.783845912981306
 20
2.9495127009580679
 30
0.0
 11
109.783845912981306
 21
2.9717085371772258
 31
0.0
  0
LINE
  5
63AE
  8
0
 10
109.7919997233046985
 20
2.9516382136514081
 30
0.0
 11
109.8116847626812955
 21
2.9478469082132839
 31
0.0
  0
LINE
  5
63AF
  8
0
 10
109.8116847626812955
 20
2.9478469082132839
 30
0.0
 11
109.8215272823351967
 21
2.935826232750391
 31
0.0
  0
LINE
  5
63B0
  8
0
 10
109.8215272823351967
 20
2.935826232750391
 30
0.0
 11
109.811684762672499
 21
2.9271597487124921
 31
0.0
  0
LINE
  5
63B1
  8
0
 10
109.811684762672499
 20
2.9271597487124921
 30
0.0
 11
109.7919997232812932
 21
2.9313082297162421
 31
0.0
  0
LINE
  5
63B2
  8
0
 10
109.7919997232812932
 20
2.9313082297162421
 30
0.0
 11
109.7821572036014999
 21
2.9433385687620239
 31
0.0
  0
LINE
  5
63B3
  8
0
 10
109.7821572036014999
 20
2.9433385687620239
 30
0.0
 11
109.7919997233046985
 21
2.9516382136514081
 31
0.0
  0
LINE
  5
63B4
  8
0
 10
109.7919997233046985
 20
2.9516382136514081
 30
0.0
 11
109.7919997232812932
 21
2.9313082297162421
 31
0.0
  0
LINE
  5
63B5
  8
0
 10
109.811684762672499
 20
2.9271597487124921
 30
0.0
 11
109.8116847626812955
 21
2.9478469082132839
 31
0.0
  0
LINE
  5
63B6
  8
0
 10
109.7641608736480947
 20
2.941344778743507
 30
0.0
 11
109.7834469489504983
 21
2.9367137306593358
 31
0.0
  0
LINE
  5
63B7
  8
0
 10
109.7834469489504983
 20
2.9367137306593358
 30
0.0
 11
109.793688432706503
 21
2.9249772667433418
 31
0.0
  0
LINE
  5
63B8
  8
0
 10
109.793688432706503
 20
2.9249772667433418
 30
0.0
 11
109.7838124910695967
 21
2.9180199761177521
 31
0.0
  0
LINE
  5
63B9
  8
0
 10
109.7838124910695967
 20
2.9180199761177521
 30
0.0
 11
109.764160873560698
 21
2.922660555259982
 31
0.0
  0
LINE
  5
63BA
  8
0
 10
109.764160873560698
 20
2.922660555259982
 30
0.0
 11
109.7543183540370961
 21
2.9346390406710561
 31
0.0
  0
LINE
  5
63BB
  8
0
 10
109.7543183540370961
 20
2.9346390406710561
 30
0.0
 11
109.7641608736480947
 21
2.941344778743507
 31
0.0
  0
LINE
  5
63BC
  8
0
 10
109.7641608736480947
 20
2.941344778743507
 30
0.0
 11
109.764160873560698
 21
2.922660555259982
 31
0.0
  0
LINE
  5
63BD
  8
0
 10
109.7838124910695967
 20
2.9180199761177521
 30
0.0
 11
109.7834469489504983
 21
2.9367137306593358
 31
0.0
  0
LINE
  5
63BE
  8
0
 10
109.7363220239386976
 20
2.9337369331304979
 30
0.0
 11
109.7554469969497006
 21
2.9282189620785259
 31
0.0
  0
LINE
  5
63BF
  8
0
 10
109.7554469969497006
 20
2.9282189620785259
 30
0.0
 11
109.7658495830445986
 21
2.9167593140149259
 31
0.0
  0
LINE
  5
63C0
  8
0
 10
109.7658495830445986
 20
2.9167593140149259
 30
0.0
 11
109.7560070633813041
 21
2.911060221213285
 31
0.0
  0
LINE
  5
63C1
  8
0
 10
109.7560070633813041
 20
2.911060221213285
 30
0.0
 11
109.7363220240131056
 21
2.9166600072300941
 31
0.0
  0
LINE
  5
63C2
  8
0
 10
109.7363220240131056
 20
2.9166600072300941
 30
0.0
 11
109.7264795042988936
 21
2.9280281747425798
 31
0.0
  0
LINE
  5
63C3
  8
0
 10
109.7264795042988936
 20
2.9280281747425798
 30
0.0
 11
109.7363220239386976
 21
2.9337369331304979
 31
0.0
  0
LINE
  5
63C4
  8
0
 10
109.7363220239386976
 20
2.9337369331304979
 30
0.0
 11
109.7363220240131056
 21
2.9166600072300941
 31
0.0
  0
LINE
  5
63C5
  8
0
 10
109.7560070633813041
 20
2.911060221213285
 30
0.0
 11
109.7554469969497006
 21
2.9282189620785259
 31
0.0
  0
LINE
  5
63C6
  8
0
 10
109.7363220239813018
 20
2.9662473394947262
 30
0.0
 11
109.7559061212644025
 21
2.9604367307929582
 31
0.0
  0
LINE
  5
63C7
  8
0
 10
109.7559061212644025
 20
2.9604367307929582
 30
0.0
 11
109.7658495830305014
 21
2.9472708365046829
 31
0.0
  0
LINE
  5
63C8
  8
0
 10
109.7658495830305014
 20
2.9472708365046829
 30
0.0
 11
109.756007063305006
 21
2.9399142229386799
 31
0.0
  0
LINE
  5
63C9
  8
0
 10
109.756007063305006
 20
2.9399142229386799
 30
0.0
 11
109.7363220239813018
 21
2.945640278413284
 31
0.0
  0
LINE
  5
63CA
  8
0
 10
109.7363220239813018
 20
2.945640278413284
 30
0.0
 11
109.7264795043031
 21
2.9588344293625908
 31
0.0
  0
LINE
  5
63CB
  8
0
 10
109.7264795043031
 20
2.9588344293625908
 30
0.0
 11
109.7363220239813018
 21
2.9662473394947262
 31
0.0
  0
LINE
  5
63CC
  8
0
 10
109.7363220239813018
 20
2.9662473394947262
 30
0.0
 11
109.7363220239813018
 21
2.945640278413284
 31
0.0
  0
LINE
  5
63CD
  8
0
 10
109.756007063305006
 20
2.9399142229386799
 30
0.0
 11
109.7559061212644025
 21
2.9604367307929582
 31
0.0
  0
LINE
  5
63CE
  8
0
 10
109.7085139730216952
 20
2.9586602936661079
 30
0.0
 11
109.7281682136813004
 21
2.9518526513219898
 31
0.0
  0
LINE
  5
63CF
  8
0
 10
109.7281682136813004
 20
2.9518526513219898
 30
0.0
 11
109.7377359285312934
 21
2.9394097754132829
 31
0.0
  0
LINE
  5
63D0
  8
0
 10
109.7377359285312934
 20
2.9394097754132829
 30
0.0
 11
109.7281682137335963
 21
2.9330039272606898
 31
0.0
  0
LINE
  5
63D1
  8
0
 10
109.7281682137335963
 20
2.9330039272606898
 30
0.0
 11
109.708483174281298
 21
2.9397125301133662
 31
0.0
  0
LINE
  5
63D2
  8
0
 10
109.708483174281298
 20
2.9397125301133662
 30
0.0
 11
109.6986406546186998
 21
2.95259007687853
 31
0.0
  0
LINE
  5
63D3
  8
0
 10
109.6986406546186998
 20
2.95259007687853
 30
0.0
 11
109.7085139730216952
 21
2.9586602936661079
 31
0.0
  0
LINE
  5
63D4
  8
0
 10
109.7085139730216952
 20
2.9586602936661079
 30
0.0
 11
109.708483174281298
 21
2.9397125301133662
 31
0.0
  0
LINE
  5
63D5
  8
0
 10
109.7281682137335963
 20
2.9330039272606898
 30
0.0
 11
109.7281682136813004
 21
2.9518526513219898
 31
0.0
  0
LINE
  5
63D6
  8
0
 10
109.6806443246811966
 20
2.9538851099132848
 30
0.0
 11
109.7003293640511004
 21
2.9460411258145611
 31
0.0
  0
LINE
  5
63D7
  8
0
 10
109.7003293640511004
 20
2.9460411258145611
 30
0.0
 11
109.710171883686499
 21
2.933561919535753
 31
0.0
  0
LINE
  5
63D8
  8
0
 10
109.710171883686499
 20
2.933561919535753
 30
0.0
 11
109.7003293639812966
 21
2.9288082553121462
 31
0.0
  0
LINE
  5
63D9
  8
0
 10
109.7003293639812966
 20
2.9288082553121462
 30
0.0
 11
109.6806443246498048
 21
2.9365489090870418
 31
0.0
  0
LINE
  5
63DA
  8
0
 10
109.6806443246498048
 20
2.9365489090870418
 30
0.0
 11
109.6708018050308056
 21
2.9491469001446742
 31
0.0
  0
LINE
  5
63DB
  8
0
 10
109.6708018050308056
 20
2.9491469001446742
 30
0.0
 11
109.6806443246811966
 21
2.9538851099132848
 31
0.0
  0
LINE
  5
63DC
  8
0
 10
109.6806443246811966
 20
2.9538851099132848
 30
0.0
 11
109.6806443246498048
 21
2.9365489090870418
 31
0.0
  0
LINE
  5
63DD
  8
0
 10
109.7003293639812966
 20
2.9288082553121462
 30
0.0
 11
109.7003293640511004
 21
2.9460411258145611
 31
0.0
  0
LINE
  5
63DE
  8
0
 10
109.7919997233350955
 20
2.9195448309546079
 30
0.0
 11
109.8116847626812955
 21
2.9158581125132819
 31
0.0
  0
LINE
  5
63DF
  8
0
 10
109.8116847626812955
 20
2.9158581125132819
 30
0.0
 11
109.8215272823022985
 21
2.905594243767319
 31
0.0
  0
LINE
  5
63E0
  8
0
 10
109.8215272823022985
 20
2.905594243767319
 30
0.0
 11
109.8116847626395014
 21
2.8989953369323489
 31
0.0
  0
LINE
  5
63E1
  8
0
 10
109.8116847626395014
 20
2.8989953369323489
 30
0.0
 11
109.7919997232812932
 21
2.9026390452132822
 31
0.0
  0
LINE
  5
63E2
  8
0
 10
109.7919997232812932
 20
2.9026390452132822
 30
0.0
 11
109.7821572036192066
 21
2.9129244180326288
 31
0.0
  0
LINE
  5
63E3
  8
0
 10
109.7821572036192066
 20
2.9129244180326288
 30
0.0
 11
109.7919997233350955
 21
2.9195448309546079
 31
0.0
  0
LINE
  5
63E4
  8
0
 10
109.7919997233350955
 20
2.9195448309546079
 30
0.0
 11
109.7919997232812932
 21
2.9026390452132822
 31
0.0
  0
LINE
  5
63E5
  8
0
 10
109.8116847626395014
 20
2.8989953369323489
 30
0.0
 11
109.8116847626812955
 21
2.9158581125132819
 31
0.0
  0
LINE
  5
63E6
  8
0
 10
109.8198385729424018
 20
2.9297965031090429
 30
0.0
 11
109.8395236123710959
 21
2.9266624341914218
 31
0.0
  0
LINE
  5
63E7
  8
0
 10
109.8395236123710959
 20
2.9266624341914218
 30
0.0
 11
109.8493661319920989
 21
2.9163985654454598
 31
0.0
  0
LINE
  5
63E8
  8
0
 10
109.8493661319920989
 20
2.9163985654454598
 30
0.0
 11
109.8395236123400025
 21
2.908550486587961
 31
0.0
  0
LINE
  5
63E9
  8
0
 10
109.8395236123400025
 20
2.908550486587961
 30
0.0
 11
109.8198385728812951
 21
2.911285772313283
 31
0.0
  0
LINE
  5
63EA
  8
0
 10
109.8198385728812951
 20
2.911285772313283
 30
0.0
 11
109.8099960532511972
 21
2.9219093571081749
 31
0.0
  0
LINE
  5
63EB
  8
0
 10
109.8099960532511972
 20
2.9219093571081749
 30
0.0
 11
109.8198385729424018
 21
2.9297965031090429
 31
0.0
  0
LINE
  5
63EC
  8
0
 10
109.8198385729424018
 20
2.9297965031090429
 30
0.0
 11
109.8198385728812951
 21
2.911285772313283
 31
0.0
  0
LINE
  5
63ED
  8
0
 10
109.8395236123400025
 20
2.908550486587961
 30
0.0
 11
109.8395236123710959
 21
2.9266624341914218
 31
0.0
  0
LINE
  5
63EE
  8
0
 10
109.8476774227105039
 20
2.942691906980607
 30
0.0
 11
109.8673624619813012
 21
2.9408247604660982
 31
0.0
  0
LINE
  5
63EF
  8
0
 10
109.8673624619813012
 20
2.9408247604660982
 30
0.0
 11
109.8772049816811034
 21
2.9298133156901311
 31
0.0
  0
LINE
  5
63F0
  8
0
 10
109.8772049816811034
 20
2.9298133156901311
 30
0.0
 11
109.8673624619813012
 21
2.920690327274575
 31
0.0
  0
LINE
  5
63F1
  8
0
 10
109.8673624619813012
 20
2.920690327274575
 30
0.0
 11
109.8476774225812989
 21
2.9225242630141341
 31
0.0
  0
LINE
  5
63F2
  8
0
 10
109.8476774225812989
 20
2.9225242630141341
 30
0.0
 11
109.8378349029170948
 21
2.9335139674425088
 31
0.0
  0
LINE
  5
63F3
  8
0
 10
109.8378349029170948
 20
2.9335139674425088
 30
0.0
 11
109.8476774227105039
 21
2.942691906980607
 31
0.0
  0
LINE
  5
63F4
  8
0
 10
109.8476774227105039
 20
2.942691906980607
 30
0.0
 11
109.8476774225812989
 21
2.9225242630141341
 31
0.0
  0
LINE
  5
63F5
  8
0
 10
109.8673624619813012
 20
2.920690327274575
 30
0.0
 11
109.8673624619813012
 21
2.9408247604660982
 31
0.0
  0
LINE
  5
63F6
  8
0
 10
109.8755162723054042
 20
2.9582961354924939
 30
0.0
 11
109.8952013115813031
 21
2.957349255328638
 31
0.0
  0
LINE
  5
63F7
  8
0
 10
109.8952013115813031
 20
2.957349255328638
 30
0.0
 11
109.9050438312775952
 21
2.9459095752464051
 31
0.0
  0
LINE
  5
63F8
  8
0
 10
109.9050438312775952
 20
2.9459095752464051
 30
0.0
 11
109.8952013115813031
 21
2.9354660936207368
 31
0.0
  0
LINE
  5
63F9
  8
0
 10
109.8952013115813031
 20
2.9354660936207368
 30
0.0
 11
109.8755162721813008
 21
2.936392867343764
 31
0.0
  0
LINE
  5
63FA
  8
0
 10
109.8755162721813008
 20
2.936392867343764
 30
0.0
 11
109.8656737525729028
 21
2.9477829077299962
 31
0.0
  0
LINE
  5
63FB
  8
0
 10
109.8656737525729028
 20
2.9477829077299962
 30
0.0
 11
109.8755162723054042
 21
2.9582961354924939
 31
0.0
  0
LINE
  5
63FC
  8
0
 10
109.8755162723054042
 20
2.9582961354924939
 30
0.0
 11
109.8755162721813008
 21
2.936392867343764
 31
0.0
  0
LINE
  5
63FD
  8
0
 10
109.8952013115813031
 20
2.9354660936207368
 30
0.0
 11
109.8952013115813031
 21
2.957349255328638
 31
0.0
  0
LINE
  5
63FE
  8
0
 10
109.8755162721813008
 20
2.9236561956413829
 30
0.0
 11
109.8951835332357945
 21
2.9227403436021842
 31
0.0
  0
LINE
  5
63FF
  8
0
 10
109.8951835332357945
 20
2.9227403436021842
 30
0.0
 11
109.905043831224603
 21
2.9130671628484262
 31
0.0
  0
LINE
  5
6400
  8
0
 10
109.905043831224603
 20
2.9130671628484262
 30
0.0
 11
109.8952013116996937
 21
2.9043315282760762
 31
0.0
  0
LINE
  5
6401
  8
0
 10
109.8952013116996937
 20
2.9043315282760762
 30
0.0
 11
109.8755162722491008
 21
2.9052347588102179
 31
0.0
  0
LINE
  5
6402
  8
0
 10
109.8755162722491008
 20
2.9052347588102179
 30
0.0
 11
109.8656737525195979
 21
2.9148866395108342
 31
0.0
  0
LINE
  5
6403
  8
0
 10
109.8656737525195979
 20
2.9148866395108342
 30
0.0
 11
109.8755162721813008
 21
2.9236561956413829
 31
0.0
  0
LINE
  5
6404
  8
0
 10
109.8755162721813008
 20
2.9236561956413829
 30
0.0
 11
109.8755162722491008
 21
2.9052347588102179
 31
0.0
  0
LINE
  5
6405
  8
0
 10
109.8952013116996937
 20
2.9043315282760762
 30
0.0
 11
109.8951835332357945
 21
2.9227403436021842
 31
0.0
  0
LINE
  5
6406
  8
0
 10
109.8476774226335948
 20
2.9108430135374781
 30
0.0
 11
109.8673624619862039
 21
2.9090258974626488
 31
0.0
  0
LINE
  5
6407
  8
0
 10
109.8673624619862039
 20
2.9090258974626488
 30
0.0
 11
109.8772049816095944
 21
2.89972359114625
 31
0.0
  0
LINE
  5
6408
  8
0
 10
109.8772049816095944
 20
2.89972359114625
 30
0.0
 11
109.867296480466905
 21
2.8922462732846528
 31
0.0
  0
LINE
  5
6409
  8
0
 10
109.867296480466905
 20
2.8922462732846528
 30
0.0
 11
109.8476774225812989
 21
2.8940378271033942
 31
0.0
  0
LINE
  5
640A
  8
0
 10
109.8476774225812989
 20
2.8940378271033942
 30
0.0
 11
109.8378349029502061
 21
2.90333705191467
 31
0.0
  0
LINE
  5
640B
  8
0
 10
109.8378349029502061
 20
2.90333705191467
 30
0.0
 11
109.8476774226335948
 21
2.9108430135374781
 31
0.0
  0
LINE
  5
640C
  8
0
 10
109.8476774226335948
 20
2.9108430135374781
 30
0.0
 11
109.8476774225812989
 21
2.8940378271033942
 31
0.0
  0
LINE
  5
640D
  8
0
 10
109.867296480466905
 20
2.8922462732846528
 30
0.0
 11
109.8673624619862039
 21
2.9090258974626488
 31
0.0
  0
LINE
  5
640E
  8
0
 10
109.8421026446813045
 20
3.0051463122132822
 30
0.0
 11
109.8476774225801051
 21
2.996792796581329
 31
0.0
  0
LINE
  5
640F
  8
0
 10
109.8476774225801051
 20
2.996792796581329
 30
0.0
 11
109.867362461985806
 21
2.9948131614031701
 31
0.0
  0
LINE
  5
6410
  8
0
 10
109.867362461985806
 20
2.9948131614031701
 30
0.0
 11
109.8768079826553929
 21
3.006997795756349
 31
0.0
  0
LINE
  5
6411
  8
0
 10
109.8673597474773942
 20
3.0066264132455038
 30
0.0
 11
109.8673624619385976
 21
2.994813161407071
 31
0.0
  0
LINE
  5
6412
  8
0
 10
109.8476774225868979
 20
2.996792796571297
 30
0.0
 11
109.8476774225868979
 21
3.005536947119781
 31
0.0
  0
LINE
  5
6413
  8
0
 10
109.7617841333057953
 20
2.9956550955460459
 30
0.0
 11
109.7641608735813037
 21
2.991953440752618
 31
0.0
  0
LINE
  5
6414
  8
0
 10
109.7641608735813037
 20
2.991953440752618
 30
0.0
 11
109.783845912981306
 21
2.9869818430719568
 31
0.0
  0
LINE
  5
6415
  8
0
 10
109.783845912981306
 20
2.9869818430719568
 30
0.0
 11
109.7936884326972944
 21
2.997515596579079
 31
0.0
  0
LINE
  5
6416
  8
0
 10
109.7936884326972944
 20
2.997515596579079
 30
0.0
 11
109.7919648338342995
 21
3.000187925352888
 31
0.0
  0
LINE
  5
6417
  8
0
 10
109.7838459129812065
 20
2.9869818430719528
 30
0.0
 11
109.7838459129812065
 21
2.9990925746999131
 31
0.0
  0
LINE
  5
6418
  8
0
 10
109.7641608735674055
 20
2.9919534407117729
 30
0.0
 11
109.7641608735674055
 21
2.9960580018481422
 31
0.0
  0
LINE
  5
6419
  8
0
 10
109.7303730266813062
 20
2.989581735813283
 30
0.0
 11
109.7363220239843997
 21
2.9804844316220001
 31
0.0
  0
LINE
  5
641A
  8
0
 10
109.7363220239843997
 20
2.9804844316220001
 30
0.0
 11
109.756007063384402
 21
2.9745582625343809
 31
0.0
  0
LINE
  5
641B
  8
0
 10
109.756007063384402
 20
2.9745582625343809
 30
0.0
 11
109.7658495829943064
 21
2.9836982494502751
 31
0.0
  0
LINE
  5
641C
  8
0
 10
109.7658495829943064
 20
2.9836982494502751
 30
0.0
 11
109.7583226425759051
 21
2.9950541476809871
 31
0.0
  0
LINE
  5
641D
  8
0
 10
109.756007063384402
 20
2.9745582625343778
 30
0.0
 11
109.756007063384402
 21
2.9946427537029812
 31
0.0
  0
LINE
  5
641E
  8
0
 10
109.7363220239705015
 20
2.980484431581151
 30
0.0
 11
109.7363220239705015
 21
2.9908395870464992
 31
0.0
  0
LINE
  5
641F
  8
0
 10
109.7013372442057033
 20
2.9823579235054982
 30
0.0
 11
109.7084831742951962
 21
2.971833874024119
 31
0.0
  0
LINE
  5
6420
  8
0
 10
109.7084831742951962
 20
2.971833874024119
 30
0.0
 11
109.7281682136542003
 21
2.9649274144148139
 31
0.0
  0
LINE
  5
6421
  8
0
 10
109.7281682136542003
 20
2.9649274144148139
 30
0.0
 11
109.7380107333930965
 21
2.9727124038961801
 31
0.0
  0
LINE
  5
6422
  8
0
 10
109.7380107333930965
 20
2.9727124038961801
 30
0.0
 11
109.7281682137635954
 21
2.987487077101127
 31
0.0
  0
LINE
  5
6423
  8
0
 10
109.7281682136542003
 20
2.9649274144148108
 30
0.0
 11
109.7281682136542003
 21
2.9874870771466191
 31
0.0
  0
LINE
  5
6424
  8
0
 10
109.7281682136542003
 20
2.9891015942242851
 30
0.0
 11
109.7281682136542003
 21
2.9891041412680242
 31
0.0
  0
LINE
  5
6425
  8
0
 10
109.708483174281298
 20
2.971833873983273
 30
0.0
 11
109.7084831740451989
 21
2.9843254133041821
 31
0.0
  0
LINE
  5
6426
  8
0
 10
109.7281682136542003
 20
2.9874870772654001
 30
0.0
 11
109.7253030999571024
 21
2.988466319229937
 31
0.0
  0
LINE
  5
6427
  8
0
 10
109.675109745402807
 20
2.9740373409768539
 30
0.0
 11
109.6806443246951943
 21
2.9660009522541322
 31
0.0
  0
LINE
  5
6428
  8
0
 10
109.6806443246951943
 20
2.9660009522541322
 30
0.0
 11
109.700329363975797
 21
2.9580722100010859
 31
0.0
  0
LINE
  5
6429
  8
0
 10
109.700329363975797
 20
2.9580722100010859
 30
0.0
 11
109.7101718836592994
 21
2.964517805588029
 31
0.0
  0
LINE
  5
642A
  8
0
 10
109.7101718836592994
 20
2.964517805588029
 30
0.0
 11
109.7003293639675974
 21
2.9789327669691388
 31
0.0
  0
LINE
  5
642B
  8
0
 10
109.700329363975797
 20
2.9580722100010819
 30
0.0
 11
109.7003293638582022
 21
2.9789327670146308
 31
0.0
  0
LINE
  5
642C
  8
0
 10
109.6806443246811966
 20
2.9660009522132831
 30
0.0
 11
109.6806443244089024
 21
2.97593989281473
 31
0.0
  0
LINE
  5
642D
  8
0
 10
109.7003293638582022
 20
2.9789327671334132
 30
0.0
 11
109.6957695404053936
 21
2.9807373288688739
 31
0.0
  0
LINE
  5
642E
  8
0
 10
109.651533064898203
 20
2.9645324675026048
 30
0.0
 11
109.6528054749967964
 21
2.963033392437791
 31
0.0
  0
LINE
  5
642F
  8
0
 10
109.6528054749967964
 20
2.963033392437791
 30
0.0
 11
109.6724905143812947
 21
2.9540217772132862
 31
0.0
  0
LINE
  5
6430
  8
0
 10
109.6724905143812947
 20
2.9540217772132862
 30
0.0
 11
109.6823330340623954
 21
2.9591212929973638
 31
0.0
  0
LINE
  5
6431
  8
0
 10
109.6823330340623954
 20
2.9591212929973638
 30
0.0
 11
109.6725544173561957
 21
2.9731318506309008
 31
0.0
  0
LINE
  5
6432
  8
0
 10
109.6724905143812947
 20
2.9540217772132831
 30
0.0
 11
109.6725544172468005
 21
2.9731318506763929
 31
0.0
  0
LINE
  5
6433
  8
0
 10
109.6528054749828982
 20
2.9630333923969459
 30
0.0
 11
109.6528054749403935
 21
2.9651268683698451
 31
0.0
  0
LINE
  5
6434
  8
0
 10
109.6986406546747048
 20
2.92442576809824
 30
0.0
 11
109.708483174272601
 21
2.9288301480425019
 31
0.0
  0
LINE
  5
6435
  8
0
 10
109.708483174272601
 20
2.9288301480425019
 30
0.0
 11
109.7281682136429026
 21
2.9221754072427379
 31
0.0
  0
LINE
  5
6436
  8
0
 10
109.7281682136429026
 20
2.9221754072427379
 30
0.0
 11
109.7380107334285952
 21
2.9111780993228802
 31
0.0
  0
LINE
  5
6437
  8
0
 10
109.7380107334285952
 20
2.9111780993228802
 30
0.0
 11
109.6986406546747048
 21
2.9244257680982431
 31
0.0
  0
LINE
  5
6438
  8
0
 10
109.7543183539063989
 20
2.9065535360035191
 30
0.0
 11
109.7641608736533954
 21
2.9119124438329731
 31
0.0
  0
LINE
  5
6439
  8
0
 10
109.7641608736533954
 20
2.9119124438329731
 30
0.0
 11
109.7838459130290971
 21
2.907299694643898
 31
0.0
  0
LINE
  5
643A
  8
0
 10
109.7838459130290971
 20
2.907299694643898
 30
0.0
 11
109.7932038142812985
 21
2.8972484357588839
 31
0.0
  0
LINE
  5
643B
  8
0
 10
109.7932038142812985
 20
2.8972484357588839
 30
0.0
 11
109.7543183539063989
 21
2.9065535360035231
 31
0.0
  0
LINE
  5
643C
  8
0
 10
109.8099960532811963
 20
2.8943590765132838
 30
0.0
 11
109.8198601615315937
 21
2.9006192489389711
 31
0.0
  0
LINE
  5
643D
  8
0
 10
109.8198601615315937
 20
2.9006192489389711
 30
0.0
 11
109.8395236122742062
 21
2.8979071987797318
 31
0.0
  0
LINE
  5
643E
  8
0
 10
109.8395236122742062
 20
2.8979071987797318
 30
0.0
 11
109.8493661319575949
 21
2.8889514250643931
 31
0.0
  0
LINE
  5
643F
  8
0
 10
109.8493661319575949
 20
2.8889514250643931
 30
0.0
 11
109.8099960532812958
 21
2.8943590765132869
 31
0.0
  0
LINE
  5
6440
  8
0
 10
109.8656737525812019
 20
2.8874674411132779
 30
0.0
 11
109.8755162721815992
 21
2.8946153290796679
 31
0.0
  0
LINE
  5
6441
  8
0
 10
109.8755162721815992
 20
2.8946153290796679
 30
0.0
 11
109.8952013116400934
 21
2.8937185483134922
 31
0.0
  0
LINE
  5
6442
  8
0
 10
109.8952013116400934
 20
2.8937185483134922
 30
0.0
 11
109.9050438313269069
 21
2.8856813907029291
 31
0.0
  0
LINE
  5
6443
  8
0
 10
109.9050438313269069
 20
2.8856813907029291
 30
0.0
 11
109.8656737525813014
 21
2.887467441113285
 31
0.0
  0
LINE
  5
6444
  8
0
 10
109.6429629552995948
 20
2.9485928318430101
 30
0.0
 11
109.6528054749813066
 21
2.9519524572132818
 31
0.0
  0
LINE
  5
6445
  8
0
 10
109.6528054749813066
 20
2.9519524572132818
 30
0.0
 11
109.6724905143806978
 21
2.9430197362625901
 31
0.0
  0
LINE
  5
6446
  8
0
 10
109.6724905143806978
 20
2.9430197362625901
 30
0.0
 11
109.6823330340812959
 21
2.9308168447132821
 31
0.0
  0
LINE
  5
6447
  8
0
 10
109.6823330340812959
 20
2.9308168447132821
 30
0.0
 11
109.669420860781301
 21
2.935887835413284
 31
0.0
  0
LINE
  5
6448
  8
0
 10
109.669420860781301
 20
2.935887835413284
 30
0.0
 11
109.6645120357812999
 21
2.930879174013282
 31
0.0
  0
LINE
  5
6449
  8
0
 10
109.6645120357812999
 20
2.930879174013282
 30
0.0
 11
109.6528054749449979
 21
2.9362395911407879
 31
0.0
  0
LINE
  5
644A
  8
0
 10
109.6528054749449979
 20
2.9362395911407879
 30
0.0
 11
109.6429629552995948
 21
2.9485928318430101
 31
0.0
  0
LINE
  5
644B
  8
0
 10
109.6528054736265005
 20
2.951952456750857
 30
0.0
 11
109.6528054736265005
 21
2.9362395918399762
 31
0.0
  0
ARC
  5
644C
  8
0
 10
109.9137130954756998
 20
2.0459569753844429
 30
0.0
 40
0.9617105694291453
 50
87.8537099979877638
 51
90.0303761057918024
  0
ARC
  5
644D
  8
0
 10
109.9187204078804996
 20
2.1000083785835222
 30
0.0
 40
0.9075144472437681
 50
84.4450648430462962
 51
88.0418216568067038
  0
ARC
  5
644E
  8
0
 10
109.9388018767599959
 20
2.2606531271941899
 30
0.0
 40
0.7456934223594988
 50
77.8276656712575914
 51
84.7859660324203475
  0
ARC
  5
644F
  8
0
 10
110.0011692165375052
 20
2.5463134431563912
 30
0.0
 40
0.4533056360671263
 50
70.3166935409282843
 51
77.9203013225840238
  0
ARC
  5
6450
  8
0
 10
110.0956811031665978
 20
2.8004283747266689
 30
0.0
 40
0.1822370689562849
 50
55.9218634736145503
 51
71.3851597444264172
  0
LINE
  5
6451
  8
0
 10
109.9508901919813013
 20
2.9991212213132821
 30
0.0
 11
109.9312051526011942
 21
2.9981296433045919
 31
0.0
  0
LINE
  5
6452
  8
0
 10
109.9312051526011942
 20
2.9981296433045919
 30
0.0
 11
109.9213626329071047
 21
2.9847117417621951
 31
0.0
  0
LINE
  5
6453
  8
0
 10
109.9213626329071047
 20
2.9847117417621951
 30
0.0
 11
109.931205152581299
 21
2.9723828838840669
 31
0.0
  0
LINE
  5
6454
  8
0
 10
109.931205152581299
 20
2.9723828838840669
 30
0.0
 11
109.9508901919813013
 21
2.9733451536132849
 31
0.0
  0
LINE
  5
6455
  8
0
 10
109.9508901919813013
 20
2.9733451536132849
 30
0.0
 11
109.9607327115813007
 21
2.9866649327132828
 31
0.0
  0
LINE
  5
6456
  8
0
 10
109.9607327115813007
 20
2.9866649327132828
 30
0.0
 11
109.9508901919813013
 21
2.9991212213132821
 31
0.0
  0
LINE
  5
6457
  8
0
 10
109.9508901919813013
 20
2.9991212213132821
 30
0.0
 11
109.9508901919813013
 21
2.9733451536132849
 31
0.0
  0
LINE
  5
6458
  8
0
 10
109.931205152581299
 20
2.9723828838840669
 30
0.0
 11
109.9312051526011942
 21
2.9981296433045919
 31
0.0
  0
LINE
  5
6459
  8
0
 10
109.9787290415813032
 20
2.9804312471080632
 30
0.0
 11
109.9590440021813009
 21
2.9784891278833259
 31
0.0
  0
LINE
  5
645A
  8
0
 10
109.9590440021813009
 20
2.9784891278833259
 30
0.0
 11
109.9492014825397064
 21
2.965593818295714
 31
0.0
  0
LINE
  5
645B
  8
0
 10
109.9492014825397064
 20
2.965593818295714
 30
0.0
 11
109.9590440021813009
 21
2.9546950372817848
 31
0.0
  0
LINE
  5
645C
  8
0
 10
109.9590440021813009
 20
2.9546950372817848
 30
0.0
 11
109.978729041613903
 21
2.9565879016900078
 31
0.0
  0
LINE
  5
645D
  8
0
 10
109.978729041613903
 20
2.9565879016900078
 30
0.0
 11
109.9885715612836066
 21
2.9694278729692849
 31
0.0
  0
LINE
  5
645E
  8
0
 10
109.9885715612836066
 20
2.9694278729692849
 30
0.0
 11
109.9787290415813032
 21
2.9804312471080632
 31
0.0
  0
LINE
  5
645F
  8
0
 10
109.9787290415813032
 20
2.9804312471080632
 30
0.0
 11
109.978729041613903
 21
2.9565879016900078
 31
0.0
  0
LINE
  5
6460
  8
0
 10
109.9590440021813009
 20
2.9546950372817848
 30
0.0
 11
109.9590440021813009
 21
2.9784891278833259
 31
0.0
  0
LINE
  5
6461
  8
0
 10
109.9966692357560021
 20
3.0041690126464049
 30
0.0
 11
109.9868828518594057
 21
3.0027641644499719
 31
0.0
  0
LINE
  5
6462
  8
0
 10
109.9868828518594057
 20
3.0027641644499719
 30
0.0
 11
109.9770403322317947
 21
2.9882887309277262
 31
0.0
  0
LINE
  5
6463
  8
0
 10
109.9770403322317947
 20
2.9882887309277262
 30
0.0
 11
109.9868828518813046
 21
2.9768794597053421
 31
0.0
  0
LINE
  5
6464
  8
0
 10
109.9868828518813046
 20
2.9768794597053421
 30
0.0
 11
110.0065678913060054
 21
2.9797972778011839
 31
0.0
  0
LINE
  5
6465
  8
0
 10
110.0065678913060054
 20
2.9797972778011839
 30
0.0
 11
110.0164104109168051
 21
2.994213234393948
 31
0.0
  0
LINE
  5
6466
  8
0
 10
110.0164104109168051
 20
2.994213234393948
 30
0.0
 11
110.0065678912811933
 21
3.003260996413283
 31
0.0
  0
LINE
  5
6467
  8
0
 10
110.0065678912811933
 20
3.003260996413283
 30
0.0
 11
110.0065678913060054
 21
2.9797972778011839
 31
0.0
  0
LINE
  5
6468
  8
0
 10
109.9868828518813046
 20
2.9768794597053421
 30
0.0
 11
109.9868828518594057
 21
3.0027641644499719
 31
0.0
  0
LINE
  5
6469
  8
0
 10
110.0344067408811952
 20
2.9897447029769371
 30
0.0
 11
110.0147217014811929
 21
2.9857961817878031
 31
0.0
  0
LINE
  5
646A
  8
0
 10
110.0147217014811929
 20
2.9857961817878031
 30
0.0
 11
110.0050008291300969
 21
2.971992093998705
 31
0.0
  0
LINE
  5
646B
  8
0
 10
110.0050008291300969
 20
2.971992093998705
 30
0.0
 11
110.0148433487716062
 21
2.9618364713870569
 31
0.0
  0
LINE
  5
646C
  8
0
 10
110.0148433487716062
 20
2.9618364713870569
 30
0.0
 11
110.0344067409085937
 21
2.9656600456603051
 31
0.0
  0
LINE
  5
646D
  8
0
 10
110.0344067409085937
 20
2.9656600456603051
 30
0.0
 11
110.0442492605602069
 21
2.9796162918930822
 31
0.0
  0
LINE
  5
646E
  8
0
 10
110.0442492605602069
 20
2.9796162918930822
 30
0.0
 11
110.0344067408811952
 21
2.9897447029769371
 31
0.0
  0
LINE
  5
646F
  8
0
 10
110.0344067408811952
 20
2.9897447029769371
 30
0.0
 11
110.0344067409085937
 21
2.9656600456603051
 31
0.0
  0
LINE
  5
6470
  8
0
 10
110.0148433487716062
 20
2.9618364713870569
 30
0.0
 11
110.0147217014811929
 21
2.9857961817878031
 31
0.0
  0
LINE
  5
6471
  8
0
 10
110.006567891281307
 20
2.9646436024379539
 30
0.0
 11
109.9868828517756043
 21
2.961773432465614
 31
0.0
  0
LINE
  5
6472
  8
0
 10
109.9868828517756043
 20
2.961773432465614
 30
0.0
 11
109.9770403321339955
 21
2.9493398734404561
 31
0.0
  0
LINE
  5
6473
  8
0
 10
109.9770403321339955
 20
2.9493398734404561
 30
0.0
 11
109.9868828517756043
 21
2.9397957168530642
 31
0.0
  0
LINE
  5
6474
  8
0
 10
109.9868828517756043
 20
2.9397957168530642
 30
0.0
 11
110.0062153796712039
 21
2.9425474587902598
 31
0.0
  0
LINE
  5
6475
  8
0
 10
110.0062153796712039
 20
2.9425474587902598
 30
0.0
 11
110.0164104109341991
 21
2.955017075213747
 31
0.0
  0
LINE
  5
6476
  8
0
 10
110.0164104109341991
 20
2.955017075213747
 30
0.0
 11
110.006567891281307
 21
2.9646436024379539
 31
0.0
  0
LINE
  5
6477
  8
0
 10
110.006567891281307
 20
2.9646436024379539
 30
0.0
 11
110.0062153796712039
 21
2.9425474587902598
 31
0.0
  0
LINE
  5
6478
  8
0
 10
109.9868828517756043
 20
2.9397957168530642
 30
0.0
 11
109.9868828517756043
 21
2.961773432465614
 31
0.0
  0
LINE
  5
6479
  8
0
 10
110.0622455905812984
 20
2.9765953748656289
 30
0.0
 11
110.0425605511812961
 21
2.9717085371772258
 31
0.0
  0
LINE
  5
647A
  8
0
 10
110.0425605511812961
 20
2.9717085371772258
 30
0.0
 11
110.0327180315184989
 21
2.9581791849959682
 31
0.0
  0
LINE
  5
647B
  8
0
 10
110.0327180315184989
 20
2.9581791849959682
 30
0.0
 11
110.0425605511812961
 21
2.9495127009580679
 31
0.0
  0
LINE
  5
647C
  8
0
 10
110.0425605511812961
 20
2.9495127009580679
 30
0.0
 11
110.062245590543597
 21
2.9542892053888159
 31
0.0
  0
LINE
  5
647D
  8
0
 10
110.062245590543597
 20
2.9542892053888159
 30
0.0
 11
110.0720881101880053
 21
2.9678409589236781
 31
0.0
  0
LINE
  5
647E
  8
0
 10
110.0720881101880053
 20
2.9678409589236781
 30
0.0
 11
110.0622455905812984
 21
2.9765953748656289
 31
0.0
  0
LINE
  5
647F
  8
0
 10
110.0622455905812984
 20
2.9765953748656289
 30
0.0
 11
110.062245590543597
 21
2.9542892053888159
 31
0.0
  0
LINE
  5
6480
  8
0
 10
110.0425605511812961
 20
2.9495127009580679
 30
0.0
 11
110.0425605511812961
 21
2.9717085371772258
 31
0.0
  0
LINE
  5
6481
  8
0
 10
110.0344067408578042
 20
2.9516382136514081
 30
0.0
 11
110.0147217014811929
 21
2.9478469082132839
 31
0.0
  0
LINE
  5
6482
  8
0
 10
110.0147217014811929
 20
2.9478469082132839
 30
0.0
 11
110.004879181827306
 21
2.935826232750391
 31
0.0
  0
LINE
  5
6483
  8
0
 10
110.004879181827306
 20
2.935826232750391
 30
0.0
 11
110.0147217014900036
 21
2.9271597487124921
 31
0.0
  0
LINE
  5
6484
  8
0
 10
110.0147217014900036
 20
2.9271597487124921
 30
0.0
 11
110.0344067408811952
 21
2.9313082297162421
 31
0.0
  0
LINE
  5
6485
  8
0
 10
110.0344067408811952
 20
2.9313082297162421
 30
0.0
 11
110.0442492605610028
 21
2.9433385687620239
 31
0.0
  0
LINE
  5
6486
  8
0
 10
110.0442492605610028
 20
2.9433385687620239
 30
0.0
 11
110.0344067408578042
 21
2.9516382136514081
 31
0.0
  0
LINE
  5
6487
  8
0
 10
110.0344067408578042
 20
2.9516382136514081
 30
0.0
 11
110.0344067408811952
 21
2.9313082297162421
 31
0.0
  0
LINE
  5
6488
  8
0
 10
110.0147217014900036
 20
2.9271597487124921
 30
0.0
 11
110.0147217014811929
 21
2.9478469082132839
 31
0.0
  0
LINE
  5
6489
  8
0
 10
110.0622455905143937
 20
2.941344778743507
 30
0.0
 11
110.0429595152121038
 21
2.9367137306593358
 31
0.0
  0
LINE
  5
648A
  8
0
 10
110.0429595152121038
 20
2.9367137306593358
 30
0.0
 11
110.0327180314559996
 21
2.9249772667433418
 31
0.0
  0
LINE
  5
648B
  8
0
 10
110.0327180314559996
 20
2.9249772667433418
 30
0.0
 11
110.0425939730930054
 21
2.9180199761177521
 31
0.0
  0
LINE
  5
648C
  8
0
 10
110.0425939730930054
 20
2.9180199761177521
 30
0.0
 11
110.0622455906018047
 21
2.922660555259982
 31
0.0
  0
LINE
  5
648D
  8
0
 10
110.0622455906018047
 20
2.922660555259982
 30
0.0
 11
110.072088110125506
 21
2.9346390406710561
 31
0.0
  0
LINE
  5
648E
  8
0
 10
110.072088110125506
 20
2.9346390406710561
 30
0.0
 11
110.0622455905143937
 21
2.941344778743507
 31
0.0
  0
LINE
  5
648F
  8
0
 10
110.0622455905143937
 20
2.941344778743507
 30
0.0
 11
110.0622455906018047
 21
2.922660555259982
 31
0.0
  0
LINE
  5
6490
  8
0
 10
110.0425939730930054
 20
2.9180199761177521
 30
0.0
 11
110.0429595152121038
 21
2.9367137306593358
 31
0.0
  0
LINE
  5
6491
  8
0
 10
110.090084440223805
 20
2.9337369331304979
 30
0.0
 11
110.0709594672129015
 21
2.9282189620785259
 31
0.0
  0
LINE
  5
6492
  8
0
 10
110.0709594672129015
 20
2.9282189620785259
 30
0.0
 11
110.0605568811180035
 21
2.9167593140149259
 31
0.0
  0
LINE
  5
6493
  8
0
 10
110.0605568811180035
 20
2.9167593140149259
 30
0.0
 11
110.070399400781298
 21
2.911060221213285
 31
0.0
  0
LINE
  5
6494
  8
0
 10
110.070399400781298
 20
2.911060221213285
 30
0.0
 11
110.0900844401494965
 21
2.9166600072300941
 31
0.0
  0
LINE
  5
6495
  8
0
 10
110.0900844401494965
 20
2.9166600072300941
 30
0.0
 11
110.0999269598636943
 21
2.9280281747425798
 31
0.0
  0
LINE
  5
6496
  8
0
 10
110.0999269598636943
 20
2.9280281747425798
 30
0.0
 11
110.090084440223805
 21
2.9337369331304979
 31
0.0
  0
LINE
  5
6497
  8
0
 10
110.090084440223805
 20
2.9337369331304979
 30
0.0
 11
110.0900844401494965
 21
2.9166600072300941
 31
0.0
  0
LINE
  5
6498
  8
0
 10
110.070399400781298
 20
2.911060221213285
 30
0.0
 11
110.0709594672129015
 21
2.9282189620785259
 31
0.0
  0
LINE
  5
6499
  8
0
 10
110.0900844401813004
 20
2.9662473394947262
 30
0.0
 11
110.0705003428981001
 21
2.9604367307929582
 31
0.0
  0
LINE
  5
649A
  8
0
 10
110.0705003428981001
 20
2.9604367307929582
 30
0.0
 11
110.0605568811321007
 21
2.9472708365046829
 31
0.0
  0
LINE
  5
649B
  8
0
 10
110.0605568811321007
 20
2.9472708365046829
 30
0.0
 11
110.0703994008574966
 21
2.9399142229386799
 31
0.0
  0
LINE
  5
649C
  8
0
 10
110.0703994008574966
 20
2.9399142229386799
 30
0.0
 11
110.0900844401813004
 21
2.945640278413284
 31
0.0
  0
LINE
  5
649D
  8
0
 10
110.0900844401813004
 20
2.945640278413284
 30
0.0
 11
110.0999269598594026
 21
2.9588344293625908
 31
0.0
  0
LINE
  5
649E
  8
0
 10
110.0999269598594026
 20
2.9588344293625908
 30
0.0
 11
110.0900844401813004
 21
2.9662473394947262
 31
0.0
  0
LINE
  5
649F
  8
0
 10
110.0900844401813004
 20
2.9662473394947262
 30
0.0
 11
110.0900844401813004
 21
2.945640278413284
 31
0.0
  0
LINE
  5
64A0
  8
0
 10
110.0703994008574966
 20
2.9399142229386799
 30
0.0
 11
110.0705003428981001
 21
2.9604367307929582
 31
0.0
  0
LINE
  5
64A1
  8
0
 10
110.1178924911409069
 20
2.9586602936661079
 30
0.0
 11
110.0982382504813017
 21
2.9518526513219898
 31
0.0
  0
LINE
  5
64A2
  8
0
 10
110.0982382504813017
 20
2.9518526513219898
 30
0.0
 11
110.088670535631195
 21
2.9394097754132829
 31
0.0
  0
LINE
  5
64A3
  8
0
 10
110.088670535631195
 20
2.9394097754132829
 30
0.0
 11
110.0982382504289063
 21
2.9330039272606898
 31
0.0
  0
LINE
  5
64A4
  8
0
 10
110.0982382504289063
 20
2.9330039272606898
 30
0.0
 11
110.1179232898813041
 21
2.9397125301133662
 31
0.0
  0
LINE
  5
64A5
  8
0
 10
110.1179232898813041
 20
2.9397125301133662
 30
0.0
 11
110.1277658095438028
 21
2.95259007687853
 31
0.0
  0
LINE
  5
64A6
  8
0
 10
110.1277658095438028
 20
2.95259007687853
 30
0.0
 11
110.1178924911409069
 21
2.9586602936661079
 31
0.0
  0
LINE
  5
64A7
  8
0
 10
110.1178924911409069
 20
2.9586602936661079
 30
0.0
 11
110.1179232898813041
 21
2.9397125301133662
 31
0.0
  0
LINE
  5
64A8
  8
0
 10
110.0982382504289063
 20
2.9330039272606898
 30
0.0
 11
110.0982382504813017
 21
2.9518526513219898
 31
0.0
  0
LINE
  5
64A9
  8
0
 10
110.145762139481306
 20
2.9538851099132848
 30
0.0
 11
110.1260771001115017
 21
2.9460411258145611
 31
0.0
  0
LINE
  5
64AA
  8
0
 10
110.1260771001115017
 20
2.9460411258145611
 30
0.0
 11
110.1162345804760037
 21
2.933561919535753
 31
0.0
  0
LINE
  5
64AB
  8
0
 10
110.1162345804760037
 20
2.933561919535753
 30
0.0
 11
110.1260771001813055
 21
2.9288082553121462
 31
0.0
  0
LINE
  5
64AC
  8
0
 10
110.1260771001813055
 20
2.9288082553121462
 30
0.0
 11
110.1457621395126978
 21
2.9365489090870418
 31
0.0
  0
LINE
  5
64AD
  8
0
 10
110.1457621395126978
 20
2.9365489090870418
 30
0.0
 11
110.1556046591316971
 21
2.9491469001446742
 31
0.0
  0
LINE
  5
64AE
  8
0
 10
110.1556046591316971
 20
2.9491469001446742
 30
0.0
 11
110.145762139481306
 21
2.9538851099132848
 31
0.0
  0
LINE
  5
64AF
  8
0
 10
110.145762139481306
 20
2.9538851099132848
 30
0.0
 11
110.1457621395126978
 21
2.9365489090870418
 31
0.0
  0
LINE
  5
64B0
  8
0
 10
110.1260771001813055
 20
2.9288082553121462
 30
0.0
 11
110.1260771001115017
 21
2.9460411258145611
 31
0.0
  0
LINE
  5
64B1
  8
0
 10
110.0344067408275066
 20
2.9195448309546079
 30
0.0
 11
110.0147217014811929
 21
2.9158581125132819
 31
0.0
  0
LINE
  5
64B2
  8
0
 10
110.0147217014811929
 20
2.9158581125132819
 30
0.0
 11
110.0048791818603036
 21
2.905594243767319
 31
0.0
  0
LINE
  5
64B3
  8
0
 10
110.0048791818603036
 20
2.905594243767319
 30
0.0
 11
110.0147217015230012
 21
2.8989953369323489
 31
0.0
  0
LINE
  5
64B4
  8
0
 10
110.0147217015230012
 20
2.8989953369323489
 30
0.0
 11
110.0344067408811952
 21
2.9026390452132822
 31
0.0
  0
LINE
  5
64B5
  8
0
 10
110.0344067408811952
 20
2.9026390452132822
 30
0.0
 11
110.0442492605433955
 21
2.9129244180326288
 31
0.0
  0
LINE
  5
64B6
  8
0
 10
110.0442492605433955
 20
2.9129244180326288
 30
0.0
 11
110.0344067408275066
 21
2.9195448309546079
 31
0.0
  0
LINE
  5
64B7
  8
0
 10
110.0344067408275066
 20
2.9195448309546079
 30
0.0
 11
110.0344067408811952
 21
2.9026390452132822
 31
0.0
  0
LINE
  5
64B8
  8
0
 10
110.0147217015230012
 20
2.8989953369323489
 30
0.0
 11
110.0147217014811929
 21
2.9158581125132819
 31
0.0
  0
LINE
  5
64B9
  8
0
 10
110.0065678912202003
 20
2.9297965031090429
 30
0.0
 11
109.9868828517914068
 21
2.9266624341914218
 31
0.0
  0
LINE
  5
64BA
  8
0
 10
109.9868828517914068
 20
2.9266624341914218
 30
0.0
 11
109.9770403321704038
 21
2.9163985654454598
 31
0.0
  0
LINE
  5
64BB
  8
0
 10
109.9770403321704038
 20
2.9163985654454598
 30
0.0
 11
109.9868828518225001
 21
2.908550486587961
 31
0.0
  0
LINE
  5
64BC
  8
0
 10
109.9868828518225001
 20
2.908550486587961
 30
0.0
 11
110.006567891281307
 21
2.911285772313283
 31
0.0
  0
LINE
  5
64BD
  8
0
 10
110.006567891281307
 20
2.911285772313283
 30
0.0
 11
110.0164104109113055
 21
2.9219093571081749
 31
0.0
  0
LINE
  5
64BE
  8
0
 10
110.0164104109113055
 20
2.9219093571081749
 30
0.0
 11
110.0065678912202003
 21
2.9297965031090429
 31
0.0
  0
LINE
  5
64BF
  8
0
 10
110.0065678912202003
 20
2.9297965031090429
 30
0.0
 11
110.006567891281307
 21
2.911285772313283
 31
0.0
  0
LINE
  5
64C0
  8
0
 10
109.9868828518225001
 20
2.908550486587961
 30
0.0
 11
109.9868828517914068
 21
2.9266624341914218
 31
0.0
  0
LINE
  5
64C1
  8
0
 10
109.9787290414519987
 20
2.942691906980607
 30
0.0
 11
109.9590440021813009
 21
2.9408247604660982
 31
0.0
  0
LINE
  5
64C2
  8
0
 10
109.9590440021813009
 20
2.9408247604660982
 30
0.0
 11
109.9492014824813992
 21
2.9298133156901311
 31
0.0
  0
LINE
  5
64C3
  8
0
 10
109.9492014824813992
 20
2.9298133156901311
 30
0.0
 11
109.9590440021813009
 21
2.920690327274575
 31
0.0
  0
LINE
  5
64C4
  8
0
 10
109.9590440021813009
 20
2.920690327274575
 30
0.0
 11
109.9787290415813032
 21
2.9225242630141341
 31
0.0
  0
LINE
  5
64C5
  8
0
 10
109.9787290415813032
 20
2.9225242630141341
 30
0.0
 11
109.9885715612453936
 21
2.9335139674425088
 31
0.0
  0
LINE
  5
64C6
  8
0
 10
109.9885715612453936
 20
2.9335139674425088
 30
0.0
 11
109.9787290414519987
 21
2.942691906980607
 31
0.0
  0
LINE
  5
64C7
  8
0
 10
109.9787290414519987
 20
2.942691906980607
 30
0.0
 11
109.9787290415813032
 21
2.9225242630141341
 31
0.0
  0
LINE
  5
64C8
  8
0
 10
109.9590440021813009
 20
2.920690327274575
 30
0.0
 11
109.9590440021813009
 21
2.9408247604660982
 31
0.0
  0
LINE
  5
64C9
  8
0
 10
109.9508901918570984
 20
2.9582961354924939
 30
0.0
 11
109.931205152581299
 21
2.957349255328638
 31
0.0
  0
LINE
  5
64CA
  8
0
 10
109.931205152581299
 20
2.957349255328638
 30
0.0
 11
109.9213626328848932
 21
2.9459095752464051
 31
0.0
  0
LINE
  5
64CB
  8
0
 10
109.9213626328848932
 20
2.9459095752464051
 30
0.0
 11
109.931205152581299
 21
2.9354660936207368
 31
0.0
  0
LINE
  5
64CC
  8
0
 10
109.931205152581299
 20
2.9354660936207368
 30
0.0
 11
109.9508901919813013
 21
2.936392867343764
 31
0.0
  0
LINE
  5
64CD
  8
0
 10
109.9508901919813013
 20
2.936392867343764
 30
0.0
 11
109.9607327115895998
 21
2.9477829077299962
 31
0.0
  0
LINE
  5
64CE
  8
0
 10
109.9607327115895998
 20
2.9477829077299962
 30
0.0
 11
109.9508901918570984
 21
2.9582961354924939
 31
0.0
  0
LINE
  5
64CF
  8
0
 10
109.9508901918570984
 20
2.9582961354924939
 30
0.0
 11
109.9508901919813013
 21
2.936392867343764
 31
0.0
  0
LINE
  5
64D0
  8
0
 10
109.931205152581299
 20
2.9354660936207368
 30
0.0
 11
109.931205152581299
 21
2.957349255328638
 31
0.0
  0
LINE
  5
64D1
  8
0
 10
109.9508901919813013
 20
2.9236561956413829
 30
0.0
 11
109.9312229309266939
 21
2.9227403436021842
 31
0.0
  0
LINE
  5
64D2
  8
0
 10
109.9312229309266939
 20
2.9227403436021842
 30
0.0
 11
109.9213626329378997
 21
2.9130671628484262
 31
0.0
  0
LINE
  5
64D3
  8
0
 10
109.9213626329378997
 20
2.9130671628484262
 30
0.0
 11
109.9312051524627947
 21
2.9043315282760762
 31
0.0
  0
LINE
  5
64D4
  8
0
 10
109.9312051524627947
 20
2.9043315282760762
 30
0.0
 11
109.9508901919134018
 21
2.9052347588102179
 31
0.0
  0
LINE
  5
64D5
  8
0
 10
109.9508901919134018
 20
2.9052347588102179
 30
0.0
 11
109.9607327116429047
 21
2.9148866395108342
 31
0.0
  0
LINE
  5
64D6
  8
0
 10
109.9607327116429047
 20
2.9148866395108342
 30
0.0
 11
109.9508901919813013
 21
2.9236561956413829
 31
0.0
  0
LINE
  5
64D7
  8
0
 10
109.9508901919813013
 20
2.9236561956413829
 30
0.0
 11
109.9508901919134018
 21
2.9052347588102179
 31
0.0
  0
LINE
  5
64D8
  8
0
 10
109.9312051524627947
 20
2.9043315282760762
 30
0.0
 11
109.9312229309266939
 21
2.9227403436021842
 31
0.0
  0
LINE
  5
64D9
  8
0
 10
109.9787290415288936
 20
2.9108430135374781
 30
0.0
 11
109.9590440021762987
 21
2.9090258974626488
 31
0.0
  0
LINE
  5
64DA
  8
0
 10
109.9590440021762987
 20
2.9090258974626488
 30
0.0
 11
109.949201482552894
 21
2.89972359114625
 31
0.0
  0
LINE
  5
64DB
  8
0
 10
109.949201482552894
 20
2.89972359114625
 30
0.0
 11
109.9591099836955976
 21
2.8922462732846528
 31
0.0
  0
LINE
  5
64DC
  8
0
 10
109.9591099836955976
 20
2.8922462732846528
 30
0.0
 11
109.9787290415813032
 21
2.8940378271033942
 31
0.0
  0
LINE
  5
64DD
  8
0
 10
109.9787290415813032
 20
2.8940378271033942
 30
0.0
 11
109.9885715612122965
 21
2.90333705191467
 31
0.0
  0
LINE
  5
64DE
  8
0
 10
109.9885715612122965
 20
2.90333705191467
 30
0.0
 11
109.9787290415288936
 21
2.9108430135374781
 31
0.0
  0
LINE
  5
64DF
  8
0
 10
109.9787290415288936
 20
2.9108430135374781
 30
0.0
 11
109.9787290415813032
 21
2.8940378271033942
 31
0.0
  0
LINE
  5
64E0
  8
0
 10
109.9591099836955976
 20
2.8922462732846528
 30
0.0
 11
109.9590440021762987
 21
2.9090258974626488
 31
0.0
  0
LINE
  5
64E1
  8
0
 10
109.9843038194811982
 20
3.0051463122132822
 30
0.0
 11
109.9787290415823975
 21
2.996792796581329
 31
0.0
  0
LINE
  5
64E2
  8
0
 10
109.9787290415823975
 20
2.996792796581329
 30
0.0
 11
109.9590440021766966
 21
2.9948131614031701
 31
0.0
  0
LINE
  5
64E3
  8
0
 10
109.9590440021766966
 20
2.9948131614031701
 30
0.0
 11
109.949598826655901
 21
3.0069973505176311
 31
0.0
  0
LINE
  5
64E4
  8
0
 10
109.9590467166850942
 20
3.0066264132455038
 30
0.0
 11
109.9590440022239051
 21
2.994813161407071
 31
0.0
  0
LINE
  5
64E5
  8
0
 10
109.9787290415756047
 20
2.996792796571297
 30
0.0
 11
109.9787290415756047
 21
3.005536947119781
 31
0.0
  0
LINE
  5
64E6
  8
0
 10
110.0646223308566931
 20
2.9956550955460459
 30
0.0
 11
110.0622455905812984
 21
2.991953440752618
 31
0.0
  0
LINE
  5
64E7
  8
0
 10
110.0622455905812984
 20
2.991953440752618
 30
0.0
 11
110.0425605511812961
 21
2.9869818430719568
 31
0.0
  0
LINE
  5
64E8
  8
0
 10
110.0425605511812961
 20
2.9869818430719568
 30
0.0
 11
110.032718031465194
 21
2.997515596579079
 31
0.0
  0
LINE
  5
64E9
  8
0
 10
110.032718031465194
 20
2.997515596579079
 30
0.0
 11
110.0344416303282031
 21
3.000187925352888
 31
0.0
  0
LINE
  5
64EA
  8
0
 10
110.0425605511812961
 20
2.9869818430719528
 30
0.0
 11
110.0425605511812961
 21
2.9990925746999131
 31
0.0
  0
LINE
  5
64EB
  8
0
 10
110.0622455905951966
 20
2.9919534407117729
 30
0.0
 11
110.0622455905951966
 21
2.9960580018481422
 31
0.0
  0
LINE
  5
64EC
  8
0
 10
110.0960334374812959
 20
2.989581735813283
 30
0.0
 11
110.0900844401781029
 21
2.9804844316220001
 31
0.0
  0
LINE
  5
64ED
  8
0
 10
110.0900844401781029
 20
2.9804844316220001
 30
0.0
 11
110.0703994007781006
 21
2.9745582625343809
 31
0.0
  0
LINE
  5
64EE
  8
0
 10
110.0703994007781006
 20
2.9745582625343809
 30
0.0
 11
110.0605568811682957
 21
2.9836982494502751
 31
0.0
  0
LINE
  5
64EF
  8
0
 10
110.0605568811682957
 20
2.9836982494502751
 30
0.0
 11
110.068083821586697
 21
2.9950541476809871
 31
0.0
  0
LINE
  5
64F0
  8
0
 10
110.0703994007781006
 20
2.9745582625343778
 30
0.0
 11
110.0703994007781006
 21
2.9946427537029812
 31
0.0
  0
LINE
  5
64F1
  8
0
 10
110.0900844401920011
 20
2.980484431581151
 30
0.0
 11
110.0900844401920011
 21
2.9908395870464992
 31
0.0
  0
LINE
  5
64F2
  8
0
 10
110.1250692199567993
 20
2.9823579235054982
 30
0.0
 11
110.1179232898674059
 21
2.971833874024119
 31
0.0
  0
LINE
  5
64F3
  8
0
 10
110.1179232898674059
 20
2.971833874024119
 30
0.0
 11
110.0982382505084018
 21
2.9649274144148139
 31
0.0
  0
LINE
  5
64F4
  8
0
 10
110.0982382505084018
 20
2.9649274144148139
 30
0.0
 11
110.0883957307694061
 21
2.9727124038961801
 31
0.0
  0
LINE
  5
64F5
  8
0
 10
110.0883957307694061
 20
2.9727124038961801
 30
0.0
 11
110.098238250398893
 21
2.987487077101127
 31
0.0
  0
LINE
  5
64F6
  8
0
 10
110.0982382505084018
 20
2.9649274144148108
 30
0.0
 11
110.0982382505084018
 21
2.9874870771466191
 31
0.0
  0
LINE
  5
64F7
  8
0
 10
110.0982382505084018
 20
2.9891015942242851
 30
0.0
 11
110.0982382505084018
 21
2.9891041412680242
 31
0.0
  0
LINE
  5
64F8
  8
0
 10
110.1179232898813041
 20
2.971833873983273
 30
0.0
 11
110.1179232901173037
 21
2.9843254133041821
 31
0.0
  0
LINE
  5
64F9
  8
0
 10
110.0982382505084018
 20
2.9874870772654001
 30
0.0
 11
110.1011033642054002
 21
2.988466319229937
 31
0.0
  0
LINE
  5
64FA
  8
0
 10
110.1512967187597951
 20
2.9740373409768539
 30
0.0
 11
110.1457621394673936
 21
2.9660009522541322
 31
0.0
  0
LINE
  5
64FB
  8
0
 10
110.1457621394673936
 20
2.9660009522541322
 30
0.0
 11
110.1260771001867056
 21
2.9580722100010859
 31
0.0
  0
LINE
  5
64FC
  8
0
 10
110.1260771001867056
 20
2.9580722100010859
 30
0.0
 11
110.1162345805032032
 21
2.964517805588029
 31
0.0
  0
LINE
  5
64FD
  8
0
 10
110.1162345805032032
 20
2.964517805588029
 30
0.0
 11
110.1260771001949053
 21
2.9789327669691388
 31
0.0
  0
LINE
  5
64FE
  8
0
 10
110.1260771001867056
 20
2.9580722100010819
 30
0.0
 11
110.1260771003043004
 21
2.9789327670146308
 31
0.0
  0
LINE
  5
64FF
  8
0
 10
110.145762139481306
 20
2.9660009522132831
 30
0.0
 11
110.1457621397536997
 21
2.97593989281473
 31
0.0
  0
LINE
  5
6500
  8
0
 10
110.1260771003043004
 20
2.9789327671334132
 30
0.0
 11
110.1306369237570948
 21
2.9807373288688739
 31
0.0
  0
LINE
  5
6501
  8
0
 10
110.1748894996352988
 20
2.964551435966241
 30
0.0
 11
110.1736009891657062
 21
2.963033392437791
 31
0.0
  0
LINE
  5
6502
  8
0
 10
110.1736009891657062
 20
2.963033392437791
 30
0.0
 11
110.1539159497812932
 21
2.9540217772132862
 31
0.0
  0
LINE
  5
6503
  8
0
 10
110.1539159497812932
 20
2.9540217772132862
 30
0.0
 11
110.144073430100093
 21
2.9591212929973638
 31
0.0
  0
LINE
  5
6504
  8
0
 10
110.144073430100093
 20
2.9591212929973638
 30
0.0
 11
110.1538520468063069
 21
2.9731318506309008
 31
0.0
  0
LINE
  5
6505
  8
0
 10
110.1539159497812932
 20
2.9540217772132831
 30
0.0
 11
110.1538520469157021
 21
2.9731318506763929
 31
0.0
  0
LINE
  5
6506
  8
0
 10
110.1736009891796044
 20
2.9630333923969459
 30
0.0
 11
110.1736009892229049
 21
2.965167078918364
 31
0.0
  0
LINE
  5
6507
  8
0
 10
110.1277658094878973
 20
2.92442576809824
 30
0.0
 11
110.1179232898899016
 21
2.9288301480425019
 31
0.0
  0
LINE
  5
6508
  8
0
 10
110.1179232898899016
 20
2.9288301480425019
 30
0.0
 11
110.0982382505196
 21
2.9221754072427379
 31
0.0
  0
LINE
  5
6509
  8
0
 10
110.0982382505196
 20
2.9221754072427379
 30
0.0
 11
110.0883957307338932
 21
2.9111780993228802
 31
0.0
  0
LINE
  5
650A
  8
0
 10
110.0883957307338932
 20
2.9111780993228802
 30
0.0
 11
110.1277658094877978
 21
2.9244257680982431
 31
0.0
  0
LINE
  5
650B
  8
0
 10
110.0720881102561037
 20
2.9065535360035191
 30
0.0
 11
110.0622455905090931
 21
2.9119124438329731
 31
0.0
  0
LINE
  5
650C
  8
0
 10
110.0622455905090931
 20
2.9119124438329731
 30
0.0
 11
110.0425605511334055
 21
2.907299694643898
 31
0.0
  0
LINE
  5
650D
  8
0
 10
110.0425605511334055
 20
2.907299694643898
 30
0.0
 11
110.0332026498813036
 21
2.8972484357588839
 31
0.0
  0
LINE
  5
650E
  8
0
 10
110.0332026498813036
 20
2.8972484357588839
 30
0.0
 11
110.0720881102561037
 21
2.9065535360035231
 31
0.0
  0
LINE
  5
650F
  8
0
 10
110.0164104108813063
 20
2.8943590765132838
 30
0.0
 11
110.0065463026308947
 21
2.9006192489389711
 31
0.0
  0
LINE
  5
6510
  8
0
 10
110.0065463026308947
 20
2.9006192489389711
 30
0.0
 11
109.9868828518883959
 21
2.8979071987797318
 31
0.0
  0
LINE
  5
6511
  8
0
 10
109.9868828518883959
 20
2.8979071987797318
 30
0.0
 11
109.9770403322048935
 21
2.8889514250643931
 31
0.0
  0
LINE
  5
6512
  8
0
 10
109.9770403322048935
 20
2.8889514250643931
 30
0.0
 11
110.0164104108813063
 21
2.8943590765132869
 31
0.0
  0
LINE
  5
6513
  8
0
 10
109.9607327115813007
 20
2.8874674411132779
 30
0.0
 11
109.9508901919810029
 21
2.8946153290796679
 31
0.0
  0
LINE
  5
6514
  8
0
 10
109.9508901919810029
 20
2.8946153290796679
 30
0.0
 11
109.9312051525224945
 21
2.8937185483134922
 31
0.0
  0
LINE
  5
6515
  8
0
 10
109.9312051525224945
 20
2.8937185483134922
 30
0.0
 11
109.9213626328355957
 21
2.8856813907029291
 31
0.0
  0
LINE
  5
6516
  8
0
 10
109.9213626328355957
 20
2.8856813907029291
 30
0.0
 11
109.9607327115813007
 21
2.887467441113285
 31
0.0
  0
LINE
  5
6517
  8
0
 10
110.1834435088628936
 20
2.9485928318430101
 30
0.0
 11
110.173600989181196
 21
2.9519524572132818
 31
0.0
  0
LINE
  5
6518
  8
0
 10
110.173600989181196
 20
2.9519524572132818
 30
0.0
 11
110.1539159497818048
 21
2.9430197362625901
 31
0.0
  0
LINE
  5
6519
  8
0
 10
110.1539159497818048
 20
2.9430197362625901
 30
0.0
 11
110.1440734300813062
 21
2.9308168447132821
 31
0.0
  0
LINE
  5
651A
  8
0
 10
110.1440734300813062
 20
2.9308168447132821
 30
0.0
 11
110.1569856033813011
 21
2.935887835413284
 31
0.0
  0
LINE
  5
651B
  8
0
 10
110.1569856033813011
 20
2.935887835413284
 30
0.0
 11
110.1618944283813022
 21
2.930879174013282
 31
0.0
  0
LINE
  5
651C
  8
0
 10
110.1618944283813022
 20
2.930879174013282
 30
0.0
 11
110.1736009892175048
 21
2.9362395911407879
 31
0.0
  0
LINE
  5
651D
  8
0
 10
110.1736009892175048
 20
2.9362395911407879
 30
0.0
 11
110.1834435088628936
 21
2.9485928318430101
 31
0.0
  0
LINE
  5
651E
  8
0
 10
110.1736009905360021
 20
2.951952456750857
 30
0.0
 11
110.1736009905360021
 21
2.9362395918399762
 31
0.0
  0
LINE
  5
651F
  8
0
 10
109.8939470670270993
 20
3.007484819768484
 30
0.0
 11
109.8935126021813034
 21
3.0068761379132818
 31
0.0
  0
LINE
  5
6520
  8
0
 10
109.8935126021813034
 20
3.0068761379132818
 30
0.0
 11
109.9033551218813045
 21
2.9930101615459761
 31
0.0
  0
LINE
  5
6521
  8
0
 10
109.9033551218813045
 20
2.9930101615459761
 30
0.0
 11
109.9230401612813068
 21
2.9930101617097562
 31
0.0
  0
LINE
  5
6522
  8
0
 10
109.9230401612813068
 20
2.9930101617097562
 30
0.0
 11
109.9328826809812938
 21
3.0068761379132818
 31
0.0
  0
LINE
  5
6523
  8
0
 10
109.9328826809812938
 20
3.0068761379132818
 30
0.0
 11
109.9324445037163969
 21
3.0074851100206859
 31
0.0
  0
LINE
  5
6524
  8
0
 10
109.9033551218813045
 20
2.9767200471132842
 30
0.0
 11
109.8935126022097961
 21
2.9648032942689229
 31
0.0
  0
LINE
  5
6525
  8
0
 10
109.8935126022097961
 20
2.9648032942689229
 30
0.0
 11
109.9033551218214058
 21
2.9529705106376638
 31
0.0
  0
LINE
  5
6526
  8
0
 10
109.9033551218214058
 20
2.9529705106376638
 30
0.0
 11
109.9230401612813068
 21
2.9529705106132851
 31
0.0
  0
LINE
  5
6527
  8
0
 10
109.9230401612813068
 20
2.9529705106132851
 30
0.0
 11
109.9328826810053954
 21
2.9648032942980911
 31
0.0
  0
LINE
  5
6528
  8
0
 10
109.9328826810053954
 20
2.9648032942980911
 30
0.0
 11
109.9230401612813068
 21
2.9767200471437731
 31
0.0
  0
LINE
  5
6529
  8
0
 10
109.9230401612813068
 20
2.9767200471437731
 30
0.0
 11
109.9033551219061025
 21
2.9767200471433428
 31
0.0
  0
LINE
  5
652A
  8
0
 10
109.9033551218813045
 20
2.9391235067539738
 30
0.0
 11
109.8935126022580988
 21
2.9290500652531311
 31
0.0
  0
LINE
  5
652B
  8
0
 10
109.8935126022580988
 20
2.9290500652531311
 30
0.0
 11
109.9033551218813045
 21
2.919019136513282
 31
0.0
  0
LINE
  5
652C
  8
0
 10
109.9033551218813045
 20
2.919019136513282
 30
0.0
 11
109.9230401611984007
 21
2.9190191365355931
 31
0.0
  0
LINE
  5
652D
  8
0
 10
109.9230401611984007
 20
2.9190191365355931
 30
0.0
 11
109.9328826808936981
 21
2.9290500651940241
 31
0.0
  0
LINE
  5
652E
  8
0
 10
109.9328826808936981
 20
2.9290500651940241
 30
0.0
 11
109.9230401612813068
 21
2.9391235066083161
 31
0.0
  0
LINE
  5
652F
  8
0
 10
109.9230401612813068
 20
2.9391235066083161
 30
0.0
 11
109.9033551218813045
 21
2.9391235066083161
 31
0.0
  0
LINE
  5
6530
  8
0
 10
109.8935126021400066
 20
2.8989781796831808
 30
0.0
 11
109.9033551218813045
 21
2.8906040242203739
 31
0.0
  0
LINE
  5
6531
  8
0
 10
109.9033551218813045
 20
2.8906040242203739
 30
0.0
 11
109.9230401612813068
 21
2.8906040242203739
 31
0.0
  0
LINE
  5
6532
  8
0
 10
109.9230401612813068
 20
2.8906040242203739
 30
0.0
 11
109.9328826809692998
 21
2.898978179593934
 31
0.0
  0
LINE
  5
6533
  8
0
 10
109.9328826809692998
 20
2.898978179593934
 30
0.0
 11
109.9230401612813068
 21
2.907369936213283
 31
0.0
  0
LINE
  5
6534
  8
0
 10
109.9230401612813068
 20
2.907369936213283
 30
0.0
 11
109.9033551218813045
 21
2.907369936213283
 31
0.0
  0
LINE
  5
6535
  8
0
 10
109.9033551218813045
 20
2.907369936213283
 30
0.0
 11
109.8935126022007012
 21
2.898978179625499
 31
0.0
  0
LINE
  5
6536
  8
0
 10
109.9033551218813045
 20
2.8906040242203739
 30
0.0
 11
109.9033551218813045
 21
2.907369936213283
 31
0.0
  0
LINE
  5
6537
  8
0
 10
109.9230401612813068
 20
2.907369936213283
 30
0.0
 11
109.9230401612813068
 21
2.8906040242203739
 31
0.0
  0
LINE
  5
6538
  8
0
 10
109.9230401611984007
 20
2.9190191365355931
 30
0.0
 11
109.9230401611984007
 21
2.9391235066083161
 31
0.0
  0
LINE
  5
6539
  8
0
 10
109.9033551218813045
 20
2.9391235066083161
 30
0.0
 11
109.9033551219040987
 21
2.919019136513282
 31
0.0
  0
LINE
  5
653A
  8
0
 10
109.9033551218214058
 20
2.9529705106376638
 30
0.0
 11
109.9033551218813045
 21
2.9767200471132842
 31
0.0
  0
LINE
  5
653B
  8
0
 10
109.9230401612813068
 20
2.9767200471437731
 30
0.0
 11
109.9230401612813068
 21
2.9529705106132851
 31
0.0
  0
LINE
  5
653C
  8
0
 10
109.9033551218813045
 20
2.9930101615459761
 30
0.0
 11
109.9033551218813045
 21
3.0076222063761491
 31
0.0
  0
LINE
  5
653D
  8
0
 10
109.9230401612813068
 20
2.9930101617097562
 30
0.0
 11
109.9230401612813068
 21
3.0076223148842072
 31
0.0
  0
ARC
  5
653E
  8
0
 10
108.9767620867564943
 20
3.289509966559288
 30
0.0
 40
0.1567394260962012
 50
88.8853749858757141
 51
94.0283978133874285
  0
ARC
  5
653F
  8
0
 10
108.9672607828270969
 20
3.4337221126597739
 30
0.0
 40
0.0122335531813299
 50
97.0891236500307571
 51
145.117434279221186
  0
ARC
  5
6540
  8
0
 10
109.0662908060363065
 20
3.38130848701344
 30
0.0
 40
0.1241967416264567
 50
151.4220766846223114
 51
175.4533126097271918
  0
ARC
  5
6541
  8
0
 10
111.5642720816858002
 20
3.1107015419652391
 30
0.0
 40
2.6367444785715142
 50
173.8942963853658057
 51
179.0129850210161919
  0
ARC
  5
6542
  8
0
 10
284.1489656047713197
 20
-0.5740259840792499
 30
0.0
 40
175.2607464139472029
 50
178.7804579373627973
 51
178.9135044453497869
  0
ARC
  5
6543
  8
0
 10
109.910942550436701
 20
1.1220123816346199
 30
0.0
 40
2.0202507091387178
 50
89.9503455147768847
 51
95.2390024208062584
  0
ARC
  5
6544
  8
0
 10
109.837477292620207
 20
1.9232167026002509
 30
0.0
 40
1.2156852935011571
 50
95.2390021867035159
 51
103.2231364823421984
  0
ARC
  5
6545
  8
0
 10
109.6485210780778061
 20
2.7273748587751232
 30
0.0
 40
0.3896254947233884
 50
103.2231364823429942
 51
115.5456971196284002
  0
ARC
  5
6546
  8
0
 10
109.5466657363658953
 20
2.9404814451453278
 30
0.0
 40
0.1534286958678496
 50
115.5456971196283007
 51
129.8416383690858993
  0
ARC
  5
6547
  8
0
 10
109.4881275778212029
 20
3.0106373908522079
 30
0.0
 40
0.0620581714968125
 50
129.8416383690849898
 51
154.9870074775834041
  0
ARC
  5
6548
  8
0
 10
109.4553863223392938
 20
3.0259139288597061
 30
0.0
 40
0.025928371829161
 50
154.9870074775813009
 51
189.7721349545606984
  0
ARC
  5
6549
  8
0
 10
109.4788642743743026
 20
3.0299575174704301
 30
0.0
 40
0.0497519912143769
 50
189.772134954560812
 51
221.6941676067586116
  0
ARC
  5
654A
  8
0
 10
109.5324541949581061
 20
3.0776946103369669
 30
0.0
 40
0.1215204356975188
 50
221.6941676067586968
 51
244.0997537124796963
  0
ARC
  5
654B
  8
0
 10
109.658509046300793
 20
3.3260059643310038
 30
0.0
 40
0.3999822299507189
 50
243.3935938906126921
 51
256.6756147551683966
  0
ARC
  5
654C
  8
0
 10
109.9122983343008002
 20
1.202321236994597
 30
0.0
 40
1.9360782813202631
 50
89.9883094586314485
 51
92.6693429617537561
  0
ARC
  5
654D
  8
0
 10
109.902360097128394
 20
1.415484931625941
 30
0.0
 40
1.722683039416935
 50
92.6693429617529603
 51
97.286508321131663
  0
ARC
  5
654E
  8
0
 10
109.8159368419608057
 20
2.0913867478196151
 30
0.0
 40
1.0412784282147101
 50
97.286508321131663
 51
103.6862002715844966
  0
ARC
  5
654F
  8
0
 10
109.686912933339201
 20
2.6212186460366111
 30
0.0
 40
0.4959629146225938
 50
103.6862002715844966
 51
112.8737185409348029
  0
ARC
  5
6550
  8
0
 10
109.5585874161681943
 20
2.9253968588474581
 30
0.0
 40
0.1658238174135521
 50
112.8737185409348029
 51
130.2882802926964132
  0
ARC
  5
6551
  8
0
 10
109.4811791912653973
 20
3.0167113627946391
 30
0.0
 40
0.0461142859896952
 50
130.2882802926955037
 51
156.9644268277129129
  0
ARC
  5
6552
  8
0
 10
109.4661264444710014
 20
3.0231119073289259
 30
0.0
 40
0.0297572643661878
 50
156.9644268277131971
 51
207.9951365919287127
  0
ARC
  5
6553
  8
0
 10
109.5273504303061998
 20
3.0698741708861892
 30
0.0
 40
0.1065095457632077
 50
214.7631780237325074
 51
248.6604193463475099
  0
ARC
  5
6554
  8
0
 10
109.6667335567937016
 20
3.3648003590859838
 30
0.0
 40
0.4325222879927716
 50
245.6778675185231009
 51
256.0429660868193196
  0
ARC
  5
6555
  8
0
 10
109.9119946175508034
 20
1.6463945261848929
 30
0.0
 40
1.4863417169575781
 50
89.9730644090508065
 51
94.8674593034597962
  0
ARC
  5
6556
  8
0
 10
109.8746886416599011
 20
2.0844732840148938
 30
0.0
 40
1.0466773746473941
 50
94.8674594142875236
 51
102.1046442086852011
  0
ARC
  5
6557
  8
0
 10
109.7372227068555048
 20
2.7254410906966142
 30
0.0
 40
0.3911343841166144
 50
102.1046442086852011
 51
113.7516882562666041
  0
ARC
  5
6558
  8
0
 10
109.6253648284054947
 20
2.979637138955018
 30
0.0
 40
0.1134154327979772
 50
113.7516882562657941
 51
131.2420287151163905
  0
ARC
  5
6559
  8
0
 10
109.5757036596717029
 20
3.036280744017767
 30
0.0
 40
0.0380846311660345
 50
131.2420287151165041
 51
162.8820872561277895
  0
ARC
  5
655A
  8
0
 10
109.558490764873298
 20
3.0415820131442621
 30
0.0
 40
0.0200738787749506
 50
162.8820872561261979
 51
215.9277744331749034
  0
ARC
  5
655B
  8
0
 10
109.6245675309240966
 20
3.089462447274014
 30
0.0
 40
0.1016745833318871
 50
215.9277744331749034
 51
229.3725779907304059
  0
ARC
  5
655C
  8
0
 10
109.9118599368037934
 20
1.732577399180643
 30
0.0
 40
1.376296318096039
 50
89.9653038871768302
 51
96.646106554456594
  0
ARC
  5
655D
  8
0
 10
109.8370915523126996
 20
2.3742586400452672
 30
0.0
 40
0.7302737749932716
 50
96.6461063956977142
 51
107.1898232696027975
  0
ARC
  5
655E
  8
0
 10
109.6670439808689963
 20
2.9239391896936029
 30
0.0
 40
0.1548913949922861
 50
107.1898232696020017
 51
129.7172804140824951
  0
ARC
  5
655F
  8
0
 10
109.5853268369703954
 20
3.0223075841848628
 30
0.0
 40
0.0270085085620692
 50
129.7172804140811877
 51
168.6027671573453119
  0
ARC
  5
6560
  8
0
 10
109.588068103111496
 20
3.0217549857474859
 30
0.0
 40
0.0298049178827652
 50
168.6027671573459941
 51
184.6996691617196973
  0
LINE
  5
6561
  8
0
 10
109.5583633935373058
 20
3.0193129867477402
 30
0.0
 11
109.5583633935373058
 21
2.9663952588137561
 31
0.0
  0
ARC
  5
6562
  8
0
 10
109.5811579903754023
 20
2.966205572433656
 30
0.0
 40
0.0227953860667378
 50
151.0988767387405005
 51
179.5232213041462046
  0
ARC
  5
6563
  8
0
 10
109.6011543646239943
 20
2.9551664693101189
 30
0.0
 40
0.0456365064609877
 50
121.1163221731006985
 51
151.0988767387401879
  0
ARC
  5
6564
  8
0
 10
109.7058365262151938
 20
2.781744585724121
 30
0.0
 40
0.2482037907443169
 50
108.1939410519459983
 51
121.1163221730999027
  0
ARC
  5
6565
  8
0
 10
109.7835660136640001
 20
2.5452447198563539
 30
0.0
 40
0.4971496880282995
 50
97.4221328892644323
 51
108.1939410519459983
  0
ARC
  5
6566
  8
0
 10
110.007142253072999
 20
0.8289940111468485
 30
0.0
 40
2.2279017875428848
 50
94.6747152884928056
 51
97.4221328892644323
  0
ARC
  5
6567
  8
0
 10
109.9121783010623972
 20
1.6253500827676171
 30
0.0
 40
1.426765513597634
 50
89.9792865528934414
 51
93.4800913435871337
  0
ARC
  5
6568
  8
0
 10
109.9084521774302061
 20
1.778876109766953
 30
0.0
 40
1.243512492906953
 50
89.8045835231868068
 51
98.4674706930789512
  0
ARC
  5
6569
  8
0
 10
109.8111522869880048
 20
2.433854018571695
 30
0.0
 40
0.5813469245144601
 50
98.4876574907844287
 51
108.2948470184406062
  0
ARC
  5
656A
  8
0
 10
109.6828399201938993
 20
2.8219518539638542
 30
0.0
 40
0.1725878349416625
 50
108.2948470184406062
 51
121.4197974224967993
  0
ARC
  5
656B
  8
0
 10
109.6293243571066967
 20
2.9095563388983989
 30
0.0
 40
0.0699308270309186
 50
121.419797422495904
 51
141.370196996808005
  0
ARC
  5
656C
  8
0
 10
109.5918087988660972
 20
2.9395365786579801
 30
0.0
 40
0.0219075838444138
 50
141.3701969968086871
 51
192.2394787393679962
  0
ARC
  5
656D
  8
0
 10
109.592058454047006
 20
2.9395907361076912
 30
0.0
 40
0.0221630456589604
 50
192.2394787393693889
 51
208.9376020558005109
  0
ARC
  5
656E
  8
0
 10
109.6104294003910979
 20
2.9500304072945851
 30
0.0
 40
0.0432923401255277
 50
209.264950133429295
 51
223.0637343858562929
  0
ARC
  5
656F
  8
0
 10
109.6164838910873982
 20
2.9663938180823921
 30
0.0
 40
0.0581204975678981
 50
179.9985796137407021
 51
201.5520310712765877
  0
ARC
  5
6570
  8
0
 10
109.627397278348198
 20
2.9707041681250859
 30
0.0
 40
0.0698542582180404
 50
201.5520310712774972
 51
209.0443164827948976
  0
ARC
  5
6571
  8
0
 10
109.6350527831670973
 20
2.9763849994115552
 30
0.0
 40
0.0793148521300937
 50
209.9471858448289083
 51
229.2895571634859095
  0
ARC
  5
6572
  8
0
 10
109.6724472427551973
 20
3.005807198236782
 30
0.0
 40
0.1263395313004261
 50
225.1339076232596881
 51
231.6098315954926079
  0
ARC
  5
6573
  8
0
 10
109.726335176112002
 20
3.1201564942941409
 30
0.0
 40
0.2510859328830719
 50
238.1905285195595923
 51
258.8528354106252891
  0
ARC
  5
6574
  8
0
 10
109.8632638096226941
 20
3.6879378187124359
 30
0.0
 40
0.8349895368093156
 50
257.1661990190729057
 51
264.7845119876300259
  0
ARC
  5
6575
  8
0
 10
109.9086094724197977
 20
4.1153157624767447
 30
0.0
 40
1.2647358122705781
 50
264.4987191384446987
 51
268.5798809153358206
  0
ARC
  5
6576
  8
0
 10
109.9126220964344043
 20
4.2255813584831632
 30
0.0
 40
1.3750675803108721
 50
268.5266023916041718
 51
270.0030004600235998
  0
ARC
  5
6577
  8
0
 10
109.911910385137702
 20
1.6916006540714159
 30
0.0
 40
1.3208294274174579
 50
89.9660352393060236
 51
95.298504337234391
  0
ARC
  5
6578
  8
0
 10
109.8765187456680934
 20
2.07323073321494
 30
0.0
 40
0.9375617853579477
 50
95.2985691250595863
 51
100.3003229336588049
  0
ARC
  5
6579
  8
0
 10
109.8065873921977982
 20
2.4580257872854299
 30
0.0
 40
0.5464638080743918
 50
100.3003229336588049
 51
107.2062428455754031
  0
ARC
  5
657A
  8
0
 10
109.7105147167270047
 20
2.768266786965893
 30
0.0
 40
0.221687828582581
 50
107.2062428455754031
 51
119.1007602480951988
  0
ARC
  5
657B
  8
0
 10
109.6358189817137969
 20
2.902464345201567
 30
0.0
 40
0.0681025510798865
 50
119.1007602480959946
 51
139.7864693964118885
  0
ARC
  5
657C
  8
0
 10
109.6024819871144018
 20
2.9306497873467712
 30
0.0
 40
0.0244473754664303
 50
139.7864693964133949
 51
178.0732904418960914
  0
ARC
  5
657D
  8
0
 10
109.5946430263826983
 20
2.9309134908213692
 30
0.0
 40
0.0166039804824685
 50
178.0732904418935902
 51
200.2772554007586052
  0
ARC
  5
657E
  8
0
 10
109.6118389555444992
 20
2.937266699007858
 30
0.0
 40
0.0349360080298515
 50
200.2772554007596
 51
223.6649583661506142
  0
ARC
  5
657F
  8
0
 10
109.6216780702344948
 20
2.924875210624323
 30
0.0
 40
0.0195742165689059
 50
178.1774295620444946
 51
206.3731792218362955
  0
ARC
  5
6580
  8
0
 10
109.657117030858501
 20
2.9649681310824412
 30
0.0
 40
0.0720189089939095
 50
222.6434938367225982
 51
242.451688028743007
  0
ARC
  5
6581
  8
0
 10
109.7520012883120017
 20
3.1562731964018318
 30
0.0
 40
0.2855508136083033
 50
243.3248521722537987
 51
257.9799678973046184
  0
ARC
  5
6582
  8
0
 10
109.8629065562278981
 20
3.6259315357508881
 30
0.0
 40
0.7680823062949476
 50
257.1843337072766076
 51
264.2897435502724193
  0
ARC
  5
6583
  8
0
 10
109.9048607969756972
 20
3.9911639691642282
 30
0.0
 40
1.1356895994390559
 50
264.0169983644814238
 51
267.2691671916542191
  0
ARC
  5
6584
  8
0
 10
109.912474038964703
 20
4.136051539316929
 30
0.0
 40
1.2807755497827269
 50
267.2377820457975872
 51
270.0098117640213218
  0
ARC
  5
6585
  8
0
 10
109.9126969224195989
 20
3.4702336403157492
 30
0.0
 40
0.6062886392480336
 50
263.9418572173382245
 51
269.9996641634451748
  0
ARC
  5
6586
  8
0
 10
109.912536637044596
 20
3.4687233711729539
 30
0.0
 40
0.6047698883517019
 50
255.7546901014549974
 51
263.9418572173382245
  0
ARC
  5
6587
  8
0
 10
109.9115361926126013
 20
3.4647827597848511
 30
0.0
 40
0.6007042632861537
 50
247.4260885671552899
 51
255.7546901014549974
  0
ARC
  5
6588
  8
0
 10
109.9094896950098956
 20
3.4598600484539062
 30
0.0
 40
0.5953731058803584
 50
244.8436542725953871
 51
247.4260885671552046
  0
LINE
  5
6589
  8
0
 10
109.6564026780372956
 20
2.920957369813757
 30
0.0
 11
109.6558972623491997
 21
2.9221638427541778
 31
0.0
  0
LINE
  5
658A
  8
0
 10
109.6558972623691943
 20
2.9221638426802961
 30
0.0
 11
109.6523019357518933
 21
2.92386910329459
 31
0.0
  0
LINE
  5
658B
  8
0
 10
109.6523019357518933
 20
2.92386910329459
 30
0.0
 11
109.642459416080996
 21
2.9316651617023028
 31
0.0
  0
LINE
  5
658C
  8
0
 10
109.642459416080996
 20
2.9316651617023028
 30
0.0
 11
109.652301935637297
 21
2.9303766787994672
 31
0.0
  0
LINE
  5
658D
  8
0
 10
109.652301935637297
 20
2.9303766787994672
 30
0.0
 11
109.6543196845865964
 21
2.9294192925117262
 31
0.0
  0
LINE
  5
658E
  8
0
 10
109.6543196845865964
 20
2.9294192925117262
 30
0.0
 11
109.6541695719238021
 21
2.935614973124367
 31
0.0
  0
LINE
  5
658F
  8
0
 10
109.6523019356375954
 20
2.9303766787993211
 30
0.0
 11
109.652301935752007
 21
2.923869103294519
 31
0.0
  0
LINE
  5
6590
  8
0
 10
109.6558972465584958
 20
2.9221638501793361
 30
0.0
 11
109.674208912649803
 21
2.9340074264432099
 31
0.0
  0
LINE
  5
6591
  8
0
 10
109.6755923469650043
 20
2.933464111047468
 30
0.0
 11
109.6564026779851986
 21
2.9209573699381268
 31
0.0
  0
LINE
  5
6592
  8
0
 10
109.6262084260190051
 20
2.9505094991402792
 30
0.0
 11
109.6441481254372974
 21
2.941235873427539
 31
0.0
  0
LINE
  5
6593
  8
0
 10
109.6441481254372974
 20
2.941235873427539
 30
0.0
 11
109.6539906451873065
 21
2.932078961686039
 31
0.0
  0
LINE
  5
6594
  8
0
 10
109.6539906451873065
 20
2.932078961686039
 30
0.0
 11
109.6441481253869057
 21
2.9329874281720851
 31
0.0
  0
LINE
  5
6595
  8
0
 10
109.6441481253869057
 20
2.9329874281720851
 30
0.0
 11
109.6244630860372951
 21
2.9432047962840331
 31
0.0
  0
LINE
  5
6596
  8
0
 10
109.6244630860372951
 20
2.9432047962840331
 30
0.0
 11
109.6207206058019068
 21
2.946653875895576
 31
0.0
  0
LINE
  5
6597
  8
0
 10
109.6244630860372951
 20
2.9493629633496941
 30
0.0
 11
109.6244630860372951
 21
2.9432047962840331
 31
0.0
  0
LINE
  5
6598
  8
0
 10
109.6441481254372974
 20
2.9412358733471051
 30
0.0
 11
109.6441481263524054
 21
2.932987428082972
 31
0.0
  0
LINE
  5
6599
  8
0
 10
109.6151013805482961
 20
2.9418452635746362
 30
0.0
 11
109.6244630860372951
 21
2.9391165278403451
 31
0.0
  0
LINE
  5
659A
  8
0
 10
109.6244630860372951
 20
2.9391165278403451
 30
0.0
 11
109.6441481254372974
 21
2.9288764153606208
 31
0.0
  0
LINE
  5
659B
  8
0
 10
109.6441481254372974
 20
2.9288764153606208
 30
0.0
 11
109.6539906450420006
 21
2.9214501521971261
 31
0.0
  0
LINE
  5
659C
  8
0
 10
109.6539906450420006
 20
2.9214501521971261
 30
0.0
 11
109.6441481254372974
 21
2.9241517625821181
 31
0.0
  0
LINE
  5
659D
  8
0
 10
109.6441481254372974
 20
2.9241517625821181
 30
0.0
 11
109.6244630860372951
 21
2.9344647488831632
 31
0.0
  0
LINE
  5
659E
  8
0
 10
109.6244630860372951
 20
2.9344647488831632
 30
0.0
 11
109.6149725869564975
 21
2.9417230885586441
 31
0.0
  0
ARC
  5
659F
  8
0
 10
109.7139966314140054
 20
3.081805388018656
 30
0.0
 40
0.174869538068129
 50
234.5717781321714028
 51
244.9355655452806104
  0
ARC
  5
65A0
  8
0
 10
109.9040621974887983
 20
3.4320842767597179
 30
0.0
 40
0.573175544388302
 50
242.5581581457826985
 51
245.1655275501281892
  0
ARC
  5
65A1
  8
0
 10
109.8960184459431986
 20
3.4070351606716591
 30
0.0
 40
0.54707396593466
 50
244.8282197471004906
 51
248.9844231294005112
  0
ARC
  5
65A2
  8
0
 10
109.9941767343293009
 20
3.6844509268710168
 30
0.0
 40
0.8412752564263346
 50
249.519622924809596
 51
252.3249937890064132
  0
ARC
  5
65A3
  8
0
 10
109.8720811082278033
 20
3.3101910964752701
 30
0.0
 40
0.4476205096386735
 50
252.6706189652238095
 51
256.9345273980645175
  0
ARC
  5
65A4
  8
0
 10
109.9414985570991945
 20
3.5706030757918601
 30
0.0
 40
0.7170372469378316
 50
256.2352872732204787
 51
259.1433954492674729
  0
ARC
  5
65A5
  8
0
 10
109.9394735686529003
 20
3.6279583251253751
 30
0.0
 40
0.7730903562582846
 50
260.0914656390643813
 51
262.297642973421091
  0
ARC
  5
65A6
  8
0
 10
109.9113611380936959
 20
3.4298724666396021
 30
0.0
 40
0.5730253642917237
 50
262.428622392510988
 51
266.4310054219167796
  0
ARC
  5
65A7
  8
0
 10
109.923651139041894
 20
3.644512446362421
 30
0.0
 40
0.7880148819256766
 50
266.5106411587534012
 51
267.9766518309490948
  0
ARC
  5
65A8
  8
0
 10
109.9115372286442067
 20
3.1976968084701669
 30
0.0
 40
0.3410698583596877
 50
267.3602485952837924
 51
270.1943417156056171
  0
LINE
  5
65A9
  8
0
 10
109.8930090628277014
 20
2.8578347715109849
 30
0.0
 11
109.9028515825538932
 21
2.858790049465183
 31
0.0
  0
LINE
  5
65AA
  8
0
 10
109.9028515825538932
 20
2.858790049465183
 30
0.0
 11
109.9225366219210969
 21
2.8587900495352101
 31
0.0
  0
LINE
  5
65AB
  8
0
 10
109.9225366219210969
 20
2.8587900495352101
 30
0.0
 11
109.932379141603306
 21
2.8578347714950301
 31
0.0
  0
LINE
  5
65AC
  8
0
 10
109.932379141603306
 20
2.8578347714950301
 30
0.0
 11
109.9225366219372972
 21
2.856897450977113
 31
0.0
  0
LINE
  5
65AD
  8
0
 10
109.9225366219372972
 20
2.856897450977113
 30
0.0
 11
109.9028515825372949
 21
2.856897450864087
 31
0.0
  0
LINE
  5
65AE
  8
0
 10
109.9028515825372949
 20
2.856897450864087
 30
0.0
 11
109.893009063880001
 21
2.8578347716131178
 31
0.0
  0
LINE
  5
65AF
  8
0
 10
109.9028515868276941
 20
2.858790049465183
 30
0.0
 11
109.9028515893587041
 21
2.856897450864087
 31
0.0
  0
LINE
  5
65B0
  8
0
 10
109.9225366219210969
 20
2.8587900495352101
 30
0.0
 11
109.9225366219172031
 21
2.8568974508496421
 31
0.0
  0
LINE
  5
65B1
  8
0
 10
109.904540291923297
 20
2.8597805331602202
 30
0.0
 11
109.8946977722459053
 21
2.8584814401541161
 31
0.0
  0
LINE
  5
65B2
  8
0
 10
109.8946977722459053
 20
2.8584814401541161
 30
0.0
 11
109.875012732937293
 21
2.8593963622086012
 31
0.0
  0
LINE
  5
65B3
  8
0
 10
109.875012732937293
 20
2.8593963622086012
 30
0.0
 11
109.8651702132438004
 21
2.8616027141944911
 31
0.0
  0
LINE
  5
65B4
  8
0
 10
109.8651702132438004
 20
2.8616027141944911
 30
0.0
 11
109.875012732937293
 21
2.8609919754673259
 31
0.0
  0
LINE
  5
65B5
  8
0
 10
109.875012732937293
 20
2.8609919754673259
 30
0.0
 11
109.8946977722372935
 21
2.8600814532058521
 31
0.0
  0
LINE
  5
65B6
  8
0
 10
109.8946977722372935
 20
2.8600814532058521
 30
0.0
 11
109.9045402919372947
 21
2.8597805331137538
 31
0.0
  0
LINE
  5
65B7
  8
0
 10
109.8767014419108961
 20
2.8585952622661761
 30
0.0
 11
109.8668589226373058
 21
2.8604604672443168
 31
0.0
  0
LINE
  5
65B8
  8
0
 10
109.8668589226373058
 20
2.8604604672443168
 30
0.0
 11
109.8471738832373035
 21
2.8622933157345698
 31
0.0
  0
LINE
  5
65B9
  8
0
 10
109.8471738832373035
 20
2.8622933157345698
 30
0.0
 11
109.8373313639776967
 21
2.8622818209520711
 31
0.0
  0
LINE
  5
65BA
  8
0
 10
109.8373313639776967
 20
2.8622818209520711
 30
0.0
 11
109.8471738832373035
 21
2.860453407917761
 31
0.0
  0
LINE
  5
65BB
  8
0
 10
109.8767014419108961
 20
2.8585952622661792
 30
0.0
 11
109.8668566689237025
 21
2.8585779538482061
 31
0.0
  0
LINE
  5
65BC
  8
0
 10
109.8094925139373004
 20
2.868633762913757
 30
0.0
 11
109.8194358916802997
 21
2.8670750923006181
 31
0.0
  0
LINE
  5
65BD
  8
0
 10
109.8194358916802997
 20
2.8670750923006181
 30
0.0
 11
109.8390200729373021
 21
2.864334129850659
 31
0.0
  0
LINE
  5
65BE
  8
0
 10
109.8390200729373021
 20
2.864334129850659
 30
0.0
 11
109.8488625926373032
 21
2.8631167181137558
 31
0.0
  0
LINE
  5
65BF
  8
0
 10
109.8488625926373032
 20
2.8631167181137558
 30
0.0
 11
109.8390200729373021
 21
2.862754824213757
 31
0.0
  0
LINE
  5
65C0
  8
0
 10
109.8390200729373021
 20
2.862754824213757
 30
0.0
 11
109.8193350336373015
 21
2.8655251416423839
 31
0.0
  0
LINE
  5
65C1
  8
0
 10
109.8193350336373015
 20
2.8655251416423839
 30
0.0
 11
109.8094925138608033
 21
2.8686337627713292
 31
0.0
  0
LINE
  5
65C2
  8
0
 10
109.7931350064372964
 20
2.8717217729137561
 30
0.0
 11
109.7833423736372964
 21
2.873869031818729
 31
0.0
  0
LINE
  5
65C3
  8
0
 10
109.7833423736372964
 20
2.873869031818729
 30
0.0
 11
109.7636573343372959
 21
2.8785538293137569
 31
0.0
  0
LINE
  5
65C4
  8
0
 10
109.7636573343372959
 20
2.8785538293137569
 30
0.0
 11
109.7538148146468018
 21
2.8810749084777298
 31
0.0
  0
LINE
  5
65C5
  8
0
 10
109.7538148146468018
 20
2.8810749084777298
 30
0.0
 11
109.763657334316207
 21
2.8770433865351648
 31
0.0
  0
LINE
  5
65C6
  8
0
 10
109.763657334316207
 20
2.8770433865351648
 30
0.0
 11
109.7833423736995968
 21
2.872337324420835
 31
0.0
  0
LINE
  5
65C7
  8
0
 10
109.7833423736995968
 20
2.872337324420835
 30
0.0
 11
109.7931350064372964
 21
2.8717217729137561
 31
0.0
  0
LINE
  5
65C8
  8
0
 10
109.6424594162081974
 20
2.9239646320485031
 30
0.0
 11
109.6523019357115061
 21
2.917893383619476
 31
0.0
  0
LINE
  5
65C9
  8
0
 10
109.6523019357115061
 20
2.917893383619476
 30
0.0
 11
109.6719869750260017
 21
2.9087799594257522
 31
0.0
  0
LINE
  5
65CA
  8
0
 10
109.6719869750260017
 20
2.9087799594257522
 30
0.0
 11
109.6818294945113053
 21
2.9058290483440512
 31
0.0
  0
LINE
  5
65CB
  8
0
 10
109.6818294945113053
 20
2.9058290483440512
 30
0.0
 11
109.6719869750372993
 21
2.9101149610137549
 31
0.0
  0
LINE
  5
65CC
  8
0
 10
109.6719869750372993
 20
2.9101149610137549
 30
0.0
 11
109.6689173214373056
 21
2.9114703182137571
 31
0.0
  0
LINE
  5
65CD
  8
0
 10
109.6689173214373056
 20
2.9114703182137571
 30
0.0
 11
109.6640084962950965
 21
2.9153914756273709
 31
0.0
  0
LINE
  5
65CE
  8
0
 10
109.6640084962950965
 20
2.9153914756273709
 30
0.0
 11
109.6523019357174036
 21
2.9208603304960952
 31
0.0
  0
LINE
  5
65CF
  8
0
 10
109.6523019357174036
 20
2.9208603304960952
 30
0.0
 11
109.6424594162081974
 21
2.9239646320485031
 31
0.0
  0
LINE
  5
65D0
  8
0
 10
109.6801407853373007
 20
2.90435558096428
 30
0.0
 11
109.6702982661850996
 21
2.9090183726726142
 31
0.0
  0
LINE
  5
65D1
  8
0
 10
109.6702982661850996
 20
2.9090183726726142
 30
0.0
 11
109.6801407853373007
 21
2.905664369810439
 31
0.0
  0
LINE
  5
65D2
  8
0
 10
109.6801407853373007
 20
2.905664369810439
 30
0.0
 11
109.699825824737303
 21
2.8977671275137569
 31
0.0
  0
LINE
  5
65D3
  8
0
 10
109.699825824737303
 20
2.8977671275137569
 30
0.0
 11
109.709668344373199
 21
2.8931181182814441
 31
0.0
  0
LINE
  5
65D4
  8
0
 10
109.709668344373199
 20
2.8931181182814441
 30
0.0
 11
109.699825824737303
 21
2.8963509337879372
 31
0.0
  0
LINE
  5
65D5
  8
0
 10
109.6981371152541982
 20
2.8993086842227749
 30
0.0
 11
109.7079796349402017
 21
2.894303324875851
 31
0.0
  0
LINE
  5
65D6
  8
0
 10
109.7079796349402017
 20
2.894303324875851
 30
0.0
 11
109.7276646743878956
 21
2.8875139629902349
 31
0.0
  0
LINE
  5
65D7
  8
0
 10
109.7276646743878956
 20
2.8875139629902349
 30
0.0
 11
109.7375071940505933
 21
2.8857930236398111
 31
0.0
  0
LINE
  5
65D8
  8
0
 10
109.7375071940505933
 20
2.8857930236398111
 30
0.0
 11
109.727664674337305
 21
2.8889668306659511
 31
0.0
  0
LINE
  5
65D9
  8
0
 10
109.727664674337305
 20
2.8889668306659511
 30
0.0
 11
109.7079796350373044
 21
2.8957196133849599
 31
0.0
  0
LINE
  5
65DA
  8
0
 10
109.7079796350373044
 20
2.8957196133849599
 30
0.0
 11
109.6981371152096045
 21
2.8993086842470399
 31
0.0
  0
LINE
  5
65DB
  8
0
 10
109.7259759649828936
 20
2.8874724293375968
 30
0.0
 11
109.7358184846119968
 21
2.8853731282994821
 31
0.0
  0
LINE
  5
65DC
  8
0
 10
109.7358184846119968
 20
2.8853731282994821
 30
0.0
 11
109.7555035240372945
 21
2.8796600620879409
 31
0.0
  0
LINE
  5
65DD
  8
0
 10
109.7555035240372945
 20
2.8796600620879409
 30
0.0
 11
109.7653460437033033
 21
2.8759756068949058
 31
0.0
  0
LINE
  5
65DE
  8
0
 10
109.7653460437033033
 20
2.8759756068949058
 30
0.0
 11
109.7555035240372945
 21
2.8780139150296882
 31
0.0
  0
LINE
  5
65DF
  8
0
 10
109.7259759649508055
 20
2.8874724293469081
 30
0.0
 11
109.7358184846373064
 21
2.883829248491474
 31
0.0
  0
LINE
  5
65E0
  8
0
 10
109.7816536642420004
 20
2.8720631333578739
 30
0.0
 11
109.7879089196469948
 21
2.8702084464838591
 31
0.0
  0
LINE
  5
65E1
  8
0
 10
109.7816536642143035
 20
2.8720631333886342
 30
0.0
 11
109.7914961839941981
 21
2.8710685311323672
 31
0.0
  0
LINE
  5
65E2
  8
0
 10
109.7914961839941981
 20
2.8710685311323672
 30
0.0
 11
109.8111812232939002
 21
2.867351113099788
 31
0.0
  0
LINE
  5
65E3
  8
0
 10
109.8111812232939002
 20
2.867351113099788
 30
0.0
 11
109.8210237429969993
 21
2.8645846742589369
 31
0.0
  0
LINE
  5
65E4
  8
0
 10
109.8210237429969993
 20
2.8645846742589369
 30
0.0
 11
109.8120111622235981
 21
2.8654479751059032
 31
0.0
  0
LINE
  5
65E5
  8
0
 10
109.8946977722459053
 20
2.8584814401541161
 30
0.0
 11
109.8947716220989008
 21
2.8600780373151351
 31
0.0
  0
LINE
  5
65E6
  8
0
 10
109.875012732937293
 20
2.8593963622086012
 30
0.0
 11
109.8751113626655069
 21
2.860985855388678
 31
0.0
  0
LINE
  5
65E7
  8
0
 10
109.8668566689237025
 20
2.8585779538482061
 30
0.0
 11
109.8668566689237025
 21
2.8604608943339449
 31
0.0
  0
LINE
  5
65E8
  8
0
 10
109.8471738832373035
 20
2.860453407917761
 30
0.0
 11
109.8473437222940987
 21
2.8622775022402438
 31
0.0
  0
LINE
  5
65E9
  8
0
 10
109.8390200729373021
 20
2.862754824213757
 30
0.0
 11
109.8392368628324931
 21
2.8643037883748348
 31
0.0
  0
LINE
  5
65EA
  8
0
 10
109.8193350336373015
 20
2.8655251416423839
 30
0.0
 11
109.8194358916802997
 21
2.8670750923006181
 31
0.0
  0
LINE
  5
65EB
  8
0
 10
109.7908765012257959
 20
2.86956426817799
 30
0.0
 11
109.7914961839941981
 21
2.8710685311323672
 31
0.0
  0
LINE
  5
65EC
  8
0
 10
109.8120111622235981
 20
2.8654479751059032
 30
0.0
 11
109.8124461479563934
 21
2.8669955804900069
 31
0.0
  0
LINE
  5
65ED
  8
0
 10
109.763657334316207
 20
2.8770433865351648
 30
0.0
 11
109.7639975329205981
 21
2.8784728662307559
 31
0.0
  0
LINE
  5
65EE
  8
0
 10
109.7833423736995968
 20
2.872337324420835
 30
0.0
 11
109.7839614480112971
 21
2.8737332855909812
 31
0.0
  0
LINE
  5
65EF
  8
0
 10
109.7555035240372945
 20
2.8780139150296882
 30
0.0
 11
109.7560440056133046
 21
2.879457737864358
 31
0.0
  0
LINE
  5
65F0
  8
0
 10
109.7358184846373064
 20
2.883829248491482
 30
0.0
 11
109.7361334487865037
 21
2.885305949909879
 31
0.0
  0
LINE
  5
65F1
  8
0
 10
109.7276646743878956
 20
2.8875139629902349
 30
0.0
 11
109.7280890390417056
 21
2.888829990535617
 31
0.0
  0
LINE
  5
65F2
  8
0
 10
109.7079796349402017
 20
2.894303324875851
 30
0.0
 11
109.7084143270638066
 21
2.8955704960395581
 31
0.0
  0
LINE
  5
65F3
  8
0
 10
109.699825824737303
 20
2.8963509337879301
 30
0.0
 11
109.699825824737303
 21
2.8977671275137569
 31
0.0
  0
LINE
  5
65F4
  8
0
 10
109.6801407853373007
 20
2.90435558096428
 30
0.0
 11
109.6805930545187948
 21
2.9054829285018018
 31
0.0
  0
LINE
  5
65F5
  8
0
 10
109.6719869750260017
 20
2.9087799594257522
 30
0.0
 11
109.6722573788555053
 21
2.9099972140127668
 31
0.0
  0
LINE
  5
65F6
  8
0
 10
109.6523019357115061
 20
2.917893383619476
 30
0.0
 11
109.6538744639598946
 21
2.9201257057804719
 31
0.0
  0
LINE
  5
65F7
  8
0
 10
109.6441481254372974
 20
2.9241517625821181
 30
0.0
 11
109.6441481254372974
 21
2.9288764153606208
 31
0.0
  0
LINE
  5
65F8
  8
0
 10
109.6244630860372951
 20
2.9344647488831632
 30
0.0
 11
109.6244630860372951
 21
2.9391165278403451
 31
0.0
  0
ARC
  5
65F9
  8
0
 10
109.914445613252397
 20
1.1220117856049301
 30
0.0
 40
2.0202513064047798
 50
84.7609979701488356
 51
90.0496949218900511
  0
ARC
  5
65FA
  8
0
 10
109.9879109118780036
 20
1.9232167026002509
 30
0.0
 40
1.2156852935011571
 50
76.7768635176577305
 51
84.7609978132964841
  0
ARC
  5
65FB
  8
0
 10
110.1768671264204045
 20
2.7273748587751232
 30
0.0
 40
0.3896254947233884
 50
64.4543028803715856
 51
76.7768635176569489
  0
ARC
  5
65FC
  8
0
 10
110.2787224681323011
 20
2.9404814451453278
 30
0.0
 40
0.1534286958678496
 50
50.1583616309140226
 51
64.4543028803716282
  0
ARC
  5
65FD
  8
0
 10
110.337260626677093
 20
3.0106373908522079
 30
0.0
 40
0.0620581714968125
 50
25.0129925224165213
 51
50.1583616309149818
  0
ARC
  5
65FE
  8
0
 10
110.3700018821590021
 20
3.0259139288597061
 30
0.0
 40
0.025928371829161
 50
350.2278650454392164
 51
25.0129925224186707
  0
ARC
  5
65FF
  8
0
 10
110.3465239301238938
 20
3.0299575174704301
 30
0.0
 40
0.0497519912143769
 50
318.3058323932414169
 51
350.2278650454391027
  0
ARC
  5
6600
  8
0
 10
110.2929340095401045
 20
3.0776946103369669
 30
0.0
 40
0.1215204356975188
 50
295.90024628752019
 51
318.3058323932413032
  0
ARC
  5
6601
  8
0
 10
110.1668791581974034
 20
3.3260059643310038
 30
0.0
 40
0.3999822299507189
 50
283.3243852448314897
 51
296.6064061093873079
  0
ARC
  5
6602
  8
0
 10
109.913089851084294
 20
1.202320689415076
 30
0.0
 40
1.936078829195766
 50
87.3306572279255846
 51
90.0117333901090717
  0
ARC
  5
6603
  8
0
 10
109.9230281073699018
 20
1.415484931625941
 30
0.0
 40
1.722683039416935
 50
82.713491678868337
 51
87.3306570382470539
  0
ARC
  5
6604
  8
0
 10
110.0094513625374049
 20
2.0913867478196151
 30
0.0
 40
1.0412784282147101
 50
76.3137997284154181
 51
82.713491678868337
  0
ARC
  5
6605
  8
0
 10
110.1384752711589954
 20
2.6212186460366111
 30
0.0
 40
0.4959629146225938
 50
67.1262814590651828
 51
76.3137997284154324
  0
ARC
  5
6606
  8
0
 10
110.2668007883300021
 20
2.9253968588474581
 30
0.0
 40
0.1658238174135521
 50
49.7117197073035584
 51
67.1262814590652255
  0
ARC
  5
6607
  8
0
 10
110.3442090132327991
 20
3.0167113627946391
 30
0.0
 40
0.0461142859896952
 50
23.0355731722870409
 51
49.7117197073044466
  0
ARC
  5
6608
  8
0
 10
110.359261760027195
 20
3.0231119073289259
 30
0.0
 40
0.0297572643661878
 50
332.0048634080712873
 51
23.0355731722867603
  0
ARC
  5
6609
  8
0
 10
110.2980377741919966
 20
3.0698741708861892
 30
0.0
 40
0.1065095457632077
 50
291.3395806536524901
 51
325.2368219762673789
  0
ARC
  5
660A
  8
0
 10
110.1586546477045943
 20
3.3648003590859838
 30
0.0
 40
0.4325222879927716
 50
283.9570339131806804
 51
294.3221324814768991
  0
ARC
  5
660B
  8
0
 10
109.9133935628854033
 20
1.6463941483459239
 30
0.0
 40
1.4863420954756099
 50
85.1325410081961991
 51
90.0269912115299604
  0
ARC
  5
660C
  8
0
 10
109.9506995628382953
 20
2.0844732840148938
 30
0.0
 40
1.0466773746473941
 50
77.8953557913148416
 51
85.1325405857124764
  0
ARC
  5
660D
  8
0
 10
110.0881654976427058
 20
2.7254410906966142
 30
0.0
 40
0.3911343841166144
 50
66.2483117437333675
 51
77.8953557913148416
  0
ARC
  5
660E
  8
0
 10
110.2000233760928012
 20
2.979637138955018
 30
0.0
 40
0.1134154327979772
 50
48.7579712848835598
 51
66.2483117437342059
  0
ARC
  5
660F
  8
0
 10
110.2496845448264935
 20
3.036280744017767
 30
0.0
 40
0.0380846311660345
 50
17.117912743872111
 51
48.7579712848834674
  0
ARC
  5
6610
  8
0
 10
110.2668974396249979
 20
3.0415820131442621
 30
0.0
 40
0.0200738787749506
 50
324.0722255668250114
 51
17.1179127438737986
  0
ARC
  5
6611
  8
0
 10
110.2008206735740998
 20
3.089462447274014
 30
0.0
 40
0.1016745833318871
 50
310.6274220092695941
 51
324.072225566825125
  0
ARC
  5
6612
  8
0
 10
109.9135282449877025
 20
1.7325771383773141
 30
0.0
 40
1.3762965797747619
 50
83.353893763193966
 51
90.0347562379307931
  0
ARC
  5
6613
  8
0
 10
109.9882966521855963
 20
2.3742586400452672
 30
0.0
 40
0.7302737749932716
 50
72.8101767303979841
 51
83.3538936043022858
  0
ARC
  5
6614
  8
0
 10
110.1583442236292996
 20
2.9239391896936029
 30
0.0
 40
0.1548913949922861
 50
50.2827195859174623
 51
72.8101767303979983
  0
ARC
  5
6615
  8
0
 10
110.2400613675278009
 20
3.0223075841848628
 30
0.0
 40
0.0270085085620692
 50
11.3972328426547396
 51
50.2827195859187412
  0
ARC
  5
6616
  8
0
 10
110.2373201013867998
 20
3.0217549857474859
 30
0.0
 40
0.0298049178827652
 50
355.3003308382802174
 51
11.3972328426539704
  0
LINE
  5
6617
  8
0
 10
110.2670248109609048
 20
3.0193129867477402
 30
0.0
 11
110.2670248109609048
 21
2.9663952588137561
 31
0.0
  0
ARC
  5
6618
  8
0
 10
110.2442302141228936
 20
2.966205572433656
 30
0.0
 40
0.0227953860667378
 50
0.476778695853829
 51
28.9011232612595101
  0
ARC
  5
6619
  8
0
 10
110.2242338398742021
 20
2.9551664693101189
 30
0.0
 40
0.0456365064609877
 50
28.9011232612597411
 51
58.8836778268993228
  0
ARC
  5
661A
  8
0
 10
110.1195516782830026
 20
2.781744585724121
 30
0.0
 40
0.2482037907443169
 50
58.8836778269001115
 51
71.8060589480539875
  0
ARC
  5
661B
  8
0
 10
110.0418221908341962
 20
2.5452447198563539
 30
0.0
 40
0.4971496880282995
 50
71.8060589480539875
 51
82.5778671107347577
  0
ARC
  5
661C
  8
0
 10
109.8182459514251974
 20
0.8289940111468485
 30
0.0
 40
2.2279017875428848
 50
82.5778671107355819
 51
85.3252847115071944
  0
ARC
  5
661D
  8
0
 10
109.9132099034357992
 20
1.6253500827676171
 30
0.0
 40
1.426765513597634
 50
86.5199086564128805
 51
90.0207134471065729
  0
ARC
  5
661E
  8
0
 10
109.9169358916110042
 20
1.7788746959249051
 30
0.0
 40
1.2435139112833431
 50
81.5325327259591575
 51
90.1954776117973438
  0
ARC
  5
661F
  8
0
 10
110.0142359175102058
 20
2.433854018571695
 30
0.0
 40
0.5813469245144601
 50
71.7051529815593653
 51
81.5123425092155856
  0
ARC
  5
6620
  8
0
 10
110.1425482843042971
 20
2.8219518539638542
 30
0.0
 40
0.1725878349416625
 50
58.5802025775031368
 51
71.7051529815593796
  0
ARC
  5
6621
  8
0
 10
110.1960638473914997
 20
2.9095563388983989
 30
0.0
 40
0.0699308270309186
 50
38.6298030031919168
 51
58.5802025775040818
  0
ARC
  5
6622
  8
0
 10
110.2335794056320992
 20
2.9395365786579801
 30
0.0
 40
0.0219075838444138
 50
347.7605212606320038
 51
38.6298030031917676
  0
ARC
  5
6623
  8
0
 10
110.2333297504513041
 20
2.9395907361076912
 30
0.0
 40
0.0221630456589604
 50
331.0623979441995175
 51
347.7605212606305827
  0
ARC
  5
6624
  8
0
 10
110.2149588041070984
 20
2.9500304072945851
 30
0.0
 40
0.0432923401255277
 50
316.9362656141436787
 51
330.7350498665705913
  0
ARC
  5
6625
  8
0
 10
110.2089043134108977
 20
2.9663938180823921
 30
0.0
 40
0.0581204975678981
 50
338.4479689287234123
 51
0.0014203862592925
  0
ARC
  5
6626
  8
0
 10
110.1979909261500978
 20
2.9707041681250859
 30
0.0
 40
0.0698542582180404
 50
330.955683517205216
 51
338.4479689287225028
  0
ARC
  5
6627
  8
0
 10
110.190335421331099
 20
2.9763849994115552
 30
0.0
 40
0.0793148521300937
 50
310.7104428365141189
 51
330.0528141551711201
  0
ARC
  5
6628
  8
0
 10
110.1529409617429991
 20
3.005807198236782
 30
0.0
 40
0.1263395313004261
 50
308.3901684045073921
 51
314.8660923767403119
  0
ARC
  5
6629
  8
0
 10
110.0990530283861943
 20
3.1201564942941409
 30
0.0
 40
0.2510859328830719
 50
281.1471645893745972
 51
301.809471480440493
  0
ARC
  5
662A
  8
0
 10
109.9621243948756018
 20
3.6879378187124359
 30
0.0
 40
0.8349895368093156
 50
275.2154880123699741
 51
282.8338009809270943
  0
ARC
  5
662B
  8
0
 10
109.9167787320784981
 20
4.1153157624767447
 30
0.0
 40
1.2647358122705781
 50
271.4201190846641794
 51
275.5012808615553013
  0
ARC
  5
662C
  8
0
 10
109.9127661080639058
 20
4.2255813584831632
 30
0.0
 40
1.3750675803108721
 50
269.9969995399762865
 51
271.4733976083958282
  0
ARC
  5
662D
  8
0
 10
109.9134777915012933
 20
1.691600251828544
 30
0.0
 40
1.3208298305142361
 50
84.7014960707331284
 51
90.0340271836915491
  0
ARC
  5
662E
  8
0
 10
109.9488694588302025
 20
2.07323073321494
 30
0.0
 40
0.9375617853579477
 50
79.6996770663411809
 51
84.7014308749404137
  0
ARC
  5
662F
  8
0
 10
110.0188008123003982
 20
2.4580257872854299
 30
0.0
 40
0.5464638080743918
 50
72.7937571544246111
 51
79.6996770663419909
  0
ARC
  5
6630
  8
0
 10
110.1148734877713053
 20
2.768266786965893
 30
0.0
 40
0.221687828582581
 50
60.8992397519047799
 51
72.7937571544246254
  0
ARC
  5
6631
  8
0
 10
110.1895692227844989
 20
2.902464345201567
 30
0.0
 40
0.0681025510798865
 50
40.2135306035881399
 51
60.8992397519040409
  0
ARC
  5
6632
  8
0
 10
110.222906217383894
 20
2.9306497873467712
 30
0.0
 40
0.0244473754664303
 50
1.9267095581039111
 51
40.2135306035865909
  0
ARC
  5
6633
  8
0
 10
110.2307451781154981
 20
2.9309134908213692
 30
0.0
 40
0.0166039804824685
 50
339.7227445992410821
 51
1.9267095581064539
  0
ARC
  5
6634
  8
0
 10
110.2135492489536972
 20
2.937266699007858
 30
0.0
 40
0.0349360080298515
 50
316.3350416338494142
 51
339.7227445992402863
  0
ARC
  5
6635
  8
0
 10
110.2037101342637015
 20
2.924875210624323
 30
0.0
 40
0.0195742165689059
 50
333.6268207781636761
 51
1.8225704379555161
  0
ARC
  5
6636
  8
0
 10
110.1682711736396953
 20
2.9649681310824412
 30
0.0
 40
0.0720189089939095
 50
297.5483119712570783
 51
317.3565061632774018
  0
ARC
  5
6637
  8
0
 10
110.0733869161861946
 20
3.1562731964018318
 30
0.0
 40
0.2855508136083033
 50
282.0200321026953816
 51
296.6751478277461729
  0
ARC
  5
6638
  8
0
 10
109.9624816482703977
 20
3.6259315357508881
 30
0.0
 40
0.7680823062949476
 50
275.7102564497275807
 51
282.8156662927233924
  0
ARC
  5
6639
  8
0
 10
109.9205274075225987
 20
3.9911639691642282
 30
0.0
 40
1.1356895994390559
 50
272.7308328083457809
 51
275.9830016355185762
  0
ARC
  5
663A
  8
0
 10
109.9129141655334934
 20
4.136051539316929
 30
0.0
 40
1.2807755497827269
 50
269.9901882359787919
 51
272.7622179542024128
  0
ARC
  5
663B
  8
0
 10
109.912691282078697
 20
3.4702336403157492
 30
0.0
 40
0.6062886392480336
 50
270.0003358365548252
 51
276.0581427826617755
  0
ARC
  5
663C
  8
0
 10
109.9128515674536999
 20
3.4687233711729539
 30
0.0
 40
0.6047698883517019
 50
276.0581427826617755
 51
284.2453098985449174
  0
ARC
  5
663D
  8
0
 10
109.9138520118856945
 20
3.4647827597848511
 30
0.0
 40
0.6007042632861537
 50
284.2453098985449174
 51
292.5739114328446817
  0
ARC
  5
663E
  8
0
 10
109.9158985094883008
 20
3.4598600484539062
 30
0.0
 40
0.5953731058803584
 50
292.5739114328447954
 51
295.1563457274045845
  0
LINE
  5
663F
  8
0
 10
110.1689855264609008
 20
2.920957369813757
 30
0.0
 11
110.1694909421489967
 21
2.9221638427541778
 31
0.0
  0
LINE
  5
6640
  8
0
 10
110.1694909421290021
 20
2.9221638426802961
 30
0.0
 11
110.1730862687464025
 21
2.92386910329459
 31
0.0
  0
LINE
  5
6641
  8
0
 10
110.1730862687464025
 20
2.92386910329459
 30
0.0
 11
110.1829287884172999
 21
2.9316651617023028
 31
0.0
  0
LINE
  5
6642
  8
0
 10
110.1829287884172999
 20
2.9316651617023028
 30
0.0
 11
110.1730862688608994
 21
2.9303766787994672
 31
0.0
  0
LINE
  5
6643
  8
0
 10
110.1730862688608994
 20
2.9303766787994672
 30
0.0
 11
110.1710685199116
 21
2.9294192925117262
 31
0.0
  0
LINE
  5
6644
  8
0
 10
110.1710685199116
 20
2.9294192925117262
 30
0.0
 11
110.1712186325743943
 21
2.935614973124367
 31
0.0
  0
LINE
  5
6645
  8
0
 10
110.173086268860601
 20
2.9303766787993211
 30
0.0
 11
110.1730862687462036
 21
2.923869103294519
 31
0.0
  0
LINE
  5
6646
  8
0
 10
110.1694909579398001
 20
2.9221638501793361
 30
0.0
 11
110.1511792918483934
 21
2.9340074264432099
 31
0.0
  0
LINE
  5
6647
  8
0
 10
110.1497958575333058
 20
2.933464111047468
 30
0.0
 11
110.1689855265129978
 21
2.9209573699381268
 31
0.0
  0
LINE
  5
6648
  8
0
 10
110.199179778479305
 20
2.9505094991402792
 30
0.0
 11
110.181240079060899
 21
2.941235873427539
 31
0.0
  0
LINE
  5
6649
  8
0
 10
110.181240079060899
 20
2.941235873427539
 30
0.0
 11
110.1713975593110035
 21
2.932078961686039
 31
0.0
  0
LINE
  5
664A
  8
0
 10
110.1713975593110035
 20
2.932078961686039
 30
0.0
 11
110.1812400791113049
 21
2.9329874281720851
 31
0.0
  0
LINE
  5
664B
  8
0
 10
110.1812400791113049
 20
2.9329874281720851
 30
0.0
 11
110.2009251184609013
 21
2.9432047962840331
 31
0.0
  0
LINE
  5
664C
  8
0
 10
110.2009251184609013
 20
2.9432047962840331
 30
0.0
 11
110.2046675986964033
 21
2.946653875895576
 31
0.0
  0
LINE
  5
664D
  8
0
 10
110.2009251184609013
 20
2.9493629633496941
 30
0.0
 11
110.2009251184609013
 21
2.9432047962840331
 31
0.0
  0
LINE
  5
664E
  8
0
 10
110.181240079060899
 20
2.9412358733471051
 30
0.0
 11
110.1812400781458052
 21
2.932987428082972
 31
0.0
  0
LINE
  5
664F
  8
0
 10
110.2102868239499003
 20
2.9418452635746362
 30
0.0
 11
110.2009251184609013
 21
2.9391165278403451
 31
0.0
  0
LINE
  5
6650
  8
0
 10
110.2009251184609013
 20
2.9391165278403451
 30
0.0
 11
110.181240079060899
 21
2.9288764153606208
 31
0.0
  0
LINE
  5
6651
  8
0
 10
110.181240079060899
 20
2.9288764153606208
 30
0.0
 11
110.1713975594562953
 21
2.9214501521971261
 31
0.0
  0
LINE
  5
6652
  8
0
 10
110.1713975594562953
 20
2.9214501521971261
 30
0.0
 11
110.181240079060899
 21
2.9241517625821181
 31
0.0
  0
LINE
  5
6653
  8
0
 10
110.181240079060899
 20
2.9241517625821181
 30
0.0
 11
110.2009251184609013
 21
2.9344647488831632
 31
0.0
  0
LINE
  5
6654
  8
0
 10
110.2009251184609013
 20
2.9344647488831632
 30
0.0
 11
110.2104156175417984
 21
2.9417230885586441
 31
0.0
  0
ARC
  5
6655
  8
0
 10
110.1113915730843047
 20
3.081805388018656
 30
0.0
 40
0.174869538068129
 50
295.0644344547193896
 51
305.4282218678287109
  0
ARC
  5
6656
  8
0
 10
109.9213260070094975
 20
3.4320842767597179
 30
0.0
 40
0.573175544388302
 50
294.8344724498717824
 51
297.4418418542172162
  0
ARC
  5
6657
  8
0
 10
109.9293697585549978
 20
3.4070351606716591
 30
0.0
 40
0.54707396593466
 50
291.0155768705994888
 51
295.1717802528995094
  0
ARC
  5
6658
  8
0
 10
109.8312114701688955
 20
3.6844509268710168
 30
0.0
 40
0.8412752564263346
 50
287.6750062109936152
 51
290.480377075190404
  0
ARC
  5
6659
  8
0
 10
109.9533070962705068
 20
3.3101910964752701
 30
0.0
 40
0.4476205096386735
 50
283.0654726019354257
 51
287.3293810347761905
  0
ARC
  5
665A
  8
0
 10
109.8838896473991014
 20
3.5706030757918601
 30
0.0
 40
0.7170372469378316
 50
280.8566045507325271
 51
283.7647127267794076
  0
ARC
  5
665B
  8
0
 10
109.8859146358452961
 20
3.6279583251253751
 30
0.0
 40
0.7730903562582846
 50
277.702357026578909
 51
279.9085343609356187
  0
ARC
  5
665C
  8
0
 10
109.9140270664046
 20
3.4298724666396021
 30
0.0
 40
0.5730253642917237
 50
273.5689945780832204
 51
277.571377607489012
  0
ARC
  5
665D
  8
0
 10
109.9017370654564019
 20
3.644512446362421
 30
0.0
 40
0.7880148819256766
 50
272.0233481690509052
 51
273.4893588412467125
  0
ARC
  5
665E
  8
0
 10
109.9138509758540039
 20
3.1976968084701669
 30
0.0
 40
0.3410698583596877
 50
269.8056582843943261
 51
272.6397514047162076
  0
LINE
  5
665F
  8
0
 10
109.9208479125748994
 20
2.8597805331602202
 30
0.0
 11
109.9306904322523053
 21
2.8584814401541161
 31
0.0
  0
LINE
  5
6660
  8
0
 10
109.9306904322523053
 20
2.8584814401541161
 30
0.0
 11
109.9503754715609034
 21
2.8593963622086012
 31
0.0
  0
LINE
  5
6661
  8
0
 10
109.9503754715609034
 20
2.8593963622086012
 30
0.0
 11
109.9602179912544955
 21
2.8616027141944911
 31
0.0
  0
LINE
  5
6662
  8
0
 10
109.9602179912544955
 20
2.8616027141944911
 30
0.0
 11
109.9503754715609034
 21
2.8609919754673259
 31
0.0
  0
LINE
  5
6663
  8
0
 10
109.9503754715609034
 20
2.8609919754673259
 30
0.0
 11
109.9306904322609029
 21
2.8600814532058521
 31
0.0
  0
LINE
  5
6664
  8
0
 10
109.9306904322609029
 20
2.8600814532058521
 30
0.0
 11
109.9208479125609017
 21
2.8597805331137538
 31
0.0
  0
LINE
  5
6665
  8
0
 10
109.9486867625873003
 20
2.8585952622661761
 30
0.0
 11
109.9585292818609048
 21
2.8604604672443168
 31
0.0
  0
LINE
  5
6666
  8
0
 10
109.9585292818609048
 20
2.8604604672443168
 30
0.0
 11
109.9782143212608929
 21
2.8622933157345698
 31
0.0
  0
LINE
  5
6667
  8
0
 10
109.9782143212608929
 20
2.8622933157345698
 30
0.0
 11
109.9880568405205992
 21
2.8622818209520711
 31
0.0
  0
LINE
  5
6668
  8
0
 10
109.9880568405205992
 20
2.8622818209520711
 30
0.0
 11
109.9782143212608929
 21
2.860453407917761
 31
0.0
  0
LINE
  5
6669
  8
0
 10
109.9486867625873003
 20
2.8585952622661792
 30
0.0
 11
109.9585315355745934
 21
2.8585779538482061
 31
0.0
  0
LINE
  5
666A
  8
0
 10
110.015895690560896
 20
2.868633762913757
 30
0.0
 11
110.0059523128178967
 21
2.8670750923006181
 31
0.0
  0
LINE
  5
666B
  8
0
 10
110.0059523128178967
 20
2.8670750923006181
 30
0.0
 11
109.9863681315608943
 21
2.864334129850659
 31
0.0
  0
LINE
  5
666C
  8
0
 10
109.9863681315608943
 20
2.864334129850659
 30
0.0
 11
109.9765256118608932
 21
2.8631167181137558
 31
0.0
  0
LINE
  5
666D
  8
0
 10
109.9765256118608932
 20
2.8631167181137558
 30
0.0
 11
109.9863681315608943
 21
2.862754824213757
 31
0.0
  0
LINE
  5
666E
  8
0
 10
109.9863681315608943
 20
2.862754824213757
 30
0.0
 11
110.0060531708608949
 21
2.8655251416423839
 31
0.0
  0
LINE
  5
666F
  8
0
 10
110.0060531708608949
 20
2.8655251416423839
 30
0.0
 11
110.0158956906375067
 21
2.8686337627713292
 31
0.0
  0
LINE
  5
6670
  8
0
 10
110.0322531980609
 20
2.8717217729137561
 30
0.0
 11
110.0420458308609
 21
2.873869031818729
 31
0.0
  0
LINE
  5
6671
  8
0
 10
110.0420458308609
 20
2.873869031818729
 30
0.0
 11
110.0617308701609005
 21
2.8785538293137569
 31
0.0
  0
LINE
  5
6672
  8
0
 10
110.0617308701609005
 20
2.8785538293137569
 30
0.0
 11
110.0715733898513946
 21
2.8810749084777298
 31
0.0
  0
LINE
  5
6673
  8
0
 10
110.0715733898513946
 20
2.8810749084777298
 30
0.0
 11
110.0617308701820036
 21
2.8770433865351648
 31
0.0
  0
LINE
  5
6674
  8
0
 10
110.0617308701820036
 20
2.8770433865351648
 30
0.0
 11
110.0420458307985996
 21
2.872337324420835
 31
0.0
  0
LINE
  5
6675
  8
0
 10
110.0420458307985996
 20
2.872337324420835
 30
0.0
 11
110.0322531980609
 21
2.8717217729137561
 31
0.0
  0
LINE
  5
6676
  8
0
 10
110.1829287882900985
 20
2.9239646320485031
 30
0.0
 11
110.1730862687867045
 21
2.917893383619476
 31
0.0
  0
LINE
  5
6677
  8
0
 10
110.1730862687867045
 20
2.917893383619476
 30
0.0
 11
110.1534012294721947
 21
2.9087799594257522
 31
0.0
  0
LINE
  5
6678
  8
0
 10
110.1534012294721947
 20
2.9087799594257522
 30
0.0
 11
110.1435587099869053
 21
2.9058290483440512
 31
0.0
  0
LINE
  5
6679
  8
0
 10
110.1435587099869053
 20
2.9058290483440512
 30
0.0
 11
110.1534012294608971
 21
2.9101149610137549
 31
0.0
  0
LINE
  5
667A
  8
0
 10
110.1534012294608971
 20
2.9101149610137549
 30
0.0
 11
110.156470883060905
 21
2.9114703182137571
 31
0.0
  0
LINE
  5
667B
  8
0
 10
110.156470883060905
 20
2.9114703182137571
 30
0.0
 11
110.1613797082030999
 21
2.9153914756273709
 31
0.0
  0
LINE
  5
667C
  8
0
 10
110.1613797082030999
 20
2.9153914756273709
 30
0.0
 11
110.1730862687809065
 21
2.9208603304960952
 31
0.0
  0
LINE
  5
667D
  8
0
 10
110.1730862687809065
 20
2.9208603304960952
 30
0.0
 11
110.1829287882900985
 21
2.9239646320485031
 31
0.0
  0
LINE
  5
667E
  8
0
 10
110.1452474191608957
 20
2.90435558096428
 30
0.0
 11
110.1550899383130968
 21
2.9090183726726142
 31
0.0
  0
LINE
  5
667F
  8
0
 10
110.1550899383130968
 20
2.9090183726726142
 30
0.0
 11
110.1452474191608957
 21
2.905664369810439
 31
0.0
  0
LINE
  5
6680
  8
0
 10
110.1452474191608957
 20
2.905664369810439
 30
0.0
 11
110.1255623797608934
 21
2.8977671275137569
 31
0.0
  0
LINE
  5
6681
  8
0
 10
110.1255623797608934
 20
2.8977671275137569
 30
0.0
 11
110.1157198601250968
 21
2.8931181182814441
 31
0.0
  0
LINE
  5
6682
  8
0
 10
110.1157198601250968
 20
2.8931181182814441
 30
0.0
 11
110.1255623797608934
 21
2.8963509337879372
 31
0.0
  0
LINE
  5
6683
  8
0
 10
110.1272510892439982
 20
2.8993086842227749
 30
0.0
 11
110.1174085695579947
 21
2.894303324875851
 31
0.0
  0
LINE
  5
6684
  8
0
 10
110.1174085695579947
 20
2.894303324875851
 30
0.0
 11
110.0977235301103008
 21
2.8875139629902349
 31
0.0
  0
LINE
  5
6685
  8
0
 10
110.0977235301103008
 20
2.8875139629902349
 30
0.0
 11
110.0878810104476031
 21
2.8857930236398111
 31
0.0
  0
LINE
  5
6686
  8
0
 10
110.0878810104476031
 20
2.8857930236398111
 30
0.0
 11
110.0977235301609056
 21
2.8889668306659511
 31
0.0
  0
LINE
  5
6687
  8
0
 10
110.0977235301609056
 20
2.8889668306659511
 30
0.0
 11
110.1174085694609062
 21
2.8957196133849599
 31
0.0
  0
LINE
  5
6688
  8
0
 10
110.1174085694609062
 20
2.8957196133849599
 30
0.0
 11
110.1272510892886061
 21
2.8993086842470399
 31
0.0
  0
LINE
  5
6689
  8
0
 10
110.0994122395154022
 20
2.8874724293375968
 30
0.0
 11
110.0895697198861996
 21
2.8853731282994821
 31
0.0
  0
LINE
  5
668A
  8
0
 10
110.0895697198861996
 20
2.8853731282994821
 30
0.0
 11
110.0698846804609019
 21
2.8796600620879409
 31
0.0
  0
LINE
  5
668B
  8
0
 10
110.0698846804609019
 20
2.8796600620879409
 30
0.0
 11
110.0600421607950068
 21
2.8759756068949058
 31
0.0
  0
LINE
  5
668C
  8
0
 10
110.0600421607950068
 20
2.8759756068949058
 30
0.0
 11
110.0698846804609019
 21
2.8780139150296882
 31
0.0
  0
LINE
  5
668D
  8
0
 10
110.0994122395475046
 20
2.8874724293469081
 30
0.0
 11
110.0895697198609042
 21
2.883829248491474
 31
0.0
  0
LINE
  5
668E
  8
0
 10
110.0437345402562954
 20
2.8720631333578739
 30
0.0
 11
110.0374792848512016
 21
2.8702084464838591
 31
0.0
  0
LINE
  5
668F
  8
0
 10
110.0437345402840066
 20
2.8720631333886342
 30
0.0
 11
110.0338920205039983
 21
2.8710685311323672
 31
0.0
  0
LINE
  5
6690
  8
0
 10
110.0338920205039983
 20
2.8710685311323672
 30
0.0
 11
110.0142069812042962
 21
2.867351113099788
 31
0.0
  0
LINE
  5
6691
  8
0
 10
110.0142069812042962
 20
2.867351113099788
 30
0.0
 11
110.0043644615012965
 21
2.8645846742589369
 31
0.0
  0
LINE
  5
6692
  8
0
 10
110.0043644615012965
 20
2.8645846742589369
 30
0.0
 11
110.0133770422745982
 21
2.8654479751059032
 31
0.0
  0
LINE
  5
6693
  8
0
 10
109.9306904322523053
 20
2.8584814401541161
 30
0.0
 11
109.9306165823992956
 21
2.8600780373151351
 31
0.0
  0
LINE
  5
6694
  8
0
 10
109.9503754715609034
 20
2.8593963622086012
 30
0.0
 11
109.9502768418328031
 21
2.860985855388678
 31
0.0
  0
LINE
  5
6695
  8
0
 10
109.9585315355745934
 20
2.8585779538482061
 30
0.0
 11
109.9585315355745934
 21
2.8604608943339449
 31
0.0
  0
LINE
  5
6696
  8
0
 10
109.9782143212608929
 20
2.860453407917761
 30
0.0
 11
109.9780444822040977
 21
2.8622775022402438
 31
0.0
  0
LINE
  5
6697
  8
0
 10
109.9863681315608943
 20
2.862754824213757
 30
0.0
 11
109.9861513416658028
 21
2.8643037883748348
 31
0.0
  0
LINE
  5
6698
  8
0
 10
110.0060531708608949
 20
2.8655251416423839
 30
0.0
 11
110.0059523128178967
 21
2.8670750923006181
 31
0.0
  0
LINE
  5
6699
  8
0
 10
110.0345117032724005
 20
2.86956426817799
 30
0.0
 11
110.0338920205039983
 21
2.8710685311323672
 31
0.0
  0
LINE
  5
669A
  8
0
 10
110.0133770422745982
 20
2.8654479751059032
 30
0.0
 11
110.0129420565419025
 21
2.8669955804900069
 31
0.0
  0
LINE
  5
669B
  8
0
 10
110.0617308701820036
 20
2.8770433865351648
 30
0.0
 11
110.0613906715776977
 21
2.8784728662307559
 31
0.0
  0
LINE
  5
669C
  8
0
 10
110.0420458307985996
 20
2.872337324420835
 30
0.0
 11
110.0414267564869988
 21
2.8737332855909812
 31
0.0
  0
LINE
  5
669D
  8
0
 10
110.0895697198609042
 20
2.883829248491482
 30
0.0
 11
110.0892547557118064
 21
2.885305949909879
 31
0.0
  0
LINE
  5
669E
  8
0
 10
110.0977235301103008
 20
2.8875139629902349
 30
0.0
 11
110.0972991654566044
 21
2.888829990535617
 31
0.0
  0
LINE
  5
669F
  8
0
 10
110.1174085695579947
 20
2.894303324875851
 30
0.0
 11
110.116973877434404
 21
2.8955704960395581
 31
0.0
  0
LINE
  5
66A0
  8
0
 10
110.1255623797608934
 20
2.8963509337879301
 30
0.0
 11
110.1255623797608934
 21
2.8977671275137569
 31
0.0
  0
LINE
  5
66A1
  8
0
 10
110.1452474191608957
 20
2.90435558096428
 30
0.0
 11
110.144795149979501
 21
2.9054829285018018
 31
0.0
  0
LINE
  5
66A2
  8
0
 10
110.1534012294721947
 20
2.9087799594257522
 30
0.0
 11
110.1531308256427053
 21
2.9099972140127668
 31
0.0
  0
LINE
  5
66A3
  8
0
 10
110.1730862687867045
 20
2.917893383619476
 30
0.0
 11
110.1715137405383018
 21
2.9201257057804719
 31
0.0
  0
LINE
  5
66A4
  8
0
 10
110.181240079060899
 20
2.9241517625821181
 30
0.0
 11
110.181240079060899
 21
2.9288764153606208
 31
0.0
  0
LINE
  5
66A5
  8
0
 10
110.2009251184609013
 20
2.9344647488831632
 30
0.0
 11
110.2009251184609013
 21
2.9391165278403451
 31
0.0
  0
ARC
  5
66A6
  8
0
 10
110.1594297235340036
 20
2.8881029366421291
 30
0.0
 40
0.0739900101746277
 50
30.3581519017742885
 51
58.7690581634585882
  0
ARC
  5
66A7
  8
0
 10
109.5542620449951983
 20
3.6245289772066491
 30
0.0
 40
0.6014882395335992
 50
197.2443120366490916
 51
228.0383699084304965
  0
ARC
  5
66A8
  8
0
 10
109.7364821095747942
 20
3.827177611991841
 30
0.0
 40
0.8740146072775461
 50
228.0383699084304112
 51
249.8069576132990051
  0
ARC
  5
66A9
  8
0
 10
109.9126941021372943
 20
4.2881919837137561
 30
0.0
 40
0.1259842519999983
 50
90.0003335624669631
 51
180.0000000000007105
  0
ARC
  5
66AA
  8
0
 10
109.9199310863014034
 20
4.2726553544451429
 30
0.0
 40
0.1341241388196427
 50
173.3480564206780912
 51
221.9705393152356123
  0
ARC
  5
66AB
  8
0
 10
109.9127076344181972
 20
4.2685308375684707
 30
0.0
 40
0.1260076690933382
 50
222.7727212156684118
 51
269.9904820764814986
  0
LINE
  5
66AC
  8
0
 10
110.9056939823372971
 20
-7.631099354886242
 30
0.0
 11
110.9056933478716047
 21
1.535385453017065
 31
0.0
  0
ARC
  5
66AD
  8
0
 10
14509.3727240158405039
 20
2.590128560327714
 30
0.0
 40
14398.4670692999607127
 50
179.9958357832454112
 51
180.0041971362840911
  0
ARC
  5
66AE
  8
0
 10
110.8695183644140059
 20
3.631893470163662
 30
0.0
 40
0.0364791374281894
 50
7.4113178972938911
 51
83.1730255681429327
  0
ARC
  5
66AF
  8
0
 10
109.9126451327883984
 20
-26.3862458352671716
 30
0.0
 40
31.5012094725189904
 50
88.2435825453864879
 51
89.99991093113033
  0
ARC
  5
66B0
  8
0
 10
110.8790158684627016
 20
5.0805314084735871
 30
0.0
 40
0.0196499617409216
 50
359.7422916607806087
 51
92.4616240275107231
  0
ARC
  5
66B1
  8
0
 10
-40090.6367373793109437
 20
4.4128072256835811
 30
0.0
 40
40201.535405529270065
 50
359.9991237714077101
 51
0.0009520163233104
  0
ARC
  5
66B2
  8
0
 10
110.860238709368403
 20
3.7965459493225691
 30
0.0
 40
0.0384523235831777
 50
333.1201852916531152
 51
2.1703602319396502
  0
ARC
  5
66B3
  8
0
 10
110.8889841385495032
 20
3.7832905556784282
 30
0.0
 40
0.0069197773662653
 50
273.1062186889546979
 51
323.3592835289097138
  0
ARC
  5
66B4
  8
0
 10
110.5109151070714972
 20
3.6694486159380029
 30
0.0
 40
0.3151676521800409
 50
359.757365898522778
 51
11.2900238552579104
  0
ARC
  5
66B5
  8
0
 10
109.9126943241869014
 20
3.5500030600737822
 30
0.0
 40
0.9251966234508042
 50
11.2910904647967705
 51
14.1629517724424492
  0
ARC
  5
66B6
  8
0
 10
110.8486368398976936
 20
3.2921586522097122
 30
0.0
 40
0.1540914851895606
 50
85.8721129660561076
 51
91.1376588507628611
  0
ARC
  5
66B7
  8
0
 10
110.8581274228476019
 20
3.4337221126597921
 30
0.0
 40
0.0122335531813109
 50
34.8825657207402671
 51
82.4784038020919752
  0
ARC
  5
66B8
  8
0
 10
110.7590973996384065
 20
3.38130848701344
 30
0.0
 40
0.1241967416264567
 50
4.5466873902727967
 51
28.5779233153776602
  0
ARC
  5
66B9
  8
0
 10
108.2611161239888986
 20
3.1107015419652391
 30
0.0
 40
2.6367444785715142
 50
0.9870149789838043
 51
6.1057036146341677
  0
ARC
  5
66BA
  8
0
 10
-64.3235773990966351
 20
-0.5740259840792499
 30
0.0
 40
175.2607464139472029
 50
1.0865496224766551
 51
1.2195420626371349
  0
ARC
  5
66BB
  8
0
 10
110.2711233151270989
 20
3.6245313939420161
 30
0.0
 40
0.6014919392303676
 50
311.9616777218773223
 51
342.755559132678286
  0
ARC
  5
66BC
  8
0
 10
110.0889060960998052
 20
3.827177611991841
 30
0.0
 40
0.8740146072775461
 50
290.193042284937917
 51
311.9616300915695888
  0
ARC
  5
66BD
  8
0
 10
109.9126941035374045
 20
4.2881919837137561
 30
0.0
 40
0.1259842519999983
 50
359.9999999999992042
 51
89.9996664375330369
  0
ARC
  5
66BE
  8
0
 10
109.9054571193732954
 20
4.2726553544451429
 30
0.0
 40
0.1341241388196427
 50
318.0294606847643877
 51
6.6519435793218467
  0
ARC
  5
66BF
  8
0
 10
109.9126805712564021
 20
4.2685308375684707
 30
0.0
 40
0.1260076690933382
 50
270.0095179235185014
 51
317.2272787843315882
  0
ARC
  5
66C0
  8
0
 10
110.9738472171979993
 20
-5.640610259023787
 30
0.0
 40
0.5167887125391415
 50
90.6884750699820614
 51
97.5781669830105187
  0
ARC
  5
66C1
  8
0
 10
111.1533016899696946
 20
-20.5743231601306995
 30
0.0
 40
15.4515798031598806
 50
89.3772408230795747
 51
90.6884750699820614
  0
ARC
  5
66C2
  8
0
 10
111.3178061409363977
 20
-5.4399984855510262
 30
0.0
 40
0.3163611040469123
 50
82.7749144095997451
 51
89.3772408230795747
  0
ARC
  5
66C3
  8
0
 10
111.354280952988006
 20
-5.1776885914730846
 30
0.0
 40
0.051645600457019
 50
52.6693698066823686
 51
86.321841207334856
  0
ARC
  5
66C4
  8
0
 10
111.3596383680948065
 20
-5.1609163913764604
 30
0.0
 40
0.0355551676640393
 50
6.3414390172612229
 51
43.099679780951007
  0
ARC
  5
66C5
  8
0
 10
111.0277860801563037
 20
-5.2042303145138442
 30
0.0
 40
0.3702163535435757
 50
352.3671068411537135
 51
7.3311610212222789
  0
ARC
  5
66C6
  8
0
 10
111.3556003940254016
 20
-5.2470229204288401
 30
0.0
 40
0.0396387802307226
 50
326.0192370081281865
 51
350.7355053002846148
  0
ARC
  5
66C7
  8
0
 10
111.3629082864053004
 20
-5.2478997734920831
 30
0.0
 40
0.0332586984616801
 50
284.7022661393646104
 51
320.2255095931369056
  0
ARC
  5
66C8
  8
0
 10
111.3268555410131029
 20
-5.0892380786107054
 30
0.0
 40
0.195949792087046
 50
271.034355056026925
 51
283.1244386036174205
  0
ARC
  5
66C9
  8
0
 10
111.2758581139478054
 20
-18.1486670817230902
 30
0.0
 40
12.8636267399562492
 50
89.7570967030566749
 51
90.9879235111689297
  0
ARC
  5
66CA
  8
0
 10
111.0589978472996933
 20
-5.8031080108801154
 30
0.0
 40
0.5161790540850743
 50
90.5472439642918374
 51
99.0827367983562368
  0
ARC
  5
66CB
  8
0
 10
110.9891760957105049
 20
-5.3663536445402826
 30
0.0
 40
0.0738788692423715
 50
99.0827367983562368
 51
134.2952596641289915
  0
ARC
  5
66CC
  8
0
 10
111.0093373721928032
 20
-5.387017092054303
 30
0.0
 40
0.1027484922492734
 50
134.2952596641289915
 51
154.3908824452261968
  0
ARC
  5
66CD
  8
0
 10
111.1589985616033971
 20
-5.4636822306220063
 30
0.0
 40
0.2708809313745906
 50
153.4504592911370935
 51
159.2466804825926943
  0
LINE
  5
66CE
  8
0
 10
108.9798110838565037
 20
3.4462197343137269
 30
0.0
 11
110.8455774011373052
 21
3.4462197626137558
 31
0.0
  0
ARC
  5
66CF
  8
0
 10
110.8805033375406026
 20
121.6438311681309017
 30
0.0
 40
116.6072234845883031
 50
269.2838406723323033
 51
269.5244543040814165
  0
ARC
  5
66D0
  8
0
 10
109.1957338733495959
 20
-13.1394014840205298
 30
0.0
 40
18.1865384345520411
 50
89.2839020710894431
 51
90.3187776035737073
  0
ARC
  5
66D1
  8
0
 10
109.0991045602095966
 20
4.2281758836976957
 30
0.0
 40
0.8186922569790631
 50
90.3187776035728689
 51
96.4868486871046827
  0
ARC
  5
66D2
  8
0
 10
109.0150752238288021
 20
4.9672000231446036
 30
0.0
 40
0.074906260836468
 50
96.4868486871046827
 51
117.499247266934205
  0
ARC
  5
66D3
  8
0
 10
109.0052114649984958
 20
4.9980792860547272
 30
0.0
 40
0.0433131157323133
 50
124.8061983845829985
 51
157.7143170531400074
  0
ARC
  5
66D4
  8
0
 10
109.1762260757301988
 20
4.9311869525117853
 30
0.0
 40
0.2269402167146326
 50
158.4609525664828027
 51
173.6738141455014102
  0
ARC
  5
66D5
  8
0
 10
111.0321457765162023
 20
4.70765608769688
 30
0.0
 40
2.09626367358476
 50
173.1908848285490876
 51
178.2624406836555124
  0
ARC
  5
66D6
  8
0
 10
100.0153448788481967
 20
4.9495437321318869
 30
0.0
 40
8.9232831288814918
 50
357.0396121487189021
 51
358.8549060918247733
  0
ARC
  5
66D7
  8
0
 10
109.1495322232703984
 20
5.0506180774664973
 30
0.0
 40
0.055111248021346
 50
183.9147980328066865
 51
235.364785697176103
  0
ARC
  5
66D8
  8
0
 10
109.3190923132916055
 20
5.2960865148317149
 30
0.0
 40
0.3534489390201511
 50
235.364785697176103
 51
256.8687904562842164
  0
ARC
  5
66D9
  8
0
 10
109.6538805889416039
 20
6.4736791352415866
 30
0.0
 40
1.577393504728035
 50
254.7431585291556075
 51
262.48410217344491
  0
ARC
  5
66DA
  8
0
 10
109.8209833341844046
 20
7.5743384121711488
 30
0.0
 40
2.6905413432253851
 50
262.0220016241779035
 51
265.6602517593769903
  0
ARC
  5
66DB
  8
0
 10
109.9123831967912963
 20
8.6628580832598132
 30
0.0
 40
3.7828665319621591
 50
265.5274354402578183
 51
270.004697903139288
  0
ARC
  5
66DC
  8
0
 10
108.9449165095300032
 20
121.6410677513515992
 30
0.0
 40
116.6044598881890977
 50
270.475540697270219
 51
270.7161607531562026
  0
ARC
  5
66DD
  8
0
 10
110.6296543323251029
 20
-13.1394014840205298
 30
0.0
 40
18.1865384345520411
 50
89.6812223964263069
 51
90.7160979289105853
  0
ARC
  5
66DE
  8
0
 10
110.7262836454651023
 20
4.2281758836976957
 30
0.0
 40
0.8186922569790631
 50
83.5131513128953458
 51
89.6812223964263069
  0
ARC
  5
66DF
  8
0
 10
110.8103129818457973
 20
4.9672000231446036
 30
0.0
 40
0.074906260836468
 50
62.5007527330657311
 51
83.5131513128953458
  0
ARC
  5
66E0
  8
0
 10
110.8201767406762031
 20
4.9980792860547272
 30
0.0
 40
0.0433131157323133
 50
22.2856829468599784
 51
55.1938016154170228
  0
ARC
  5
66E1
  8
0
 10
110.6491621299444006
 20
4.9311869525117853
 30
0.0
 40
0.2269402167146326
 50
6.3261858544986689
 51
21.5390474335171191
  0
ARC
  5
66E2
  8
0
 10
108.7932424291584965
 20
4.70765608769688
 30
0.0
 40
2.09626367358476
 50
1.7375593163445311
 51
6.8091151714508333
  0
ARC
  5
66E3
  8
0
 10
119.8100433268265022
 20
4.9495437321318869
 30
0.0
 40
8.9232831288814918
 50
181.1450939081751983
 51
182.9603348195676915
  0
ARC
  5
66E4
  8
0
 10
110.675855982404201
 20
5.0506180774664973
 30
0.0
 40
0.055111248021346
 50
304.6352143028237833
 51
356.0852019671930861
  0
ARC
  5
66E5
  8
0
 10
110.5062958923830934
 20
5.2960865148317149
 30
0.0
 40
0.3534489390201511
 50
283.1312095437158973
 51
304.6352143028237833
  0
ARC
  5
66E6
  8
0
 10
110.1715076167329954
 20
6.4736791352415866
 30
0.0
 40
1.577393504728035
 50
277.5158978265542942
 51
285.2568414708443925
  0
ARC
  5
66E7
  8
0
 10
110.0044048714901948
 20
7.5743384121711488
 30
0.0
 40
2.6905413432253851
 50
274.3397482406230097
 51
277.9779983758220965
  0
ARC
  5
66E8
  8
0
 10
109.9130050042582951
 20
8.6628581621956773
 30
0.0
 40
3.7828666110183171
 50
269.9952799279365081
 51
274.4725645363483864
  0
ENDSEC
  0
EOF
