  0
SECTION
  2
HEADER
  9
$ACADVER
  1
AC1009
  9
$INSBASE
 10
8170.4509261596358556
 20
2137.7090061642570618
 30
0.0
  9
$EXTMIN
 10
8160.9890450219154445
 20
2137.5782866731251488
 30
-0.0015258207003583
  9
$EXTMAX
 10
8177.8343410461593521
 20
2174.2368907749960272
 30
0.0000000349246037
  9
$LIMMIN
 10
0.0
 20
0.0
  9
$LIMMAX
 10
11.6929133858000007
 20
8.2677165353999982
  9
$ORTHOMODE
 70
     0
  9
$REGENMODE
 70
     1
  9
$FILLMODE
 70
     1
  9
$QTEXTMODE
 70
     0
  9
$MIRRTEXT
 70
     0
  9
$DRAGMODE
 70
     2
  9
$LTSCALE
 40
0.6431102362
  9
$OSMODE
 70
  4063
  9
$ATTMODE
 70
     1
  9
$TEXTSIZE
 40
0.2
  9
$TRACEWID
 40
0.05
  9
$TEXTSTYLE
  7
STANDARD
  9
$CLAYER
  8
0
  9
$CELTYPE
  6
BYLAYER
  9
$CECOLOR
 62
   256
  9
$DIMSCALE
 40
1.0
  9
$DIMASZ
 40
0.1875
  9
$DIMEXO
 40
0.0625
  9
$DIMDLI
 40
0.4443307087
  9
$DIMRND
 40
0.0
  9
$DIMDLE
 40
0.0
  9
$DIMEXE
 40
0.125
  9
$DIMTP
 40
0.01
  9
$DIMTM
 40
0.01
  9
$DIMTXT
 40
2.0
  9
$DIMCEN
 40
0.1052362205
  9
$DIMTSZ
 40
0.0
  9
$DIMTOL
 70
     1
  9
$DIMLIM
 70
     0
  9
$DIMTIH
 70
     1
  9
$DIMTOH
 70
     1
  9
$DIMSE1
 70
     0
  9
$DIMSE2
 70
     0
  9
$DIMTAD
 70
     0
  9
$DIMZIN
 70
     0
  9
$DIMBLK
  1

  9
$DIMASO
 70
     1
  9
$DIMSHO
 70
     1
  9
$DIMPOST
  1
\X
  9
$DIMAPOST
  1

  9
$DIMALT
 70
     1
  9
$DIMALTD
 70
     2
  9
$DIMALTF
 40
25.3999999999999986
  9
$DIMLFAC
 40
1.0
  9
$DIMTOFL
 70
     0
  9
$DIMTVP
 40
0.0
  9
$DIMTIX
 70
     0
  9
$DIMSOXD
 70
     0
  9
$DIMSAH
 70
     0
  9
$DIMBLK1
  1

  9
$DIMBLK2
  1

  9
$DIMSTYLE
  2
STANDARD
  9
$DIMCLRD
 70
     0
  9
$DIMCLRE
 70
     0
  9
$DIMCLRT
 70
     0
  9
$DIMTFAC
 40
1.0
  9
$DIMGAP
 40
0.09
  9
$LUNITS
 70
     2
  9
$LUPREC
 70
     4
  9
$SKETCHINC
 40
0.1
  9
$FILLETRAD
 40
0.0
  9
$AUNITS
 70
     0
  9
$AUPREC
 70
     0
  9
$MENU
  1
.
  9
$ELEVATION
 40
0.0
  9
$PELEVATION
 40
0.0
  9
$THICKNESS
 40
0.0
  9
$LIMCHECK
 70
     0
  9
$BLIPMODE
 70
     0
  9
$CHAMFERA
 40
0.0
  9
$CHAMFERB
 40
0.0
  9
$SKPOLY
 70
     0
  9
$TDCREATE
 40
2458060.468368056230247
  9
$TDUPDATE
 40
2459479.6223495369777083
  9
$TDINDWG
 40
0.4220788194
  9
$TDUSRTIMER
 40
0.4220788194
  9
$USRTIMER
 70
     1
  9
$ANGBASE
 50
0.0
  9
$ANGDIR
 70
     0
  9
$PDMODE
 70
     0
  9
$PDSIZE
 40
0.3125
  9
$PLINEWID
 40
0.0
  9
$COORDS
 70
     1
  9
$SPLFRAME
 70
     0
  9
$SPLINETYPE
 70
     6
  9
$SPLINESEGS
 70
     8
  9
$ATTDIA
 70
     1
  9
$ATTREQ
 70
     1
  9
$HANDLING
 70
     1
  9
$HANDSEED
  5
1225A
  9
$SURFTAB1
 70
     6
  9
$SURFTAB2
 70
     6
  9
$SURFTYPE
 70
     6
  9
$SURFU
 70
     6
  9
$SURFV
 70
     6
  9
$UCSNAME
  2

  9
$UCSORG
 10
0.0
 20
0.0
 30
0.0
  9
$UCSXDIR
 10
1.0
 20
0.0
 30
0.0
  9
$UCSYDIR
 10
0.0
 20
1.0
 30
0.0
  9
$PUCSNAME
  2

  9
$PUCSORG
 10
0.0
 20
0.0
 30
0.0
  9
$PUCSXDIR
 10
1.0
 20
0.0
 30
0.0
  9
$PUCSYDIR
 10
0.0
 20
1.0
 30
0.0
  9
$USERI1
 70
     0
  9
$USERI2
 70
     0
  9
$USERI3
 70
     0
  9
$USERI4
 70
     0
  9
$USERI5
 70
     0
  9
$USERR1
 40
0.0
  9
$USERR2
 40
0.0
  9
$USERR3
 40
0.0
  9
$USERR4
 40
0.0
  9
$USERR5
 40
0.0
  9
$WORLDVIEW
 70
     1
  9
$SHADEDGE
 70
     3
  9
$SHADEDIF
 70
    70
  9
$TILEMODE
 70
     1
  9
$MAXACTVP
 70
    64
  9
$PLIMCHECK
 70
     0
  9
$PEXTMIN
 10
1.0000000000000000E+20
 20
1.0000000000000000E+20
 30
1.0000000000000000E+20
  9
$PEXTMAX
 10
-1.0000000000000000E+20
 20
-1.0000000000000000E+20
 30
-1.0000000000000000E+20
  9
$PLIMMIN
 10
0.0
 20
0.0
  9
$PLIMMAX
 10
12.0
 20
9.0
  9
$UNITMODE
 70
     0
  9
$VISRETAIN
 70
     1
  9
$PLINEGEN
 70
     0
  9
$PSLTSCALE
 70
     1
  0
ENDSEC
  0
SECTION
  2
TABLES
  0
TABLE
  2
VPORT
 70
     1
  0
VPORT
  2
*ACTIVE
 70
     0
 10
0.0
 20
0.0
 11
1.0
 21
1.0
 12
3354.1133531902878531
 22
1908.0989644564820082
 13
0.0
 23
0.0
 14
1.0
 24
1.0
 15
0.0
 25
0.0
 16
0.0
 26
0.0
 36
9.5192988075487186
 17
4815.2983398437490905
 27
247.8086242675780966
 37
0.0
 40
36.9356212613306525
 41
2.0416141235813359
 42
50.0
 43
0.0
 44
0.0
 50
0.0
 51
0.0
 71
     0
 72
   100
 73
     1
 74
     1
 75
     0
 76
     0
 77
     0
 78
     0
  0
ENDTAB
  0
TABLE
  2
LTYPE
 70
     2
  0
LTYPE
  2
CONTINUOUS
 70
     0
  3
Solid line
 72
    65
 73
     0
 40
0.0
  0
LTYPE
  2
PHANTOM2
 70
     0
  3
___ _ _ ___ _ _ ___ _ _ ___ _ _
 72
    65
 73
     6
 40
1.25
 49
0.625
 49
-0.125
 49
0.125
 49
-0.125
 49
0.125
 49
-0.125
  0
ENDTAB
  0
TABLE
  2
LAYER
 70
     2
  0
LAYER
  2
0
 70
     0
 62
   255
  6
CONTINUOUS
  0
LAYER
  2
DEFPOINTS
 70
     0
 62
     7
  6
CONTINUOUS
  0
ENDTAB
  0
TABLE
  2
STYLE
 70
     1
  0
STYLE
  2
STANDARD
 70
     0
 40
0.0
 41
0.8
 50
0.0
 71
     0
 42
0.2
  3
txt
  4

  0
ENDTAB
  0
TABLE
  2
VIEW
 70
     0
  0
ENDTAB
  0
TABLE
  2
UCS
 70
     0
  0
ENDTAB
  0
TABLE
  2
APPID
 70
    10
  0
APPID
  2
ACAD
 70
     0
  0
APPID
  2
ACAD_MLEADERVER
 70
     0
  0
APPID
  2
ACAD_EXEMPT_FROM_CAD_STANDARDS
 70
     0
  0
APPID
  2
ACAD_NAV_VCDISPLAY
 70
     0
  0
APPID
  2
ACAECLAYERSTANDARD
 70
     0
  0
APPID
  2
ACCMTRANSPARENCY
 70
     0
  0
APPID
  2
ACAD_DSTYLE_DIMJAG
 70
     0
  0
APPID
  2
ACAD_DSTYLE_DIMTALN
 70
     0
  0
APPID
  2
ACDBATTR
 70
     0
  0
APPID
  2
ACADANNOTATIVE
 70
     0
  0
ENDTAB
  0
TABLE
  2
DIMSTYLE
 70
     1
  0
DIMSTYLE
  2
STANDARD
 70
     0
  3

  4

  5

  6

  7

 40
1.0
 41
0.1875
 42
0.0625
 43
0.38
 44
0.125
 45
0.0
 46
0.0
 47
0.01
 48
0.01
140
0.15625
141
0.09
142
0.0
143
25.3999999999999986
144
1.0
145
0.0
146
1.0
147
0.09
 71
     1
 72
     0
 73
     1
 74
     1
 75
     0
 76
     0
 77
     0
 78
     4
170
     0
171
     2
172
     0
173
     0
174
     0
175
     0
176
     0
177
     0
178
     0
  0
ENDTAB
  0
ENDSEC
  0
SECTION
  2
BLOCKS
  0
BLOCK
  8
0
  2
$MODEL_SPACE
 70
     0
 10
0.0
 20
0.0
 30
0.0
  3
$MODEL_SPACE
  1

  0
ENDBLK
  5
21
  8
0
  0
BLOCK
 67
     1
  8
0
  2
$PAPER_SPACE
 70
     0
 10
0.0
 20
0.0
 30
0.0
  3
$PAPER_SPACE
  1

  0
ENDBLK
  5
1D
 67
     1
  8
0
  0
BLOCK
  8
0
  2
_FILLED
 70
     0
 10
0.0
 20
0.0
 30
0.0
  3
_FILLED
  1

  0
SOLID
  5
11D5A
  8
0
  6
BYBLOCK
 62
     0
 10
0.0
 20
0.0
 30
0.0
 11
-1.0
 21
0.1666666667
 31
0.0
 12
-1.0
 22
-0.1666666667
 32
0.0
 13
-1.0
 23
-0.1666666667
 33
0.0
  0
ENDBLK
  5
11D5B
  8
0
  6
BYBLOCK
 62
     0
  0
ENDSEC
  0
SECTION
  2
ENTITIES
  0
ATTDEF
  5
3930
  8
DEFPOINTS
 10
8170.4513478157759891
 20
2137.7077696431160803
 30
0.0
 40
0.001
  1
K-98614T-B4
  3

  2
MODELNUMBER
 70
     0
1001
ACDBATTR
1070
     0
1070
     1
  0
ATTDEF
  5
3931
  8
DEFPOINTS
 10
8170.4513478157759891
 20
2137.706102976449074
 30
0.0
 40
0.001
  1
JULY
  3

  2
TRADENAME
 70
     0
1001
ACDBATTR
1070
     0
1070
     1
  0
ATTDEF
  5
3932
  8
DEFPOINTS
 10
8170.4513478157759891
 20
2137.7044363097829773
 30
0.0
 40
0.001
  1
BATH FILLER
  3

  2
PRODUCT
 70
     0
1001
ACDBATTR
1070
     0
1070
     1
  0
LINE
  5
11F9C
  8
0
 10
8169.452886929451779
 20
2172.7365652193570895
 30
0.0
 11
8170.4768535925386459
 21
2172.7365652193570895
 31
0.0
  0
LINE
  5
11F9D
  8
0
 10
8169.4187269646536151
 20
2172.6302634666571976
 30
0.0
 11
8171.533532354746967
 21
2172.6302634666571976
 31
0.0
  0
LINE
  5
11F9E
  8
0
 10
8170.6036162006294035
 20
2174.1705352936160125
 30
0.0
 11
8168.9854382641506163
 21
2174.1705352936160125
 31
0.0
  0
ARC
  5
11F9F
  8
0
 10
8170.596636572897296
 20
2166.698629931495816
 30
0.0
 40
7.4719086220108286
 50
83.0343075482547732
 51
89.9464791005918158
  0
ARC
  5
11FA0
  8
0
 10
8167.3282170164429772
 20
2290.5915240813510536
 30
0.0
 40
116.4327832381319041
 50
269.8492445855800952
 51
270.8155348249342751
  0
ARC
  5
11FA1
  8
0
 10
8167.0037723878631368
 20
2171.2064925083532216
 30
0.0
 40
2.9527067852870008
 50
89.6489789778865855
 51
99.5579986172355262
  0
ARC
  5
11FA2
  8
0
 10
8166.5213128747700466
 20
2174.0796134673291817
 30
0.0
 40
0.0393817216272334
 50
101.4612608844346937
 51
211.229455476730891
  0
ARC
  5
11FA3
  8
0
 10
8166.7439031967533083
 20
2174.2386644318848994
 30
0.0
 40
0.3128596799534787
 50
215.0045015852788879
 51
264.1188524339120249
  0
ARC
  5
11FA4
  8
0
 10
8166.9518532249348937
 20
2176.0339092828739922
 30
0.0
 40
2.120086800227396
 50
263.4998196573739051
 51
271.9239743699254745
  0
ARC
  5
11FA5
  8
0
 10
8167.3587434917017163
 20
2170.9852071233699462
 30
0.0
 40
2.9489815614132642
 50
89.5735598888522446
 51
96.5367173180573559
  0
ARC
  5
11FA6
  8
0
 10
8167.7301436355692204
 20
2141.6349845033719248
 30
0.0
 40
32.3010128466613011
 50
87.9044179404373835
 51
90.6198721701701544
  0
ARC
  5
11FA7
  8
0
 10
8168.767769098512872
 20
2173.5155294779988253
 30
0.0
 40
0.6554950005871718
 50
358.3420765794210183
 51
19.5838168935061105
  0
ARC
  5
11FA8
  8
0
 10
8169.0851612500700867
 20
2173.5628602861361287
 30
0.0
 40
0.3461586001420093
 50
29.8667404925605915
 51
87.579549944038277
  0
ARC
  5
11FA9
  8
0
 10
8168.9533851031610538
 20
2172.1824996891559749
 30
0.0
 40
1.732406929185843
 50
85.1525000612601559
 51
91.3925587539048507
  0
ARC
  5
11FAA
  8
0
 10
8170.8423521880649787
 20
2029.0221586301549905
 30
0.0
 40
145.0558157427913102
 50
89.7254683676648597
 51
90.7345996856157768
  0
ARC
  5
11FAB
  8
0
 10
8168.8959824491266772
 20
1751.6657130473558937
 30
0.0
 40
422.4003480375492927
 50
89.9882487014514254
 51
90.3266776196287537
  0
ARC
  5
11FAC
  8
0
 10
8171.4980202558599558
 20
2174.0763132765168848
 30
0.0
 40
0.0393614413944985
 50
359.994152637792979
 51
83.0704878832010394
  0
LINE
  5
11FAD
  8
0
 10
8169.4229942885513083
 20
2172.775934535657143
 30
0.0
 11
8169.421315149151269
 21
2173.490502227091838
 31
0.0
  0
ARC
  5
11FAE
  8
0
 10
8169.4331016448386436
 20
2173.4905090022671175
 30
0.0
 40
0.0117864976361926
 50
149.0845855712734078
 51
180.03293473962691
  0
ARC
  5
11FAF
  8
0
 10
8170.4415675038426343
 20
2173.7332053874010853
 30
0.0
 40
0.997264625169281
 50
272.0277126026746828
 51
295.0451289005537774
  0
LINE
  5
11FB0
  8
0
 10
8170.8637415141938618
 20
2172.8297089360530663
 30
0.0
 11
8171.5110617753389306
 21
2173.1339617679468574
 31
0.0
  0
ARC
  5
11FB1
  8
0
 10
8171.4806341688617977
 20
2173.1819561830648126
 30
0.0
 40
0.0568269576740197
 50
302.3739712443233998
 51
356.9702841527845862
  0
ARC
  5
11FB2
  8
0
 10
8171.4806341688617977
 20
2173.1819561830648126
 30
0.0
 40
0.0568269576740206
 50
3.0297158472154129
 51
3.0388985697854181
  0
ARC
  5
11FB3
  8
0
 10
8170.7076324322997607
 20
2172.6301857631501662
 30
0.0
 40
0.8689945092083315
 50
172.9684011208408947
 51
179.9948767420947888
  0
ARC
  5
11FB4
  8
0
 10
8170.5945435008497952
 20
2172.6303606480569215
 30
0.0
 40
0.8661417323000447
 50
359.9935713938345998
 51
29.5381851436362197
  0
ARC
  5
11FB5
  8
0
 10
8168.9540796038318149
 20
2172.2555163304518828
 30
0.0
 40
0.4716529225763948
 50
275.684304047838225
 51
0.6935246120288299
  0
LINE
  5
11FB6
  8
0
 10
8169.4256979750016399
 20
2172.2612252138201256
 30
0.0
 11
8169.4187269646536151
 21
2172.6302634666571976
 31
0.0
  0
ARC
  5
11FB7
  8
0
 10
8166.3924288968146357
 20
2172.5339566488200944
 30
0.0
 40
0.023622047312649
 50
101.6683993533370938
 51
198.5033210881811101
  0
ARC
  5
11FB8
  8
0
 10
8166.4670986023093064
 20
2172.5589455960721352
 30
0.0
 40
0.1023622048160404
 50
198.5033213471110116
 51
268.8467189557916868
  0
ARC
  5
11FB9
  8
0
 10
8166.6758934637946368
 20
2171.1613460792400474
 30
0.0
 40
1.4251968532167789
 50
90.0000000053152576
 51
101.6683994797107005
  0
ARC
  5
11FBA
  8
0
 10
8166.4632747974656013
 20
2172.3699588538411263
 30
0.0
 40
0.0866632185015572
 50
1.4772736687933441
 51
88.8339870485164624
  0
LINE
  5
11FBB
  8
0
 10
8166.5499092116642714
 20
2171.9448106490572172
 30
0.0
 11
8166.5499092116642714
 21
2172.3721930691290254
 31
0.0
  0
ARC
  5
11FBC
  8
0
 10
8166.5695890973329369
 20
2171.9448028116248679
 30
0.0
 40
0.0196798872313587
 50
179.9771821969846997
 51
269.0534910777441269
  0
LINE
  5
11FBD
  8
0
 10
8166.5971533061629088
 20
2171.7861826475132148
 30
0.0
 11
8166.5971533061629088
 21
2171.9251256096567886
 31
0.0
  0
LINE
  5
11FBE
  8
0
 10
8166.7546336211626112
 20
2171.8048655908341971
 30
0.0
 11
8166.7546336211626112
 21
2171.9251256096567886
 31
0.0
  0
LINE
  5
11FBF
  8
0
 10
8166.5692640063443832
 20
2171.9251256096567886
 30
0.0
 11
8166.7825229209820463
 21
2171.9251256096567886
 31
0.0
  0
ARC
  5
11FC0
  8
0
 10
8166.9593580305117939
 20
2172.5339566488200944
 30
0.0
 40
0.023622047312649
 50
341.4966789118187762
 51
78.331600646662892
  0
ARC
  5
11FC1
  8
0
 10
8166.8846883250162136
 20
2172.5589455960721352
 30
0.0
 40
0.1023622048160404
 50
271.1532810442083132
 51
341.4966786528888747
  0
ARC
  5
11FC2
  8
0
 10
8166.6758934635317928
 20
2171.1613460792400474
 30
0.0
 40
1.4251968532167789
 50
78.3316005202892853
 51
89.9999999946847566
  0
ARC
  5
11FC3
  8
0
 10
8166.8885121298580998
 20
2172.3699588538411263
 30
0.0
 40
0.0866632185015572
 50
91.1660129514835376
 51
178.5227263312065986
  0
LINE
  5
11FC4
  8
0
 10
8166.8018777156630676
 20
2171.9448106490572172
 30
0.0
 11
8166.8018777156630676
 21
2172.3721930691290254
 31
0.0
  0
ARC
  5
11FC5
  8
0
 10
8166.7821978299907641
 20
2171.9448028116248679
 30
0.0
 40
0.0196798872313587
 50
270.9465089222558731
 51
0.0228178030152806
  0
LINE
  5
11FC6
  8
0
 10
8166.7546336211626112
 20
2171.7861826475132148
 30
0.0
 11
8166.7546336211626112
 21
2171.9251256096567886
 31
0.0
  0
LINE
  5
11FC7
  8
0
 10
8166.4650383385360328
 20
2172.4566041270190908
 30
0.0
 11
8166.8867485887903968
 21
2172.4566041270190908
 31
0.0
  0
LINE
  5
11FC8
  8
0
 10
8161.6392731800497131
 20
2171.7861826475132148
 30
0.0
 11
8169.0007954837155921
 21
2171.7861826475132148
 31
0.0
  0
ARC
  5
11FC9
  8
0
 10
8161.68346253278105
 20
2168.3051212599589235
 30
0.0
 40
3.481341850898481
 50
90.7272860615075558
 51
99.9543118115292089
  0
ARC
  5
11FCA
  8
0
 10
8161.088645580971388
 20
2171.6952923908038429
 30
0.0
 40
0.0393853017520472
 50
100.2045949875658977
 51
178.871080541405405
  0
ARC
  5
11FCB
  8
0
 10
8161.3435969374113483
 20
2170.8589965693190607
 30
0.0
 40
0.2762827136376742
 50
187.5185803725698861
 51
221.5666531300797999
  0
ARC
  5
11FCC
  8
0
 10
8163.474946433752848
 20
2171.1370336241561745
 30
0.0
 40
2.4256905593101981
 50
180.1805957266689973
 51
187.4421552998778111
  0
LINE
  5
11FCD
  8
0
 10
8161.0492679240996949
 20
2171.6960683634329143
 30
0.0
 11
8161.0492679240996949
 21
2171.1293878843198399
 31
0.0
  0
LINE
  5
11FCE
  8
0
 10
8166.3973170963199664
 20
2169.4448106490572172
 30
0.0
 11
8166.3973170963199664
 21
2146.7931524111068029
 31
0.0
  0
LINE
  5
11FCF
  8
0
 10
8166.2046657591063195
 20
2170.5836346199262152
 30
0.0
 11
8166.2046657591063195
 21
2170.1062279225570819
 31
0.0
  0
LINE
  5
11FD0
  8
0
 10
8166.2046657591063195
 20
2170.1062279225570819
 30
0.0
 11
8166.2243507512048382
 21
2170.0865429324571778
 31
0.0
  0
LINE
  5
11FD1
  8
0
 10
8166.2243507512048382
 20
2170.0865429324571778
 30
0.0
 11
8167.1298626568050167
 21
2170.0865429324571778
 31
0.0
  0
ARC
  5
11FD2
  8
0
 10
8166.2459825141104375
 20
2170.074752881772838
 30
0.0
 40
0.0117908198735798
 50
90.6544623860438747
 51
179.0490459207273091
  0
LINE
  5
11FD3
  8
0
 10
8166.2341933182060529
 20
2169.4739486066619065
 30
0.0
 11
8166.2341933182060529
 21
2169.555046869455964
 31
0.0
  0
LINE
  5
11FD4
  8
0
 10
8166.2341933182060529
 20
2169.8503224600572139
 30
0.0
 11
8166.2341933182060529
 21
2170.0749485683231796
 31
0.0
  0
LINE
  5
11FD5
  8
0
 10
8166.2210695105050036
 20
2169.8503224600572139
 30
0.0
 11
8166.2210695105050036
 21
2169.555046869455964
 31
0.0
  0
LINE
  5
11FD6
  8
0
 10
8166.2210695105050036
 20
2169.555046869455964
 30
0.0
 11
8167.1331438975057608
 21
2169.555046869455964
 31
0.0
  0
LINE
  5
11FD7
  8
0
 10
8166.2210695105050036
 20
2169.8503224600572139
 30
0.0
 11
8167.1331438975057608
 21
2169.8503224600572139
 31
0.0
  0
LINE
  5
11FD8
  8
0
 10
8166.6550675709049756
 20
2169.555046869455964
 30
0.0
 11
8166.6550675709049756
 21
2169.8503224600572139
 31
0.0
  0
LINE
  5
11FD9
  8
0
 10
8166.6343593965048058
 20
2169.555046869455964
 30
0.0
 11
8166.6343593965048058
 21
2169.8503224600572139
 31
0.0
  0
LINE
  5
11FDA
  8
0
 10
8166.6111950781059932
 20
2169.555046869455964
 30
0.0
 11
8166.6111950781059932
 21
2169.8503224600572139
 31
0.0
  0
LINE
  5
11FDB
  8
0
 10
8166.5920112091062038
 20
2169.555046869455964
 30
0.0
 11
8166.5920112091062038
 21
2169.8503224600572139
 31
0.0
  0
LINE
  5
11FDC
  8
0
 10
8166.5679379844068535
 20
2169.555046869455964
 30
0.0
 11
8166.5679379844068535
 21
2169.8503224600572139
 31
0.0
  0
LINE
  5
11FDD
  8
0
 10
8166.5504575354052577
 20
2169.555046869455964
 30
0.0
 11
8166.5504575354052577
 21
2169.8503224600572139
 31
0.0
  0
LINE
  5
11FDE
  8
0
 10
8166.5257001696054431
 20
2169.555046869455964
 30
0.0
 11
8166.5257001696054431
 21
2169.8503224600572139
 31
0.0
  0
LINE
  5
11FDF
  8
0
 10
8166.5100863509069313
 20
2169.555046869455964
 30
0.0
 11
8166.5100863509069313
 21
2169.8503224600572139
 31
0.0
  0
LINE
  5
11FE0
  8
0
 10
8166.484875996806295
 20
2169.555046869455964
 30
0.0
 11
8166.484875996806295
 21
2169.8503224600572139
 31
0.0
  0
LINE
  5
11FE1
  8
0
 10
8166.4712745904062103
 20
2169.555046869455964
 30
0.0
 11
8166.4712745904062103
 21
2169.8503224600572139
 31
0.0
  0
LINE
  5
11FE2
  8
0
 10
8166.4458466304058675
 20
2169.555046869455964
 30
0.0
 11
8166.4458466304058675
 21
2169.8503224600572139
 31
0.0
  0
LINE
  5
11FE3
  8
0
 10
8166.4343846289048088
 20
2169.555046869455964
 30
0.0
 11
8166.4343846289048088
 21
2169.8503224600572139
 31
0.0
  0
LINE
  5
11FE4
  8
0
 10
8166.4089764769069006
 20
2169.555046869455964
 30
0.0
 11
8166.4089764769069006
 21
2169.8503224600572139
 31
0.0
  0
LINE
  5
11FE5
  8
0
 10
8166.3997608980071163
 20
2169.555046869455964
 30
0.0
 11
8166.3997608980071163
 21
2169.8503224600572139
 31
0.0
  0
LINE
  5
11FE6
  8
0
 10
8166.3746097832063242
 20
2169.555046869455964
 30
0.0
 11
8166.3746097832063242
 21
2169.8503224600572139
 31
0.0
  0
LINE
  5
11FE7
  8
0
 10
8166.3677266702070483
 20
2169.555046869455964
 30
0.0
 11
8166.3677266702070483
 21
2169.8503224600572139
 31
0.0
  0
LINE
  5
11FE8
  8
0
 10
8166.3430674217061096
 20
2169.555046869455964
 30
0.0
 11
8166.3430674217061096
 21
2169.8503224600572139
 31
0.0
  0
LINE
  5
11FE9
  8
0
 10
8166.3385810404060976
 20
2169.555046869455964
 30
0.0
 11
8166.3385810404060976
 21
2169.8503224600572139
 31
0.0
  0
LINE
  5
11FEA
  8
0
 10
8166.3146438949052026
 20
2169.555046869455964
 30
0.0
 11
8166.3146438949052026
 21
2169.8503224600572139
 31
0.0
  0
LINE
  5
11FEB
  8
0
 10
8166.3125961335063039
 20
2169.555046869455964
 30
0.0
 11
8166.3125961335063039
 21
2169.8503224600572139
 31
0.0
  0
LINE
  5
11FEC
  8
0
 10
8166.2896045858060461
 20
2169.555046869455964
 30
0.0
 11
8166.2896045858060461
 21
2169.8503224600572139
 31
0.0
  0
LINE
  5
11FED
  8
0
 10
8166.2681832795051378
 20
2169.555046869455964
 30
0.0
 11
8166.2681832795051378
 21
2169.8503224600572139
 31
0.0
  0
LINE
  5
11FEE
  8
0
 10
8166.2505799811060569
 20
2169.555046869455964
 30
0.0
 11
8166.2505799811060569
 21
2169.8503224600572139
 31
0.0
  0
LINE
  5
11FEF
  8
0
 10
8166.2369590477055681
 20
2169.555046869455964
 30
0.0
 11
8166.2369590477055681
 21
2169.8503224600572139
 31
0.0
  0
LINE
  5
11FF0
  8
0
 10
8166.2274476544071149
 20
2169.555046869455964
 30
0.0
 11
8166.2274476544071149
 21
2169.8503224600572139
 31
0.0
  0
ARC
  5
11FF1
  8
0
 10
8166.2637189315619253
 20
2169.4743384256830723
 30
0.0
 40
0.0295281865829151
 50
180.7564173787222046
 51
269.6980820478685246
  0
LINE
  5
11FF2
  8
0
 10
8166.2635633346153554
 20
2169.4448106490572172
 30
0.0
 11
8167.090650073397228
 21
2169.4448106490572172
 31
0.0
  0
LINE
  5
11FF3
  8
0
 10
8166.9568963116917075
 20
2169.4448106490572172
 30
0.0
 11
8166.9568963116917075
 21
2146.7931524111068029
 31
0.0
  0
LINE
  5
11FF4
  8
0
 10
8167.1495476489071734
 20
2170.5836346199262152
 30
0.0
 11
8167.1495476489071734
 21
2170.1062279225570819
 31
0.0
  0
LINE
  5
11FF5
  8
0
 10
8167.1495476489071734
 20
2170.1062279225570819
 30
0.0
 11
8167.1298626568050167
 21
2170.0865429324571778
 31
0.0
  0
ARC
  5
11FF6
  8
0
 10
8167.1082308939021459
 20
2170.074752881772838
 30
0.0
 40
0.0117908198735798
 50
0.9509540792727319
 51
89.3455376139561253
  0
LINE
  5
11FF7
  8
0
 10
8167.1200200898047115
 20
2169.4739486066619065
 30
0.0
 11
8167.1200200898047115
 21
2169.555046869455964
 31
0.0
  0
LINE
  5
11FF8
  8
0
 10
8167.1200200898047115
 20
2169.8503224600572139
 30
0.0
 11
8167.1200200898047115
 21
2170.0749485683231796
 31
0.0
  0
LINE
  5
11FF9
  8
0
 10
8167.1331438975057608
 20
2169.8503224600572139
 30
0.0
 11
8167.1331438975057608
 21
2169.555046869455964
 31
0.0
  0
LINE
  5
11FFA
  8
0
 10
8166.6991458371048793
 20
2169.555046869455964
 30
0.0
 11
8166.6991458371048793
 21
2169.8503224600572139
 31
0.0
  0
LINE
  5
11FFB
  8
0
 10
8166.7198540115068681
 20
2169.555046869455964
 30
0.0
 11
8166.7198540115068681
 21
2169.8503224600572139
 31
0.0
  0
LINE
  5
11FFC
  8
0
 10
8166.7430183299056807
 20
2169.555046869455964
 30
0.0
 11
8166.7430183299056807
 21
2169.8503224600572139
 31
0.0
  0
LINE
  5
11FFD
  8
0
 10
8166.7622021989063796
 20
2169.555046869455964
 30
0.0
 11
8166.7622021989063796
 21
2169.8503224600572139
 31
0.0
  0
LINE
  5
11FFE
  8
0
 10
8166.7862754236048204
 20
2169.555046869455964
 30
0.0
 11
8166.7862754236048204
 21
2169.8503224600572139
 31
0.0
  0
LINE
  5
11FFF
  8
0
 10
8166.8037558726045972
 20
2169.555046869455964
 30
0.0
 11
8166.8037558726045972
 21
2169.8503224600572139
 31
0.0
  0
LINE
  5
12000
  8
0
 10
8166.8285132384071403
 20
2169.555046869455964
 30
0.0
 11
8166.8285132384071403
 21
2169.8503224600572139
 31
0.0
  0
LINE
  5
12001
  8
0
 10
8166.8441270571047426
 20
2169.555046869455964
 30
0.0
 11
8166.8441270571047426
 21
2169.8503224600572139
 31
0.0
  0
LINE
  5
12002
  8
0
 10
8166.8693374112062884
 20
2169.555046869455964
 30
0.0
 11
8166.8693374112062884
 21
2169.8503224600572139
 31
0.0
  0
LINE
  5
12003
  8
0
 10
8166.882938817606373
 20
2169.555046869455964
 30
0.0
 11
8166.882938817606373
 21
2169.8503224600572139
 31
0.0
  0
LINE
  5
12004
  8
0
 10
8166.9083667776058064
 20
2169.555046869455964
 30
0.0
 11
8166.9083667776058064
 21
2169.8503224600572139
 31
0.0
  0
LINE
  5
12005
  8
0
 10
8166.9198287791050461
 20
2169.555046869455964
 30
0.0
 11
8166.9198287791050461
 21
2169.8503224600572139
 31
0.0
  0
LINE
  5
12006
  8
0
 10
8166.9452369311047732
 20
2169.555046869455964
 30
0.0
 11
8166.9452369311047732
 21
2169.8503224600572139
 31
0.0
  0
LINE
  5
12007
  8
0
 10
8166.9544525100045576
 20
2169.555046869455964
 30
0.0
 11
8166.9544525100045576
 21
2169.8503224600572139
 31
0.0
  0
LINE
  5
12008
  8
0
 10
8166.9796036248062592
 20
2169.555046869455964
 30
0.0
 11
8166.9796036248062592
 21
2169.8503224600572139
 31
0.0
  0
LINE
  5
12009
  8
0
 10
8166.9864867378046256
 20
2169.555046869455964
 30
0.0
 11
8166.9864867378046256
 21
2169.8503224600572139
 31
0.0
  0
LINE
  5
1200A
  8
0
 10
8167.0111459863055643
 20
2169.555046869455964
 30
0.0
 11
8167.0111459863055643
 21
2169.8503224600572139
 31
0.0
  0
LINE
  5
1200B
  8
0
 10
8167.0156323676055763
 20
2169.555046869455964
 30
0.0
 11
8167.0156323676055763
 21
2169.8503224600572139
 31
0.0
  0
LINE
  5
1200C
  8
0
 10
8167.0395695131046523
 20
2169.555046869455964
 30
0.0
 11
8167.0395695131046523
 21
2169.8503224600572139
 31
0.0
  0
LINE
  5
1200D
  8
0
 10
8167.0416172745062795
 20
2169.555046869455964
 30
0.0
 11
8167.0416172745062795
 21
2169.8503224600572139
 31
0.0
  0
LINE
  5
1200E
  8
0
 10
8167.0646088222056278
 20
2169.555046869455964
 30
0.0
 11
8167.0646088222056278
 21
2169.8503224600572139
 31
0.0
  0
LINE
  5
1200F
  8
0
 10
8167.0860301285074456
 20
2169.555046869455964
 30
0.0
 11
8167.0860301285074456
 21
2169.8503224600572139
 31
0.0
  0
LINE
  5
12010
  8
0
 10
8167.1036334269056169
 20
2169.555046869455964
 30
0.0
 11
8167.1036334269056169
 21
2169.8503224600572139
 31
0.0
  0
LINE
  5
12011
  8
0
 10
8167.1172543603061058
 20
2169.555046869455964
 30
0.0
 11
8167.1172543603061058
 21
2169.8503224600572139
 31
0.0
  0
LINE
  5
12012
  8
0
 10
8167.126765753604559
 20
2169.555046869455964
 30
0.0
 11
8167.126765753604559
 21
2169.8503224600572139
 31
0.0
  0
ARC
  5
12013
  8
0
 10
8167.0904944764497486
 20
2169.4743384256830723
 30
0.0
 40
0.0295281865829151
 50
270.3019179521314754
 51
359.2435826212778238
  0
LINE
  5
12014
  8
0
 10
8166.6771067040053822
 20
2169.8503224600572139
 30
0.0
 11
8166.6771067040053822
 21
2169.555046869455964
 31
0.0
  0
ARC
  5
12015
  8
0
 10
8165.6218779073587939
 20
2189.227123838191801
 30
0.0
 40
18.6525958491502912
 50
271.7904596079949897
 51
273.2235919576402239
  0
ARC
  5
12016
  8
0
 10
8167.3907873825901333
 20
2181.8700934423882245
 30
0.0
 40
11.2890366887632005
 50
266.3431398571569844
 51
268.7755314151132211
  0
ARC
  5
12017
  8
0
 10
8168.6346740323333506
 20
2169.1885398694421383
 30
0.0
 40
1.3951833657131221
 50
67.1283078132516238
 51
89.3542291051796838
  0
ARC
  5
12018
  8
0
 10
8169.002235875869701
 20
2170.0343175532539135
 30
0.0
 40
0.4731473209755633
 50
1.5143278735856069
 51
68.3315707380489528
  0
ARC
  5
12019
  8
0
 10
8077.9318338583998411
 20
2167.0140368368688542
 30
0.0
 40
91.5936075983533868
 50
0.0653165318386155
 51
1.8974852786711649
  0
ARC
  5
1201A
  8
0
 10
8169.4722492635173694
 20
2172.7746638741309653
 30
0.0
 40
0.049271362266235
 50
178.5222325576251023
 51
206.2077118242889071
  0
ARC
  5
1201B
  8
0
 10
8169.4574156075550491
 20
2172.7705084621011338
 30
0.0
 40
0.0342440163144736
 50
210.9359204124326936
 51
262.400526453061218
  0
LINE
  5
1201C
  8
0
 10
8167.891871041536433
 20
2137.7090061642570618
 30
0.0
 11
8167.891871041536433
 21
2138.4497691841929736
 31
0.0
  0
LINE
  5
1201D
  8
0
 10
8167.891871041536433
 20
2137.7090061642570618
 30
0.0
 11
8173.0099812777361876
 21
2137.7090061642570618
 31
0.0
  0
ARC
  5
1201E
  8
0
 10
8167.939117839505343
 20
2138.4491569749220616
 30
0.0
 40
0.0472507642118308
 50
90.0032781991946678
 51
179.2576207081694122
  0
LINE
  5
1201F
  8
0
 10
8167.93911513603598
 20
2138.4964077390559396
 30
0.0
 11
8172.9627371832366407
 21
2138.4964077390559396
 31
0.0
  0
LINE
  5
12020
  8
0
 10
8173.0099812777361876
 20
2137.7090061642570618
 30
0.0
 11
8173.0099812777361876
 21
2138.4497691841929736
 31
0.0
  0
ARC
  5
12021
  8
0
 10
8172.9627344797645492
 20
2138.4491569749220616
 30
0.0
 40
0.0472507642118308
 50
0.7423792918306292
 51
89.9967218008053322
  0
ARC
  5
12022
  8
0
 10
8283.1269644733110908
 20
2166.3174331396508023
 30
0.0
 40
111.7537956570007935
 50
177.1950710312464992
 51
178.6785677712985887
  0
ARC
  5
12023
  8
0
 10
7830.6339075906926155
 20
2182.9002111520139806
 30
0.0
 40
341.0542859864571028
 50
358.1325562802048239
 51
358.2744283102899203
  0
ARC
  5
12024
  8
0
 10
8152.7771708714517445
 20
2148.175204202356781
 30
0.0
 40
13.6900858412387496
 50
346.0144868905209137
 51
354.2059634063825797
  0
ARC
  5
12025
  8
0
 10
8169.1382747830093649
 20
2144.1312231173119471
 30
0.0
 40
3.1635012125794582
 50
166.5576667423358117
 51
192.2020863467301126
  0
ARC
  5
12026
  8
0
 10
8169.1677636647291365
 20
2144.44924486239006
 30
0.0
 40
3.2737427911377739
 50
197.5408748119234872
 51
230.144085899228088
  0
ARC
  5
12027
  8
0
 10
8173.3389429321559874
 20
2148.8679242590160356
 30
0.0
 40
9.3462560786212308
 50
227.8734857918016985
 51
245.9188030311715067
  0
ARC
  5
12028
  8
0
 10
8172.9347148282104172
 20
2148.2150978414952078
 30
0.0
 40
8.0289722975383082
 50
222.3457326227899955
 51
244.8728299481547879
  0
ARC
  5
12029
  8
0
 10
8168.5136253192376898
 20
2144.0993243866478224
 30
0.0
 40
1.9900027653924091
 50
178.1805227411352917
 51
220.5060675907567997
  0
ARC
  5
1202A
  8
0
 10
8177.099083847429938
 20
2142.9959175882718228
 30
0.0
 40
10.6386133922396997
 50
165.473329703296514
 51
173.7044997544934972
  0
ARC
  5
1202B
  8
0
 10
8158.758263457513749
 20
2147.3533846686659672
 30
0.0
 40
8.2177515696216545
 50
348.1395985225884147
 51
356.0909185798358862
  0
LINE
  5
1202C
  8
0
 10
8169.5253819404306341
 20
2167.1184524769619202
 30
0.0
 11
8169.5253819404306341
 21
2165.5042817547559935
 31
0.0
  0
LINE
  5
1202D
  8
0
 10
8169.5253819404306341
 20
2165.484917830474842
 30
0.0
 11
8169.5253819404306341
 21
2164.3423636468769473
 31
0.0
  0
LINE
  5
1202E
  8
0
 10
8169.5253819404306341
 20
2164.4648125097369302
 30
0.0
 11
8169.5253819404306341
 21
2138.4964077390559396
 31
0.0
  0
ARC
  5
1202F
  8
0
 10
8169.5450655668773834
 20
2165.4845970156270596
 30
0.0
 40
0.0196862406839751
 50
90.7076678718342464
 51
179.0662437375918898
  0
ARC
  5
12030
  8
0
 10
8169.5450535719173786
 20
2164.3428450141641406
 30
0.0
 40
0.0196775201646338
 50
181.4017551666296981
 51
268.0073938184530107
  0
LINE
  5
12031
  8
0
 10
8169.5253819404306341
 20
2164.3231793925569946
 30
0.0
 11
8173.4876105592502427
 21
2164.3231793925569946
 31
0.0
  0
LINE
  5
12032
  8
0
 10
8169.5253819404306341
 20
2165.5042817547559935
 30
0.0
 11
8173.4869293743749949
 21
2165.5042817547559935
 31
0.0
  0
LINE
  5
12033
  8
0
 10
8171.4028894154907903
 20
2168.8946207969202078
 30
0.0
 11
8171.4028894154907903
 21
2165.5042817547559935
 31
0.0
  0
LINE
  5
12034
  8
0
 10
8170.8892535722161483
 20
2165.484917830474842
 30
0.0
 11
8170.8892535722161483
 21
2164.3423636468769473
 31
0.0
  0
LINE
  5
12035
  8
0
 10
8171.4028894154907903
 20
2164.3231793925569946
 30
0.0
 11
8171.4028894154907903
 21
2138.4964077390559396
 31
0.0
  0
ARC
  5
12036
  8
0
 10
8170.8695699457703085
 20
2165.4845970156270596
 30
0.0
 40
0.0196862406839751
 50
0.9337562624080755
 51
89.2923321281657536
  0
ARC
  5
12037
  8
0
 10
8170.8695819407275849
 20
2164.3428450141641406
 30
0.0
 40
0.0196775201646338
 50
271.992606181547103
 51
358.5982448333703019
  0
ARC
  5
12038
  8
0
 10
8173.4868705510680229
 20
2164.3428735713710012
 30
0.0
 40
0.0197080768030574
 50
272.1518748643792946
 51
359.9734296815757943
  0
LINE
  5
12039
  8
0
 10
8173.5065786257509899
 20
2164.3428644319569685
 30
0.0
 11
8173.5065786256509455
 21
2165.4845967153569291
 31
0.0
  0
ARC
  5
1203A
  8
0
 10
8173.4868935312833855
 20
2165.4845966930201939
 30
0.0
 40
0.0196850943682121
 50
0.0000650121482203
 51
89.8956744131745751
  0
LINE
  5
1203B
  8
0
 10
8171.5373816970513872
 20
2174.076309259457048
 30
0.0
 11
8171.5373816970513872
 21
2173.1789526579891572
 31
0.0
  0
LINE
  5
1203C
  8
0
 10
8172.6319454795666388
 20
2164.3231793925569946
 30
0.0
 11
8172.6319441082414414
 21
2164.1894479023808344
 31
0.0
  0
LINE
  5
1203D
  8
0
 10
8172.6319441082414414
 20
2164.1894479023808344
 30
0.0
 11
8173.3878515443602737
 21
2164.1894479023808344
 31
0.0
  0
LINE
  5
1203E
  8
0
 10
8173.3878515443602737
 20
2164.1894479023808344
 30
0.0
 11
8173.3878502131510686
 21
2164.3231793925569946
 31
0.0
  0
LINE
  5
1203F
  8
0
 10
8172.7146222357496299
 20
2164.1894479023808344
 30
0.0
 11
8172.7146222357496299
 21
2164.146014038256908
 31
0.0
  0
LINE
  5
12040
  8
0
 10
8172.7146222357496299
 20
2164.146014038256908
 30
0.0
 11
8173.3051734168511757
 21
2164.146014038256908
 31
0.0
  0
LINE
  5
12041
  8
0
 10
8173.3051734168511757
 20
2164.146014038256908
 30
0.0
 11
8173.3051734168511757
 21
2164.1894479023808344
 31
0.0
  0
LINE
  5
12042
  8
0
 10
8172.7343072751509681
 20
2164.146014038256908
 30
0.0
 11
8172.7343072751509681
 21
2140.8644956695570727
 31
0.0
  0
LINE
  5
12043
  8
0
 10
8173.2854883775507915
 20
2164.146014038256908
 30
0.0
 11
8173.2854883775507915
 21
2140.9126499291669461
 31
0.0
  0
ARC
  5
12044
  8
0
 10
8171.7980726616851825
 20
2142.1282379918511651
 30
0.0
 40
2.424581155086301
 50
260.6194923699571859
 51
286.4763481127661748
  0
ARC
  5
12045
  8
0
 10
8172.1073538184664358
 20
2140.9189557002709989
 30
0.0
 40
1.1781514342649611
 50
288.7332075196391088
 51
359.6933367092340745
  0
ARC
  5
12046
  8
0
 10
8171.778615897367672
 20
2142.1216780238369211
 30
0.0
 40
1.8666703526648061
 50
258.3880837672058988
 51
292.0402800797087934
  0
ARC
  5
12047
  8
0
 10
8171.9973323879794407
 20
2140.9566962843691726
 30
0.0
 40
0.7427199591321824
 50
310.4400779134081176
 51
352.868955238029173
  0
LINE
  5
12048
  8
0
 10
8177.5659969081498275
 20
2172.6673926076309726
 30
0.0
 11
8177.125894949240319
 21
2173.052652097831924
 31
0.0
  0
ARC
  5
12049
  8
0
 10
8177.0856209576668334
 20
2173.0094635363011548
 30
0.0
 40
0.0590529105491513
 50
46.9999954609633193
 51
124.2067222881197068
  0
ARC
  5
1204A
  8
0
 10
8181.895470410492635
 20
2164.7486643964989526
 30
0.0
 40
9.6179610880677853
 50
120.2346181305313024
 51
130.5085608225454905
  0
ARC
  5
1204B
  8
0
 10
8182.6574529306917611
 20
2163.9119380439078668
 30
0.0
 40
10.7491459644413698
 50
130.699580500458211
 51
145.3185853749681939
  0
ARC
  5
1204C
  8
0
 10
8180.4140882428273471
 20
2165.5873027884322255
 30
0.0
 40
7.951702858059182
 50
146.0477787312844953
 51
179.3967161088662863
  0
ARC
  5
1204D
  8
0
 10
8181.0441972622966205
 20
2165.654206780343884
 30
0.0
 40
7.4660665663295518
 50
166.5861754388656095
 51
179.2939267197704112
  0
ARC
  5
1204E
  8
0
 10
8180.9298297516852472
 20
2165.6616429858099764
 30
0.0
 40
7.353119262036464
 50
144.475341330080397
 51
166.4358050871406931
  0
ARC
  5
1204F
  8
0
 10
8176.8094993492868525
 20
2168.6560655970029075
 30
0.0
 40
2.2602129932103132
 50
133.5222651861942893
 51
145.5635650853976131
  0
LINE
  5
12050
  8
0
 10
8175.2530343996077136
 20
2170.2949614555309381
 30
0.0
 11
8177.5674680282545523
 21
2172.5824569529681867
 31
0.0
  0
ARC
  5
12051
  8
0
 10
8177.5257023569702142
 20
2172.6242141220750455
 30
0.0
 40
0.0590595671311896
 50
315.0058324037653961
 51
46.9787415943291506
  0
ARC
  5
12052
  8
0
 10
8177.4672502854291452
 20
2172.5012401367230268
 30
0.0
 40
0.0215003565374079
 50
337.9280184044372959
 51
8.5100178369091442
  0
ARC
  5
12053
  8
0
 10
8173.1964552418658059
 20
2174.4848339907689478
 30
0.0
 40
4.7304373041652434
 50
333.1636641070700193
 51
335.1001395507364009
  0
LINE
  5
12054
  8
0
 10
8177.4400944628341676
 20
2172.3947231681308949
 30
0.0
 11
8177.4805904454669871
 21
2172.3580827462551497
 31
0.0
  0
ARC
  5
12055
  8
0
 10
8177.4673832525240869
 20
2172.3434858003470254
 30
0.0
 40
0.0196850393785817
 50
322.0614720824921733
 51
47.8614720452051614
  0
LINE
  5
12056
  8
0
 10
8177.4829082690093855
 20
2172.3313831296309218
 30
0.0
 11
8177.4279441677599607
 21
2172.2608764953488389
 31
0.0
  0
ARC
  5
12057
  8
0
 10
8177.4124191514638369
 20
2172.2729791659171497
 30
0.0
 40
0.0196850391377079
 50
276.1752763285015249
 51
322.0614720825126938
  0
LINE
  5
12058
  8
0
 10
8177.4063621236082327
 20
2172.3594013212309619
 30
0.0
 11
8177.4460646844881921
 21
2172.3231746208930417
 31
0.0
  0
ARC
  5
12059
  8
0
 10
8177.432532884756256
 20
2172.3083444791000147
 30
0.0
 40
0.0200759236294274
 50
321.4139888061595229
 51
47.6210343277865604
  0
ARC
  5
1205A
  8
0
 10
8187.0058139710599789
 20
2164.6699206655061971
 30
0.0
 40
12.2270963668827992
 50
141.4139888061594945
 51
141.8403018723761875
  0
ARC
  5
1205B
  8
0
 10
8177.3779633482126883
 20
2172.235332166830176
 30
0.0
 40
0.0175334274480021
 50
229.3399405994497045
 51
321.8403018723761875
  0
LINE
  5
1205C
  8
0
 10
8177.3665390972082605
 20
2172.2220315064309943
 30
0.0
 11
8177.3429343435191186
 21
2172.2379390995288304
 31
0.0
  0
ARC
  5
1205D
  8
0
 10
8177.7538293463467198
 20
2172.1006611842130951
 30
0.0
 40
0.4332204166263474
 50
143.3269285429572903
 51
161.5257902529145042
  0
LINE
  5
1205E
  8
0
 10
8177.3063282504572271
 20
2172.25683016783114
 30
0.0
 11
8177.3460308113390056
 21
2172.2206034674941293
 31
0.0
  0
ARC
  5
1205F
  8
0
 10
8177.3324990116061599
 20
2172.2057733257011023
 30
0.0
 40
0.0200759236294274
 50
321.4139888061595229
 51
47.6210343277865604
  0
ARC
  5
12060
  8
0
 10
8186.9057800979107924
 20
2164.5673495121050109
 30
0.0
 40
12.2270963668827992
 50
141.4139888061594945
 51
141.8403018723761875
  0
ARC
  5
12061
  8
0
 10
8177.2779294750653207
 20
2172.1327610134298993
 30
0.0
 40
0.0175334274480021
 50
229.3399405994497045
 51
321.8403018723761875
  0
LINE
  5
12062
  8
0
 10
8177.266505224059074
 20
2172.1194603530311724
 30
0.0
 11
8177.2429004703690225
 21
2172.1353679461290085
 31
0.0
  0
ARC
  5
12063
  8
0
 10
8177.6537954731957143
 20
2171.9980900308128184
 30
0.0
 40
0.4332204166263474
 50
143.3269285429572903
 51
161.5257902529145042
  0
LINE
  5
12064
  8
0
 10
8177.3311342292254267
 20
2172.1718246454938708
 30
0.0
 11
8177.3645974299761292
 21
2172.1383614321648565
 31
0.0
  0
ARC
  5
12065
  8
0
 10
8177.3505205890787693
 20
2172.12428459656212
 30
0.0
 40
0.0199076555670989
 50
311.2673913345337837
 51
44.9999892299970625
  0
ARC
  5
12066
  8
0
 10
8169.2779332609461562
 20
2178.9582897178420353
 30
0.0
 40
10.5965656479852406
 50
319.2660855564412259
 51
319.7338929420554905
  0
ARC
  5
12067
  8
0
 10
8177.2967481308005517
 20
2172.0502966074768665
 30
0.0
 40
0.0126706030249005
 50
282.7714808425204183
 51
327.7325871639906154
  0
LINE
  5
12068
  8
0
 10
8177.305579409825441
 20
2172.1395375917509227
 30
0.0
 11
8177.3357179861086479
 21
2172.1092369072312067
 31
0.0
  0
ARC
  5
12069
  8
0
 10
8177.321690909157951
 20
2172.0952848749461737
 30
0.0
 40
0.0197842890359854
 50
326.021876603402518
 51
44.8463234764685694
  0
ARC
  5
1206A
  8
0
 10
8176.4325227587569316
 20
2172.7991739134731688
 30
0.0
 40
1.153781866279854
 50
317.0721688569768162
 51
321.7090987351321019
  0
ARC
  5
1206B
  8
0
 10
8177.2632103647310942
 20
2172.0286359198958053
 30
0.0
 40
0.0208058071846345
 50
251.8820417040128063
 51
312.7593909886958272
  0
LINE
  5
1206C
  8
0
 10
8177.1478978287077553
 20
2172.0929101074311802
 30
0.0
 11
8177.1837941529083764
 21
2172.0579901239311766
 31
0.0
  0
ARC
  5
1206D
  8
0
 10
8177.1695673787990017
 20
2172.0433655781971538
 30
0.0
 40
0.0204029027223216
 50
337.6995046064193957
 51
45.7898838463618816
  0
ARC
  5
1206E
  8
0
 10
8176.9489728563921744
 20
2172.1738725854211225
 30
0.0
 40
0.2765129215391805
 50
308.3988734637688935
 51
330.0017425940094995
  0
ARC
  5
1206F
  8
0
 10
8177.1129460069460038
 20
2171.9759920969609084
 30
0.0
 40
0.0203678552121257
 50
234.4454132172969025
 51
292.4498771997127733
  0
LINE
  5
12070
  8
0
 10
8177.1011025408079149
 20
2171.959421585931068
 30
0.0
 11
8177.0750714778805559
 21
2171.9782395611441643
 31
0.0
  0
ARC
  5
12071
  8
0
 10
8177.2356645397976536
 20
2171.9567091772119056
 30
0.0
 40
0.1620299014628936
 50
122.7973847156191027
 51
172.364004919385394
  0
LINE
  5
12072
  8
0
 10
8177.2144365760077562
 20
2172.0612360839309076
 30
0.0
 11
8177.2510447111144458
 21
2172.023847386054058
 31
0.0
  0
ARC
  5
12073
  8
0
 10
8177.2367301676185889
 20
2172.0098316868711663
 30
0.0
 40
0.0200336212181699
 50
323.7705176729733125
 51
44.3956323279490874
  0
ARC
  5
12074
  8
0
 10
8176.7065175910092876
 20
2172.4143329655498746
 30
0.0
 40
0.6869232574987562
 50
314.9061479983317895
 51
322.6922361380064785
  0
ARC
  5
12075
  8
0
 10
8177.1783732289877662
 20
2171.9409289659070055
 30
0.0
 40
0.0185228610507409
 50
229.3230926793445121
 51
314.9061479983317895
  0
LINE
  5
12076
  8
0
 10
8177.1663001617062037
 20
2171.9268812818299921
 30
0.0
 11
8177.1417687855146141
 21
2171.9450156673560741
 31
0.0
  0
ARC
  5
12077
  8
0
 10
8177.3510956733989588
 20
2171.8949605556758797
 30
0.0
 40
0.2152283907755775
 50
151.6215689694321043
 51
166.5517261990131033
  0
ARC
  5
12078
  8
0
 10
8177.3510956733989588
 20
2171.8949605556758797
 30
0.0
 40
0.2152283907755775
 50
129.4162178097068079
 51
139.0028952469633055
  0
LINE
  5
12079
  8
0
 10
8177.193153308006913
 20
2171.9295141946317926
 30
0.0
 11
8177.216661269708311
 21
2171.9053239484310325
 31
0.0
  0
ARC
  5
1207A
  8
0
 10
8177.2026346596703661
 20
2171.8916929581209843
 30
0.0
 40
0.0195588774215849
 50
313.5334779518724986
 51
44.1804858480798899
  0
ARC
  5
1207B
  8
0
 10
8177.6061900901077024
 20
2171.466931599633881
 30
0.0
 40
0.5663414529236338
 50
133.5334779518724986
 51
142.9183932045359882
  0
ARC
  5
1207C
  8
0
 10
8177.1428240757140884
 20
2171.8244066575362012
 30
0.0
 40
0.0197328770692216
 50
232.612165981403507
 51
305.8309032491090989
  0
LINE
  5
1207D
  8
0
 10
8177.1308421318071851
 20
2171.8087280269310213
 30
0.0
 11
8177.1039546650090415
 21
2171.8292986870310415
 31
0.0
  0
ARC
  5
1207E
  8
0
 10
8177.7498307769374151
 20
2171.4920813116232239
 30
0.0
 40
0.7286092987575423
 50
143.3097599775751974
 51
152.4305581549396891
  0
LINE
  5
1207F
  8
0
 10
8177.0816601190072106
 20
2171.924327802130847
 30
0.0
 11
8177.1163454652078144
 21
2171.8880015325307795
 31
0.0
  0
ARC
  5
12080
  8
0
 10
8177.1016915262971452
 20
2171.8740095385860513
 30
0.0
 40
0.0202611406425242
 50
323.7183269161583894
 51
43.67625521082239
  0
ARC
  5
12081
  8
0
 10
8176.7496637837930393
 20
2172.1324263033420721
 30
0.0
 40
0.4569564071614822
 50
311.6786348876559032
 51
323.7183269161583894
  0
ARC
  5
12082
  8
0
 10
8177.0425885537706563
 20
2171.8080634057619136
 30
0.0
 40
0.020152554637784
 50
232.9519143381305923
 51
302.8421333914228057
  0
LINE
  5
12083
  8
0
 10
8177.0304469405091368
 20
2171.7919790442310841
 30
0.0
 11
8177.0046491935081576
 21
2171.8116385406310656
 31
0.0
  0
ARC
  5
12084
  8
0
 10
8177.1888120013163643
 20
2171.7684421255039524
 30
0.0
 40
0.1891609633601836
 50
124.5036507491622046
 51
166.7995816902258923
  0
LINE
  5
12085
  8
0
 10
8176.9409136277081416
 20
2171.8795265601311257
 30
0.0
 11
8176.9738959882097333
 21
2171.8457520376309731
 31
0.0
  0
ARC
  5
12086
  8
0
 10
8176.9588530864357381
 20
2171.8310619584681262
 30
0.0
 40
0.0210258726232988
 50
329.3138492769550112
 51
44.3201388818932287
  0
ARC
  5
12087
  8
0
 10
8176.760453546025019
 20
2171.9487981312609008
 30
0.0
 40
0.2517295440703808
 50
307.4336166627145985
 51
329.3138492769550112
  0
ARC
  5
12088
  8
0
 10
8176.9013538249855628
 20
2171.7647321380909489
 30
0.0
 40
0.0199253628036069
 50
230.6418616404558009
 51
307.4336166627145985
  0
LINE
  5
12089
  8
0
 10
8176.8887178420091004
 20
2171.7493259050311281
 30
0.0
 11
8176.8623377148669533
 21
2171.7709625267921183
 31
0.0
  0
ARC
  5
1208A
  8
0
 10
8176.9912540405794061
 20
2171.7603737873109822
 30
0.0
 40
0.1293504558896311
 50
112.9033912322596933
 51
175.3044639698647131
  0
LINE
  5
1208B
  8
0
 10
8176.9083409749500788
 20
2171.7460720250619488
 30
0.0
 11
8176.9407923988082985
 21
2171.7109576899310923
 31
0.0
  0
ARC
  5
1208C
  8
0
 10
8176.9257303371941816
 20
2171.6970378664791497
 30
0.0
 40
0.020509197572414
 50
322.4673091954517758
 51
42.7430187337746332
  0
ARC
  5
1208D
  8
0
 10
8176.5552292390348157
 20
2171.9816693659968223
 30
0.0
 40
0.487720235812319
 50
311.4075926653669057
 51
322.4673091954517758
  0
ARC
  5
1208E
  8
0
 10
8176.8658375245113348
 20
2171.6294475270060502
 30
0.0
 40
0.0181057866443228
 50
226.362898496850903
 51
311.4075926653669057
  0
LINE
  5
1208F
  8
0
 10
8176.8533429324088502
 20
2171.6163439138308604
 30
0.0
 11
8176.8251125770329963
 21
2171.6388303512339917
 31
0.0
  0
ARC
  5
12090
  8
0
 10
8177.0008210131127271
 20
2171.5962129948597976
 30
0.0
 40
0.1808029136231534
 50
124.587765947077898
 51
166.3664231228241022
  0
LINE
  5
12091
  8
0
 10
8177.0040544164976382
 20
2171.766141029857863
 30
0.0
 11
8177.0401859552857786
 21
2171.7270445955277864
 31
0.0
  0
ARC
  5
12092
  8
0
 10
8177.0251238936689333
 20
2171.7131247720758438
 30
0.0
 40
0.020509197572414
 50
322.4673091954517758
 51
42.7430187337746332
  0
ARC
  5
12093
  8
0
 10
8176.6546227955132053
 20
2171.9977562715930617
 30
0.0
 40
0.487720235812319
 50
311.4075926653669057
 51
322.4673091954517758
  0
ARC
  5
12094
  8
0
 10
8176.9652310809879054
 20
2171.6455344326031991
 30
0.0
 40
0.0181057866443228
 50
226.362898496850903
 51
311.4075926653669057
  0
LINE
  5
12095
  8
0
 10
8176.9527364888854208
 20
2171.6324308194280093
 30
0.0
 11
8176.924506133507748
 21
2171.6549172568311405
 31
0.0
  0
ARC
  5
12096
  8
0
 10
8177.1038382202696084
 20
2171.6107159952989605
 30
0.0
 40
0.1846990765095445
 50
162.2185979366483934
 51
166.1538847027127019
  0
ARC
  5
12097
  8
0
 10
8177.1038382202696084
 20
2171.6107159952989605
 30
0.0
 40
0.1846990765095445
 50
122.7007061213230941
 51
149.4435036006271105
  0
LINE
  5
12098
  8
0
 10
8177.0468261787082156
 20
2171.7421512055311723
 30
0.0
 11
8177.0794611341198106
 21
2171.7073640825037728
 31
0.0
  0
ARC
  5
12099
  8
0
 10
8177.0643990725038748
 20
2171.6934442590518302
 30
0.0
 40
0.020509197572414
 50
322.4673091954517758
 51
42.7430187337746332
  0
ARC
  5
1209A
  8
0
 10
8176.6938979743490563
 20
2171.978075758569048
 30
0.0
 40
0.487720235812319
 50
311.4075926653669057
 51
322.4673091954517758
  0
ARC
  5
1209B
  8
0
 10
8177.0045062598228469
 20
2171.6258539195791855
 30
0.0
 40
0.0181057866443228
 50
226.362898496850903
 51
311.4075926653669057
  0
LINE
  5
1209C
  8
0
 10
8176.9920116677212718
 20
2171.6127503064039956
 30
0.0
 11
8176.9719572168278319
 21
2171.6287243580450195
 31
0.0
  0
ARC
  5
1209D
  8
0
 10
8177.377680928357222
 20
2171.3994532780711779
 30
0.0
 40
0.4763472838705864
 50
133.9926635128691998
 51
135.8138507740563909
  0
LINE
  5
1209E
  8
0
 10
8176.9184728720510975
 20
2171.6075799042400831
 30
0.0
 11
8176.9477684932262491
 21
2171.5758803318472019
 31
0.0
  0
ARC
  5
1209F
  8
0
 10
8176.9327064316121323
 20
2171.5619605083948045
 30
0.0
 40
0.020509197572414
 50
322.4673091954517758
 51
42.7430187337746332
  0
ARC
  5
120A0
  8
0
 10
8176.5622053334527664
 20
2171.8465920079129319
 30
0.0
 40
0.487720235812319
 50
311.4075926653669057
 51
322.4673091954517758
  0
ARC
  5
120A1
  8
0
 10
8176.8728136189283759
 20
2171.4943701689207955
 30
0.0
 40
0.0181057866443228
 50
226.362898496850903
 51
311.4075926653669057
  0
LINE
  5
120A2
  8
0
 10
8176.8603190268268008
 20
2171.48126655574697
 30
0.0
 11
8176.832088671449128
 21
2171.5037529931501012
 31
0.0
  0
ARC
  5
120A3
  8
0
 10
8177.0950014974960141
 20
2171.3728583592528594
 30
0.0
 40
0.2936946701632275
 50
126.9459760929986061
 51
153.5329739402787084
  0
LINE
  5
120A4
  8
0
 10
8176.6988947131103487
 20
2171.6318898228209946
 30
0.0
 11
8176.7281903342845908
 21
2171.6001902504281134
 31
0.0
  0
ARC
  5
120A5
  8
0
 10
8176.7131282726713835
 20
2171.5862704269761707
 30
0.0
 40
0.020509197572414
 50
322.4673091954517758
 51
42.7430187337746332
  0
ARC
  5
120A6
  8
0
 10
8176.342627174512927
 20
2171.8709019264938433
 30
0.0
 40
0.487720235812319
 50
311.4075926653669057
 51
322.4673091954517758
  0
ARC
  5
120A7
  8
0
 10
8176.6532354599867176
 20
2171.5186800875030713
 30
0.0
 40
0.0181057866443228
 50
226.362898496850903
 51
311.4075926653669057
  0
LINE
  5
120A8
  8
0
 10
8176.640740867886052
 20
2171.5055764743278814
 30
0.0
 11
8176.6125105125092887
 21
2171.5280629117310127
 31
0.0
  0
ARC
  5
120A9
  8
0
 10
8176.7484036807445591
 20
2171.502848890741916
 30
0.0
 40
0.1382125176250794
 50
110.990245213975399
 51
169.4887048192732095
  0
LINE
  5
120AA
  8
0
 10
8176.7047018372286402
 20
2171.5391948357041656
 30
0.0
 11
8176.7339974584037918
 21
2171.5074952633121939
 31
0.0
  0
ARC
  5
120AB
  8
0
 10
8176.718935396789675
 20
2171.493575439858887
 30
0.0
 40
0.020509197572414
 50
322.4673091954517758
 51
42.7430187337746332
  0
ARC
  5
120AC
  8
0
 10
8176.3484342986312186
 20
2171.7782069393770144
 30
0.0
 40
0.487720235812319
 50
311.4075926653669057
 51
322.4673091954517758
  0
ARC
  5
120AD
  8
0
 10
8176.6590425841050092
 20
2171.4259851003857875
 30
0.0
 40
0.0181057866443228
 50
226.362898496850903
 51
311.4075926653669057
  0
LINE
  5
120AE
  8
0
 10
8176.646547992005253
 20
2171.4128814872119619
 30
0.0
 11
8176.6183176366266707
 21
2171.4353679246141837
 31
0.0
  0
ARC
  5
120AF
  8
0
 10
8176.7542108048646696
 20
2171.4101539036259965
 30
0.0
 40
0.1382125176250794
 50
138.9741761586047915
 51
169.4887048192732095
  0
ARC
  5
120B0
  8
0
 10
8176.7542108048646696
 20
2171.4101539036259965
 30
0.0
 40
0.1382125176250794
 50
110.990245213975399
 51
114.3271374982538049
  0
LINE
  5
120B1
  8
0
 10
8176.7079351994079843
 20
2171.4486160857991308
 30
0.0
 11
8176.7299932633040953
 21
2171.4247479729119732
 31
0.0
  0
ARC
  5
120B2
  8
0
 10
8176.7149312016881595
 20
2171.4108281494591211
 30
0.0
 40
0.020509197572414
 50
322.4673091954517758
 51
42.7430187337746332
  0
ARC
  5
120B3
  8
0
 10
8176.3444301035306125
 20
2171.6954596489767937
 30
0.0
 40
0.487720235812319
 50
311.4075926653669057
 51
322.4673091954517758
  0
ARC
  5
120B4
  8
0
 10
8176.6550383890053126
 20
2171.3432378099860216
 30
0.0
 40
0.0181057866443228
 50
226.362898496850903
 51
311.4075926653669057
  0
LINE
  5
120B5
  8
0
 10
8176.642543796904647
 20
2171.330134196812196
 30
0.0
 11
8176.6143134415269742
 21
2171.3526206342139631
 31
0.0
  0
ARC
  5
120B6
  8
0
 10
8176.7502066097649731
 20
2171.3274066132257758
 30
0.0
 40
0.1382125176250794
 50
140.5187488490059877
 51
169.4887048192732095
  0
LINE
  5
120B7
  8
0
 10
8176.7025910114616636
 20
2171.3644131379678583
 30
0.0
 11
8176.7167397628036269
 21
2171.349103363012091
 31
0.0
  0
ARC
  5
120B8
  8
0
 10
8176.7016777011876911
 20
2171.3351835395587841
 30
0.0
 40
0.020509197572414
 50
322.4673091954517758
 51
42.7430187337746332
  0
ARC
  5
120B9
  8
0
 10
8176.3311766030328727
 20
2171.6198150390769115
 30
0.0
 40
0.487720235812319
 50
311.4075926653669057
 51
322.4673091954517758
  0
ARC
  5
120BA
  8
0
 10
8176.6417848885057538
 20
2171.2675932000861394
 30
0.0
 40
0.0181057866443228
 50
226.362898496850903
 51
311.4075926653669057
  0
LINE
  5
120BB
  8
0
 10
8176.6292902964032692
 20
2171.2544895869118591
 30
0.0
 11
8176.6010599410255963
 21
2171.2769760243140809
 31
0.0
  0
ARC
  5
120BC
  8
0
 10
8176.7369531092663237
 20
2171.2517620033258936
 30
0.0
 40
0.1382125176250794
 50
140.4329039208770951
 51
169.4887048192732095
  0
LINE
  5
120BD
  8
0
 10
8176.8196985666090768
 20
2171.4623317415321253
 30
0.0
 11
8176.8497305453083754
 21
2171.4283054619309041
 31
0.0
  0
ARC
  5
120BE
  8
0
 10
8176.8349505185551607
 20
2171.4152674756569468
 30
0.0
 40
0.0197088375334157
 50
327.1488215624602276
 51
41.4166599815403629
  0
ARC
  5
120BF
  8
0
 10
8175.1870643317579379
 20
2172.9586939932919449
 30
0.0
 40
2.2772029470155171
 50
314.3264412286803235
 51
316.9632098433920078
  0
ARC
  5
120C0
  8
0
 10
8176.7670534198723544
 20
2171.3481119551988741
 30
0.0
 40
0.0215911878519206
 50
233.5665366787652886
 51
301.2353446200764893
  0
LINE
  5
120C1
  8
0
 10
8176.7542306535087846
 20
2171.3307408281311837
 30
0.0
 11
8176.7261393238959499
 21
2171.3546053535810643
 31
0.0
  0
ARC
  5
120C2
  8
0
 10
8177.1410808327382256
 20
2171.0887237937949976
 30
0.0
 40
0.4928178766992769
 50
130.7025327143248035
 51
147.349519812046708
  0
LINE
  5
120C3
  8
0
 10
8176.9384552585979691
 20
2171.5362582806928913
 30
0.0
 11
8176.9473109327673228
 21
2171.5263141746818292
 31
0.0
  0
ARC
  5
120C4
  8
0
 10
8176.9326102464510768
 20
2171.5132225515681057
 30
0.0
 40
0.0196850393446035
 50
315.866502900520004
 51
41.6865031717550778
  0
LINE
  5
120C5
  8
0
 10
8176.9467385795087466
 20
2171.4995152185310872
 30
0.0
 11
8176.879012912518192
 21
2171.4297094600160563
 31
0.0
  0
ARC
  5
120C6
  8
0
 10
8176.8648845794186855
 20
2171.4434167930921831
 30
0.0
 40
0.0196850394016466
 50
230.0465037262493126
 51
315.866502900520004
  0
LINE
  5
120C7
  8
0
 10
8176.8522435234272052
 20
2171.4283269130501139
 30
0.0
 11
8176.8425286114370465
 21
2171.4364652644540001
 31
0.0
  0
LINE
  5
120C8
  8
0
 10
8176.8543512680744243
 20
2171.4860200783941764
 30
0.0
 11
8176.8276829844498934
 21
2171.4532853834261914
 31
0.0
  0
LINE
  5
120C9
  8
0
 10
8176.5873694634083222
 20
2171.2226900515311172
 30
0.0
 11
8176.6141472389081173
 21
2171.1916890481311384
 31
0.0
  0
ARC
  5
120CA
  8
0
 10
8176.5992431553986535
 20
2171.178815329266854
 30
0.0
 40
0.0196942718240608
 50
315.0082431408383172
 51
40.819510316170863
  0
ARC
  5
120CB
  8
0
 10
7790.7035587006912465
 20
2556.9634781713398297
 30
0.0
 40
545.680106400959744
 50
314.9978864649651769
 51
315.0082431408383172
  0
ARC
  5
120CC
  8
0
 10
8176.5305234211473362
 20
2171.1080475185099203
 30
0.0
 40
0.0182513389809164
 50
224.9606024968645954
 51
314.9978864649651769
  0
LINE
  5
120CD
  8
0
 10
8176.5176089045089611
 20
2171.0951507501308697
 30
0.0
 11
8176.4866079112080115
 21
2171.121928537230815
 31
0.0
  0
ARC
  5
120CE
  8
0
 10
8176.7777990994518404
 20
2170.9314987916591235
 30
0.0
 40
0.3479307346441189
 50
123.1833840050027931
 51
146.8165944440320061
  0
LINE
  5
120CF
  8
0
 10
8176.4405851648079988
 20
2171.3639134594309326
 30
0.0
 11
8176.4670317243480895
 21
2171.333240639385167
 31
0.0
  0
ARC
  5
120D0
  8
0
 10
8176.4479359855849907
 20
2171.3187953476722214
 30
0.0
 40
0.0239439698372926
 50
319.2461760091190968
 51
37.1062942267641631
  0
ARC
  5
120D1
  8
0
 10
8176.2547045783721842
 20
2171.457441921868849
 30
0.0
 40
0.2616841336293598
 50
303.6426142093646945
 51
323.8744948120586855
  0
ARC
  5
120D2
  8
0
 10
8176.3899135278952599
 20
2171.258962870385858
 30
0.0
 40
0.0216979442523739
 50
230.315685407793012
 51
296.7520666913433729
  0
LINE
  5
120D3
  8
0
 10
8176.3760581502092464
 20
2171.2422646880309003
 30
0.0
 11
8176.3453831486085619
 21
2171.2687126178311701
 31
0.0
  0
ARC
  5
120D4
  8
0
 10
8176.4586938860666123
 20
2171.250602498536864
 30
0.0
 40
0.1147488546542338
 50
99.0799069907099863
 51
170.9193860910797866
  0
LINE
  5
120D5
  8
0
 10
8176.4897346055076923
 20
2171.3142871881309475
 30
0.0
 11
8176.516181165045964
 21
2171.2836143680860914
 31
0.0
  0
ARC
  5
120D6
  8
0
 10
8176.4970854262837747
 20
2171.2691690763717816
 30
0.0
 40
0.0239439698372926
 50
319.2461760091190968
 51
37.1062942267641631
  0
ARC
  5
120D7
  8
0
 10
8176.3038540190727872
 20
2171.4078156505688639
 30
0.0
 40
0.2616841336293598
 50
303.6426142093646945
 51
323.8744948120586855
  0
ARC
  5
120D8
  8
0
 10
8176.4390629685949534
 20
2171.2093365990858729
 30
0.0
 40
0.0216979442523739
 50
230.315685407793012
 51
296.7520666913433729
  0
LINE
  5
120D9
  8
0
 10
8176.4252075909080304
 20
2171.1926384167309152
 30
0.0
 11
8176.3945325893091649
 21
2171.219086346531185
 31
0.0
  0
ARC
  5
120DA
  8
0
 10
8176.5078433267690343
 20
2171.2009762272368789
 30
0.0
 40
0.1147488546542338
 50
160.2884297091572137
 51
170.9193860910797866
  0
ARC
  5
120DB
  8
0
 10
8176.5078433267690343
 20
2171.2009762272368789
 30
0.0
 40
0.1147488546542338
 50
99.0799069907099863
 51
109.3066888249284005
  0
LINE
  5
120DC
  8
0
 10
8176.7355034764841548
 20
2171.3466501922957832
 30
0.0
 11
8176.7218300347976765
 21
2171.3313742567970621
 31
0.0
  0
LINE
  5
120DD
  8
0
 10
8176.6471242408833859
 20
2171.2502925981830231
 30
0.0
 11
8176.6031594431642588
 21
2171.2044097721968683
 31
0.0
  0
LINE
  5
120DE
  8
0
 10
8176.9670130547965528
 20
2171.6275165503921016
 30
0.0
 11
8176.9366140884249035
 21
2171.5879500490359533
 31
0.0
  0
LINE
  5
120DF
  8
0
 10
8177.1093805098980738
 20
2171.825147562948132
 30
0.0
 11
8177.0495413096123229
 21
2171.7392570207039171
 31
0.0
  0
LINE
  5
120E0
  8
0
 10
8177.2739216659110753
 20
2172.1156917854491439
 30
0.0
 11
8177.2324063294436201
 21
2172.0428831773929232
 31
0.0
  0
LINE
  5
120E1
  8
0
 10
8177.3553951432413669
 20
2172.2295415820522066
 30
0.0
 11
8177.3488323837718781
 21
2172.2174465284851976
 31
0.0
  0
ARC
  5
120E2
  8
0
 10
8175.1583438556508554
 20
2170.2182144688918015
 30
0.0
 40
0.0195872108193015
 50
267.6089483229548023
 51
294.2130638863887953
  0
ARC
  5
120E3
  8
0
 10
8173.2262782256320861
 20
2174.5146351888961362
 30
0.0
 40
4.7304373041661574
 50
294.2130638863887953
 51
296.7944661297295852
  0
LINE
  5
120E4
  8
0
 10
8175.3132873864988142
 20
2170.2694697208480648
 30
0.0
 11
8175.3498982055371016
 21
2170.2289469734819249
 31
0.0
  0
ARC
  5
120E5
  8
0
 10
8175.3645047989039085
 20
2170.2421434959610451
 30
0.0
 40
0.0196850393785817
 50
222.0966581915795075
 51
307.8966581543209031
  0
LINE
  5
120E6
  8
0
 10
8175.3765961212484399
 20
2170.2266096394109809
 30
0.0
 11
8175.4471429025534235
 21
2170.2815222021918089
 31
0.0
  0
ARC
  5
120E7
  8
0
 10
8175.4350515803589587
 20
2170.297056058553153
 30
0.0
 40
0.0196850391377079
 50
307.896658154304987
 51
353.7828539083072883
  0
LINE
  5
120E8
  8
0
 10
8175.3486338743850865
 20
2170.3031762390910444
 30
0.0
 11
8175.3848315518016534
 21
2170.2634472156009906
 31
0.0
  0
ARC
  5
120E9
  8
0
 10
8175.399671578203197
 20
2170.2769681743689034
 30
0.0
 40
0.0200759236294274
 50
222.3370959089747885
 51
308.5441414306702086
  0
ARC
  5
120EA
  8
0
 10
8183.0310975319871432
 20
2160.6981077502168773
 30
0.0
 40
12.2270963668827992
 50
128.1178283644024987
 51
128.5441414306702086
  0
ARC
  5
120EB
  8
0
 10
8175.4727237484958096
 20
2170.3314843414868847
 30
0.0
 40
0.0175334274480021
 50
308.1178283644024987
 51
40.6181896373290314
  0
LINE
  5
120EC
  8
0
 10
8175.4860327537862759
 20
2170.3428988697828572
 30
0.0
 11
8175.4701424144677731
 21
2170.366515241883917
 31
0.0
  0
ARC
  5
120ED
  8
0
 10
8175.6071200253772986
 20
2169.9555200308518579
 30
0.0
 40
0.4332204166263474
 50
108.4323399838958011
 51
126.6312016938327929
  0
LINE
  5
120EE
  8
0
 10
8175.4512781016655936
 20
2170.4031351301059658
 30
0.0
 11
8175.4874757790839794
 21
2170.363406106615912
 31
0.0
  0
ARC
  5
120EF
  8
0
 10
8175.5023158054864325
 20
2170.3769270653838248
 30
0.0
 40
0.0200759236294274
 50
222.3370959089747885
 51
308.5441414306702086
  0
ARC
  5
120F0
  8
0
 10
8183.1337417592676502
 20
2160.7980666412317987
 30
0.0
 40
12.2270963668827992
 50
128.1178283644024987
 51
128.5441414306702086
  0
ARC
  5
120F1
  8
0
 10
8175.5753679757781356
 20
2170.4314432325018061
 30
0.0
 40
0.0175334274480021
 50
308.1178283644024987
 51
40.6181896373290314
  0
LINE
  5
120F2
  8
0
 10
8175.5886769810686019
 20
2170.4428577607977786
 30
0.0
 11
8175.5727866417491896
 21
2170.4664741328979289
 31
0.0
  0
ARC
  5
120F3
  8
0
 10
8175.7097642526578056
 20
2170.0554789218658698
 30
0.0
 40
0.4332204166263474
 50
108.4323399838958011
 51
126.6312016938327929
  0
LINE
  5
120F4
  8
0
 10
8175.5362654739628852
 20
2170.378267038886861
 30
0.0
 11
8175.5697042246147248
 21
2170.344779393322824
 31
0.0
  0
ARC
  5
120F5
  8
0
 10
8175.5837913433242647
 20
2170.3588459435982259
 30
0.0
 40
0.0199076555670989
 50
224.9581410067783054
 51
318.6907389022703114
  0
ARC
  5
120F6
  8
0
 10
8168.755687212353223
 20
2178.4364251691240497
 30
0.0
 40
10.5965656479852406
 50
310.224237294741215
 51
310.6920446803245
  0
ARC
  5
120F7
  8
0
 10
8175.6578186076940256
 20
2170.4125643196739475
 30
0.0
 40
0.0126706030249005
 50
302.2255430728251895
 51
347.1866493942720808
  0
LINE
  5
120F8
  8
0
 10
8175.5685711936557709
 20
2170.4037982572108376
 30
0.0
 11
8175.5988498458627873
 21
2170.3736375462899559
 31
0.0
  0
ARC
  5
120F9
  8
0
 10
8175.6128121249221294
 20
2170.3876544238351016
 30
0.0
 40
0.0197842890359854
 50
225.1118067603528914
 51
303.9362536333728144
  0
ARC
  5
120FA
  8
0
 10
8174.90957304744461
 20
2171.2773367144068288
 30
0.0
 40
1.153781866279854
 50
308.2490315016748923
 51
312.8859613798027794
  0
ARC
  5
120FB
  8
0
 10
8175.6795037977217362
 20
2170.4460862479140815
 30
0.0
 40
0.0208058071846345
 50
317.1987392480870085
 51
18.0760885327982592
  0
LINE
  5
120FC
  8
0
 10
8175.6153138937315816
 20
2170.5614457224828584
 30
0.0
 11
8175.6502076361239233
 21
2170.5255238895611001
 31
0.0
  0
ARC
  5
120FD
  8
0
 10
8175.6648425743842381
 20
2170.5397399727639822
 30
0.0
 40
0.0204029027223216
 50
224.1682463904105873
 51
292.2586256303457048
  0
ARC
  5
120FE
  8
0
 10
8175.5344968047984366
 20
2170.760429806243792
 30
0.0
 40
0.2765129215391804
 50
299.9563876428063054
 51
321.5592567730435007
  0
ARC
  5
120FF
  8
0
 10
8175.7322574145573526
 20
2170.5963120953051657
 30
0.0
 40
0.0203678552121257
 50
337.5082530370618201
 51
35.5127170195152999
  0
LINE
  5
12100
  8
0
 10
8175.7488365759545559
 20
2170.6081434491288746
 30
0.0
 11
8175.7300376283601508
 21
2170.6341882566262029
 31
0.0
  0
ARC
  5
12101
  8
0
 10
8175.7514506507286569
 20
2170.473579503934161
 30
0.0
 40
0.1620299014628935
 50
97.5941253174247123
 51
147.1607455211864988
  0
LINE
  5
12102
  8
0
 10
8175.6469392845747279
 20
2170.4948838466780217
 30
0.0
 11
8175.6843012205190462
 21
2170.458248398987962
 31
0.0
  0
ARC
  5
12103
  8
0
 10
8175.6983273765308695
 20
2170.4725526964780329
 30
0.0
 40
0.0200336212181699
 50
225.5624979088414079
 51
306.1876125638355006
  0
ARC
  5
12104
  8
0
 10
8175.294213666736141
 20
2171.0030607269582106
 30
0.0
 40
0.686923257498756
 50
307.2658940987988103
 51
315.0519822384650865
  0
ARC
  5
12105
  8
0
 10
8175.7672727243161717
 20
2170.5308592678179593
 30
0.0
 40
0.0185228610507409
 50
315.0519822384650865
 51
40.6350375574230682
  0
LINE
  5
12106
  8
0
 10
8175.7813292272176113
 20
2170.5429220663168053
 30
0.0
 11
8175.7632127732103982
 21
2170.5674666879358483
 31
0.0
  0
ARC
  5
12107
  8
0
 10
8175.8131149027267384
 20
2170.3581032774150117
 30
0.0
 40
0.2152283907755775
 50
103.406404037763707
 51
118.336561267350703
  0
ARC
  5
12108
  8
0
 10
8175.8131149027267384
 20
2170.3581032774150117
 30
0.0
 40
0.2152283907755775
 50
130.9552349898478099
 51
140.5419124271022042
  0
LINE
  5
12109
  8
0
 10
8175.7786766917752175
 20
2170.5160708512280507
 30
0.0
 11
8175.80284975271843
 21
2170.4925452184152164
 31
0.0
  0
ARC
  5
1210A
  8
0
 10
8175.8164909895449455
 20
2170.5065618636549516
 30
0.0
 40
0.0195588774215849
 50
225.7776443887117921
 51
316.4246522848977179
  0
ARC
  5
1210B
  8
0
 10
8176.2409573303693833
 20
2170.1026961401689732
 30
0.0
 40
0.5663414529236337
 50
127.0397370322498034
 51
136.4246522848976895
  0
ARC
  5
1210C
  8
0
 10
8175.8838209796540468
 20
2170.5663232611568674
 30
0.0
 40
0.0197328770692216
 50
324.1272269876578207
 51
37.3459642553832722
  0
LINE
  5
1210D
  8
0
 10
8175.899508362062079
 20
2170.5782937444660092
 30
0.0
 11
8175.8789573558779011
 21
2170.6051962364090286
 31
0.0
  0
ARC
  5
1210E
  8
0
 10
8176.2157026574850534
 20
2169.9590738702268027
 30
0.0
 40
0.7286092987575421
 50
117.527572081866694
 51
126.648370259224194
  0
LINE
  5
1210F
  8
0
 10
8175.7839445582294502
 20
2170.62756022042322
 30
0.0
 11
8175.8202454712873077
 21
2170.5928483375118958
 31
0.0
  0
ARC
  5
12110
  8
0
 10
8175.8342481700829012
 20
2170.6074920476471561
 30
0.0
 40
0.0202611406425242
 50
226.2818750259461922
 51
306.2398033206429773
  0
ARC
  5
12111
  8
0
 10
8175.5760887239357544
 20
2170.9597085381260513
 30
0.0
 40
0.4569564071614821
 50
306.2398033206429773
 51
318.2794953491446108
  0
ARC
  5
12112
  8
0
 10
8175.900237475693757
 20
2170.6665468132591741
 30
0.0
 40
0.020152554637784
 50
327.1159968453587226
 51
37.0062158986443421
  0
LINE
  5
12113
  8
0
 10
8175.9163307055978294
 20
2170.6786766693871868
 30
0.0
 11
8175.8966900665418507
 21
2170.704488775973914
 31
0.0
  0
ARC
  5
12114
  8
0
 10
8175.9397518903706441
 20
2170.5202944509042027
 30
0.0
 40
0.1891609633601836
 50
103.1585485465661947
 51
145.4544794875895093
  0
LINE
  5
12115
  8
0
 10
8175.8288486409001052
 20
2170.7682739349547774
 30
0.0
 11
8175.8625990520222331
 21
2170.7352669020169742
 31
0.0
  0
ARC
  5
12116
  8
0
 10
8175.8773001200897852
 20
2170.7502990647758452
 30
0.0
 40
0.0210258726232988
 50
225.6379913549066032
 51
300.6442809598199233
  0
ARC
  5
12117
  8
0
 10
8175.759708962206787
 20
2170.9487845897051557
 30
0.0
 40
0.2517295440703808
 50
300.6442809598199233
 51
322.524513574091884
  0
ARC
  5
12118
  8
0
 10
8175.9436719412151433
 20
2170.8077498393517999
 30
0.0
 40
0.0199253628036069
 50
322.524513574091884
 51
39.3162685963518612
  0
LINE
  5
12119
  8
0
 10
8175.9590874040968629
 20
2170.8203745606160737
 30
0.0
 11
8175.9374700657899666
 21
2170.8467704920030883
 31
0.0
  0
ARC
  5
1211A
  8
0
 10
8175.9479645948858888
 20
2170.7178464628309484
 30
0.0
 40
0.129350455889631
 50
94.6536662669329445
 51
157.054739004545894
  0
LINE
  5
1211B
  8
0
 10
8175.962326943293192
 20
2170.800749055092183
 30
0.0
 11
8175.9974175546813058
 21
2170.7682719795661797
 31
0.0
  0
ARC
  5
1211C
  8
0
 10
8176.0113483812456252
 20
2170.7833238650378007
 30
0.0
 40
0.020509197572414
 50
227.2151115030202106
 51
307.4908210413344136
  0
ARC
  5
1211D
  8
0
 10
8175.7269877070211805
 20
2171.1540328630499062
 30
0.0
 40
0.4877202358123189
 50
307.4908210413344136
 51
318.5505375714420779
  0
ARC
  5
1211E
  8
0
 10
8176.0789824702505939
 20
2170.8431672690639971
 30
0.0
 40
0.0181057866443228
 50
318.5505375714420779
 51
43.5952317399444169
  0
LINE
  5
1211F
  8
0
 10
8176.0920952105398101
 20
2170.8556522821650105
 30
0.0
 11
8176.0696294089011644
 21
2170.8838990623089558
 31
0.0
  0
ARC
  5
12120
  8
0
 10
8176.1121183522936917
 20
2170.7081595298641332
 30
0.0
 40
0.1808029136231533
 50
103.5917071139658958
 51
145.3703642897235113
  0
LINE
  5
12121
  8
0
 10
8175.942187999808084
 20
2170.7050503048299106
 30
0.0
 11
8175.9812580200295997
 21
2170.6688902053770107
 31
0.0
  0
ARC
  5
12122
  8
0
 10
8175.9951888465948286
 20
2170.6839420908490865
 30
0.0
 40
0.020509197572414
 50
227.2151115030202106
 51
307.4908210413344136
  0
ARC
  5
12123
  8
0
 10
8175.710828172370384
 20
2171.0546510888621015
 30
0.0
 40
0.4877202358123189
 50
307.4908210413344136
 51
318.5505375714420779
  0
ARC
  5
12124
  8
0
 10
8176.0628229356016163
 20
2170.7437854948748281
 30
0.0
 40
0.0181057866443228
 50
318.5505375714420779
 51
43.5952317399444169
  0
LINE
  5
12125
  8
0
 10
8176.0759356758890135
 20
2170.7562705079758416
 30
0.0
 11
8176.0534698742521869
 21
2170.7845172881211511
 31
0.0
  0
ARC
  5
12126
  8
0
 10
8176.0975400743409409
 20
2170.6051529484998355
 30
0.0
 40
0.1846990765095445
 50
103.8042455340608967
 51
107.7395323001254042
  0
ARC
  5
12127
  8
0
 10
8176.0975400743409409
 20
2170.6051529484998355
 30
0.0
 40
0.1846990765095445
 50
120.5146266361784058
 51
147.2574241154761125
  0
LINE
  5
12128
  8
0
 10
8175.9661465616163696
 20
2170.6622610231120234
 30
0.0
 11
8176.0009098268656089
 21
2170.6296006551961
 31
0.0
  0
ARC
  5
12129
  8
0
 10
8176.0148406534326568
 20
2170.6446525406668115
 30
0.0
 40
0.020509197572414
 50
227.2151115030202106
 51
307.4908210413344136
  0
ARC
  5
1212A
  8
0
 10
8175.7304799792082122
 20
2171.0153615386811907
 30
0.0
 40
0.4877202358123189
 50
307.4908210413344136
 51
318.5505375714420779
  0
ARC
  5
1212B
  8
0
 10
8176.082474742440354
 20
2170.7044959446930079
 30
0.0
 40
0.0181057866443228
 50
318.5505375714420779
 51
43.5952317399444169
  0
LINE
  5
1212C
  8
0
 10
8176.0955874827268417
 20
2170.7169809577949309
 30
0.0
 11
8176.0796280904460218
 21
2170.737047076611816
 31
0.0
  0
ARC
  5
1212D
  8
0
 10
8176.308602620450074
 20
2170.3311559300977933
 30
0.0
 40
0.4763472838705864
 50
134.1442794627311059
 51
135.9654667239086052
  0
LINE
  5
1212E
  8
0
 10
8176.1008116231014355
 20
2170.7905159554798047
 30
0.0
 11
8176.1324897788099406
 21
2170.7611971771830213
 31
0.0
  0
ARC
  5
1212F
  8
0
 10
8176.1464206053751695
 20
2170.7762490626550971
 30
0.0
 40
0.020509197572414
 50
227.2151115030202106
 51
307.4908210413344136
  0
ARC
  5
12130
  8
0
 10
8175.8620599311516344
 20
2171.146958060668112
 30
0.0
 40
0.4877202358123189
 50
307.4908210413344136
 51
318.5505375714420779
  0
ARC
  5
12131
  8
0
 10
8176.2140546943819572
 20
2170.8360924666799292
 30
0.0
 40
0.0181057866443228
 50
318.5505375714420779
 51
43.5952317399444169
  0
LINE
  5
12132
  8
0
 10
8176.2271674346711734
 20
2170.8485774797818522
 30
0.0
 11
8176.2047016330307088
 21
2170.8768242599271616
 31
0.0
  0
ARC
  5
12133
  8
0
 10
8176.3354041044449332
 20
2170.6138158508429115
 30
0.0
 40
0.2936946701632274
 50
116.4251562965489057
 51
143.0121541438051054
  0
LINE
  5
12134
  8
0
 10
8176.0766621710781692
 20
2171.0101118206330284
 30
0.0
 11
8176.1083403267903122
 21
2170.9807930423357902
 31
0.0
  0
ARC
  5
12135
  8
0
 10
8176.1222711533528127
 20
2170.995844927807866
 30
0.0
 40
0.020509197572414
 50
227.2151115030202106
 51
307.4908210413344136
  0
ARC
  5
12136
  8
0
 10
8175.8379104791292775
 20
2171.366553925820881
 30
0.0
 40
0.4877202358123189
 50
307.4908210413344136
 51
318.5505375714420779
  0
ARC
  5
12137
  8
0
 10
8176.1899052423596004
 20
2171.0556883318331529
 30
0.0
 40
0.0181057866443228
 50
318.5505375714420779
 51
43.5952317399444169
  0
LINE
  5
12138
  8
0
 10
8176.2030179826488165
 20
2171.0681733449341664
 30
0.0
 11
8176.1805521810101709
 21
2171.0964201250790211
 31
0.0
  0
ARC
  5
12139
  8
0
 10
8176.2056668892728339
 20
2170.9605085675971168
 30
0.0
 40
0.1382125176250794
 50
100.4694254174960975
 51
158.9678850228222018
  0
LINE
  5
1213A
  8
0
 10
8176.1693528898022123
 20
2171.0042369597981633
 30
0.0
 11
8176.2010310455107174
 21
2170.9749181815009251
 31
0.0
  0
ARC
  5
1213B
  8
0
 10
8176.2149618720750368
 20
2170.9899700669730009
 30
0.0
 40
0.020509197572414
 50
227.2151115030202106
 51
307.4908210413344136
  0
ARC
  5
1213C
  8
0
 10
8175.9306011978533206
 20
2171.3606790649851064
 30
0.0
 40
0.4877202358123189
 50
307.4908210413344136
 51
318.5505375714420779
  0
ARC
  5
1213D
  8
0
 10
8176.282595961080915
 20
2171.0498134709991973
 30
0.0
 40
0.0181057866443228
 50
318.5505375714420779
 51
43.5952317399444169
  0
LINE
  5
1213E
  8
0
 10
8176.2957087013719502
 20
2171.0622984841002108
 30
0.0
 11
8176.273242899732395
 21
2171.0905452642450655
 31
0.0
  0
ARC
  5
1213F
  8
0
 10
8176.2983576079950581
 20
2170.9546337067631612
 30
0.0
 40
0.1382125176250794
 50
100.4694254174960975
 51
130.9839540781898961
  0
ARC
  5
12140
  8
0
 10
8176.2983576079950581
 20
2170.9546337067631612
 30
0.0
 40
0.1382125176250794
 50
155.6309927385217975
 51
158.9678850228222018
  0
LINE
  5
12141
  8
0
 10
8176.2599292526920181
 20
2171.0009374066871715
 30
0.0
 11
8176.2837812399429822
 21
2170.9788619066948741
 31
0.0
  0
ARC
  5
12142
  8
0
 10
8176.2977120665082111
 20
2170.9939137921669499
 30
0.0
 40
0.020509197572414
 50
227.2151115030202106
 51
307.4908210413344136
  0
ARC
  5
12143
  8
0
 10
8176.013351392282857
 20
2171.3646227901790553
 30
0.0
 40
0.4877202358123189
 50
307.4908210413344136
 51
318.5505375714420779
  0
ARC
  5
12144
  8
0
 10
8176.3653461555149988
 20
2171.053757196191782
 30
0.0
 40
0.0181057866443228
 50
318.5505375714420779
 51
43.5952317399444169
  0
LINE
  5
12145
  8
0
 10
8176.378458895802396
 20
2171.0662422092941597
 30
0.0
 11
8176.3559930941655693
 21
2171.0944889894390144
 31
0.0
  0
ARC
  5
12146
  8
0
 10
8176.3811078024291419
 20
2170.9585774319571101
 30
0.0
 40
0.1382125176250794
 50
100.4694254174960975
 51
129.4393813878093908
  0
LINE
  5
12147
  8
0
 10
8176.3441360833858198
 20
2171.0062200606248553
 30
0.0
 11
8176.3594355148406976
 21
2170.9920601252110828
 31
0.0
  0
ARC
  5
12148
  8
0
 10
8176.3733663414059265
 20
2171.0071120106831586
 30
0.0
 40
0.020509197572414
 50
227.2151115030202106
 51
307.4908210413344136
  0
ARC
  5
12149
  8
0
 10
8176.0890056671833008
 20
2171.3778210086948093
 30
0.0
 40
0.4877202358123189
 50
307.4908210413344136
 51
318.5505375714420779
  0
ARC
  5
1214A
  8
0
 10
8176.4410004304127142
 20
2171.0669554147079907
 30
0.0
 40
0.0181057866443228
 50
318.5505375714420779
 51
43.5952317399444169
  0
LINE
  5
1214B
  8
0
 10
8176.4541131707019304
 20
2171.0794404278090042
 30
0.0
 11
8176.4316473690641942
 21
2171.1076872079552231
 31
0.0
  0
ARC
  5
1214C
  8
0
 10
8176.4567620773268573
 20
2170.9717756504719546
 30
0.0
 40
0.1382125176250794
 50
100.4694254174960975
 51
129.5252263159075881
  0
LINE
  5
1214D
  8
0
 10
8176.2461319278481824
 20
2170.889184092251071
 30
0.0
 11
8176.2801362520385737
 21
2170.8591272563508028
 31
0.0
  0
ARC
  5
1214E
  8
0
 10
8176.2931850355607821
 20
2170.8738977514522048
 30
0.0
 40
0.0197088375334157
 50
228.541470255220986
 51
302.8093086743024855
  0
ARC
  5
1214F
  8
0
 10
8174.7509631478469601
 20
2172.5229113805730776
 30
0.0
 40
2.2772029470155171
 50
312.9949203934016282
 51
315.6316890081388919
  0
ARC
  5
12150
  8
0
 10
8176.3603901549204238
 20
2170.9417457570898478
 30
0.0
 40
0.0215911878519206
 50
328.7227856166991273
 51
36.391593558029129
  0
LINE
  5
12151
  8
0
 10
8176.3777706477821994
 20
2170.9545558258159872
 30
0.0
 11
8176.3539266568695894
 21
2170.9826645872908557
 31
0.0
  0
ARC
  5
12152
  8
0
 10
8176.6195049208618002
 20
2170.5675288922611799
 30
0.0
 40
0.4928178766992768
 50
122.6086104247519017
 51
139.2555975224842939
  0
LINE
  5
12153
  8
0
 10
8176.1721186251734252
 20
2170.7704814549101684
 30
0.0
 11
8176.1820562571092523
 21
2170.7616185162978582
 31
0.0
  0
ARC
  5
12154
  8
0
 10
8176.1951586194763877
 20
2170.7763096317898999
 30
0.0
 40
0.0196850393446035
 50
228.2716270650477952
 51
314.0916273362857964
  0
LINE
  5
12155
  8
0
 10
8176.2088556243606945
 20
2170.7621712856621343
 30
0.0
 11
8176.2787108557949978
 21
2170.8298459229531545
 31
0.0
  0
ARC
  5
12156
  8
0
 10
8176.2650138508734017
 20
2170.8439842691209378
 30
0.0
 40
0.0196850394016466
 50
314.0916273362857964
 51
39.9116265105642398
  0
LINE
  5
12157
  8
0
 10
8176.2801129645276887
 20
2170.8566142945778665
 30
0.0
 11
8176.2719817146162313
 21
2170.8663351511991095
 31
0.0
  0
LINE
  5
12158
  8
0
 10
8176.2224182743220808
 20
2170.8545487106498513
 30
0.0
 11
8176.2551724488030231
 21
2170.8811930657789162
 31
0.0
  0
LINE
  5
12159
  8
0
 10
8176.3618749730339914
 20
2170.973294623847778
 30
0.0
 11
8176.3771608965280393
 21
2170.9869568987628554
 31
0.0
  0
LINE
  5
1215A
  8
0
 10
8176.4582971258851103
 20
2171.0616034210797807
 30
0.0
 11
8176.5042120675607293
 21
2171.1055346774887767
 31
0.0
  0
LINE
  5
1215B
  8
0
 10
8176.0808395107969773
 20
2170.741990354698828
 30
0.0
 11
8176.1204282160942967
 21
2170.7723603991339587
 31
0.0
  0
LINE
  5
1215C
  8
0
 10
8175.8831045138340414
 20
2170.5997673594720254
 30
0.0
 11
8175.9690387615482905
 21
2170.659543777962881
 31
0.0
  0
LINE
  5
1215D
  8
0
 10
8175.5924401279671656
 20
2170.4354385669880685
 30
0.0
 11
8175.6652790545449534
 21
2170.4769006863748473
 31
0.0
  0
LINE
  5
1215E
  8
0
 10
8175.4785308237842401
 20
2170.3540483088768269
 30
0.0
 11
8175.4906306699576817
 21
2170.3606022279482204
 31
0.0
  0
LINE
  5
1215F
  8
0
 10
8175.9839610694816656
 20
2170.6455241493767971
 30
0.0
 11
8175.9222692034090869
 21
2170.5710321677579486
 31
0.0
  0
ARC
  5
12160
  8
0
 10
8180.8743268356929548
 20
2166.4698971248330963
 30
0.0
 40
6.4297887549886523
 50
140.3695375357862929
 51
148.8398442825642007
  0
ARC
  5
12161
  8
0
 10
8175.3046369423109354
 20
2169.8377295938380485
 30
0.0
 40
0.0789546757935882
 50
282.808666116290226
 51
328.8398442825641723
  0
ARC
  5
12162
  8
0
 10
8175.213357922942123
 20
2170.2392146075999335
 30
0.0
 40
0.4906852620416348
 50
236.4098763161024124
 51
282.808666116290226
  0
ARC
  5
12163
  8
0
 10
8174.9582544642062203
 20
2169.8551094081872179
 30
0.0
 40
0.0295837776852774
 50
144.1899742670645992
 51
236.4098763161024124
  0
ARC
  5
12164
  8
0
 10
8182.611161045040717
 20
2164.33362316791181
 30
0.0
 40
9.4664153135636724
 50
141.9305720341465076
 51
144.1899742670645992
  0
ARC
  5
12165
  8
0
 10
8175.1461956873708914
 20
2170.1804742897938922
 30
0.0
 40
0.0157456127578487
 50
321.9305720341259871
 51
43.1352471767133494
  0
LINE
  5
12166
  8
0
 10
8175.1576859192082338
 20
2170.1912399246311907
 30
0.0
 11
8175.1541470238507827
 21
2170.1950170105810685
 31
0.0
  0
LINE
  5
12167
  8
0
 10
8177.1258207028458855
 20
2173.0525467157581261
 30
0.0
 11
8174.9442103820083503
 21
2170.8924840279310047
 31
0.0
  0
ARC
  5
12168
  8
0
 10
8176.5098645981888694
 20
2169.3112116805450569
 30
0.0
 40
2.225240517618829
 50
134.7156445703647023
 51
141.6351256064976099
  0
ARC
  5
12169
  8
0
 10
8177.2411996712753535
 20
2171.9258393062232244
 30
0.0
 40
0.1124923207654394
 50
129.9206421971653072
 51
150.0722690869160942
  0
ARC
  5
1216A
  8
0
 10
8177.0697455487334082
 20
2172.0697244721768584
 30
0.0
 40
0.1147716906295733
 50
310.1227738999942858
 51
329.8701373841137183
  0
ARC
  5
1216B
  8
0
 10
8177.1712585055402087
 20
2171.7571269651639341
 30
0.0
 40
0.1124923207654394
 50
129.9206421971653072
 51
150.0722690869160942
  0
ARC
  5
1216C
  8
0
 10
8176.999804382999173
 20
2171.9010121311171133
 30
0.0
 40
0.1147716906295733
 50
310.1227738999942858
 51
329.8701373841137183
  0
ARC
  5
1216D
  8
0
 10
8177.0293383823182012
 20
2171.7146820555240083
 30
0.0
 40
0.1124923207654394
 50
129.9206421971653072
 51
150.0722690869160942
  0
ARC
  5
1216E
  8
0
 10
8176.8578842597780749
 20
2171.8585672214780971
 30
0.0
 40
0.1147716906295733
 50
310.1227738999942858
 51
329.8701373841137183
  0
ARC
  5
1216F
  8
0
 10
8177.0969836658759959
 20
2171.5999355856979491
 30
0.0
 40
0.1124923207654394
 50
129.9206421971653072
 51
150.0722690869160942
  0
ARC
  5
12170
  8
0
 10
8176.9255295433358697
 20
2171.7438207516529474
 30
0.0
 40
0.1147716906295733
 50
310.1227738999942858
 51
329.8701373841137183
  0
ARC
  5
12171
  8
0
 10
8176.9944714184193799
 20
2171.5808036201237883
 30
0.0
 40
0.1124923207654394
 50
129.9206421971653072
 51
150.0722690869160942
  0
ARC
  5
12172
  8
0
 10
8176.8230172958792537
 20
2171.724688786077877
 30
0.0
 40
0.1147716906295733
 50
310.1227738999942858
 51
329.8701373841137183
  0
ARC
  5
12173
  8
0
 10
8176.7819732651760205
 20
2171.4718294965168752
 30
0.0
 40
0.1124923207654394
 50
129.9206421971653072
 51
150.0722690869160942
  0
ARC
  5
12174
  8
0
 10
8176.6105191426358942
 20
2171.615714662470964
 30
0.0
 40
0.1147716906295733
 50
310.1227738999942858
 51
329.8701373841137183
  0
ARC
  5
12175
  8
0
 10
8176.786512774194307
 20
2171.3756029953287907
 30
0.0
 40
0.1124923207654394
 50
129.9206421971653072
 51
150.0722690869160942
  0
ARC
  5
12176
  8
0
 10
8176.6150586516541807
 20
2171.5194881612828794
 30
0.0
 40
0.1147716906295733
 50
310.1227738999942858
 51
329.8701373841137183
  0
ARC
  5
12177
  8
0
 10
8177.0039599235187779
 20
2171.4468794748240725
 30
0.0
 40
0.1124923207654394
 50
129.9206421971653072
 51
150.0722690869160942
  0
ARC
  5
12178
  8
0
 10
8176.8325058009777422
 20
2171.590764640776797
 30
0.0
 40
0.1147716906295733
 50
310.1227738999942858
 51
329.8701373841137183
  0
ARC
  5
12179
  8
0
 10
8176.7859819747491201
 20
2171.2996497434969569
 30
0.0
 40
0.1124923207654394
 50
129.9206421971653072
 51
150.0722690869160942
  0
ARC
  5
1217A
  8
0
 10
8176.6145278522080844
 20
2171.4435349094510457
 30
0.0
 40
0.1147716906295733
 50
310.1227738999942858
 51
329.8701373841137183
  0
ARC
  5
1217B
  8
0
 10
8176.7701388502637201
 20
2171.2185999344537777
 30
0.0
 40
0.1124923207654394
 50
129.9206421971653072
 51
150.0722690869160942
  0
ARC
  5
1217C
  8
0
 10
8176.5986847277226843
 20
2171.3624851004078664
 30
0.0
 40
0.1147716906295733
 50
310.1227738999942858
 51
329.8701373841137183
  0
ARC
  5
1217D
  8
0
 10
8176.5628672807633848
 20
2171.1474600946130522
 30
0.0
 40
0.1124923207654394
 50
125.3064841788343955
 51
145.4581110686324052
  0
ARC
  5
1217E
  8
0
 10
8176.4035437110578641
 20
2171.304671599455105
 30
0.0
 40
0.1147716906295733
 50
305.5086158816641273
 51
325.255979365788221
  0
ARC
  5
1217F
  8
0
 10
8176.5129087573022844
 20
2171.1971327248329544
 30
0.0
 40
0.1124923207654394
 50
125.1982763194692012
 51
145.3499032092531138
  0
ARC
  5
12180
  8
0
 10
8176.3538823785966088
 20
2171.3546448449810669
 30
0.0
 40
0.1147716906295733
 50
305.4004080222974835
 51
325.1477715064040126
  0
ARC
  5
12181
  8
0
 10
8175.7826595108153924
 20
2170.4680419034148144
 30
0.0
 40
0.1124923207654394
 50
119.898545760970805
 51
140.0501726507623914
  0
ARC
  5
12182
  8
0
 10
8175.638861698310393
 20
2170.6395692955020422
 30
0.0
 40
0.1147716906295733
 50
300.1006774638323122
 51
319.8480409479341233
  0
ARC
  5
12183
  8
0
 10
8175.9514074564067414
 20
2170.5378971218938204
 30
0.0
 40
0.1124923207654394
 50
119.898545760970805
 51
140.0501726507623914
  0
ARC
  5
12184
  8
0
 10
8175.8076096439017419
 20
2170.7094245139810482
 30
0.0
 40
0.1147716906295733
 50
300.1006774638323122
 51
319.8480409479341233
  0
ARC
  5
12185
  8
0
 10
8175.9939246513840772
 20
2170.6797956062428057
 30
0.0
 40
0.1124923207654394
 50
119.898545760970805
 51
140.0501726507623914
  0
ARC
  5
12186
  8
0
 10
8175.8501268388790777
 20
2170.8513229983309429
 30
0.0
 40
0.1147716906295733
 50
300.1006774638323122
 51
319.8480409479341233
  0
ARC
  5
12187
  8
0
 10
8176.1086366493718742
 20
2170.6120918822521162
 30
0.0
 40
0.1124923207654394
 50
119.898545760970805
 51
140.0501726507623914
  0
ARC
  5
12188
  8
0
 10
8175.9648388368668748
 20
2170.7836192743397987
 30
0.0
 40
0.1147716906295733
 50
300.1006774638323122
 51
319.8480409479341233
  0
ARC
  5
12189
  8
0
 10
8176.1278208298435857
 20
2170.7145943710279425
 30
0.0
 40
0.1124923207654394
 50
119.898545760970805
 51
140.0501726507623914
  0
ARC
  5
1218A
  8
0
 10
8175.9840230173376767
 20
2170.8861217631160798
 30
0.0
 40
0.1147716906295733
 50
300.1006774638323122
 51
319.8480409479341233
  0
ARC
  5
1218B
  8
0
 10
8176.2369031809776061
 20
2170.9270369877931444
 30
0.0
 40
0.1124923207654394
 50
119.898545760970805
 51
140.0501726507623914
  0
ARC
  5
1218C
  8
0
 10
8176.0931053684744256
 20
2171.0985643798808269
 30
0.0
 40
0.1147716906295733
 50
300.1006774638323122
 51
319.8480409479341233
  0
ARC
  5
1218D
  8
0
 10
8176.3331273573612634
 20
2170.9224484637998103
 30
0.0
 40
0.1124923207654394
 50
119.898545760970805
 51
140.0501726507623914
  0
ARC
  5
1218E
  8
0
 10
8176.189329544856264
 20
2171.0939758558879475
 30
0.0
 40
0.1147716906295733
 50
300.1006774638323122
 51
319.8480409479341233
  0
ARC
  5
1218F
  8
0
 10
8176.2617401245433939
 20
2170.7050376492829855
 30
0.0
 40
0.1124923207654394
 50
119.898545760970805
 51
140.0501726507623914
  0
ARC
  5
12190
  8
0
 10
8176.1179423120365755
 20
2170.8765650413711228
 30
0.0
 40
0.1147716906295733
 50
300.1006774638323122
 51
319.8480409479341233
  0
ARC
  5
12191
  8
0
 10
8176.4090808697173998
 20
2170.9229405743390089
 30
0.0
 40
0.1124923207654394
 50
119.898545760970805
 51
140.0501726507623914
  0
ARC
  5
12192
  8
0
 10
8176.2652830572124003
 20
2171.0944679664271462
 30
0.0
 40
0.1147716906295733
 50
300.1006774638323122
 51
319.8480409479341233
  0
ARC
  5
12193
  8
0
 10
8176.4901387383688416
 20
2170.9387424118608578
 30
0.0
 40
0.1124923207654394
 50
119.898545760970805
 51
140.0501726507623914
  0
ARC
  5
12194
  8
0
 10
8176.3463409258638421
 20
2171.1102698039489951
 30
0.0
 40
0.1147716906295733
 50
300.1006774638323122
 51
319.8480409479341233
  0
ARC
  5
12195
  8
0
 10
8169.1128739528548977
 20
2174.6906787283651283
 30
0.0
 40
6.9234712031466419
 50
321.1253751480365963
 51
324.724812762032002
  0
ARC
  5
12196
  8
0
 10
8173.4848915652428332
 20
2169.112141694166894
 30
0.0
 40
1.599169866346706
 50
50.4590616919123178
 51
63.5243660000402528
  0
ARC
  5
12197
  8
0
 10
8172.5218329893568807
 20
2165.6690046600629103
 30
0.0
 40
0.0590414687256592
 50
178.0370432398995888
 51
249.5485563634184132
  0
LINE
  5
12198
  8
0
 10
8172.5012031057513013
 20
2165.6136846552572024
 30
0.0
 11
8172.5589464137510731
 21
2165.5934202249559348
 31
0.0
  0
LINE
  5
12199
  8
0
 10
8172.5589464137510731
 20
2165.5934202249559348
 30
0.0
 11
8172.9082902171494425
 21
2165.5843387165559761
 31
0.0
  0
LINE
  5
1219A
  8
0
 10
8172.5706621362496662
 20
2165.5042817547559935
 30
0.0
 11
8172.5706621362496662
 21
2165.5931156641449888
 31
0.0
  0
LINE
  5
1219B
  8
0
 10
8173.4491335164520933
 20
2165.5042817547559935
 30
0.0
 11
8173.4491335164520933
 21
2165.562472874048126
 31
0.0
  0
LINE
  5
1219C
  8
0
 10
8173.449133516423899
 20
2165.5624728740399405
 30
0.0
 11
8173.4817780631819915
 21
2165.5714511857090656
 31
0.0
  0
LINE
  5
1219D
  8
0
 10
8173.4817780631819915
 20
2165.5714511857090656
 30
0.0
 11
8173.4804817486510728
 21
2165.6458212478560199
 31
0.0
  0
LINE
  5
1219E
  8
0
 10
8173.4817077297766446
 20
2165.5754862400499405
 30
0.0
 11
8173.5215647230761533
 21
2165.5867834546061204
 31
0.0
  0
ARC
  5
1219F
  8
0
 10
8173.5011259289722148
 20
2165.6448235145949184
 30
0.0
 40
0.0615336726350087
 50
289.399703601724184
 51
347.3904908269952898
  0
LINE
  5
121A0
  8
0
 10
8173.5611754429019129
 20
2165.6313903934069458
 30
0.0
 11
8173.5786976014469474
 21
2165.7462110558658424
 31
0.0
  0
ARC
  5
121A1
  8
0
 10
8172.9488102342120328
 20
2167.3012283013949855
 30
0.0
 40
1.7173676712657131
 50
268.6480230994541216
 51
286.5530145936673989
  0
ARC
  5
121A2
  8
0
 10
8173.4550298703597946
 20
2165.6046226951898461
 30
0.0
 40
0.0531808996143551
 50
61.5246380325380926
 51
108.5714969032099049
  0
LINE
  5
121A3
  8
0
 10
8172.9082902171494425
 20
2165.5843387165559761
 30
0.0
 11
8172.9081973926286082
 21
2165.5767558370821462
 31
0.0
  0
ARC
  5
121A4
  8
0
 10
8172.9495338729320792
 20
2167.297292838848989
 30
0.0
 40
1.7210334915551151
 50
268.6237143856470198
 51
286.4962964663394018
  0
ARC
  5
121A5
  8
0
 10
8173.4754443022029591
 20
2165.6452522401400529
 30
0.0
 40
0.0050694808909715
 50
6.4445623534982373
 51
72.1301744331896657
  0
ARC
  5
121A6
  8
0
 10
8173.4670118950407414
 20
2165.622945223537954
 30
0.0
 40
0.0289119639357562
 50
69.7899572856570245
 51
95.1546087551810871
  0
ARC
  5
121A7
  8
0
 10
8173.4631485543823146
 20
2165.5826649822038235
 30
0.0
 40
0.0690868786627993
 50
88.9501875931835855
 51
111.1447828459914007
  0
LINE
  5
121A8
  8
0
 10
8173.4804817486510728
 20
2165.6458212478560199
 30
0.0
 11
8173.4803855028503676
 21
2165.6513698874568945
 31
0.0
  0
ARC
  5
121A9
  8
0
 10
8189.1403012183618557
 20
2770.2286876638299873
 30
0.0
 40
604.8697744573305499
 50
268.4622430356744189
 51
268.5135006095969175
  0
LINE
  5
121AA
  8
0
 10
8172.9081973926286082
 20
2165.5767558370821462
 30
0.0
 11
8172.570662031745087
 21
2165.5855554269837739
 31
0.0
  0
ARC
  5
121AB
  8
0
 10
8161.1564501544908126
 20
2170.6968795099028284
 30
0.0
 40
0.028843042679164
 50
227.2907041484203035
 51
264.4655179409971879
  0
ARC
  5
121AC
  8
0
 10
8161.1685775652149459
 20
2170.7807590767461079
 30
0.0
 40
0.1135710156225836
 50
262.4566544692440857
 51
274.9599697855696832
  0
ARC
  5
121AD
  8
0
 10
8161.3375317590498526
 20
2169.5497522608911822
 30
0.0
 40
1.12913122014927
 50
92.8324043797939567
 51
98.1019935804003467
  0
ARC
  5
121AE
  8
0
 10
8161.2887342165313385
 20
2169.9650871572671349
 30
0.0
 40
0.7124512908862132
 50
85.404914315804362
 51
90.5627991426090517
  0
ARC
  5
121AF
  8
0
 10
8161.5129615916812327
 20
2172.543507998324003
 30
0.0
 40
1.87572199446124
 50
264.887442461283797
 51
269.3383298025814838
  0
ARC
  5
121B0
  8
0
 10
8161.3174567177284189
 20
2176.5171472890710902
 30
0.0
 40
5.8518190287097021
 50
271.7023746004056193
 51
273.1608870512944804
  0
ARC
  5
121B1
  8
0
 10
8161.6504440792423338
 20
2170.1613091538010849
 30
0.0
 40
0.5130256220217708
 50
69.3957486331162556
 51
91.1524813313257596
  0
ARC
  5
121B2
  8
0
 10
8163.0522443516410931
 20
2174.2244509108968487
 30
0.0
 40
3.7853512772194162
 50
251.1780613780420026
 51
253.1309508758963887
  0
ARC
  5
121B3
  8
0
 10
8162.0555785249789551
 20
2170.937291125765114
 30
0.0
 40
0.350418657428369
 50
253.1136802795215885
 51
266.8575770856145937
  0
ARC
  5
121B4
  8
0
 10
8161.9542775923910085
 20
2170.3367945268041694
 30
0.0
 40
0.0159302868852209
 50
270.629968407127194
 51
328.1232172641855982
  0
ARC
  5
121B5
  8
0
 10
8161.9555784214571759
 20
2170.3445480457307895
 30
0.0
 40
0.0237095803626032
 50
259.7218783754361198
 51
267.2786993924573835
  0
LINE
  5
121B6
  8
0
 10
8161.9513480038713169
 20
2170.3212189272389878
 30
0.0
 11
8161.260123576771548
 21
2170.4584970559390058
 31
0.0
  0
ARC
  5
121B7
  8
0
 10
8161.2631912444494446
 20
2170.4739434118559984
 30
0.0
 40
0.0157480314999998
 50
193.5805496007920965
 51
258.7671408353130005
  0
LINE
  5
121B8
  8
0
 10
8162.020305319550971
 20
2170.3180364878589899
 30
0.0
 11
8162.0705816105692065
 21
2170.3334457946020848
 31
0.0
  0
LINE
  5
121B9
  8
0
 10
8162.0705816105692065
 20
2170.3334457946020848
 30
0.0
 11
8161.7912844651509658
 21
2170.3912570444567791
 31
0.0
  0
LINE
  5
121BA
  8
0
 10
8161.7912844651509658
 20
2170.3912570444567791
 30
0.0
 11
8161.8146911467483733
 21
2170.5116741030419689
 31
0.0
  0
LINE
  5
121BB
  8
0
 10
8161.4522053205500924
 20
2170.5821341392570503
 30
0.0
 11
8161.4287985529772413
 21
2170.4617170974679539
 31
0.0
  0
LINE
  5
121BC
  8
0
 10
8161.4287985529772413
 20
2170.4617170974679539
 30
0.0
 11
8161.1487434813889195
 21
2170.5176033138232015
 31
0.0
  0
LINE
  5
121BD
  8
0
 10
8161.1487434813889195
 20
2170.5176033138232015
 30
0.0
 11
8161.1783968835507039
 21
2170.6676133451569513
 31
0.0
  0
LINE
  5
121BE
  8
0
 10
8161.1880470748174048
 20
2170.482036615223933
 30
0.0
 11
8161.1487434813889195
 21
2170.5176033138232015
 31
0.0
  0
LINE
  5
121BF
  8
0
 10
8161.1880470748174048
 20
2170.482036615223933
 30
0.0
 11
8162.020305319550971
 21
2170.3180364878589899
 31
0.0
  0
LINE
  5
121C0
  8
0
 10
8162.0705816105692065
 20
2170.3334457946020848
 30
0.0
 11
8162.1193640221008536
 21
2170.5844097971748852
 31
0.0
  0
ARC
  5
121C1
  8
0
 10
8161.4864839044703331
 20
2169.7908374327348611
 30
0.0
 40
0.7920388242649365
 50
65.5195473931116936
 51
92.4804741449022032
  0
LINE
  5
121C2
  8
0
 10
8161.4522053205500924
 20
2170.5821341392570503
 30
0.0
 11
8161.8146911467347309
 21
2170.5116741029742116
 31
0.0
  0
ARC
  5
121C3
  8
0
 10
8161.7570057831862869
 20
2171.1825534757558671
 30
0.0
 40
0.7920385534962024
 50
245.5195394293911875
 51
272.4804820932682219
  0
ARC
  5
121C4
  8
0
 10
8161.651299600587663
 20
2158.7438106293170677
 30
0.0
 40
11.8498469592046103
 50
87.6432687491534637
 51
88.1378030147535441
  0
LINE
  5
121C5
  8
0
 10
8162.1385786048185764
 20
2170.5836346199262152
 30
0.0
 11
8166.2046657591063195
 21
2170.5836346199262152
 31
0.0
  0
LINE
  5
121C6
  8
0
 10
8167.1495476489071734
 20
2170.5836346199262152
 30
0.0
 11
8168.6503985716117313
 21
2170.5836346199262152
 31
0.0
  0
ARC
  5
121C7
  8
0
 10
8170.4055206142556926
 20
2174.5645690801661658
 30
0.0
 40
0.4428188299799471
 50
264.0936777108022966
 51
275.8853110944453988
  0
ARC
  5
121C8
  8
0
 10
8170.4106069056879278
 20
2173.6630824119038152
 30
0.0
 40
0.4711680388863271
 50
85.0910256469690438
 51
96.275382422163986
  0
ARC
  5
121C9
  8
0
 10
8170.3648545033538539
 20
2174.0865015475910695
 30
0.0
 40
0.0452921027964243
 50
97.2931784948410723
 51
108.7400209722001989
  0
ARC
  5
121CA
  8
0
 10
8170.3492216187460144
 20
2174.1278324740392236
 30
0.0
 40
0.0008173431885323
 50
121.6775376460738016
 51
221.3752868581603082
  0
ARC
  5
121CB
  8
0
 10
8170.3521999821950885
 20
2174.1243250736588379
 30
0.0
 40
0.005410785209848
 50
110.5201386227075062
 51
129.0335816244790976
  0
ARC
  5
121CC
  8
0
 10
8170.351381153784132
 20
2174.1299089392618953
 30
0.0
 40
0.0038126117441316
 50
223.340493659554113
 51
250.7286304492814111
  0
ARC
  5
121CD
  8
0
 10
8170.3652463910848383
 20
2174.1706351315010579
 30
0.0
 40
0.046834203905402
 50
251.1605745953538928
 51
263.5109966094580045
  0
ARC
  5
121CE
  8
0
 10
8170.4655827979913738
 20
2174.1284646258909561
 30
0.0
 40
0.0009172636794938
 50
303.3293787676087163
 51
67.359605385526848
  0
ARC
  5
121CF
  8
0
 10
8170.4616972096191603
 20
2174.1336750183249933
 30
0.0
 40
0.007415553280219
 50
288.3828588519161258
 51
306.2949647786297191
  0
ARC
  5
121D0
  8
0
 10
8170.4610602928951266
 20
2174.1215694014331348
 30
0.0
 40
0.0091491534686444
 50
57.7982582344442832
 51
74.9020671539808518
  0
ARC
  5
121D1
  8
0
 10
8170.4437144115017873
 20
2174.1960361227779686
 30
0.0
 40
0.0723123497152454
 50
275.7236527532361947
 51
286.3212466784368075
  0
ARC
  5
121D2
  8
0
 10
8170.4437079993613224
 20
2174.051869097573217
 30
0.0
 40
0.0809754196073416
 50
75.8937675418015374
 51
84.8858580588903493
  0
LINE
  5
121D3
  8
0
 10
8166.2046657591063195
 20
2170.1062279225570819
 30
0.0
 11
8167.1495476489071734
 21
2170.1062279225570819
 31
0.0
  0
ENDSEC
  0
EOF
