  0
SECTION
  2
HEADER
  9
$ACADVER
  1
AC1009
  9
$INSBASE
 10
4552.2415097261000483
 20
467.1202712381107744
 30
0.0
  9
$EXTMIN
 10
4543.640290702067432
 20
460.9908074552440098
 30
-0.0015258207003583
  9
$EXTMAX
 10
4560.7668410875630798
 20
468.9515367854937153
 30
0.0000000349246037
  9
$LIMMIN
 10
0.0
 20
0.0
  9
$LIMMAX
 10
11.6929133858000007
 20
8.2677165353999982
  9
$ORTHOMODE
 70
     0
  9
$REGENMODE
 70
     1
  9
$FILLMODE
 70
     1
  9
$QTEXTMODE
 70
     0
  9
$MIRRTEXT
 70
     0
  9
$DRAGMODE
 70
     2
  9
$LTSCALE
 40
0.6431102362
  9
$OSMODE
 70
   695
  9
$ATTMODE
 70
     1
  9
$TEXTSIZE
 40
0.2
  9
$TRACEWID
 40
0.05
  9
$TEXTSTYLE
  7
STANDARD
  9
$CLAYER
  8
0
  9
$CELTYPE
  6
BYLAYER
  9
$CECOLOR
 62
   256
  9
$DIMSCALE
 40
1.0
  9
$DIMASZ
 40
0.1875
  9
$DIMEXO
 40
0.0625
  9
$DIMDLI
 40
0.4443307087
  9
$DIMRND
 40
0.0
  9
$DIMDLE
 40
0.0
  9
$DIMEXE
 40
0.125
  9
$DIMTP
 40
0.01
  9
$DIMTM
 40
0.01
  9
$DIMTXT
 40
2.0
  9
$DIMCEN
 40
0.1052362205
  9
$DIMTSZ
 40
0.0
  9
$DIMTOL
 70
     1
  9
$DIMLIM
 70
     0
  9
$DIMTIH
 70
     1
  9
$DIMTOH
 70
     1
  9
$DIMSE1
 70
     0
  9
$DIMSE2
 70
     0
  9
$DIMTAD
 70
     0
  9
$DIMZIN
 70
     0
  9
$DIMBLK
  1

  9
$DIMASO
 70
     1
  9
$DIMSHO
 70
     1
  9
$DIMPOST
  1
\X
  9
$DIMAPOST
  1

  9
$DIMALT
 70
     1
  9
$DIMALTD
 70
     2
  9
$DIMALTF
 40
25.3999999999999986
  9
$DIMLFAC
 40
1.0
  9
$DIMTOFL
 70
     0
  9
$DIMTVP
 40
0.0
  9
$DIMTIX
 70
     0
  9
$DIMSOXD
 70
     0
  9
$DIMSAH
 70
     0
  9
$DIMBLK1
  1

  9
$DIMBLK2
  1

  9
$DIMSTYLE
  2
STANDARD
  9
$DIMCLRD
 70
     0
  9
$DIMCLRE
 70
     0
  9
$DIMCLRT
 70
     0
  9
$DIMTFAC
 40
1.0
  9
$DIMGAP
 40
0.09
  9
$LUNITS
 70
     2
  9
$LUPREC
 70
     4
  9
$SKETCHINC
 40
0.1
  9
$FILLETRAD
 40
0.0
  9
$AUNITS
 70
     0
  9
$AUPREC
 70
     0
  9
$MENU
  1
.
  9
$ELEVATION
 40
0.0
  9
$PELEVATION
 40
0.0
  9
$THICKNESS
 40
0.0
  9
$LIMCHECK
 70
     0
  9
$BLIPMODE
 70
     0
  9
$CHAMFERA
 40
0.0
  9
$CHAMFERB
 40
0.0
  9
$SKPOLY
 70
     0
  9
$TDCREATE
 40
2458060.468368056230247
  9
$TDUPDATE
 40
2459297.7281712959520519
  9
$TDINDWG
 40
1.5423638889
  9
$TDUSRTIMER
 40
1.5423638889
  9
$USRTIMER
 70
     1
  9
$ANGBASE
 50
0.0
  9
$ANGDIR
 70
     0
  9
$PDMODE
 70
     0
  9
$PDSIZE
 40
0.3125
  9
$PLINEWID
 40
0.0
  9
$COORDS
 70
     1
  9
$SPLFRAME
 70
     0
  9
$SPLINETYPE
 70
     6
  9
$SPLINESEGS
 70
     8
  9
$ATTDIA
 70
     1
  9
$ATTREQ
 70
     1
  9
$HANDLING
 70
     1
  9
$HANDSEED
  5
19EF6
  9
$SURFTAB1
 70
     6
  9
$SURFTAB2
 70
     6
  9
$SURFTYPE
 70
     6
  9
$SURFU
 70
     6
  9
$SURFV
 70
     6
  9
$UCSNAME
  2

  9
$UCSORG
 10
0.0
 20
0.0
 30
0.0
  9
$UCSXDIR
 10
1.0
 20
0.0
 30
0.0
  9
$UCSYDIR
 10
0.0
 20
1.0
 30
0.0
  9
$PUCSNAME
  2

  9
$PUCSORG
 10
0.0
 20
0.0
 30
0.0
  9
$PUCSXDIR
 10
1.0
 20
0.0
 30
0.0
  9
$PUCSYDIR
 10
0.0
 20
1.0
 30
0.0
  9
$USERI1
 70
     0
  9
$USERI2
 70
     0
  9
$USERI3
 70
     0
  9
$USERI4
 70
     0
  9
$USERI5
 70
     0
  9
$USERR1
 40
0.0
  9
$USERR2
 40
0.0
  9
$USERR3
 40
0.0
  9
$USERR4
 40
0.0
  9
$USERR5
 40
0.0
  9
$WORLDVIEW
 70
     1
  9
$SHADEDGE
 70
     3
  9
$SHADEDIF
 70
    70
  9
$TILEMODE
 70
     1
  9
$MAXACTVP
 70
    64
  9
$PLIMCHECK
 70
     0
  9
$PEXTMIN
 10
1.0000000000000000E+20
 20
1.0000000000000000E+20
 30
1.0000000000000000E+20
  9
$PEXTMAX
 10
-1.0000000000000000E+20
 20
-1.0000000000000000E+20
 30
-1.0000000000000000E+20
  9
$PLIMMIN
 10
0.0
 20
0.0
  9
$PLIMMAX
 10
12.0
 20
9.0
  9
$UNITMODE
 70
     0
  9
$VISRETAIN
 70
     1
  9
$PLINEGEN
 70
     0
  9
$PSLTSCALE
 70
     1
  0
ENDSEC
  0
SECTION
  2
TABLES
  0
TABLE
  2
VPORT
 70
     1
  0
VPORT
  2
*ACTIVE
 70
     0
 10
0.0
 20
0.0
 11
1.0
 21
1.0
 12
640.8382093457024666
 22
332.3915669566420092
 13
0.0
 23
0.0
 14
1.0
 24
1.0
 15
0.0
 25
0.0
 16
0.0
 26
0.0
 36
60.4960186965801583
 17
3911.3653564453120453
 27
132.5796051025390057
 37
0.0
 40
13.6250771570113898
 41
1.866962305986696
 42
50.0
 43
0.0
 44
0.0
 50
0.0
 51
0.0
 71
     0
 72
   100
 73
     1
 74
     1
 75
     0
 76
     0
 77
     0
 78
     0
  0
ENDTAB
  0
TABLE
  2
LTYPE
 70
     2
  0
LTYPE
  2
CONTINUOUS
 70
     0
  3
Solid line
 72
    65
 73
     0
 40
0.0
  0
LTYPE
  2
PHANTOM2
 70
     0
  3
___ _ _ ___ _ _ ___ _ _ ___ _ _
 72
    65
 73
     6
 40
1.25
 49
0.625
 49
-0.125
 49
0.125
 49
-0.125
 49
0.125
 49
-0.125
  0
ENDTAB
  0
TABLE
  2
LAYER
 70
     2
  0
LAYER
  2
0
 70
     0
 62
   255
  6
CONTINUOUS
  0
LAYER
  2
DEFPOINTS
 70
     0
 62
     7
  6
CONTINUOUS
  0
ENDTAB
  0
TABLE
  2
STYLE
 70
     1
  0
STYLE
  2
STANDARD
 70
     0
 40
0.0
 41
0.8
 50
0.0
 71
     0
 42
0.2
  3
txt
  4

  0
ENDTAB
  0
TABLE
  2
VIEW
 70
     0
  0
ENDTAB
  0
TABLE
  2
UCS
 70
     0
  0
ENDTAB
  0
TABLE
  2
APPID
 70
    11
  0
APPID
  2
ACAD
 70
     0
  0
APPID
  2
ACAD_MLEADERVER
 70
     0
  0
APPID
  2
ACAD_EXEMPT_FROM_CAD_STANDARDS
 70
     0
  0
APPID
  2
ACAD_NAV_VCDISPLAY
 70
     0
  0
APPID
  2
ACAECLAYERSTANDARD
 70
     0
  0
APPID
  2
ACCMTRANSPARENCY
 70
     0
  0
APPID
  2
ACAD_DSTYLE_DIMJAG
 70
     0
  0
APPID
  2
ACAD_DSTYLE_DIMTALN
 70
     0
  0
APPID
  2
ACDBATTR
 70
     0
  0
APPID
  2
ACADANNOTATIVE
 70
     0
  0
APPID
  2
DCO15
 70
     0
  0
ENDTAB
  0
TABLE
  2
DIMSTYLE
 70
     1
  0
DIMSTYLE
  2
STANDARD
 70
     0
  3

  4

  5

  6

  7

 40
1.0
 41
0.1875
 42
0.0625
 43
0.38
 44
0.125
 45
0.0
 46
0.0
 47
0.01
 48
0.01
140
0.15625
141
0.09
142
0.0
143
25.3999999999999986
144
1.0
145
0.0
146
1.0
147
0.09
 71
     1
 72
     0
 73
     1
 74
     1
 75
     0
 76
     0
 77
     0
 78
     4
170
     0
171
     2
172
     0
173
     0
174
     0
175
     0
176
     0
177
     0
178
     0
  0
ENDTAB
  0
ENDSEC
  0
SECTION
  2
BLOCKS
  0
BLOCK
  8
0
  2
$MODEL_SPACE
 70
     0
 10
0.0
 20
0.0
 30
0.0
  3
$MODEL_SPACE
  1

  0
ENDBLK
  5
21
  8
0
  0
BLOCK
 67
     1
  8
0
  2
$PAPER_SPACE
 70
     0
 10
0.0
 20
0.0
 30
0.0
  3
$PAPER_SPACE
  1

  0
ENDBLK
  5
1D
 67
     1
  8
0
  0
ENDSEC
  0
SECTION
  2
ENTITIES
  0
LINE
  5
19D52
  8
0
 10
4544.0873235150502296
 20
463.8085116008109026
 30
0.0
 11
4543.9742679028149723
 21
468.590308017210873
 31
0.0
  0
LINE
  5
19D53
  8
0
 10
4544.2887372851500913
 20
463.734444466410821
 30
0.0
 11
4544.2887372851500913
 21
463.6163342302108958
 31
0.0
  0
LINE
  5
19D54
  8
0
 10
4549.4486019220503294
 20
463.8063146442107723
 30
0.0
 11
4549.5576935519502513
 21
466.9302901899109202
 31
0.0
  0
LINE
  5
19D55
  8
0
 10
4549.411381285049174
 20
467.1990113955109223
 30
0.0
 11
4549.411381285049174
 21
467.1202699644107952
 31
0.0
  0
LINE
  5
19D56
  8
0
 10
4549.7898484020506658
 20
466.4286954377109282
 30
0.0
 11
4549.8091714015499747
 21
467.029837323210927
 31
0.0
  0
LINE
  5
19D57
  8
0
 10
4550.9517261637502088
 20
461.144724184510892
 30
0.0
 11
4550.868589219749083
 21
462.3341979167108775
 31
0.0
  0
LINE
  5
19D58
  8
0
 10
4551.1088232243500897
 20
460.9982239940109139
 30
0.0
 11
4553.374163157050134
 21
460.9982239940109139
 31
0.0
  0
LINE
  5
19D59
  8
0
 10
4551.0096715251493151
 20
463.4601055861108989
 30
0.0
 11
4551.2769438712502961
 21
461.5583640272109278
 31
0.0
  0
LINE
  5
19D5A
  8
0
 10
4550.8309315435499229
 20
466.5118975565109167
 30
0.0
 11
4551.2140612025496011
 21
463.7857883812109208
 31
0.0
  0
LINE
  5
19D5B
  8
0
 10
4553.531260217650015
 20
461.144724184510892
 30
0.0
 11
4553.6143971616502313
 21
462.3341979167108775
 31
0.0
  0
LINE
  5
19D5C
  8
0
 10
4553.206042379549217
 20
461.5583630980108865
 30
0.0
 11
4553.4841541370496998
 21
463.5372310766109081
 31
0.0
  0
LINE
  5
19D5D
  8
0
 10
4544.2887372851500913
 20
463.6163342302108958
 30
0.0
 11
4559.2863080966499183
 21
463.6163342302108958
 31
0.0
  0
LINE
  5
19D5E
  8
0
 10
4544.1037020686499091
 20
463.734444466410821
 30
0.0
 11
4549.4012982093499886
 21
463.734444466410821
 31
0.0
  0
LINE
  5
19D5F
  8
0
 10
4558.2065309048502968
 20
464.0572791121107912
 30
0.0
 11
4557.3436743819502226
 21
464.0572791121107912
 31
0.0
  0
LINE
  5
19D60
  8
0
 10
4549.6286436428499655
 20
467.1202712381107744
 30
0.0
 11
4560.4152476304507218
 21
467.1202712381107744
 31
0.0
  0
LINE
  5
19D61
  8
0
 10
4549.411381285049174
 20
467.1990113955109223
 30
0.0
 11
4560.4761724847503501
 21
467.1990113955109223
 31
0.0
  0
LINE
  5
19D62
  8
0
 10
4559.4828894694501287
 20
463.8028822703108744
 30
0.0
 11
4559.6469698897499256
 21
466.9337231980109095
 31
0.0
  0
LINE
  5
19D63
  8
0
 10
4560.5089786101671052
 20
468.590308017210873
 30
0.0
 11
4560.4761724847503501
 21
467.1990113955109223
 31
0.0
  0
LINE
  5
19D64
  8
0
 10
4560.4152476304507218
 20
467.1990113955109223
 30
0.0
 11
4560.4152476304507218
 21
467.1202712381107744
 31
0.0
  0
ARC
  5
19D65
  8
0
 10
4552.2414443179559385
 20
455.0411841312479169
 30
0.0
 40
6.3424387788375496
 50
84.904412311768894
 51
95.0947403194694942
  0
ARC
  5
19D66
  8
0
 10
4552.2784610705502928
 20
455.4811342915107844
 30
0.0
 40
5.9009400150999989
 50
83.9365121989769563
 51
84.883004047582034
  0
ARC
  5
19D67
  8
0
 10
4552.2155797897312368
 20
455.3737381625306853
 30
0.0
 40
6.0089029330108179
 50
95.1306821689411066
 51
96.060134738786175
  0
ARC
  5
19D68
  8
0
 10
4550.6329436287505814
 20
462.3177277301109029
 30
0.0
 40
0.2362204724
 50
3.998122779499218
 51
78.1804086551984057
  0
ARC
  5
19D69
  8
0
 10
4553.8500427526496424
 20
462.3177277301109029
 30
0.0
 40
0.2362204724
 50
101.8195913448015943
 51
176.001877220500802
  0
ARC
  5
19D6A
  8
0
 10
4559.2863088523481565
 20
463.8131846239120932
 30
0.0
 40
0.1968503937026301
 50
269.9997800447927148
 51
356.9999999996978772
  0
ARC
  5
19D6B
  8
0
 10
4549.2518714442503551
 20
463.8131846239108995
 30
0.0
 40
0.1968503937
 50
270.0
 51
358.0000002627003823
  0
ARC
  5
19D6C
  8
0
 10
4559.8435505068500788
 20
466.9234208444108276
 30
0.0
 40
0.1968503937
 50
90.0
 51
177.0000000000003979
  0
ARC
  5
19D6D
  8
0
 10
4544.2841184346498267
 20
463.8131846239108995
 30
0.0
 40
0.1968503937
 50
181.3602698487999874
 51
203.5781784781906936
  0
ARC
  5
19D6E
  8
0
 10
4549.7544240518482184
 20
466.9234208444169099
 30
0.0
 40
0.1968503936939339
 50
89.9999999992704574
 51
178.0001846961330045
  0
ARC
  5
19D6F
  8
0
 10
4551.4089958669428597
 20
463.8131846239026004
 30
0.0
 40
0.196850393689875
 50
187.9999891180009968
 51
270.0
  0
ARC
  5
19D70
  8
0
 10
4551.1088232243500897
 20
461.1557043089109129
 30
0.0
 40
0.157480315
 50
183.9981227798016903
 51
270.0
  0
ARC
  5
19D71
  8
0
 10
4553.374163157050134
 20
461.1557043089109129
 30
0.0
 40
0.157480315
 50
270.0
 51
356.0018772201983097
  0
LINE
  5
19D72
  8
0
 10
4557.2562035669498073
 20
465.4993340259109118
 30
0.0
 11
4557.2092025752499467
 21
464.2541295058109085
 31
0.0
  0
LINE
  5
19D73
  8
0
 10
4558.3247918671504522
 20
464.2541295058109085
 30
0.0
 11
4558.3776522830503382
 21
465.4993340259109118
 31
0.0
  0
LINE
  5
19D74
  8
0
 10
4549.3980875219504014
 20
466.9329369969108257
 30
0.0
 11
4549.411381285049174
 21
467.1202699644107952
 31
0.0
  0
LINE
  5
19D75
  8
0
 10
4550.6720063802504228
 20
466.5960442269109194
 30
0.0
 11
4550.7535556402499424
 21
466.0166035787107717
 31
0.0
  0
ARC
  5
19D76
  8
0
 10
4544.9220353486016393
 20
468.6203089960264947
 30
0.0
 40
0.9482421579022835
 50
171.4549416199016889
 51
181.8130562492983984
  0
ARC
  5
19D77
  8
0
 10
4544.2629909099632641
 20
468.72576659352859
 30
0.0
 40
0.2809159561286461
 50
143.3892406787767015
 51
172.7525304101328061
  0
ARC
  5
19D78
  8
0
 10
4544.1554560638642215
 20
468.799899463987515
 30
0.0
 40
0.1504571877765149
 50
120.3949557672691952
 51
141.6279789304196868
  0
ARC
  5
19D79
  8
0
 10
4544.1422288283183661
 20
468.8206896016650944
 30
0.0
 40
0.125835210068691
 50
90.2146459890510783
 51
119.9895648478325967
  0
ARC
  5
19D7A
  8
0
 10
4549.2265834097070183
 20
463.80417194457101
 30
0.0
 40
0.188114811817237
 50
273.1102530809163227
 51
338.2433969264288862
  0
ARC
  5
19D7B
  8
0
 10
4550.8163781724369983
 20
463.4187145455844075
 30
0.0
 40
0.1976753359401817
 50
12.0865483806531504
 51
88.6404058497113709
  0
ARC
  5
19D7C
  8
0
 10
4550.9333805280666638
 20
462.3174069163305262
 30
0.0
 40
0.2345821111922996
 50
8.1354521634847448
 51
80.7516844625782824
  0
ARC
  5
19D7D
  8
0
 10
4552.2450431300003402
 20
469.9970407583485894
 30
0.0
 40
7.6104803726053509
 50
236.9772463454208946
 51
258.143071739058712
  0
ARC
  5
19D7E
  8
0
 10
4551.5242351054002938
 20
461.6518712549582233
 30
0.0
 40
0.3081228618002826
 50
261.7396968551321947
 51
280.6552329871412894
  0
ARC
  5
19D7F
  8
0
 10
4551.511358632991687
 20
461.5824155223289722
 30
0.0
 40
0.2375538048036504
 50
228.1715312188366909
 51
262.4063970698117032
  0
ARC
  5
19D80
  8
0
 10
4551.5230144401011785
 20
461.5852541049526963
 30
0.0
 40
0.2475354543003343
 50
186.2364172645769997
 51
226.5991766502363021
  0
ARC
  5
19D81
  8
0
 10
4552.9585993874670748
 20
461.6489874811858272
 30
0.0
 40
0.3052608913119728
 50
259.2727013257443218
 51
280.2234552103652163
  0
ARC
  5
19D82
  8
0
 10
4552.9734345381257299
 20
461.5787325018230831
 30
0.0
 40
0.233498009635129
 50
279.7007332653714116
 51
354.9953910507135788
  0
ARC
  5
19D83
  8
0
 10
4553.5496055279572829
 20
462.3174069476449972
 30
0.0
 40
0.2345817825577959
 50
99.247870163072804
 51
171.8647576325884074
  0
ARC
  5
19D84
  8
0
 10
4553.5934136668447536
 20
463.5089447477323006
 30
0.0
 40
0.1128616908097524
 50
107.9149764409724952
 51
165.4853076825193909
  0
ARC
  5
19D85
  8
0
 10
4552.2370261466612646
 20
470.0000188075326264
 30
0.0
 40
7.6135833227189638
 50
281.8590778489473223
 51
303.022151904615896
  0
ARC
  5
19D86
  8
0
 10
4549.628287435852144
 20
466.8851674182250235
 30
0.0
 40
0.2351040897312464
 50
89.9131909383481656
 51
168.2767401278836985
  0
ARC
  5
19D87
  8
0
 10
4549.5215331492199766
 20
466.9705081442928076
 30
0.0
 40
0.2936932339617608
 50
11.6545646050629195
 51
19.8219822409472499
  0
ARC
  5
19D88
  8
0
 10
4549.6766608707193882
 20
467.0289040455788268
 30
0.0
 40
0.1279759860997181
 50
18.7777137998500514
 51
36.4893548250416231
  0
ARC
  5
19D89
  8
0
 10
4549.7505121219182911
 20
467.0855202707999752
 30
0.0
 40
0.0349704576075108
 50
33.866629135365649
 51
83.5772347381514749
  0
ARC
  5
19D8A
  8
0
 10
4549.8762779792150468
 20
466.4249495723256018
 30
0.0
 40
0.0865107121491359
 50
177.5183489732382895
 51
234.388002863273897
  0
ARC
  5
19D8B
  8
0
 10
4552.4515316472097766
 20
471.2924699507092896
 30
0.0
 40
5.5925221311241931
 50
241.9988609757650977
 51
251.9739965224968898
  0
ARC
  5
19D8C
  8
0
 10
4550.6930222829396371
 20
466.0068791866822266
 30
0.0
 40
0.0613094702920308
 50
347.6770215495428147
 51
9.1263166208270601
  0
ARC
  5
19D8D
  8
0
 10
4550.724105835050068
 20
465.9995491330313939
 30
0.0
 40
0.0293824160442054
 50
312.5331665835130934
 51
348.7052138496867997
  0
ARC
  5
19D8E
  8
0
 10
4550.7294446534542658
 20
465.9962632429161999
 30
0.0
 40
0.0234146869103207
 50
248.6849917469183993
 51
308.3382341332123247
  0
ARC
  5
19D8F
  8
0
 10
4551.3691933379732291
 20
466.724556677300086
 30
0.0
 40
0.7089323690759625
 50
154.4931345951129913
 51
190.4440941741841868
  0
ARC
  5
19D90
  8
0
 10
4550.3786662327938757
 20
466.988549801601323
 30
0.0
 40
0.3531137319624904
 50
6.7145009819017494
 51
16.6089810842381702
  0
ARC
  5
19D91
  8
0
 10
4550.6139811317798376
 20
467.0577535497143913
 30
0.0
 40
0.1078397379644528
 50
17.1114226280186088
 51
27.3534155188282
  0
ARC
  5
19D92
  8
0
 10
4550.6823076969112662
 20
467.0944831783165796
 30
0.0
 40
0.0303012745796594
 50
25.0301808335987488
 51
51.6694015324039313
  0
ARC
  5
19D93
  8
0
 10
4550.6950716001938417
 20
467.1102734222234858
 30
0.0
 40
0.0100009537220956
 50
52.9270541234734182
 51
88.5646976663639833
  0
ARC
  5
19D94
  8
0
 10
4552.0265925583944409
 20
466.7161724998566115
 30
0.0
 40
1.2129853729100391
 50
169.0276929277522981
 51
189.6951979484636865
  0
ARC
  5
19D95
  8
0
 10
4550.6390653083171856
 20
466.9429991717208281
 30
0.0
 40
0.196757717941681
 50
1.178369324597059
 51
53.5695880953576378
  0
ARC
  5
19D96
  8
0
 10
4550.6939932013729049
 20
467.0097681281960149
 30
0.0
 40
0.1105115580546783
 50
55.9257869403467112
 51
89.2915371204012018
  0
ARC
  5
19D97
  8
0
 10
4557.5206196129029195
 20
465.4900308334683245
 30
0.0
 40
0.2645796567134467
 50
155.4215492349754015
 51
177.9849412112386915
  0
ARC
  5
19D98
  8
0
 10
4557.4548274875642164
 20
465.5222999487580182
 30
0.0
 40
0.1913370501466788
 50
128.9149198602077888
 51
156.0144091923872054
  0
ARC
  5
19D99
  8
0
 10
4557.4082936440581761
 20
465.5808955587953051
 30
0.0
 40
0.1165155859045011
 50
91.615417305269915
 51
129.210320103659086
  0
LINE
  5
19D9A
  8
0
 10
4557.405008997970981
 20
465.6973648374001868
 30
0.0
 11
4558.2764957313984269
 21
465.6973648374258801
 31
0.0
  0
ARC
  5
19D9B
  8
0
 10
4558.0532005326067519
 20
465.5155842353876778
 30
0.0
 40
0.324858442516144
 50
357.1327291258198215
 51
14.6675490397126396
  0
ARC
  5
19D9C
  8
0
 10
4558.1845638257836981
 20
465.552110286642403
 30
0.0
 40
0.1885387408182435
 50
14.0375012364062197
 51
35.4150088827039866
  0
ARC
  5
19D9D
  8
0
 10
4558.2609573688569071
 20
465.6066032061253281
 30
0.0
 40
0.0947015826933686
 50
35.3298403894781288
 51
61.2236778632517868
  0
ARC
  5
19D9E
  8
0
 10
4558.275663699377219
 20
465.6320430742982239
 30
0.0
 40
0.0653270618916363
 50
61.7882036782487774
 51
89.2702379254585736
  0
ARC
  5
19D9F
  8
0
 10
4558.2057898249286154
 20
464.127510166882189
 30
0.0
 40
0.0702349646097673
 50
270.6045641215239925
 51
298.6437813063616886
  0
ARC
  5
19DA0
  8
0
 10
4558.1808857214773525
 20
464.168990117259284
 30
0.0
 40
0.1185929696957601
 50
299.5967142785198121
 51
326.6434888826005931
  0
ARC
  5
19DA1
  8
0
 10
4558.0617217522021747
 20
464.2465127569840888
 30
0.0
 40
0.2607532370560955
 50
326.8126733640411885
 51
349.1377707733468014
  0
ARC
  5
19DA2
  8
0
 10
4557.9706145566633495
 20
464.2689345023808869
 30
0.0
 40
0.3544866079091525
 50
348.3536706881550913
 51
357.6063676425795848
  0
ARC
  5
19DA3
  8
0
 10
4557.3440367197426895
 20
464.1602778705570245
 30
0.0
 40
0.1029993957754888
 50
242.4537693209493057
 51
269.7984408655416928
  0
ARC
  5
19DA4
  8
0
 10
4557.3641404670506745
 20
464.194826002184584
 30
0.0
 40
0.1429402835109704
 50
208.387690414776614
 51
241.7132129971521977
  0
ARC
  5
19DA5
  8
0
 10
4557.4325714298020102
 20
464.2361887172356774
 30
0.0
 40
0.2228411010024746
 50
188.8761582169856013
 51
209.3787610859363042
  0
ARC
  5
19DA6
  8
0
 10
4557.4726467331520325
 20
464.2439628133304836
 30
0.0
 40
0.2636402586269513
 50
177.7899693931535126
 51
189.201584392639603
  0
ARC
  5
19DA7
  8
0
 10
4559.3286867152946797
 20
468.6128153798542826
 30
0.0
 40
1.1805064754054151
 50
358.9075409111209751
 51
5.9527322139827623
  0
ARC
  5
19DA8
  8
0
 10
4560.0990724115308694
 20
468.6915198466688253
 30
0.0
 40
0.4061157911741497
 50
6.1805892767701858
 51
18.9536381972437802
  0
ARC
  5
19DA9
  8
0
 10
4560.2590822386246145
 20
468.7475170994405858
 30
0.0
 40
0.2365954195386326
 50
18.7140099229921404
 51
38.6473768871869225
  0
ARC
  5
19DAA
  8
0
 10
4560.3385633522111675
 20
468.8127445363277275
 30
0.0
 40
0.1337904848088587
 50
38.0885360933312711
 51
89.2621955323884748
  0
LINE
  5
19DAC
  8
0
 10
4560.3402861403510542
 20
468.9465239287109171
 30
0.0
 11
4544.1417574155857437
 21
468.9465239287109171
 31
0.0
  0
LINE
  5
19DAD
  8
0
 10
4553.511906857050235
 20
462.5489397162108958
 30
0.0
 11
4553.8016575367500991
 21
462.5489397162108958
 31
0.0
  0
LINE
  5
19DAE
  8
0
 10
4550.9710810515507546
 20
462.5489397162108958
 30
0.0
 11
4550.6813288441026089
 21
462.5489397162108958
 31
0.0
  0
ATTDEF
  5
19DAF
  8
DEFPOINTS
 10
4552.241299294943019
 20
467.1191931665601942
 30
0.0
 40
0.001
  1
K-97013T
  3

  2
MODELNUMBER
 70
     0
1001
ACDBATTR
1070
     0
1070
     1
  0
ATTDEF
  5
19DB0
  8
DEFPOINTS
 10
4552.2411734852867085
 20
467.1175263261810073
 30
0.0
 40
0.001
  1
CHALICE
  3

  2
TRADENAME
 70
     0
1001
ACDBATTR
1070
     0
1070
     1
  0
ATTDEF
  5
19DB1
  8
DEFPOINTS
 10
4552.241299294943019
 20
467.1158598332269207
 30
0.0
 40
0.001
  1
BATHROOM SINK
  3

  2
PRODUCT
 70
     0
1001
ACDBATTR
1070
     0
1070
     1
  0
ENDSEC
  0
EOF
