  0
SECTION
  2
HEADER
  9
$ACADVER
  1
AC1009
  9
$INSBASE
 10
4561.0566223912546775
 20
447.7330407725027044
 30
0.0
  9
$EXTMIN
 10
4552.5783879903037814
 20
439.4333732658329268
 30
-0.0000000000112498
  9
$EXTMAX
 10
4569.6271530289313887
 20
456.0361020672684731
 30
0.0000000000002956
  9
$LIMMIN
 10
0.0
 20
0.0
  9
$LIMMAX
 10
11.6929133858000007
 20
8.2677165353999982
  9
$ORTHOMODE
 70
     0
  9
$REGENMODE
 70
     1
  9
$FILLMODE
 70
     1
  9
$QTEXTMODE
 70
     0
  9
$MIRRTEXT
 70
     0
  9
$DRAGMODE
 70
     2
  9
$LTSCALE
 40
0.6431102362
  9
$OSMODE
 70
   695
  9
$ATTMODE
 70
     1
  9
$TEXTSIZE
 40
0.2
  9
$TRACEWID
 40
0.05
  9
$TEXTSTYLE
  7
STANDARD
  9
$CLAYER
  8
0
  9
$CELTYPE
  6
BYLAYER
  9
$CECOLOR
 62
   256
  9
$DIMSCALE
 40
1.0
  9
$DIMASZ
 40
0.1875
  9
$DIMEXO
 40
0.0625
  9
$DIMDLI
 40
0.4443307087
  9
$DIMRND
 40
0.0
  9
$DIMDLE
 40
0.0
  9
$DIMEXE
 40
0.125
  9
$DIMTP
 40
0.01
  9
$DIMTM
 40
0.01
  9
$DIMTXT
 40
2.0
  9
$DIMCEN
 40
0.1052362205
  9
$DIMTSZ
 40
0.0
  9
$DIMTOL
 70
     1
  9
$DIMLIM
 70
     0
  9
$DIMTIH
 70
     1
  9
$DIMTOH
 70
     1
  9
$DIMSE1
 70
     0
  9
$DIMSE2
 70
     0
  9
$DIMTAD
 70
     0
  9
$DIMZIN
 70
     0
  9
$DIMBLK
  1

  9
$DIMASO
 70
     1
  9
$DIMSHO
 70
     1
  9
$DIMPOST
  1
\X
  9
$DIMAPOST
  1

  9
$DIMALT
 70
     1
  9
$DIMALTD
 70
     2
  9
$DIMALTF
 40
25.3999999999999986
  9
$DIMLFAC
 40
1.0
  9
$DIMTOFL
 70
     0
  9
$DIMTVP
 40
0.0
  9
$DIMTIX
 70
     0
  9
$DIMSOXD
 70
     0
  9
$DIMSAH
 70
     0
  9
$DIMBLK1
  1

  9
$DIMBLK2
  1

  9
$DIMSTYLE
  2
STANDARD
  9
$DIMCLRD
 70
     0
  9
$DIMCLRE
 70
     0
  9
$DIMCLRT
 70
     0
  9
$DIMTFAC
 40
1.0
  9
$DIMGAP
 40
0.09
  9
$LUNITS
 70
     2
  9
$LUPREC
 70
     4
  9
$SKETCHINC
 40
0.1
  9
$FILLETRAD
 40
0.0
  9
$AUNITS
 70
     0
  9
$AUPREC
 70
     0
  9
$MENU
  1
.
  9
$ELEVATION
 40
0.0
  9
$PELEVATION
 40
0.0
  9
$THICKNESS
 40
0.0
  9
$LIMCHECK
 70
     0
  9
$BLIPMODE
 70
     0
  9
$CHAMFERA
 40
0.0
  9
$CHAMFERB
 40
0.0
  9
$SKPOLY
 70
     0
  9
$TDCREATE
 40
2458060.468368056230247
  9
$TDUPDATE
 40
2459297.7221527779474854
  9
$TDINDWG
 40
1.5392388888999999
  9
$TDUSRTIMER
 40
1.5392388888999999
  9
$USRTIMER
 70
     1
  9
$ANGBASE
 50
0.0
  9
$ANGDIR
 70
     0
  9
$PDMODE
 70
     0
  9
$PDSIZE
 40
0.3125
  9
$PLINEWID
 40
0.0
  9
$COORDS
 70
     1
  9
$SPLFRAME
 70
     0
  9
$SPLINETYPE
 70
     6
  9
$SPLINESEGS
 70
     8
  9
$ATTDIA
 70
     1
  9
$ATTREQ
 70
     1
  9
$HANDLING
 70
     1
  9
$HANDSEED
  5
19BDA
  9
$SURFTAB1
 70
     6
  9
$SURFTAB2
 70
     6
  9
$SURFTYPE
 70
     6
  9
$SURFU
 70
     6
  9
$SURFV
 70
     6
  9
$UCSNAME
  2

  9
$UCSORG
 10
0.0
 20
0.0
 30
0.0
  9
$UCSXDIR
 10
1.0
 20
0.0
 30
0.0
  9
$UCSYDIR
 10
0.0
 20
1.0
 30
0.0
  9
$PUCSNAME
  2

  9
$PUCSORG
 10
0.0
 20
0.0
 30
0.0
  9
$PUCSXDIR
 10
1.0
 20
0.0
 30
0.0
  9
$PUCSYDIR
 10
0.0
 20
1.0
 30
0.0
  9
$USERI1
 70
     0
  9
$USERI2
 70
     0
  9
$USERI3
 70
     0
  9
$USERI4
 70
     0
  9
$USERI5
 70
     0
  9
$USERR1
 40
0.0
  9
$USERR2
 40
0.0
  9
$USERR3
 40
0.0
  9
$USERR4
 40
0.0
  9
$USERR5
 40
0.0
  9
$WORLDVIEW
 70
     1
  9
$SHADEDGE
 70
     3
  9
$SHADEDIF
 70
    70
  9
$TILEMODE
 70
     1
  9
$MAXACTVP
 70
    64
  9
$PLIMCHECK
 70
     0
  9
$PEXTMIN
 10
1.0000000000000000E+20
 20
1.0000000000000000E+20
 30
1.0000000000000000E+20
  9
$PEXTMAX
 10
-1.0000000000000000E+20
 20
-1.0000000000000000E+20
 30
-1.0000000000000000E+20
  9
$PLIMMIN
 10
0.0
 20
0.0
  9
$PLIMMAX
 10
12.0
 20
9.0
  9
$UNITMODE
 70
     0
  9
$VISRETAIN
 70
     1
  9
$PLINEGEN
 70
     0
  9
$PSLTSCALE
 70
     1
  0
ENDSEC
  0
SECTION
  2
TABLES
  0
TABLE
  2
VPORT
 70
     1
  0
VPORT
  2
*ACTIVE
 70
     0
 10
0.0
 20
0.0
 11
1.0
 21
1.0
 12
649.7374138572680522
 22
315.1551325496565141
 13
0.0
 23
0.0
 14
1.0
 24
1.0
 15
0.0
 25
0.0
 16
0.0
 26
0.0
 36
60.4960186965801583
 17
3911.3653564453120453
 27
132.5796051025390057
 37
0.0
 40
20.7241769489192293
 41
1.866962305986696
 42
50.0
 43
0.0
 44
0.0
 50
0.0
 51
0.0
 71
     0
 72
   100
 73
     1
 74
     1
 75
     0
 76
     0
 77
     0
 78
     0
  0
ENDTAB
  0
TABLE
  2
LTYPE
 70
     2
  0
LTYPE
  2
CONTINUOUS
 70
     0
  3
Solid line
 72
    65
 73
     0
 40
0.0
  0
LTYPE
  2
PHANTOM2
 70
     0
  3
___ _ _ ___ _ _ ___ _ _ ___ _ _
 72
    65
 73
     6
 40
1.25
 49
0.625
 49
-0.125
 49
0.125
 49
-0.125
 49
0.125
 49
-0.125
  0
ENDTAB
  0
TABLE
  2
LAYER
 70
     2
  0
LAYER
  2
0
 70
     0
 62
   255
  6
CONTINUOUS
  0
LAYER
  2
DEFPOINTS
 70
     0
 62
     7
  6
CONTINUOUS
  0
ENDTAB
  0
TABLE
  2
STYLE
 70
     1
  0
STYLE
  2
STANDARD
 70
     0
 40
0.0
 41
0.8
 50
0.0
 71
     0
 42
0.2
  3
txt
  4

  0
ENDTAB
  0
TABLE
  2
VIEW
 70
     0
  0
ENDTAB
  0
TABLE
  2
UCS
 70
     0
  0
ENDTAB
  0
TABLE
  2
APPID
 70
    11
  0
APPID
  2
ACAD
 70
     0
  0
APPID
  2
ACAD_MLEADERVER
 70
     0
  0
APPID
  2
ACAD_EXEMPT_FROM_CAD_STANDARDS
 70
     0
  0
APPID
  2
ACAD_NAV_VCDISPLAY
 70
     0
  0
APPID
  2
ACAECLAYERSTANDARD
 70
     0
  0
APPID
  2
ACCMTRANSPARENCY
 70
     0
  0
APPID
  2
ACAD_DSTYLE_DIMJAG
 70
     0
  0
APPID
  2
ACAD_DSTYLE_DIMTALN
 70
     0
  0
APPID
  2
ACDBATTR
 70
     0
  0
APPID
  2
ACADANNOTATIVE
 70
     0
  0
APPID
  2
DCO15
 70
     0
  0
ENDTAB
  0
TABLE
  2
DIMSTYLE
 70
     1
  0
DIMSTYLE
  2
STANDARD
 70
     0
  3

  4

  5

  6

  7

 40
1.0
 41
0.1875
 42
0.0625
 43
0.38
 44
0.125
 45
0.0
 46
0.0
 47
0.01
 48
0.01
140
0.15625
141
0.09
142
0.0
143
25.3999999999999986
144
1.0
145
0.0
146
1.0
147
0.09
 71
     1
 72
     0
 73
     1
 74
     1
 75
     0
 76
     0
 77
     0
 78
     4
170
     0
171
     2
172
     0
173
     0
174
     0
175
     0
176
     0
177
     0
178
     0
  0
ENDTAB
  0
ENDSEC
  0
SECTION
  2
BLOCKS
  0
BLOCK
  8
0
  2
$MODEL_SPACE
 70
     0
 10
0.0
 20
0.0
 30
0.0
  3
$MODEL_SPACE
  1

  0
ENDBLK
  5
21
  8
0
  0
BLOCK
 67
     1
  8
0
  2
$PAPER_SPACE
 70
     0
 10
0.0
 20
0.0
 30
0.0
  3
$PAPER_SPACE
  1

  0
ENDBLK
  5
1D
 67
     1
  8
0
  0
ENDSEC
  0
SECTION
  2
ENTITIES
  0
CIRCLE
  5
19B2B
  8
0
 10
4561.0566223913046997
 20
447.7330407725027044
 30
0.0
 40
8.2677165353999982
  0
CIRCLE
  5
19B2C
  8
0
 10
4561.0566223913046997
 20
447.7330407725027044
 30
0.0
 40
7.832952646299999
  0
CIRCLE
  5
19B2D
  8
0
 10
4561.0566223913046997
 20
447.7330407725027044
 30
0.0
 40
1.3590614179
  0
CIRCLE
  5
19B2E
  8
0
 10
4561.0566223913046997
 20
447.7330407725027044
 30
0.0
 40
1.25
  0
CIRCLE
  5
19B2F
  8
0
 10
4561.0566223913046997
 20
447.7330407725027044
 30
0.0
 40
0.8858267717
  0
ARC
  5
19B30
  8
0
 10
4559.9826117178999993
 20
440.5958518832557047
 30
0.0
 40
0.4710461398652109
 50
77.4468690318240647
 51
93.7829293015206247
  0
ARC
  5
19B31
  8
0
 10
4559.9839471519917424
 20
440.5825211027872115
 30
0.0
 40
0.4837862359501081
 50
58.502549390819361
 51
77.9443947868845868
  0
ARC
  5
19B32
  8
0
 10
4560.0755153245600013
 20
440.7261280709961966
 30
0.0
 40
0.3135118790213556
 50
35.8824078263664106
 51
59.0595660629564634
  0
ARC
  5
19B33
  8
0
 10
4560.1930894952383824
 20
440.8099500124519068
 30
0.0
 40
0.1691236705865433
 50
6.9330060313752879
 51
36.2207316486837385
  0
ARC
  5
19B34
  8
0
 10
4560.2315888863658984
 20
440.8165516330980154
 30
0.0
 40
0.1301228770343501
 50
318.7523169275618216
 51
6.0936644398245603
  0
ARC
  5
19B35
  8
0
 10
4560.1643655486923308
 20
440.8827912038814247
 30
0.0
 40
0.2244055885900827
 50
283.2578309995171821
 51
317.3525180905613183
  0
ARC
  5
19B36
  8
0
 10
4560.1125402239567848
 20
441.088274928055398
 30
0.0
 40
0.4363106539758663
 50
252.3675782488510038
 51
283.6937853654933974
  0
ARC
  5
19B37
  8
0
 10
4560.0867395602563192
 20
441.0531836391351135
 30
0.0
 40
0.3952992578763494
 50
220.6712736458358108
 51
254.3912639319223956
  0
ARC
  5
19B38
  8
0
 10
4559.9400926541857189
 20
440.9219417225370989
 30
0.0
 40
0.19858020090444
 50
194.5697907825478978
 51
219.5259063634246957
  0
ARC
  5
19B39
  8
0
 10
4559.879797640282959
 20
440.9056809664263028
 30
0.0
 40
0.1361348102073762
 50
164.1393654855280886
 51
194.3298564757978966
  0
ARC
  5
19B3A
  8
0
 10
4559.8839531743797124
 20
440.900617478360914
 30
0.0
 40
0.1415652637229322
 50
127.7850704771125976
 51
162.6275148362884977
  0
ARC
  5
19B3B
  8
0
 10
4559.9616512181382859
 20
440.7868428474408802
 30
0.0
 40
0.2792122155643341
 50
92.0766234768997123
 51
126.080807872367302
  0
ARC
  5
19B3C
  8
0
 10
4562.1306330646120841
 20
440.5958518832557047
 30
0.0
 40
0.4710461398652109
 50
86.2170706984793753
 51
102.5531309681759069
  0
ARC
  5
19B3D
  8
0
 10
4562.129297630520341
 20
440.5825211027872115
 30
0.0
 40
0.4837862359501081
 50
102.055605213115399
 51
121.4974506091806035
  0
ARC
  5
19B3E
  8
0
 10
4562.0377294579511727
 20
440.7261280709961966
 30
0.0
 40
0.3135118790213556
 50
120.940433937043494
 51
144.1175921736335965
  0
ARC
  5
19B3F
  8
0
 10
4561.9201552872737011
 20
440.8099500124519068
 30
0.0
 40
0.1691236705865433
 50
143.7792683513162046
 51
173.0669939686247005
  0
ARC
  5
19B40
  8
0
 10
4561.8816558961461851
 20
440.8165516330980154
 30
0.0
 40
0.1301228770343501
 50
173.9063355601753926
 51
221.2476830724382069
  0
ARC
  5
19B41
  8
0
 10
4561.9488792338188432
 20
440.8827912038814247
 30
0.0
 40
0.2244055885900827
 50
222.6474819094387101
 51
256.7421690004828179
  0
ARC
  5
19B42
  8
0
 10
4562.0007045585552987
 20
441.088274928055398
 30
0.0
 40
0.4363106539758663
 50
256.3062146345066026
 51
287.6324217511490247
  0
ARC
  5
19B43
  8
0
 10
4562.0265052222548547
 20
441.0531836391351135
 30
0.0
 40
0.3952992578763494
 50
285.608736068077576
 51
319.3287263541641892
  0
ARC
  5
19B44
  8
0
 10
4562.1731521283263646
 20
440.9219417225370989
 30
0.0
 40
0.19858020090444
 50
320.4740936365752759
 51
345.4302092174521022
  0
ARC
  5
19B45
  8
0
 10
4562.2334471422291244
 20
440.9056809664263028
 30
0.0
 40
0.1361348102073762
 50
345.6701435242019897
 51
15.8606345144718599
  0
ARC
  5
19B46
  8
0
 10
4562.229291608132371
 20
440.900617478360914
 30
0.0
 40
0.1415652637229322
 50
17.3724851637084186
 51
52.2149295228873598
  0
ARC
  5
19B47
  8
0
 10
4562.1515935643728881
 20
440.7868428474408802
 30
0.0
 40
0.2792122155643341
 50
53.9191921276326198
 51
87.9233765231002877
  0
ARC
  5
19B48
  8
0
 10
4561.0567100352482157
 20
440.5126264390771098
 30
0.0
 40
0.4710461398652109
 50
92.2398036511908401
 51
108.5758639208934966
  0
ARC
  5
19B49
  8
0
 10
4561.0614049081777921
 20
440.5000784806658771
 30
0.0
 40
0.4837862359501081
 50
73.2954840102034524
 51
92.7373294062336555
  0
ARC
  5
19B4A
  8
0
 10
4561.1132713734950812
 20
440.6623053629057267
 30
0.0
 40
0.3135118790213556
 50
50.6753424457365327
 51
73.8525006823550854
  0
ARC
  5
19B4B
  8
0
 10
4561.2055465686344178
 20
440.7733688215325856
 30
0.0
 40
0.1691236705865433
 50
21.7259406507400215
 51
51.0136662680213888
  0
ARC
  5
19B4C
  8
0
 10
4561.2410843239622409
 20
440.7895815467376792
 30
0.0
 40
0.1301228770343501
 50
333.5452515469372088
 51
20.8865990591917203
  0
ARC
  5
19B4D
  8
0
 10
4561.1591763918386278
 20
440.8364616973432248
 30
0.0
 40
0.2244055885900827
 50
298.0507656188812007
 51
332.1454527099298843
  0
ARC
  5
19B4E
  8
0
 10
4561.0566033767636327
 20
441.021902258608975
 30
0.0
 40
0.4363106539758663
 50
267.1605128682020904
 51
298.486719984853778
  0
ARC
  5
19B4F
  8
0
 10
4561.0406176162614429
 20
440.9813864806130823
 30
0.0
 40
0.3952992578763494
 50
235.4642082651942019
 51
269.1841985512867268
  0
ARC
  5
19B50
  8
0
 10
4560.9323408828422544
 20
440.817051746815082
 30
0.0
 40
0.19858020090444
 50
209.3627254019245925
 51
234.3188409827974965
  0
ARC
  5
19B51
  8
0
 10
4560.8781961568111001
 20
440.7859350385389803
 30
0.0
 40
0.1361348102073762
 50
178.9323001049056927
 51
209.122791095174108
  0
ARC
  5
19B52
  8
0
 10
4560.8835067980899112
 20
440.7821003985000061
 30
0.0
 40
0.1415652637229322
 50
142.57800509646151
 51
177.420449455663487
  0
ARC
  5
19B53
  8
0
 10
4560.9876792130226022
 20
440.6919352133560892
 30
0.0
 40
0.2792122155643341
 50
106.8695580962613008
 51
140.8737424917551095
  0
ATTDEF
  5
19B55
  8
DEFPOINTS
 10
4561.0566695236921078
 20
447.7320303227086242
 30
0.0
 40
0.001
  1
K-97013T
  3

  2
MODELNUMBER
 70
     0
1001
ACDBATTR
1070
     0
1070
     1
  0
ATTDEF
  5
19B56
  8
DEFPOINTS
 10
4561.0565437140357972
 20
447.7303634823293805
 30
0.0
 40
0.001
  1
CHALICE
  3

  2
TRADENAME
 70
     0
1001
ACDBATTR
1070
     0
1070
     1
  0
ATTDEF
  5
19B57
  8
DEFPOINTS
 10
4561.0566695236921078
 20
447.7286969893752939
 30
0.0
 40
0.001
  1
BATHROOM SINK
  3

  2
PRODUCT
 70
     0
1001
ACDBATTR
1070
     0
1070
     1
  0
ENDSEC
  0
EOF
