  0
SECTION
  2
HEADER
  9
$ACADVER
  1
AC1009
  9
$INSBASE
 10
4096.900863093177577
 20
126.5252058672820965
 30
0.0
  9
$EXTMIN
 10
4089.3582080992300689
 20
120.7772641771699966
 30
-0.0000000349181948
  9
$EXTMAX
 10
4104.3185857598200528
 20
127.3247568186783951
 30
0.0000000814935746
  9
$LIMMIN
 10
0.0
 20
0.0
  9
$LIMMAX
 10
11.6929133858000007
 20
8.2677165353999982
  9
$ORTHOMODE
 70
     0
  9
$REGENMODE
 70
     1
  9
$FILLMODE
 70
     1
  9
$QTEXTMODE
 70
     0
  9
$MIRRTEXT
 70
     0
  9
$DRAGMODE
 70
     2
  9
$LTSCALE
 40
0.6431102362
  9
$OSMODE
 70
  4095
  9
$ATTMODE
 70
     1
  9
$TEXTSIZE
 40
0.2
  9
$TRACEWID
 40
0.05
  9
$TEXTSTYLE
  7
STANDARD
  9
$CLAYER
  8
0
  9
$CELTYPE
  6
BYLAYER
  9
$CECOLOR
 62
   256
  9
$DIMSCALE
 40
1.0
  9
$DIMASZ
 40
0.1875
  9
$DIMEXO
 40
0.0625
  9
$DIMDLI
 40
0.4443307087
  9
$DIMRND
 40
0.0
  9
$DIMDLE
 40
0.0
  9
$DIMEXE
 40
0.125
  9
$DIMTP
 40
0.01
  9
$DIMTM
 40
0.01
  9
$DIMTXT
 40
2.0
  9
$DIMCEN
 40
0.1052362205
  9
$DIMTSZ
 40
0.0
  9
$DIMTOL
 70
     1
  9
$DIMLIM
 70
     0
  9
$DIMTIH
 70
     1
  9
$DIMTOH
 70
     1
  9
$DIMSE1
 70
     0
  9
$DIMSE2
 70
     0
  9
$DIMTAD
 70
     0
  9
$DIMZIN
 70
     0
  9
$DIMBLK
  1

  9
$DIMASO
 70
     1
  9
$DIMSHO
 70
     1
  9
$DIMPOST
  1
\X
  9
$DIMAPOST
  1

  9
$DIMALT
 70
     1
  9
$DIMALTD
 70
     2
  9
$DIMALTF
 40
25.3999999999999986
  9
$DIMLFAC
 40
1.0
  9
$DIMTOFL
 70
     0
  9
$DIMTVP
 40
0.0
  9
$DIMTIX
 70
     0
  9
$DIMSOXD
 70
     0
  9
$DIMSAH
 70
     0
  9
$DIMBLK1
  1

  9
$DIMBLK2
  1

  9
$DIMSTYLE
  2
STANDARD
  9
$DIMCLRD
 70
     0
  9
$DIMCLRE
 70
     0
  9
$DIMCLRT
 70
     0
  9
$DIMTFAC
 40
1.0
  9
$DIMGAP
 40
0.09
  9
$LUNITS
 70
     2
  9
$LUPREC
 70
     4
  9
$SKETCHINC
 40
0.1
  9
$FILLETRAD
 40
0.0
  9
$AUNITS
 70
     0
  9
$AUPREC
 70
     0
  9
$MENU
  1
.
  9
$ELEVATION
 40
0.0
  9
$PELEVATION
 40
0.0
  9
$THICKNESS
 40
0.0
  9
$LIMCHECK
 70
     0
  9
$BLIPMODE
 70
     0
  9
$CHAMFERA
 40
0.0
  9
$CHAMFERB
 40
0.0
  9
$SKPOLY
 70
     0
  9
$TDCREATE
 40
2458060.468368056230247
  9
$TDUPDATE
 40
2459323.76726851798594
  9
$TDINDWG
 40
0.3145325231
  9
$TDUSRTIMER
 40
0.3145325231
  9
$USRTIMER
 70
     1
  9
$ANGBASE
 50
0.0
  9
$ANGDIR
 70
     0
  9
$PDMODE
 70
     0
  9
$PDSIZE
 40
0.3125
  9
$PLINEWID
 40
0.0
  9
$COORDS
 70
     1
  9
$SPLFRAME
 70
     0
  9
$SPLINETYPE
 70
     6
  9
$SPLINESEGS
 70
     8
  9
$ATTDIA
 70
     1
  9
$ATTREQ
 70
     1
  9
$HANDLING
 70
     1
  9
$HANDSEED
  5
71EC
  9
$SURFTAB1
 70
     6
  9
$SURFTAB2
 70
     6
  9
$SURFTYPE
 70
     6
  9
$SURFU
 70
     6
  9
$SURFV
 70
     6
  9
$UCSNAME
  2

  9
$UCSORG
 10
0.0
 20
0.0
 30
0.0
  9
$UCSXDIR
 10
1.0
 20
0.0
 30
0.0
  9
$UCSYDIR
 10
0.0
 20
1.0
 30
0.0
  9
$PUCSNAME
  2

  9
$PUCSORG
 10
0.0
 20
0.0
 30
0.0
  9
$PUCSXDIR
 10
1.0
 20
0.0
 30
0.0
  9
$PUCSYDIR
 10
0.0
 20
1.0
 30
0.0
  9
$USERI1
 70
     0
  9
$USERI2
 70
     0
  9
$USERI3
 70
     0
  9
$USERI4
 70
     0
  9
$USERI5
 70
     0
  9
$USERR1
 40
0.0
  9
$USERR2
 40
0.0
  9
$USERR3
 40
0.0
  9
$USERR4
 40
0.0
  9
$USERR5
 40
0.0
  9
$WORLDVIEW
 70
     1
  9
$SHADEDGE
 70
     3
  9
$SHADEDIF
 70
    70
  9
$TILEMODE
 70
     1
  9
$MAXACTVP
 70
    64
  9
$PLIMCHECK
 70
     0
  9
$PEXTMIN
 10
1.0000000000000000E+20
 20
1.0000000000000000E+20
 30
1.0000000000000000E+20
  9
$PEXTMAX
 10
-1.0000000000000000E+20
 20
-1.0000000000000000E+20
 30
-1.0000000000000000E+20
  9
$PLIMMIN
 10
0.0
 20
0.0
  9
$PLIMMAX
 10
12.0
 20
9.0
  9
$UNITMODE
 70
     0
  9
$VISRETAIN
 70
     1
  9
$PLINEGEN
 70
     0
  9
$PSLTSCALE
 70
     1
  0
ENDSEC
  0
SECTION
  2
TABLES
  0
TABLE
  2
VPORT
 70
     1
  0
VPORT
  2
*ACTIVE
 70
     0
 10
0.0
 20
0.0
 11
1.0
 21
1.0
 12
68.0515316951496203
 22
-11.8233486329351596
 13
0.0
 23
0.0
 14
1.0
 24
1.0
 15
0.0
 25
0.0
 16
0.0
 26
0.0
 36
47.0568789906323275
 17
4028.786865234375
 27
135.8743591308592897
 37
0.0
 40
6.6378193335325442
 41
2.8789237668161429
 42
50.0
 43
0.0
 44
0.0
 50
0.0
 51
0.0
 71
     0
 72
   100
 73
     1
 74
     1
 75
     0
 76
     0
 77
     0
 78
     0
  0
ENDTAB
  0
TABLE
  2
LTYPE
 70
     2
  0
LTYPE
  2
CONTINUOUS
 70
     0
  3
Solid line
 72
    65
 73
     0
 40
0.0
  0
LTYPE
  2
PHANTOM2
 70
     0
  3
___ _ _ ___ _ _ ___ _ _ ___ _ _
 72
    65
 73
     6
 40
1.25
 49
0.625
 49
-0.125
 49
0.125
 49
-0.125
 49
0.125
 49
-0.125
  0
ENDTAB
  0
TABLE
  2
LAYER
 70
     2
  0
LAYER
  2
0
 70
     0
 62
   255
  6
CONTINUOUS
  0
LAYER
  2
DEFPOINTS
 70
     0
 62
     7
  6
CONTINUOUS
  0
ENDTAB
  0
TABLE
  2
STYLE
 70
     1
  0
STYLE
  2
STANDARD
 70
     0
 40
0.0
 41
0.8
 50
0.0
 71
     0
 42
0.2
  3
txt
  4

  0
ENDTAB
  0
TABLE
  2
VIEW
 70
     0
  0
ENDTAB
  0
TABLE
  2
UCS
 70
     0
  0
ENDTAB
  0
TABLE
  2
APPID
 70
     9
  0
APPID
  2
ACAD
 70
     0
  0
APPID
  2
ACAD_MLEADERVER
 70
     0
  0
APPID
  2
ACAD_EXEMPT_FROM_CAD_STANDARDS
 70
     0
  0
APPID
  2
ACAD_NAV_VCDISPLAY
 70
     0
  0
APPID
  2
ACAECLAYERSTANDARD
 70
     0
  0
APPID
  2
ACCMTRANSPARENCY
 70
     0
  0
APPID
  2
ACAD_DSTYLE_DIMJAG
 70
     0
  0
APPID
  2
ACAD_DSTYLE_DIMTALN
 70
     0
  0
APPID
  2
ACDBATTR
 70
     0
  0
ENDTAB
  0
TABLE
  2
DIMSTYLE
 70
     1
  0
DIMSTYLE
  2
STANDARD
 70
     0
  3

  4

  5

  6

  7

 40
1.0
 41
0.1875
 42
0.0625
 43
0.38
 44
0.125
 45
0.0
 46
0.0
 47
0.01
 48
0.01
140
0.15625
141
0.09
142
0.0
143
25.3999999999999986
144
1.0
145
0.0
146
1.0
147
0.09
 71
     1
 72
     0
 73
     1
 74
     1
 75
     0
 76
     0
 77
     0
 78
     4
170
     0
171
     2
172
     0
173
     0
174
     0
175
     0
176
     0
177
     0
178
     0
  0
ENDTAB
  0
ENDSEC
  0
SECTION
  2
BLOCKS
  0
BLOCK
  8
0
  2
$MODEL_SPACE
 70
     0
 10
0.0
 20
0.0
 30
0.0
  3
$MODEL_SPACE
  1

  0
ENDBLK
  5
21
  8
0
  0
BLOCK
 67
     1
  8
0
  2
$PAPER_SPACE
 70
     0
 10
0.0
 20
0.0
 30
0.0
  3
$PAPER_SPACE
  1

  0
ENDBLK
  5
1D
 67
     1
  8
0
  0
ENDSEC
  0
SECTION
  2
ENTITIES
  0
ATTDEF
  5
3930
  8
DEFPOINTS
 10
4096.8976424174688873
 20
126.5292042963467054
 30
0.0
 40
0.001
  1
K-96117T
  3

  2
MODELNUMBER
 70
     0
1001
ACDBATTR
1070
     0
1070
     1
  0
ATTDEF
  5
3931
  8
DEFPOINTS
 10
4096.8976424174688873
 20
126.5275376296799976
 30
0.0
 40
0.001
  1
CARILLON
  3

  2
TRADENAME
 70
     0
1001
ACDBATTR
1070
     0
1070
     1
  0
ATTDEF
  5
3932
  8
DEFPOINTS
 10
4096.8976424174688873
 20
126.525870963013304
 30
0.0
 40
0.001
  1
BATHROOM SINK
  3

  2
PRODUCT
 70
     0
1001
ACDBATTR
1070
     0
1070
     1
  0
LINE
  5
7073
  8
0
 10
4090.1009446839861994
 20
126.5252058672820965
 30
0.0
 11
4103.7007815023707735
 21
126.5252058672820965
 31
0.0
  0
LINE
  5
7074
  8
0
 10
4089.7501103658019019
 20
127.3243989248162933
 30
0.0
 11
4104.0516158205546162
 21
127.3243989248162933
 31
0.0
  0
LINE
  5
7075
  8
0
 10
4095.7276218034821795
 20
120.7773855082472068
 30
0.0
 11
4098.0741800816776959
 21
120.7773855082472068
 31
0.0
  0
LINE
  5
7076
  8
0
 10
4095.3552011100791788
 20
121.100252239076795
 30
0.0
 11
4095.8382214755411042
 21
121.100252239076795
 31
0.0
  0
ARC
  5
7077
  8
0
 10
4095.7276218034821795
 20
120.9743896502768052
 30
0.0
 40
0.1970041420379926
 50
190.2985307885574002
 51
270.0
  0
ARC
  5
7078
  8
0
 10
4095.3401078750021043
 20
120.9039766990010065
 30
0.0
 40
0.1968550059743241
 50
10.2985307885589794
 51
85.6028703656516541
  0
ARC
  5
7079
  8
0
 10
4095.5607038418229422
 20
123.7727559794431045
 30
0.0
 40
2.6803931829158718
 50
244.7383619288000887
 51
265.6028703656517109
  0
ARC
  5
707A
  8
0
 10
4096.1927562991277227
 20
125.1121936921280025
 30
0.0
 40
4.161468364987253
 50
221.9840821231269103
 51
244.7383619288000887
  0
ARC
  5
707B
  8
0
 10
4114.2082402930291209
 20
141.3243478246164955
 30
0.0
 40
28.3976315338977088
 50
214.7787372045144139
 51
221.9840821231269103
  0
ARC
  5
707C
  8
0
 10
4091.9606447056698926
 20
125.8741073061497957
 30
0.0
 40
1.3113722591815331
 50
184.727596681949592
 51
214.7787372045144139
  0
ARC
  5
707D
  8
0
 10
4096.9369780762390292
 20
126.285649546402297
 30
0.0
 40
6.3046938821652301
 50
181.3018880142984983
 51
184.727596681949592
  0
ARC
  5
707E
  8
0
 10
4087.3188737170289642
 20
126.0670671251468065
 30
0.0
 40
3.3158939241779288
 50
1.301888014298541
 51
4.6981142685827457
  0
ARC
  5
707F
  8
0
 10
4090.4195884121641029
 20
126.3218895367028978
 30
0.0
 40
0.2047259630963421
 50
4.6981142685827457
 51
83.2725011561022797
  0
ARC
  5
7080
  8
0
 10
4088.1100825900239215
 20
126.1209310585259971
 30
0.0
 40
1.883674311713919
 50
16.768294509535469
 51
33.2753218107304178
  0
ARC
  5
7081
  8
0
 10
4089.8824670427138699
 20
127.284077555133706
 30
0.0
 40
0.2362918249746783
 50
197.77965739573429
 51
213.2753218107297073
  0
ARC
  5
7082
  8
0
 10
4089.8233152963362045
 20
127.2651091708593043
 30
0.0
 40
0.1741731586853977
 50
187.8071419184485933
 51
197.77965739573429
  0
ARC
  5
7083
  8
0
 10
4089.7177668054678179
 20
127.2506374223666938
 30
0.0
 40
0.0676371768347522
 50
126.9168914791521985
 51
187.8071419184485933
  0
ARC
  5
7084
  8
0
 10
4089.7349018042891657
 20
127.2201847972454942
 30
0.0
 40
0.1023795546879072
 50
101.2506944645598992
 51
124.3461646786217045
  0
ARC
  5
7085
  8
0
 10
4089.7525036741121767
 20
127.1375622993625996
 30
0.0
 40
0.1868519535238121
 50
90.7338976848432992
 51
101.6014226680078991
  0
ARC
  5
7086
  8
0
 10
4090.1009446839861994
 20
126.7208058672820954
 30
0.0
 40
0.1956
 50
196.7682945095378102
 51
270.0
  0
ARC
  5
7087
  8
0
 10
4105.6916435963321419
 20
126.1209310585259971
 30
0.0
 40
1.883674311713919
 50
146.7246781892702074
 51
163.231705490464492
  0
ARC
  5
7088
  8
0
 10
4103.919259143643103
 20
127.284077555133706
 30
0.0
 40
0.2362918249746783
 50
326.7246781892702074
 51
342.2203426042656815
  0
ARC
  5
7089
  8
0
 10
4103.9784108900212232
 20
127.2651091708593043
 30
0.0
 40
0.1741731586853977
 50
342.2203426042656815
 51
352.1928580815513214
  0
ARC
  5
708A
  8
0
 10
4104.0839593808887003
 20
127.2506374223666938
 30
0.0
 40
0.0676371768347522
 50
352.1928580815513214
 51
53.0831085208478086
  0
ARC
  5
708B
  8
0
 10
4104.0668243820682619
 20
127.2201847972454942
 30
0.0
 40
0.1023795546879072
 50
55.653835321377791
 51
78.7493055354400724
  0
ARC
  5
708C
  8
0
 10
4104.0492225122443415
 20
127.1375622993625996
 30
0.0
 40
0.1868519535238121
 50
78.3985773319921009
 51
89.2661023151567008
  0
ARC
  5
708D
  8
0
 10
4103.7007815023707735
 20
126.7208058672820954
 30
0.0
 40
0.1956
 50
270.0
 51
343.2317054904622182
  0
ARC
  5
708E
  8
0
 10
4103.5371123311178962
 20
126.3262234729564994
 30
0.0
 40
0.1990539556296749
 50
97.4656820871652627
 51
136.470258108729098
  0
ARC
  5
708F
  8
0
 10
4107.1652420792406701
 20
122.879675782694207
 30
0.0
 40
5.2032538367750201
 50
136.470258108729098
 51
146.4360578176832917
  0
ARC
  5
7090
  8
0
 10
4070.5454971489698437
 20
147.176571200355113
 30
0.0
 40
38.7438148447060513
 50
324.120086531492916
 51
326.4360578176833201
  0
ARC
  5
7091
  8
0
 10
4097.5284458030009773
 20
127.6585865970397009
 30
0.0
 40
5.4416941758761741
 50
304.8574900731316006
 51
324.120086531492916
  0
ARC
  5
7092
  8
0
 10
4097.4196125785210825
 20
127.3871016718089066
 30
0.0
 40
5.2867777338689326
 50
283.2117682403766139
 51
307.5078904896953986
  0
ARC
  5
7093
  8
0
 10
4098.6907292809155479
 20
122.019171861263402
 30
0.0
 40
0.229834244443747
 50
105.8621686569640019
 51
164.4509354780381045
  0
ARC
  5
7094
  8
0
 10
56485.0600375917565543
 20
-9115.6766215043116972
 30
0.0
 40
53194.84044768215972
 50
169.999376258967402
 51
170.0006237487990006
  0
ARC
  5
7095
  8
0
 10
4098.0741800816776959
 20
120.9743855082471953
 30
0.0
 40
0.1970000000000045
 50
270.0
 51
350.0000000000956106
  0
ARC
  5
7096
  8
0
 10
4096.2759616695420846
 20
127.3389169081132053
 30
0.0
 40
5.1173947979617473
 50
260.0708056066291078
 51
265.0960950795455915
  0
ARC
  5
7097
  8
0
 10
4095.8905350163531693
 20
125.1371462712412068
 30
0.0
 40
2.88214366165055
 50
243.3778593523030906
 51
260.0708056066291078
  0
ARC
  5
7098
  8
0
 10
4096.0194967044144505
 20
125.3944284383185988
 30
0.0
 40
3.1699373907061279
 50
222.3998930146022133
 51
243.3778593523030906
  0
ARC
  5
7099
  8
0
 10
4114.876981047856134
 20
142.6136133156994958
 30
0.0
 40
28.7062848899972991
 50
219.8442575253826874
 51
222.3998930146022133
  0
ARC
  5
709A
  8
0
 10
4027.0038744507892261
 20
69.2854323854837162
 30
0.0
 40
85.7432890784271677
 50
39.8442575253827087
 51
40.9035825989368291
  0
ARC
  5
709B
  8
0
 10
4086.3381962776429646
 20
120.6889284996145051
 30
0.0
 40
7.2392690577421126
 50
40.9035825989368291
 51
51.5173713974316172
  0
ARC
  5
709C
  8
0
 10
4085.6278595668559319
 20
119.7953569048249989
 30
0.0
 40
8.3807805284272252
 50
51.5173713974316172
 51
52.9168794496006996
  0
ARC
  5
709D
  8
0
 10
4090.5447319587738093
 20
126.3006101122010989
 30
0.0
 40
0.2263980618949426
 50
52.9168794496006996
 51
82.7655724432635793
  0
LINE
  5
709E
  8
0
 10
4098.6279100339343131
 20
122.240254475070202
 30
0.0
 11
4095.838502057597907
 21
122.240254475070202
 31
0.0
  0
LINE
  5
709F
  8
0
 10
4095.9969975408498613
 20
122.0532704563780015
 30
0.0
 11
4096.1369441415381516
 21
121.2486335927977024
 31
0.0
  0
ARC
  5
70A0
  8
0
 10
4096.0719088445703164
 20
121.2538221753686969
 30
0.0
 40
0.0652419438758854
 50
314.1837263879774014
 51
355.4385455883167992
  0
ARC
  5
70A1
  8
0
 10
4095.9163928928392124
 20
121.413833643798597
 30
0.0
 40
0.2883761664235688
 50
282.3700909501965839
 51
314.183726387977913
  0
ARC
  5
70A2
  8
0
 10
4097.8501520852132671
 20
112.5966488515197028
 30
0.0
 40
8.7383714358573368
 50
102.3700909501965981
 51
103.311255659553396
  0
ARC
  5
70A3
  8
0
 10
4095.7237508691268886
 20
121.9823208498502964
 30
0.0
 40
0.2823076163951448
 50
14.5556485547452095
 51
66.0163642463643043
  0
ENDSEC
  0
EOF
