  0
SECTION
  2
HEADER
  9
$ACADVER
  1
AC1018
  9
$ACADMAINTVER
 70
    76
  9
$DWGCODEPAGE
  3
ANSI_936
  9
$INSBASE
 10
0.0
 20
0.0
 30
0.0
  9
$EXTMIN
 10
12786.22813244041
 20
1381.027539367461
 30
0.0
  9
$EXTMAX
 10
14450.43654244024
 20
2838.084006663684
 30
0.0
  9
$LIMMIN
 10
0.0
 20
0.0
  9
$LIMMAX
 10
12.0
 20
9.0
  9
$ORTHOMODE
 70
     1
  9
$REGENMODE
 70
     1
  9
$FILLMODE
 70
     1
  9
$QTEXTMODE
 70
     0
  9
$MIRRTEXT
 70
     0
  9
$LTSCALE
 40
0.000394
  9
$ATTMODE
 70
     1
  9
$TEXTSIZE
 40
0.2
  9
$TRACEWID
 40
0.05
  9
$TEXTSTYLE
  7
chinese
  9
$CLAYER
  8
dim
  9
$CELTYPE
  6
CENTER
  9
$CECOLOR
 62
   256
  9
$CELTSCALE
 40
1.0
  9
$DISPSILH
 70
     0
  9
$DIMSCALE
 40
1.0
  9
$DIMASZ
 40
6.0
  9
$DIMEXO
 40
0.0625
  9
$DIMDLI
 40
0.38
  9
$DIMRND
 40
0.0
  9
$DIMDLE
 40
0.0
  9
$DIMEXE
 40
15.0
  9
$DIMTP
 40
0.0
  9
$DIMTM
 40
0.0
  9
$DIMTXT
 40
30.0
  9
$DIMCEN
 40
0.09
  9
$DIMTSZ
 40
0.0
  9
$DIMTOL
 70
     0
  9
$DIMLIM
 70
     0
  9
$DIMTIH
 70
     1
  9
$DIMTOH
 70
     1
  9
$DIMSE1
 70
     0
  9
$DIMSE2
 70
     0
  9
$DIMTAD
 70
     0
  9
$DIMZIN
 70
     0
  9
$DIMBLK
  1
Dot
  9
$DIMASO
 70
     1
  9
$DIMSHO
 70
     1
  9
$DIMPOST
  1

  9
$DIMAPOST
  1

  9
$DIMALT
 70
     0
  9
$DIMALTD
 70
     2
  9
$DIMALTF
 40
25.4
  9
$DIMLFAC
 40
1.0
  9
$DIMTOFL
 70
     0
  9
$DIMTVP
 40
0.0
  9
$DIMTIX
 70
     0
  9
$DIMSOXD
 70
     0
  9
$DIMSAH
 70
     0
  9
$DIMBLK1
  1

  9
$DIMBLK2
  1

  9
$DIMSTYLE
  2
Standard
  9
$DIMCLRD
 70
     0
  9
$DIMCLRE
 70
     0
  9
$DIMCLRT
 70
     0
  9
$DIMTFAC
 40
1.0
  9
$DIMGAP
 40
0.09
  9
$DIMJUST
 70
     0
  9
$DIMSD1
 70
     0
  9
$DIMSD2
 70
     0
  9
$DIMTOLJ
 70
     1
  9
$DIMTZIN
 70
     0
  9
$DIMALTZ
 70
     0
  9
$DIMALTTZ
 70
     0
  9
$DIMUPT
 70
     0
  9
$DIMDEC
 70
     0
  9
$DIMTDEC
 70
     0
  9
$DIMALTU
 70
     2
  9
$DIMALTTD
 70
     2
  9
$DIMTXSTY
  7
Standard
  9
$DIMAUNIT
 70
     0
  9
$DIMADEC
 70
     0
  9
$DIMALTRND
 40
0.0
  9
$DIMAZIN
 70
     0
  9
$DIMDSEP
 70
    46
  9
$DIMATFIT
 70
     3
  9
$DIMFRAC
 70
     0
  9
$DIMLDRBLK
  1

  9
$DIMLUNIT
 70
     2
  9
$DIMLWD
 70
    -2
  9
$DIMLWE
 70
    -2
  9
$DIMTMOVE
 70
     0
  9
$LUNITS
 70
     2
  9
$LUPREC
 70
     4
  9
$SKETCHINC
 40
0.1
  9
$FILLETRAD
 40
5.0
  9
$AUNITS
 70
     0
  9
$AUPREC
 70
     0
  9
$MENU
  1
.
  9
$ELEVATION
 40
0.0
  9
$PELEVATION
 40
0.0
  9
$THICKNESS
 40
0.0
  9
$LIMCHECK
 70
     0
  9
$CHAMFERA
 40
0.0
  9
$CHAMFERB
 40
0.0
  9
$CHAMFERC
 40
0.0
  9
$CHAMFERD
 40
0.0
  9
$SKPOLY
 70
     0
  9
$TDCREATE
 40
2453062.444459780
  9
$TDUCREATE
 40
2453062.111126447
  9
$TDUPDATE
 40
2454665.381729572
  9
$TDUUPDATE
 40
2454665.048396239
  9
$TDINDWG
 40
1.6368992940
  9
$TDUSRTIMER
 40
1.6368992940
  9
$USRTIMER
 70
     1
  9
$ANGBASE
 50
0.0
  9
$ANGDIR
 70
     0
  9
$PDMODE
 70
    35
  9
$PDSIZE
 40
0.000315
  9
$PLINEWID
 40
0.0
  9
$SPLFRAME
 70
     0
  9
$SPLINETYPE
 70
     6
  9
$SPLINESEGS
 70
     8
  9
$HANDSEED
  5
DC7D
  9
$SURFTAB1
 70
     6
  9
$SURFTAB2
 70
     6
  9
$SURFTYPE
 70
     6
  9
$SURFU
 70
     6
  9
$SURFV
 70
     6
  9
$UCSBASE
  2

  9
$UCSNAME
  2

  9
$UCSORG
 10
0.0
 20
0.0
 30
0.0
  9
$UCSXDIR
 10
1.0
 20
0.0
 30
0.0
  9
$UCSYDIR
 10
0.0
 20
1.0
 30
0.0
  9
$UCSORTHOREF
  2

  9
$UCSORTHOVIEW
 70
     0
  9
$UCSORGTOP
 10
0.0
 20
0.0
 30
0.0
  9
$UCSORGBOTTOM
 10
0.0
 20
0.0
 30
0.0
  9
$UCSORGLEFT
 10
0.0
 20
0.0
 30
0.0
  9
$UCSORGRIGHT
 10
0.0
 20
0.0
 30
0.0
  9
$UCSORGFRONT
 10
0.0
 20
0.0
 30
0.0
  9
$UCSORGBACK
 10
0.0
 20
0.0
 30
0.0
  9
$PUCSBASE
  2

  9
$PUCSNAME
  2

  9
$PUCSORG
 10
0.0
 20
0.0
 30
0.0
  9
$PUCSXDIR
 10
1.0
 20
0.0
 30
0.0
  9
$PUCSYDIR
 10
0.0
 20
1.0
 30
0.0
  9
$PUCSORTHOREF
  2

  9
$PUCSORTHOVIEW
 70
     0
  9
$PUCSORGTOP
 10
0.0
 20
0.0
 30
0.0
  9
$PUCSORGBOTTOM
 10
0.0
 20
0.0
 30
0.0
  9
$PUCSORGLEFT
 10
0.0
 20
0.0
 30
0.0
  9
$PUCSORGRIGHT
 10
0.0
 20
0.0
 30
0.0
  9
$PUCSORGFRONT
 10
0.0
 20
0.0
 30
0.0
  9
$PUCSORGBACK
 10
0.0
 20
0.0
 30
0.0
  9
$USERI1
 70
     0
  9
$USERI2
 70
     0
  9
$USERI3
 70
     0
  9
$USERI4
 70
     0
  9
$USERI5
 70
     0
  9
$USERR1
 40
0.0
  9
$USERR2
 40
0.0
  9
$USERR3
 40
0.0
  9
$USERR4
 40
0.0
  9
$USERR5
 40
0.0
  9
$WORLDVIEW
 70
     1
  9
$SHADEDGE
 70
     3
  9
$SHADEDIF
 70
    70
  9
$TILEMODE
 70
     1
  9
$MAXACTVP
 70
    64
  9
$PINSBASE
 10
0.0
 20
0.0
 30
0.0
  9
$PLIMCHECK
 70
     0
  9
$PEXTMIN
 10
1.066666593701819
 20
0.8000000123902566
 30
0.0
  9
$PEXTMAX
 10
9.599999343316385
 20
7.200000111512311
 30
0.0
  9
$PLIMMIN
 10
-0.1666668268639272
 20
-0.2499999962453767
  9
$PLIMMAX
 10
10.83333293284018
 20
8.249999763458731
  9
$UNITMODE
 70
     0
  9
$VISRETAIN
 70
     1
  9
$PLINEGEN
 70
     0
  9
$PSLTSCALE
 70
     1
  9
$TREEDEPTH
 70
  3020
  9
$CMLSTYLE
  2
Standard
  9
$CMLJUST
 70
     0
  9
$CMLSCALE
 40
1.0
  9
$PROXYGRAPHICS
 70
     1
  9
$MEASUREMENT
 70
     0
  9
$CELWEIGHT
370
    -1
  9
$ENDCAPS
280
     0
  9
$JOINSTYLE
280
     0
  9
$LWDISPLAY
290
     0
  9
$INSUNITS
 70
     0
  9
$HYPERLINKBASE
  1

  9
$STYLESHEET
  1

  9
$XEDIT
290
     1
  9
$CEPSNTYPE
380
     0
  9
$PSTYLEMODE
290
     1
  9
$FINGERPRINTGUID
  2
{B6377E7B-06A5-4320-B279-44DDCEE1D922}
  9
$VERSIONGUID
  2
{3DD8158E-351F-40C8-A642-2E3CB6E20840}
  9
$EXTNAMES
290
     1
  9
$PSVPSCALE
 40
0.0
  9
$OLESTARTUP
290
     0
  9
$SORTENTS
280
   127
  9
$INDEXCTL
280
     0
  9
$HIDETEXT
280
     0
  9
$XCLIPFRAME
290
     0
  9
$HALOGAP
280
     0
  9
$OBSCOLOR
 70
   257
  9
$OBSLTYPE
280
     0
  9
$INTERSECTIONDISPLAY
280
     0
  9
$INTERSECTIONCOLOR
 70
   257
  9
$DIMASSOC
280
     1
  9
$PROJECTNAME
  1

  0
ENDSEC
  0
SECTION
  2
CLASSES
  0
CLASS
  1
ACDBDICTIONARYWDFLT
  2
AcDbDictionaryWithDefault
  3
ObjectDBX Classes
 90
        0
 91
        1
280
     0
281
     0
  0
CLASS
  1
DIMASSOC
  2
AcDbDimAssoc
  3
"AcDbDimAssoc|Product Desc:     AcDim ARX App For Dimension|Company:          Autodesk, Inc.|WEB Address:      www.autodesk.com"
 90
        0
 91
        0
280
     0
281
     0
  0
CLASS
  1
TABLESTYLE
  2
AcDbTableStyle
  3
ObjectDBX Classes
 90
     2047
 91
        1
280
     0
281
     0
  0
CLASS
  1
ACME_DOCUMENT
  2
AcMeDbDoc
  3
AcMeServices
 90
        0
 91
        2
280
     0
281
     0
  0
CLASS
  1
AMGSETTINGSOBJ
  2
AmgSettingsObj
  3
"AcadM|Product Description: AutoCAD Mechanical 2000|Company: Autodesk"
 90
        0
 91
        2
280
     0
281
     0
  0
CLASS
  1
ACMESCOPE
  2
AcMeScope
  3
AcMeServices
 90
        0
 91
        1
280
     0
281
     0
  0
CLASS
  1
ACMECOMMANDHISTORY
  2
AcMeCommandHistory
  3
AcMeServices
 90
        0
 91
        1
280
     0
281
     0
  0
CLASS
  1
ACIMSYSVARMAN
  2
AcImSysVarManager
  3
AcMeServices
 90
        0
 91
        5
280
     0
281
     0
  0
CLASS
  1
ACIMINTSYSVAR
  2
AcImIntSysVar
  3
AcMeServices
 90
        0
 91
       26
280
     0
281
     0
  0
CLASS
  1
ACMEDRAWINGMAN
  2
AcMeDrawingMan
  3
AcMeServices
 90
        0
 91
        1
280
     0
281
     0
  0
CLASS
  1
ACMEVIEW
  2
AcMeView
  3
AcMeServices
 90
        0
 91
        1
280
     0
281
     0
  0
CLASS
  1
ACDBENTITYCACHE
  2
AcMeEntityCache
  3
AcMeServices
 90
        0
 91
        1
280
     0
281
     0
  0
CLASS
  1
GSMANAGER
  2
AcMeGSManager
  3
AcMeServices
 90
        0
 91
        1
280
     0
281
     0
  0
CLASS
  1
AMDTINTERNALREACTOR
  2
AmdtInternalReactor
  3
AcMeServices
 90
        0
 91
        2
280
     0
281
     0
  0
CLASS
  1
ACMESTATEMGR
  2
AcMeStateMgr
  3
AcMeServices
 90
        0
 91
        1
280
     0
281
     0
  0
CLASS
  1
ACGREFMASTER
  2
AcGrefMaster
  3
AcAttribServices
 90
        0
 91
        1
280
     0
281
     0
  0
CLASS
  1
AM_DRAWING_MGR
  2
AcDmDwgMgr
  3
AcMechDwgViewMgmt
 90
        0
 91
        1
280
     0
281
     0
  0
CLASS
  1
AM_DWG_DOCUMENT
  2
AcDmDwgDocument
  3
AcMechDwgViewMgmt
 90
        0
 91
        1
280
     0
281
     0
  0
CLASS
  1
AM_DWG_SHEET
  2
AcDmSheet
  3
AcMechDwgViewMgmt
 90
        0
 91
        1
280
     0
281
     0
  0
CLASS
  1
AM_VIEWDIMPARMAP
  2
AcDmViewDimParMap
  3
AcMechDwgViewMgmt
 90
        0
 91
        1
280
     0
281
     0
  0
CLASS
  1
ACIMREALSYSVAR
  2
AcImRealSysVar
  3
AcMeServices
 90
        0
 91
        1
280
     0
281
     0
  0
CLASS
  1
AM_DWGMGR_NAME
  2
AcDmDwgMgrName
  3
AcMechDwgViewMgmt
 90
        0
 91
        1
280
     0
281
     0
  0
CLASS
  1
ACME_DATABASE
  2
AcMeDbDatabase
  3
AcMeServices
 90
        0
 91
        1
280
     0
281
     0
  0
CLASS
  1
ACRFINSADJUSTERMGR
  2
AcRfInsAdjusterMgr
  3
AcMeServices
 90
        0
 91
        1
280
     0
281
     0
  0
CLASS
  1
ACGREFACADMASTER
  2
AcGrefacadMaster
  3
AcGrefServices
 90
        0
 91
        1
280
     0
281
     0
  0
CLASS
  1
AMDTMENUSTATEMGR
  2
AmdtMenuStateMgr
  3
McadcomServices
 90
        0
 91
        1
280
     0
281
     0
  0
CLASS
  1
AMDTMCOMMENUSTATE
  2
AmdtMcomMenuState
  3
McadcomServices
 90
        0
 91
        1
280
     0
281
     0
  0
CLASS
  1
AMIMASTER
  2
AmiMaster
  3
AmiServices
 90
        0
 91
        1
280
     0
281
     0
  0
CLASS
  1
MAPIAMMOUDLE
  2
MApiAmModule
  3
MApiAmServices
 90
        0
 91
        1
280
     0
281
     0
  0
CLASS
  1
ACIMSTRSYSVAR
  2
AcImStrSysVar
  3
AcMeServices
 90
        0
 91
        5
280
     0
281
     0
  0
CLASS
  1
AMDTADMENUSTATE
  2
AmdtAdMenuState
  3
DesignerServices
 90
        0
 91
        1
280
     0
281
     0
  0
CLASS
  1
ADAPPL
  2
AcAdAppl
  3
DesignerServices
 90
        0
 91
        1
280
     0
281
     0
  0
CLASS
  1
DEPMGR
  2
AcAdDepMgr
  3
DesignerServices
 90
        0
 91
        1
280
     0
281
     0
  0
CLASS
  1
PARAMMGR
  2
AcAdParamMgr
  3
DesignerServices
 90
        0
 91
        1
280
     0
281
     0
  0
CLASS
  1
PARAMSCOPE
  2
AcAdParamScope
  3
DesignerServices
 90
        0
 91
        1
280
     0
281
     0
  0
CLASS
  1
NAMEDAPPL
  2
AcAdNamedAppl
  3
DesignerServices
 90
        0
 91
        1
280
     0
281
     0
  0
CLASS
  1
AMDTDMMENUSTATE
  2
AmdtDmMenuState
  3
AcMechDwgViewMgmt
 90
        0
 91
        1
280
     0
281
     0
  0
CLASS
  1
AMDTAMMENUSTATE
  2
AmdtAmMenuState
  3
DesignerAssemblies
 90
        0
 91
        1
280
     0
281
     0
  0
CLASS
  1
ACAMPROJECT
  2
AcAmProject
  3
DesignerAssemblies
 90
        0
 91
        1
280
     0
281
     0
  0
CLASS
  1
ACAMGRCOMPDEF
  2
AcAmGrCompDef
  3
DesignerAssemblies
 90
        0
 91
        1
280
     0
281
     0
  0
CLASS
  1
ACCMCONTEXT
  2
AcCmContext
  3
DesignerAssemblies
 90
        0
 91
        1
280
     0
281
     0
  0
CLASS
  1
ACAMCOMPDEF
  2
AcAmCompDef
  3
DesignerAssemblies
 90
        0
 91
        1
280
     0
281
     0
  0
CLASS
  1
ACAMCOMPDEFMGR
  2
AcAmCompDefMgr
  3
DesignerAssemblies
 90
        0
 91
        1
280
     0
281
     0
  0
CLASS
  1
AMCONTEXTMGR
  2
AcAmContextMgr
  3
DesignerAssemblies
 90
        0
 91
        1
280
     0
281
     0
  0
CLASS
  1
ACAMCONTEXTMODELER
  2
AcAmContextModeler
  3
DesignerAssemblies
 90
        0
 91
        1
280
     0
281
     0
  0
CLASS
  1
ACMDATADICTIONARY
  2
AcmDataDictionary
  3
"AcmSymBB|Product Description: AutoCAD Mechanical 2004 DX|Company: Autodesk"
 90
        0
 91
        1
280
     0
281
     0
  0
CLASS
  1
CATALOGSTATE
  2
AcAmCatalogState
  3
DesignerAssemblies
 90
        0
 91
        1
280
     0
281
     0
  0
CLASS
  1
ACAMGRCOMPDEFSET
  2
AcAmGrCompDefSet
  3
DesignerAssemblies
 90
        0
 91
        1
280
     0
281
     0
  0
CLASS
  1
AMDTBROWSERDBTAB
  2
AmdtBrowserDbTab
  3
McadcomServices
 90
        0
 91
        1
280
     0
281
     0
  0
CLASS
  1
CBROWSERAPPOBJECT
  2
CBrowserAppObject
  3
McadcomServices
 90
        0
 91
        3
280
     0
281
     0
  0
CLASS
  1
DM_PLACEHOLDER
  2
AcDmSelsetPlaceholder
  3
AcMechDwgViewMgmt
 90
        0
 91
        1
280
     0
281
     0
  0
CLASS
  1
ACMSTANDARDANSI
  2
AcmStandardANSI
  3
"Amdt_StdImp|Product Description: AutoCAD Mechanical 2004 DX|Company: Autodesk"
 90
        0
 91
        1
280
     0
281
     0
  0
CLASS
  1
AMGOBJPROPCFG
  2
AmgObjPropCfg
  3
"AmgLay|Product Description: AutoCAD Mechanical 2000|Company: Autodesk"
 90
        1
 91
        1
280
     0
281
     0
  0
CLASS
  1
ACMSURFSTANDARDANSI
  2
AcmSurfTextStdANSI
  3
"Amdt_StdImp|Product Description: AutoCAD Mechanical 2004 DX|Company: Autodesk"
 90
        0
 91
        1
280
     0
281
     0
  0
CLASS
  1
ACMFCFSTANDARDANSI
  2
AcmFCFStdANSI
  3
"Amdt_StdImp|Product Description: AutoCAD Mechanical 2004 DX|Company: Autodesk"
 90
        0
 91
        1
280
     0
281
     0
  0
CLASS
  1
ACMWELDSTANDARDANSI
  2
AcmWeldingStdANSI
  3
"Amdt_StdImp|Product Description: AutoCAD Mechanical 2004 DX|Company: Autodesk"
 90
        0
 91
        1
280
     0
281
     0
  0
CLASS
  1
ACMIDSTANDARDANSI
  2
AcmIdStdANSI
  3
"Amdt_StdImp|Product Description: AutoCAD Mechanical 2004 DX|Company: Autodesk"
 90
        0
 91
        1
280
     0
281
     0
  0
CLASS
  1
ACMDATUMSTANDARDANSI
  2
AcmDatumStdANSI
  3
"Amdt_StdImp|Product Description: AutoCAD Mechanical 2004 DX|Company: Autodesk"
 90
        0
 91
        1
280
     0
281
     0
  0
CLASS
  1
ACMBOMSTANDARDANSI
  2
AcmBOMStdANSI
  3
"Amdt_StdImp|Product Description: AutoCAD Mechanical 2004 DX|Company: Autodesk"
 90
        0
 91
        1
280
     0
281
     0
  0
CLASS
  1
ACMDETAILSTANDARDANSI
  2
AmdtDetailSymStdANSI
  3
"Amdt_StdImp|Product Description: AutoCAD Mechanical 2004 DX|Company: Autodesk"
 90
        0
 91
        1
280
     0
281
     0
  0
CLASS
  1
ACMSECTIONSTANDARDANSI
  2
AmdtSectionSymStdANSI
  3
"Amdt_StdImp|Product Description: AutoCAD Mechanical 2004 DX|Company: Autodesk"
 90
        0
 91
        1
280
     0
281
     0
  0
CLASS
  1
ACMCENTERLINESTANDARDANSI
  2
AmdtCenterLineStdANSI
  3
"Amdt_StdImp|Product Description: AutoCAD Mechanical 2004 DX|Company: Autodesk"
 90
        0
 91
        1
280
     0
281
     0
  0
CLASS
  1
ACMTHREADLINESTANDARDANSI
  2
AmdtThreadLineStdANSI
  3
"Amdt_StdImp|Product Description: AutoCAD Mechanical 2004 DX|Company: Autodesk"
 90
        0
 91
        1
280
     0
281
     0
  0
CLASS
  1
ACMNOTESTANDARDANSI
  2
AmdtNoteStdANSI
  3
"Amdt_StdImp|Product Description: AutoCAD Mechanical 2004 DX|Company: Autodesk"
 90
        0
 91
        1
280
     0
281
     0
  0
CLASS
  1
AMDTNOTETEMPLATEDB
  2
AmdtNoteTemplateDB
  3
AMDT_STDIMP_MODULE_NAME
 90
        0
 91
        6
280
     0
281
     0
  0
CLASS
  1
ACAMGLAYSTD
  2
AcAmgLayStd
  3
"AcAmgLayStd|Product Description: AutoCAD Mechanical 2000|Company: Autodesk"
 90
        0
 91
        1
280
     0
281
     0
  0
CLASS
  1
ACAMGDIMSTD
  2
AcAmgDimStd
  3
"AcAmgDimStd|Product Description: AutoCAD Mechanical 2000|Company: Autodesk"
 90
        0
 91
        1
280
     0
281
     0
  0
CLASS
  1
ACAMGHOLECHARTSTDANSI
  2
AcAmgHoleChartStdANSI
  3
ACMSYMBB_MODULE_NAME
 90
        0
 91
        1
280
     0
281
     0
  0
CLASS
  1
ACAMGTITLESTD
  2
AcAmgTitleStd
  3
"TITLEAPP"
 90
        0
 91
        1
280
     0
281
     0
  0
CLASS
  1
DICTIONARYVAR
  2
AcDbDictionaryVar
  3
ObjectDBX Classes
 90
        0
 91
        1
280
     0
281
     0
  0
CLASS
  1
ACAMGFILTERDAT
  2
AcAmgFilterDat
  3
"AcadM|Product Description: AutoCAD Mechanical 2000|Company: Autodesk"
 90
        0
 91
        6
280
     0
281
     0
  0
CLASS
  1
SORTENTSTABLE
  2
AcDbSortentsTable
  3
ObjectDBX Classes
 90
        0
 91
        1
280
     0
281
     0
  0
ENDSEC
  0
SECTION
  2
TABLES
  0
TABLE
  2
VPORT
  5
8
330
0
100
AcDbSymbolTable
 70
     5
  0
VPORT
  5
DC7C
330
8
100
AcDbSymbolTableRecord
100
AcDbViewportTableRecord
  2
*Active
 70
     0
 10
0.0
 20
0.0
 11
1.0
 21
1.0
 12
13051.42367406193
 22
1788.215304806678
 13
0.0
 23
0.0
 14
1.0
 24
1.0
 15
0.0
 25
0.0
 16
0.0
 26
0.0
 36
1.0
 17
0.0
 27
0.0
 37
0.0
 40
1152.912655618028
 41
1.504492939666238
 42
50.0
 43
0.0
 44
0.0
 50
0.0
 51
0.0
 71
     0
 72
   100
 73
     1
 74
     1
 75
     0
 76
     1
 77
     0
 78
     0
281
     0
 65
     1
110
0.0
120
0.0
130
0.0
111
1.0
121
0.0
131
0.0
112
0.0
122
1.0
132
0.0
 79
     0
146
0.0
  0
ENDTAB
  0
TABLE
  2
LTYPE
  5
5
330
0
100
AcDbSymbolTable
 70
    26
  0
LTYPE
  5
13
330
5
100
AcDbSymbolTableRecord
100
AcDbLinetypeTableRecord
  2
ByBlock
 70
     0
  3

 72
    65
 73
     0
 40
0.0
  0
LTYPE
  5
14
330
5
100
AcDbSymbolTableRecord
100
AcDbLinetypeTableRecord
  2
ByLayer
 70
     0
  3

 72
    65
 73
     0
 40
0.0
  0
LTYPE
  5
15
330
5
100
AcDbSymbolTableRecord
100
AcDbLinetypeTableRecord
  2
CONTINUOUS
 70
     0
  3
Solid line
 72
    65
 73
     0
 40
0.0
  0
LTYPE
  5
24
330
5
100
AcDbSymbolTableRecord
100
AcDbLinetypeTableRecord
  2
DASHED
 70
     0
  3
__ __ __ __ __ __ __ __ __ __ __ __ __ __ __
 72
    65
 73
     2
 40
0.000003
 49
0.000002
 74
     0
 49
-0.000001
 74
     0
  0
LTYPE
  5
25
330
5
100
AcDbSymbolTableRecord
100
AcDbLinetypeTableRecord
  2
HIDDEN
 70
     0
  3
 _ _ _ _ _ _ _ _ _ _ _ _ _ _ _ _ _ _ _ _ _ _
 72
    65
 73
     2
 40
0.000001
 49
0.000001
 74
     0
 49
0.0
 74
     0
  0
LTYPE
  5
26
330
5
100
AcDbSymbolTableRecord
100
AcDbLinetypeTableRecord
  2
CENTER
 70
     0
  3
____ _ ____ _ ____ _ ____ _ ____ _ ____ _ ____
 72
    65
 73
     4
 40
0.000008
 49
0.000005
 74
     0
 49
-0.000001
 74
     0
 49
0.000001
 74
     0
 49
-0.000001
 74
     0
  0
LTYPE
  5
27
330
5
100
AcDbSymbolTableRecord
100
AcDbLinetypeTableRecord
  2
PHANTOM
 70
     0
  3
_____ _ _ _____ _ _ _____ _ _ _____ _ _ ____
 72
    65
 73
     6
 40
0.00001
 49
0.000005
 74
     0
 49
-0.000001
 74
     0
 49
0.000001
 74
     0
 49
-0.000001
 74
     0
 49
0.000001
 74
     0
 49
-0.000001
 74
     0
  0
LTYPE
  5
28
330
5
100
AcDbSymbolTableRecord
100
AcDbLinetypeTableRecord
  2
DOT
 70
     0
  3
...............................................
 72
    65
 73
     2
 40
0.000001
 49
0.0
 74
     0
 49
-0.000001
 74
     0
  0
LTYPE
  5
29
330
5
100
AcDbSymbolTableRecord
100
AcDbLinetypeTableRecord
  2
DASHDOT
 70
     0
  3
__ . __ . __ . __ . __ . __ . __ . __ . __ . __
 72
    65
 73
     4
 40
0.000004
 49
0.000002
 74
     0
 49
-0.000001
 74
     0
 49
0.0
 74
     0
 49
-0.000001
 74
     0
  0
LTYPE
  5
2A
330
5
100
AcDbSymbolTableRecord
100
AcDbLinetypeTableRecord
  2
BORDER
 70
     0
  3
__ __ . __ __ . __ __ . __ __ . __ __ . __ __
 72
    65
 73
     6
 40
0.000007
 49
0.000002
 74
     0
 49
-0.000001
 74
     0
 49
0.000002
 74
     0
 49
-0.000001
 74
     0
 49
0.0
 74
     0
 49
-0.000001
 74
     0
  0
LTYPE
  5
2B
330
5
100
AcDbSymbolTableRecord
100
AcDbLinetypeTableRecord
  2
DIVIDE
 70
     0
  3
__ . . __ . . __ . . __ . . __ . . __ . . __
 72
    65
 73
     6
 40
0.000005
 49
0.000002
 74
     0
 49
-0.000001
 74
     0
 49
0.0
 74
     0
 49
-0.000001
 74
     0
 49
0.0
 74
     0
 49
-0.000001
 74
     0
  0
LTYPE
  5
2C
330
5
100
AcDbSymbolTableRecord
100
AcDbLinetypeTableRecord
  2
DOTDOT
 70
     0
  3
 . .  . .  . .  . .  . .  . . 
 72
    65
 73
     5
 40
0.000002
 49
-0.000001
 74
     0
 49
0.0
 74
     0
 49
-0.000001
 74
     0
 49
0.0
 74
     0
 49
-0.000001
 74
     0
  0
LTYPE
  5
5550
330
5
100
AcDbSymbolTableRecord
100
AcDbLinetypeTableRecord
  2
ACAD_ISO04W100
 70
     0
  3
ISO long-dash dot ____ . ____ . ____ . ____ . _
 72
    65
 73
     4
 40
30.0
 49
24.0
 74
     0
 49
-3.0
 74
     0
 49
0.0
 74
     0
 49
-3.0
 74
     0
  0
LTYPE
  5
A094
330
5
100
AcDbSymbolTableRecord
100
AcDbLinetypeTableRecord
  2
PHANTOM4
 70
     0
  3
___ _ _ ___ _ _ ___ _ _ ___ _ _ ___ _ _ ___ _ _
 72
    65
 73
     6
 40
0.625
 49
0.3125
 74
     0
 49
-0.0625
 74
     0
 49
0.0625
 74
     0
 49
-0.0625
 74
     0
 49
0.0625
 74
     0
 49
-0.0625
 74
     0
  0
LTYPE
  5
AC5B
330
5
100
AcDbSymbolTableRecord
100
AcDbLinetypeTableRecord
  2
CENTER2
 70
     0
  3
___ _ ___ _ ___ _ ___ _ ___ _ ___ _ ___ _ ___ _
 72
    65
 73
     4
 40
1.125
 49
0.75
 74
     0
 49
-0.125
 74
     0
 49
0.125
 74
     0
 49
-0.125
 74
     0
  0
LTYPE
  5
BD76
330
5
100
AcDbSymbolTableRecord
100
AcDbLinetypeTableRecord
  2
ACAD_ISO02W100
 70
     0
  3
ISO dash __ __ __ __ __ __ __ __ __ __ __ __ __
 72
    65
 73
     2
 40
15.0
 49
12.0
 74
     0
 49
-3.0
 74
     0
  0
LTYPE
  5
DBC6
330
5
100
AcDbSymbolTableRecord
100
AcDbLinetypeTableRecord
  2
PHANTOM2
 70
     0
  3
Phantom (.5x) ___ _ _ ___ _ _ ___ _ _ ___ _ _
 72
    65
 73
     6
 40
1.25
 49
0.625
 74
     0
 49
-0.125
 74
     0
 49
0.125
 74
     0
 49
-0.125
 74
     0
 49
0.125
 74
     0
 49
-0.125
 74
     0
  0
LTYPE
  5
DBFA
330
5
100
AcDbSymbolTableRecord
100
AcDbLinetypeTableRecord
  2
AM_ISO02W050
 70
     0
  3
__ __ __ __ __ __ __ __ __ __ __ __ __ __ __
 72
    65
 73
     2
 40
7.5
 49
6.0
 74
     0
 49
-1.5
 74
     0
  0
LTYPE
  5
DBFB
330
5
100
AcDbSymbolTableRecord
100
AcDbLinetypeTableRecord
  2
AM_ISO08W050
 70
     0
  3
____ . ____ . ____ . ____ . ____ . ____ . ____
 72
    65
 73
     4
 40
18.0
 49
12.0
 74
     0
 49
-1.5
 74
     0
 49
3.0
 74
     0
 49
-1.5
 74
     0
  0
LTYPE
  5
DBFC
330
5
100
AcDbSymbolTableRecord
100
AcDbLinetypeTableRecord
  2
AM_ISO09W050
 70
     0
  3
_____ . . _____ . . _____ . . ____ .. ____
 72
    65
 73
     6
 40
22.5
 49
12.0
 74
     0
 49
-1.5
 74
     0
 49
3.0
 74
     0
 49
-1.5
 74
     0
 49
3.0
 74
     0
 49
-1.5
 74
     0
  0
LTYPE
  5
DBFD
330
5
100
AcDbSymbolTableRecord
100
AcDbLinetypeTableRecord
  2
Amconstr
 70
     0
  3
_______________________
 72
    65
 73
     2
 40
9999.0
 49
9999.0
 74
     0
 49
0.0
 74
     0
  0
LTYPE
  5
DBFE
330
5
100
AcDbSymbolTableRecord
100
AcDbLinetypeTableRecord
  2
AM_ISO08W050x2
 70
     0
  3
__ . __ . __ . __ . __ . __
 72
    65
 73
     4
 40
9.0
 49
6.0
 74
     0
 49
-0.75
 74
     0
 49
1.5
 74
     0
 49
-0.75
 74
     0
  0
LTYPE
  5
DBFF
330
5
100
AcDbSymbolTableRecord
100
AcDbLinetypeTableRecord
  2
AM_ISO02W050x2
 70
     0
  3
 _ _ _ _ _ _ _ _ _ _ _ _
 72
    65
 73
     2
 40
3.75
 49
3.0
 74
     0
 49
-0.75
 74
     0
  0
LTYPE
  5
DC02
330
5
100
AcDbSymbolTableRecord
100
AcDbLinetypeTableRecord
  2
Amzigzag
 70
     0
  3
/\/-/\/-/\/-/\/-/\/-/\/
 72
    65
 73
     2
 40
11.0001
 49
0.0001
 74
     4
 75
   136
340
DC01
 46
0.04
 50
0.0
 44
0.0
 45
0.0
 49
-11.0
 74
     0
  0
LTYPE
  5
DC03
330
5
100
AcDbSymbolTableRecord
100
AcDbLinetypeTableRecord
  2
HIDDEN2
 70
     0
  3
Hidden (.5x) _ _ _ _ _ _ _ _ _ _ _ _ _ _ _ _ _
 72
    65
 73
     2
 40
0.1875
 49
0.125
 74
     0
 49
-0.0625
 74
     0
  0
LTYPE
  5
DC04
330
5
100
AcDbSymbolTableRecord
100
AcDbLinetypeTableRecord
  2
Amzigzag2
 70
     0
  3
/\/-/\/-/\/-/\/-/\/-/\/
 72
    65
 73
     2
 40
0.4401
 49
0.0001
 74
     4
 75
   136
340
DC01
 46
0.0016
 50
0.0
 44
0.0
 45
0.0
 49
-0.4400000000000001
 74
     0
  0
LTYPE
  5
DC12
330
5
100
AcDbSymbolTableRecord
100
AcDbLinetypeTableRecord
  2
ACANSTGB
 70
     0
  3
__ . . __ . .
 72
    65
 73
     6
 40
0.35433070866
 49
0.15748031496
 74
     0
 49
-0.03937007874
 74
     0
 49
0.03937007874
 74
     0
 49
-0.03937007874
 74
     0
 49
0.03937007874
 74
     0
 49
-0.03937007874
 74
     0
  0
LTYPE
  5
DC13
330
5
100
AcDbSymbolTableRecord
100
AcDbLinetypeTableRecord
  2
ACANSTGL
 70
     0
  3
_ _ _ _ _
 72
    65
 73
     2
 40
0.11811023622
 49
0.07874015748
 74
     0
 49
-0.03937007874
 74
     0
  0
ENDTAB
  0
TABLE
  2
LAYER
  5
2
330
0
100
AcDbSymbolTable
 70
    18
  0
LAYER
  5
10
330
2
100
AcDbSymbolTableRecord
100
AcDbLayerTableRecord
  2
0
 70
     0
 62
     7
  6
CONTINUOUS
370
    -3
390
F
  0
LAYER
  5
2D
330
2
100
AcDbSymbolTableRecord
100
AcDbLayerTableRecord
  2
FOREGROUND
 70
     0
 62
     7
  6
CONTINUOUS
370
    -3
390
F
  0
LAYER
  5
2E
330
2
100
AcDbSymbolTableRecord
100
AcDbLayerTableRecord
  2
BACKGROUND
 70
     1
 62
    -7
  6
CONTINUOUS
370
    -3
390
F
  0
LAYER
  5
2F
330
2
100
AcDbSymbolTableRecord
100
AcDbLayerTableRecord
  2
LAYER_1
 70
     0
 62
     7
  6
CONTINUOUS
370
    -3
390
F
  0
LAYER
  5
4C30
330
2
100
AcDbSymbolTableRecord
100
AcDbLayerTableRecord
  2
Defpoints
 70
     0
 62
     7
  6
CONTINUOUS
290
     0
370
    -3
390
F
  0
LAYER
  5
5551
330
2
100
AcDbSymbolTableRecord
100
AcDbLayerTableRecord
  2
cen
 70
     0
 62
    10
  6
ACAD_ISO04W100
370
    -3
390
F
  0
LAYER
  5
5552
330
2
100
AcDbSymbolTableRecord
100
AcDbLayerTableRecord
  2
dim
 70
     0
 62
    90
  6
CONTINUOUS
370
    -3
390
F
  0
LAYER
  5
5B96
330
2
100
AcDbSymbolTableRecord
100
AcDbLayerTableRecord
  2
text
 70
     0
 62
   180
  6
CONTINUOUS
370
    -3
390
F
  0
LAYER
  5
A095
330
2
100
AcDbSymbolTableRecord
100
AcDbLayerTableRecord
  2
TOP
 70
     2
 62
     2
  6
CONTINUOUS
370
    -3
390
F
  0
LAYER
  5
A096
330
2
100
AcDbSymbolTableRecord
100
AcDbLayerTableRecord
  2
DRAIN
 70
     2
 62
     3
  6
CONTINUOUS
370
    -3
390
F
  0
LAYER
  5
A097
330
2
100
AcDbSymbolTableRecord
100
AcDbLayerTableRecord
  2
TOPDIM
 70
     2
 62
   130
  6
CONTINUOUS
370
    -3
390
F
  0
LAYER
  5
A098
330
2
100
AcDbSymbolTableRecord
100
AcDbLayerTableRecord
  2
OVERFLOW
 70
     2
 62
     2
  6
CONTINUOUS
370
    -3
390
F
  0
LAYER
  5
B492
330
2
100
AcDbSymbolTableRecord
100
AcDbLayerTableRecord
  2
110
 70
     0
 62
     2
  6
CONTINUOUS
370
    -3
390
F
  0
LAYER
  5
B493
330
2
100
AcDbSymbolTableRecord
100
AcDbLayerTableRecord
  2
230
 70
     0
 62
     4
  6
CONTINUOUS
370
    -3
390
F
  0
LAYER
  5
B494
330
2
100
AcDbSymbolTableRecord
100
AcDbLayerTableRecord
  2
255
 70
     0
 62
     2
  6
CONTINUOUS
370
    -3
390
F
  0
LAYER
  5
B495
330
2
100
AcDbSymbolTableRecord
100
AcDbLayerTableRecord
  2
4
 70
     0
 62
     4
  6
CONTINUOUS
370
    -3
390
F
  0
LAYER
  5
B496
330
2
100
AcDbSymbolTableRecord
100
AcDbLayerTableRecord
  2
100
 70
     0
 62
     1
  6
CONTINUOUS
370
    -3
390
F
  0
LAYER
  5
BD77
330
2
100
AcDbSymbolTableRecord
100
AcDbLayerTableRecord
  2
hide
 70
     0
 62
   180
  6
ACAD_ISO02W100
370
    -3
390
F
  0
ENDTAB
  0
TABLE
  2
STYLE
  5
3
330
0
100
AcDbSymbolTable
 70
    15
  0
STYLE
  5
11
330
3
100
AcDbSymbolTableRecord
100
AcDbTextStyleTableRecord
  2
Standard
 70
     0
 40
0.0
 41
1.0
 50
0.0
 71
     0
 42
0.2
  3
txt
  4

  0
STYLE
  5
554F
330
3
100
AcDbSymbolTableRecord
100
AcDbTextStyleTableRecord
  2

 70
     1
 40
0.0
 41
1.0
 50
0.0
 71
     0
 42
0.2
  3
ltypeshp.shx
  4

  0
STYLE
  5
5B97
330
3
100
AcDbSymbolTableRecord
100
AcDbTextStyleTableRecord
  2
chinese
 70
     0
 40
0.0
 41
1.0
 50
0.0
 71
     0
 42
0.2
  3

  4

1001
ACAD
1000
SimSun
1071
    34306
  0
STYLE
  5
A099
330
3
100
AcDbSymbolTableRecord
100
AcDbTextStyleTableRecord
  2
GN3
 70
     0
 40
0.16
 41
1.0
 50
0.0
 71
     0
 42
0.16
  3
O:\PUBLIC\ACADWIN\PSP\ROMANK.SHX
  4

  0
STYLE
  5
A09A
330
3
100
AcDbSymbolTableRecord
100
AcDbTextStyleTableRecord
  2
DIM
 70
     0
 40
0.0
 41
1.0
 50
0.0
 71
     0
 42
0.16
  3
ROMANK
  4

  0
STYLE
  5
B497
330
3
100
AcDbSymbolTableRecord
100
AcDbTextStyleTableRecord
  2
ROMANK
 70
     0
 40
0.0
 41
1.0
 50
0.0
 71
     0
 42
0.2
  3
romank
  4

  0
STYLE
  5
C284
330
3
100
AcDbSymbolTableRecord
100
AcDbTextStyleTableRecord
  2
SN0
 70
     0
 40
0.0
 41
0.000004
 50
0.0
 71
     0
 42
0.0
  3
ROMANS
  4

  0
STYLE
  5
C285
330
3
100
AcDbSymbolTableRecord
100
AcDbTextStyleTableRecord
  2
SV0
 70
     4
 40
0.0
 41
0.000004
 50
0.0
 71
     0
 42
0.0
  3
ROMANS
  4

  0
STYLE
  5
C286
330
3
100
AcDbSymbolTableRecord
100
AcDbTextStyleTableRecord
  2
SN1
 70
     0
 40
0.0
 41
0.000004
 50
0.0
 71
     0
 42
0.0
  3
ROMAND
  4

  0
STYLE
  5
C287
330
3
100
AcDbSymbolTableRecord
100
AcDbTextStyleTableRecord
  2
SV1
 70
     4
 40
0.0
 41
0.000004
 50
0.0
 71
     0
 42
0.0
  3
ROMAND
  4

  0
STYLE
  5
C288
330
3
100
AcDbSymbolTableRecord
100
AcDbTextStyleTableRecord
  2
SN2
 70
     0
 40
0.0
 41
0.000004
 50
0.0
 71
     0
 42
0.0
  3
SYMATH
  4

  0
STYLE
  5
C289
330
3
100
AcDbSymbolTableRecord
100
AcDbTextStyleTableRecord
  2
SV2
 70
     4
 40
0.0
 41
0.000004
 50
0.0
 71
     0
 42
0.0
  3
SYMATH
  4

  0
STYLE
  5
DC01
330
3
100
AcDbSymbolTableRecord
100
AcDbTextStyleTableRecord
  2

 70
     1
 40
0.0
 41
1.0
 50
0.0
 71
     0
 42
0.2
  3
genltshp.shx
  4

  0
STYLE
  5
DC05
330
3
100
AcDbSymbolTableRecord
100
AcDbTextStyleTableRecord
  2
ACANSTS
 70
     0
 40
1.0
 41
1.0
 50
0.0
 71
     0
 42
0.2
  3
romans.shx
  4

  0
STYLE
  5
DC11
330
3
100
AcDbSymbolTableRecord
100
AcDbTextStyleTableRecord
  2
ACANSGDT
 70
     0
 40
0.0
 41
1.0
 50
0.0
 71
     0
 42
0.2
  3
AMGDT
  4

  0
ENDTAB
  0
TABLE
  2
VIEW
  5
6
330
0
100
AcDbSymbolTable
 70
     0
  0
ENDTAB
  0
TABLE
  2
UCS
  5
7
330
0
100
AcDbSymbolTable
 70
     0
  0
ENDTAB
  0
TABLE
  2
APPID
  5
9
330
0
100
AcDbSymbolTable
 70
    14
  0
APPID
  5
12
330
9
100
AcDbSymbolTableRecord
100
AcDbRegAppTableRecord
  2
ACAD
 70
     0
  0
APPID
  5
DB99
330
9
100
AcDbSymbolTableRecord
100
AcDbRegAppTableRecord
  2
MCAD_NO_VIS
 70
     0
  0
APPID
  5
DB9A
330
9
100
AcDbSymbolTableRecord
100
AcDbRegAppTableRecord
  2
ACAD_TEMP_GRAPHIC
 70
     0
  0
APPID
  5
DBC8
330
9
100
AcDbSymbolTableRecord
100
AcDbRegAppTableRecord
  2
AD_DRAW
 70
     0
  0
APPID
  5
DBCB
330
9
100
AcDbSymbolTableRecord
100
AcDbRegAppTableRecord
  2
ACATTRIBSERVICES
 70
     0
  0
APPID
  5
DBEB
330
9
100
AcDbSymbolTableRecord
100
AcDbRegAppTableRecord
  2
DESIGNERASSEMBLIES
 70
     0
  0
APPID
  5
DBF1
330
9
100
AcDbSymbolTableRecord
100
AcDbRegAppTableRecord
  2
ACADM_DIM_EDIT
 70
     0
  0
APPID
  5
DBF2
330
9
100
AcDbSymbolTableRecord
100
AcDbRegAppTableRecord
  2
AMDT_DM_ADJ
 70
     0
  0
APPID
  5
DC1E
330
9
100
AcDbSymbolTableRecord
100
AcDbRegAppTableRecord
  2
ACAD_DSTYLE_DIMARC_LENGTH_SYMBOL
 70
     0
  0
APPID
  5
DC1F
330
9
100
AcDbSymbolTableRecord
100
AcDbRegAppTableRecord
  2
ACAD_DSTYLE_DIMJOGGED_JOGANGLE_SYMBOL
 70
     0
  0
APPID
  5
DC3D
330
9
100
AcDbSymbolTableRecord
100
AcDbRegAppTableRecord
  2
GENIUS_GENSCREG_15
 70
     0
  0
APPID
  5
DC3E
330
9
100
AcDbSymbolTableRecord
100
AcDbRegAppTableRecord
  2
GENIUS_GENOBJ-N-SDF_13
 70
     0
  0
APPID
  5
DC3F
330
9
100
AcDbSymbolTableRecord
100
AcDbRegAppTableRecord
  2
GENIUS_GENODEF_13
 70
     0
  0
APPID
  5
DC43
330
9
100
AcDbSymbolTableRecord
100
AcDbRegAppTableRecord
  2
DCO15
 70
     0
  0
ENDTAB
  0
TABLE
  2
DIMSTYLE
  5
A
330
0
100
AcDbSymbolTable
 70
     9
100
AcDbDimStyleTable
 71
     1
340
4C2C
  0
DIMSTYLE
105
4C2C
330
A
100
AcDbSymbolTableRecord
100
AcDbDimStyleTableRecord
  2
Standard
 70
     0
 41
6.0
 44
15.0
140
30.0
271
     0
272
     0
340
11
342
5131
  0
DIMSTYLE
105
A09B
330
A
100
AcDbSymbolTableRecord
100
AcDbDimStyleTableRecord
  2
PLB
 70
     0
 40
0.0
 42
0.06
 44
0.09
 78
     4
140
0.156
141
0.0
176
   256
177
   256
178
   256
271
     2
272
     2
279
     2
284
     4
285
     4
286
     4
340
11
  0
DIMSTYLE
105
D639
330
A
100
AcDbSymbolTableRecord
100
AcDbDimStyleTableRecord
  2
dia
 70
     0
 41
6.0
 44
10.0
140
35.0
271
     0
272
     0
340
11
342
5131
  0
DIMSTYLE
105
DC1D
330
A
100
AcDbSymbolTableRecord
100
AcDbDimStyleTableRecord
  2
AM_ANSI
 70
     0
  4
mm
 41
0.1
 42
0.05
 43
0.5
 44
0.1
 47
0.1
 48
0.1
 78
     7
 79
     2
140
0.12
141
0.0
146
0.71
147
0.06
176
   256
177
   256
178
     2
274
     4
284
     7
340
11
371
    -1
372
    -1
1001
ACAD_DSTYLE_DIMARC_LENGTH_SYMBOL
1070
   379
1070
     1
1001
ACAD_DSTYLE_DIMJOGGED_JOGANGLE_SYMBOL
1070
   384
1040
0.7853981633974483
  0
DIMSTYLE
105
DC26
330
A
100
AcDbSymbolTableRecord
100
AcDbDimStyleTableRecord
  2
AM_ANSI$3
 70
     0
  4
mm
 41
0.1
 42
0.05
 43
0.5
 44
0.1
 47
0.1
 48
0.1
 78
     7
 79
     2
140
0.12
141
0.0
146
0.71
147
0.06
176
   256
177
   256
178
     2
274
     4
284
     7
288
     1
289
     0
340
11
371
    -1
372
    -1
1001
ACAD_DSTYLE_DIMARC_LENGTH_SYMBOL
1070
   379
1070
     1
1001
ACAD_DSTYLE_DIMJOGGED_JOGANGLE_SYMBOL
1070
   384
1040
0.7853981633974483
  0
DIMSTYLE
105
DC29
330
A
100
AcDbSymbolTableRecord
100
AcDbDimStyleTableRecord
  2
AM_ANSI$4
 70
     0
  4
mm
 41
0.1
 42
0.05
 43
0.5
 44
0.1
 47
0.1
 48
0.1
 78
     7
 79
     2
140
0.12
141
0.0
146
0.71
147
0.06
176
   256
177
   256
178
     2
274
     4
284
     7
288
     1
289
     0
340
11
371
    -1
372
    -1
1001
ACAD_DSTYLE_DIMARC_LENGTH_SYMBOL
1070
   379
1070
     1
1001
ACAD_DSTYLE_DIMJOGGED_JOGANGLE_SYMBOL
1070
   384
1040
0.7853981633974483
  0
DIMSTYLE
105
DC2E
330
A
100
AcDbSymbolTableRecord
100
AcDbDimStyleTableRecord
  2
AM_ANSI$7
 70
     0
  4
mm
 41
0.1
 42
0.05
 43
0.5
 44
0.1
 47
0.1
 48
0.1
 78
     7
 79
     2
140
0.24
141
0.0
146
0.71
147
0.06
176
   256
177
   256
178
     2
274
     4
284
     7
340
11
371
    -1
372
    -1
1001
ACAD_DSTYLE_DIMARC_LENGTH_SYMBOL
1070
   379
1070
     1
1001
ACAD_DSTYLE_DIMJOGGED_JOGANGLE_SYMBOL
1070
   384
1040
0.7853981633974483
  0
DIMSTYLE
105
DC31
330
A
100
AcDbSymbolTableRecord
100
AcDbDimStyleTableRecord
  2
AM_ANSI$SF
 70
     0
  4
mm
 41
0.1
 42
0.05
 43
0.5
 44
0.1
 47
0.1
 48
0.1
 75
     1
 76
     1
 78
     7
 79
     2
140
0.12
141
0.0
146
0.71
147
0.06
176
   256
177
   256
178
     2
274
     4
284
     7
340
11
371
    -1
372
    -1
1001
ACAD_DSTYLE_DIMARC_LENGTH_SYMBOL
1070
   379
1070
     1
1001
ACAD_DSTYLE_DIMJOGGED_JOGANGLE_SYMBOL
1070
   384
1040
0.7853981633974483
  0
DIMSTYLE
105
DC38
330
A
100
AcDbSymbolTableRecord
100
AcDbDimStyleTableRecord
  2
AM_ANSI$SH
 70
     0
  4
mm
 41
0.1
 42
0.05
 43
0.5
 44
0.1
 47
0.1
 48
0.1
 75
     1
 76
     1
 78
     7
 79
     2
140
0.12
141
0.0
146
0.71
147
0.06
173
     1
176
   256
177
   256
178
     2
274
     4
284
     7
340
11
343
DC32
371
    -1
372
    -1
1001
ACAD_DSTYLE_DIMARC_LENGTH_SYMBOL
1070
   379
1070
     1
1001
ACAD_DSTYLE_DIMJOGGED_JOGANGLE_SYMBOL
1070
   384
1040
0.7853981633974483
  0
ENDTAB
  0
TABLE
  2
BLOCK_RECORD
  5
1
330
0
100
AcDbSymbolTable
 70
    29
  0
BLOCK_RECORD
  5
20
102
{ACAD_XDICTIONARY
360
DC54
102
}
330
1
100
AcDbSymbolTableRecord
100
AcDbBlockTableRecord
  2
*Model_Space
340
23
  0
BLOCK_RECORD
  5
1C
330
1
100
AcDbSymbolTableRecord
100
AcDbBlockTableRecord
  2
*Paper_Space
340
1F
  0
BLOCK_RECORD
  5
5131
330
1
100
AcDbSymbolTableRecord
100
AcDbBlockTableRecord
  2
_Dot
340
0
102
{BLKREFS
331
D3A9
331
D3AA
331
D3B7
331
D3B8
331
D3C5
331
D3C6
331
D3D3
331
D3D4
331
D3E2
331
D3E3
331
D40A
331
D40B
331
D416
331
D417
331
D424
331
D425
331
D440
331
D441
331
D464
331
D465
331
D46E
331
D46F
331
D490
331
D491
331
D4A9
331
D4B1
331
D4FD
331
D4FE
331
D50C
331
DB4A
331
DB7C
331
DB7D
102
}
  0
BLOCK_RECORD
  5
AE26
330
1
100
AcDbSymbolTableRecord
100
AcDbBlockTableRecord
  2
TBD_DET
340
0
  0
BLOCK_RECORD
  5
B272
330
1
100
AcDbSymbolTableRecord
100
AcDbBlockTableRecord
  2
BLOT
340
0
  0
BLOCK_RECORD
  5
B285
330
1
100
AcDbSymbolTableRecord
100
AcDbBlockTableRecord
  2
BOM_HDR
340
0
  0
BLOCK_RECORD
  5
B2DF
330
1
100
AcDbSymbolTableRecord
100
AcDbBlockTableRecord
  2
XHT2
340
0
  0
BLOCK_RECORD
  5
B307
330
1
100
AcDbSymbolTableRecord
100
AcDbBlockTableRecord
  2
XHT3
340
0
  0
BLOCK_RECORD
  5
B32F
330
1
100
AcDbSymbolTableRecord
100
AcDbBlockTableRecord
  2
XHT4
340
0
  0
BLOCK_RECORD
  5
B336
330
1
100
AcDbSymbolTableRecord
100
AcDbBlockTableRecord
  2
XHT5
340
0
  0
BLOCK_RECORD
  5
B33E
330
1
100
AcDbSymbolTableRecord
100
AcDbBlockTableRecord
  2
ARROW
340
0
  0
BLOCK_RECORD
  5
DC32
330
1
100
AcDbSymbolTableRecord
100
AcDbBlockTableRecord
  2
GENAXEH
340
0
  0
ENDTAB
  0
ENDSEC
  0
SECTION
  2
BLOCKS
  0
BLOCK
  5
21
330
20
100
AcDbEntity
  8
0
100
AcDbBlockBegin
  2
*Model_Space
 70
     0
 10
0.0
 20
0.0
 30
0.0
  3
*Model_Space
  1

  0
ENDBLK
  5
22
330
20
100
AcDbEntity
  8
0
100
AcDbBlockEnd
  0
BLOCK
  5
1D
330
1C
100
AcDbEntity
 67
     1
  8
0
100
AcDbBlockBegin
  2
*Paper_Space
 70
     0
 10
0.0
 20
0.0
 30
0.0
  3
*Paper_Space
  1

  0
ENDBLK
  5
1E
330
1C
100
AcDbEntity
 67
     1
  8
0
100
AcDbBlockEnd
  0
BLOCK
  5
5134
330
5131
100
AcDbEntity
  8
0
100
AcDbBlockBegin
  2
_Dot
 70
     0
 10
0.0
 20
0.0
 30
0.0
  3
_Dot
  1

  0
LWPOLYLINE
  5
5132
330
5131
100
AcDbEntity
  8
0
  6
ByBlock
 62
     0
100
AcDbPolyline
 90
        2
 70
     1
 43
0.5
 10
-0.25
 20
0.0
 42
1.0
 10
0.25
 20
0.0
 42
1.0
  0
LINE
  5
5133
330
5131
100
AcDbEntity
  8
0
  6
ByBlock
 62
     0
370
    -2
100
AcDbLine
 10
-0.5
 20
0.0
 30
0.0
 11
-1.0
 21
0.0
 31
0.0
  0
ENDBLK
  5
5135
330
5131
100
AcDbEntity
  8
0
100
AcDbBlockEnd
  0
BLOCK
  5
AE27
330
AE26
100
AcDbEntity
  8
0
100
AcDbBlockBegin
  2
TBD_DET
 70
     0
 10
0.0
 20
0.0
 30
0.0
  3
TBD_DET
  1

  0
LWPOLYLINE
  5
AE28
330
AE26
100
AcDbEntity
  8
0
  6
Continuous
100
AcDbPolyline
 90
        2
 70
     0
 43
0.0
 10
16.9929294586
 20
0.4858578742000001
 10
17.0023574829
 20
0.4952859581000001
  0
LWPOLYLINE
  5
AE29
330
AE26
100
AcDbEntity
  8
0
  6
Continuous
100
AcDbPolyline
 90
        2
 70
     0
 43
0.0
 10
16.9858570099
 20
0.4717157185
 10
17.0047149658
 20
0.4905719161000001
  0
LWPOLYLINE
  5
AE2A
330
AE26
100
AcDbEntity
  8
0
  6
Continuous
100
AcDbPolyline
 90
        2
 70
     0
 43
0.0
 10
16.9787864685
 20
0.4575735927000001
 10
17.0070705414
 20
0.4858578742000001
  0
LWPOLYLINE
  5
AE2B
330
AE26
100
AcDbEntity
  8
0
  6
Continuous
100
AcDbPolyline
 90
        2
 70
     0
 43
0.0
 10
16.9717159271
 20
0.4434314668
 10
17.0094280243
 20
0.4811438322
  0
LWPOLYLINE
  5
AE2C
330
AE26
100
AcDbEntity
  8
0
  6
Continuous
100
AcDbPolyline
 90
        2
 70
     0
 43
0.0
 10
16.9646453857
 20
0.4292893112
 10
17.0117855072
 20
0.4764297605
  0
LWPOLYLINE
  5
AE2D
330
AE26
100
AcDbEntity
  8
0
  6
Continuous
100
AcDbPolyline
 90
        2
 70
     0
 43
0.0
 10
16.957572937
 20
0.4151471853000001
 10
17.0141429901
 20
0.4717157185
  0
LWPOLYLINE
  5
AE2E
330
AE26
100
AcDbEntity
  8
0
  6
Continuous
100
AcDbPolyline
 90
        2
 70
     0
 43
0.0
 10
16.9505023956
 20
0.4010050595
 10
17.0164985657
 20
0.4670016766
  0
LWPOLYLINE
  5
AE2F
330
AE26
100
AcDbEntity
  8
0
  6
Continuous
100
AcDbPolyline
 90
        2
 70
     0
 43
0.0
 10
16.9434318542
 20
0.3868629038
 10
17.0188560486
 20
0.4622876346
  0
LWPOLYLINE
  5
AE30
330
AE26
100
AcDbEntity
  8
0
  6
Continuous
100
AcDbPolyline
 90
        2
 70
     0
 43
0.0
 10
16.9363613129
 20
0.372720778
 10
17.0212135315
 20
0.4575735927000001
  0
LWPOLYLINE
  5
AE31
330
AE26
100
AcDbEntity
  8
0
  6
Continuous
100
AcDbPolyline
 90
        2
 70
     0
 43
0.0
 10
16.9292888641
 20
0.3585786521
 10
17.0235710144
 20
0.4528595507000001
  0
LWPOLYLINE
  5
AE32
330
AE26
100
AcDbEntity
  8
0
  6
Continuous
100
AcDbPolyline
 90
        2
 70
     0
 43
0.0
 10
16.9222183228
 20
0.3444365263
 10
17.02592659
 20
0.4481455088000001
  0
LWPOLYLINE
  5
AE33
330
AE26
100
AcDbEntity
  8
0
  6
Continuous
100
AcDbPolyline
 90
        2
 70
     0
 43
0.0
 10
16.9151477814
 20
0.3302943707
 10
17.0282840729
 20
0.4434314668
  0
LWPOLYLINE
  5
AE34
330
AE26
100
AcDbEntity
  8
0
  6
Continuous
100
AcDbPolyline
 90
        2
 70
     0
 43
0.0
 10
16.9080753326
 20
0.3161522448
 10
17.0306415558
 20
0.4387174249
  0
LWPOLYLINE
  5
AE35
330
AE26
100
AcDbEntity
  8
0
  6
Continuous
100
AcDbPolyline
 90
        2
 70
     0
 43
0.0
 10
16.9114952087
 20
0.3125
 10
17.0329990387
 20
0.4340033829000001
  0
LWPOLYLINE
  5
AE36
330
AE26
100
AcDbEntity
  8
0
  6
Continuous
100
AcDbPolyline
 90
        2
 70
     0
 43
0.0
 10
16.9185657501
 20
0.3125
 10
17.0353546143
 20
0.4292893112
  0
LWPOLYLINE
  5
AE37
330
AE26
100
AcDbEntity
  8
0
  6
Continuous
100
AcDbPolyline
 90
        2
 70
     0
 43
0.0
 10
16.9256362915
 20
0.3125
 10
17.0377120972
 20
0.4245752692
  0
LWPOLYLINE
  5
AE38
330
AE26
100
AcDbEntity
  8
0
  6
Continuous
100
AcDbPolyline
 90
        2
 70
     0
 43
0.0
 10
16.9327087402
 20
0.3125
 10
17.0400695801
 20
0.4198612273000001
  0
LWPOLYLINE
  5
AE39
330
AE26
100
AcDbEntity
  8
0
  6
Continuous
100
AcDbPolyline
 90
        2
 70
     0
 43
0.0
 10
16.9397792816
 20
0.3125
 10
17.042427063
 20
0.4151471853000001
  0
LWPOLYLINE
  5
AE3A
330
AE26
100
AcDbEntity
  8
0
  6
Continuous
100
AcDbPolyline
 90
        2
 70
     0
 43
0.0
 10
16.946849823
 20
0.3125
 10
17.0447826385
 20
0.4104331434000001
  0
LWPOLYLINE
  5
AE3B
330
AE26
100
AcDbEntity
  8
0
  6
Continuous
100
AcDbPolyline
 90
        2
 70
     0
 43
0.0
 10
16.9539222717
 20
0.3125
 10
17.0471401215
 20
0.4057191014
  0
LWPOLYLINE
  5
AE3C
330
AE26
100
AcDbEntity
  8
0
  6
Continuous
100
AcDbPolyline
 90
        2
 70
     0
 43
0.0
 10
16.9609928131
 20
0.3125
 10
17.0494976044
 20
0.4010050595
  0
LWPOLYLINE
  5
AE3D
330
AE26
100
AcDbEntity
  8
0
  6
Continuous
100
AcDbPolyline
 90
        2
 70
     0
 43
0.0
 10
16.9680633545
 20
0.3125
 10
17.0518550873
 20
0.3962910175
  0
LWPOLYLINE
  5
AE3E
330
AE26
100
AcDbEntity
  8
0
  6
Continuous
100
AcDbPolyline
 90
        2
 70
     0
 43
0.0
 10
16.9751338959
 20
0.3125
 10
17.0542106628
 20
0.3915769756
  0
LWPOLYLINE
  5
AE3F
330
AE26
100
AcDbEntity
  8
0
  6
Continuous
100
AcDbPolyline
 90
        2
 70
     0
 43
0.0
 10
16.9765625
 20
0.3068568707
 10
17.0565681458
 20
0.3868629038
  0
LWPOLYLINE
  5
AE40
330
AE26
100
AcDbEntity
  8
0
  6
Continuous
100
AcDbPolyline
 90
        2
 70
     0
 43
0.0
 10
16.9765625
 20
0.2997858226
 10
17.0589256287
 20
0.3821488619
  0
LWPOLYLINE
  5
AE41
330
AE26
100
AcDbEntity
  8
0
  6
Continuous
100
AcDbPolyline
 90
        2
 70
     0
 43
0.0
 10
16.9765625
 20
0.2927147448
 10
17.0612831116
 20
0.3774348199
  0
LWPOLYLINE
  5
AE42
330
AE26
100
AcDbEntity
  8
0
  6
Continuous
100
AcDbPolyline
 90
        2
 70
     0
 43
0.0
 10
16.9765625
 20
0.285643667
 10
17.0636386871
 20
0.372720778
  0
LWPOLYLINE
  5
AE43
330
AE26
100
AcDbEntity
  8
0
  6
Continuous
100
AcDbPolyline
 90
        2
 70
     0
 43
0.0
 10
16.9765625
 20
0.278572619
 10
17.06599617
 20
0.368006736
  0
LWPOLYLINE
  5
AE44
330
AE26
100
AcDbEntity
  8
0
  6
Continuous
100
AcDbPolyline
 90
        2
 70
     0
 43
0.0
 10
16.9765625
 20
0.2715015411
 10
17.068353653
 20
0.3632926941
  0
LWPOLYLINE
  5
AE45
330
AE26
100
AcDbEntity
  8
0
  6
Continuous
100
AcDbPolyline
 90
        2
 70
     0
 43
0.0
 10
16.9765625
 20
0.2644304633
 10
17.0234375
 20
0.3113054633
  0
LWPOLYLINE
  5
AE46
330
AE26
100
AcDbEntity
  8
0
  6
Continuous
100
AcDbPolyline
 90
        2
 70
     0
 43
0.0
 10
17.02463150019999
 20
0.3125
 10
17.0707111359
 20
0.3585786521
  0
LWPOLYLINE
  5
AE47
330
AE26
100
AcDbEntity
  8
0
  6
Continuous
100
AcDbPolyline
 90
        2
 70
     0
 43
0.0
 10
16.9765625
 20
0.2573594153
 10
17.0234375
 20
0.3042344153
  0
LWPOLYLINE
  5
AE48
330
AE26
100
AcDbEntity
  8
0
  6
Continuous
100
AcDbPolyline
 90
        2
 70
     0
 43
0.0
 10
17.031703949
 20
0.3125
 10
17.0730686188
 20
0.3538646102
  0
LWPOLYLINE
  5
AE49
330
AE26
100
AcDbEntity
  8
0
  6
Continuous
100
AcDbPolyline
 90
        2
 70
     0
 43
0.0
 10
16.9765625
 20
0.2502883375
 10
17.0234375
 20
0.2971633375
  0
LWPOLYLINE
  5
AE4A
330
AE26
100
AcDbEntity
  8
0
  6
Continuous
100
AcDbPolyline
 90
        2
 70
     0
 43
0.0
 10
17.0387744904
 20
0.3125
 10
17.0754241943
 20
0.3491505682
  0
LWPOLYLINE
  5
AE4B
330
AE26
100
AcDbEntity
  8
0
  6
Continuous
100
AcDbPolyline
 90
        2
 70
     0
 43
0.0
 10
16.9765625
 20
0.2432172745
 10
17.0234375
 20
0.2900922596
  0
LWPOLYLINE
  5
AE4C
330
AE26
100
AcDbEntity
  8
0
  6
Continuous
100
AcDbPolyline
 90
        2
 70
     0
 43
0.0
 10
17.0458450317
 20
0.3125
 10
17.0777816772
 20
0.3444365263
  0
LWPOLYLINE
  5
AE4D
330
AE26
100
AcDbEntity
  8
0
  6
Continuous
100
AcDbPolyline
 90
        2
 70
     0
 43
0.0
 10
16.9765625
 20
0.2361461967
 10
17.0234375
 20
0.2830212116
  0
LWPOLYLINE
  5
AE4E
330
AE26
100
AcDbEntity
  8
0
  6
Continuous
100
AcDbPolyline
 90
        2
 70
     0
 43
0.0
 10
17.05291557309999
 20
0.3125
 10
17.0801391602
 20
0.3397224545
  0
LWPOLYLINE
  5
AE4F
330
AE26
100
AcDbEntity
  8
0
  6
Continuous
100
AcDbPolyline
 90
        2
 70
     0
 43
0.0
 10
16.9765625
 20
0.2290751338
 10
17.0234375
 20
0.2759501338
  0
LWPOLYLINE
  5
AE50
330
AE26
100
AcDbEntity
  8
0
  6
Continuous
100
AcDbPolyline
 90
        2
 70
     0
 43
0.0
 10
17.0599880219
 20
0.3125
 10
17.0824966431
 20
0.3350084126
  0
LWPOLYLINE
  5
AE51
330
AE26
100
AcDbEntity
  8
0
  6
Continuous
100
AcDbPolyline
 90
        2
 70
     0
 43
0.0
 10
16.9765625
 20
0.2220040709
 10
17.0234375
 20
0.268879056
  0
LWPOLYLINE
  5
AE52
330
AE26
100
AcDbEntity
  8
0
  6
Continuous
100
AcDbPolyline
 90
        2
 70
     0
 43
0.0
 10
17.0670585632
 20
0.3125
 10
17.0848522186
 20
0.3302943707
  0
LWPOLYLINE
  5
AE53
330
AE26
100
AcDbEntity
  8
0
  6
Continuous
100
AcDbPolyline
 90
        2
 70
     0
 43
0.0
 10
16.9765625
 20
0.2149329931
 10
17.0234375
 20
0.261808008
  0
LWPOLYLINE
  5
AE54
330
AE26
100
AcDbEntity
  8
0
  6
Continuous
100
AcDbPolyline
 90
        2
 70
     0
 43
0.0
 10
17.0741291046
 20
0.3125
 10
17.0872097015
 20
0.3255803287
  0
LWPOLYLINE
  5
AE55
330
AE26
100
AcDbEntity
  8
0
  6
Continuous
100
AcDbPolyline
 90
        2
 70
     0
 43
0.0
 10
16.9765625
 20
0.2078619301
 10
17.0234375
 20
0.2547369301
  0
LWPOLYLINE
  5
AE56
330
AE26
100
AcDbEntity
  8
0
  6
Continuous
100
AcDbPolyline
 90
        2
 70
     0
 43
0.0
 10
17.08119964599999
 20
0.3125
 10
17.0895671844
 20
0.3208662868
  0
LWPOLYLINE
  5
AE57
330
AE26
100
AcDbEntity
  8
0
  6
Continuous
100
AcDbPolyline
 90
        2
 70
     0
 43
0.0
 10
16.9765625
 20
0.2007908672
 10
17.0234375
 20
0.2476658672
  0
LWPOLYLINE
  5
AE58
330
AE26
100
AcDbEntity
  8
0
  6
Continuous
100
AcDbPolyline
 90
        2
 70
     0
 43
0.0
 10
17.0882720947
 20
0.3125
 10
17.0919246674
 20
0.3161522448
  0
LWPOLYLINE
  5
AE59
330
AE26
100
AcDbEntity
  8
0
  6
Continuous
100
AcDbPolyline
 90
        2
 70
     0
 43
0.0
 10
16.9765625
 20
0.1937197894
 10
17.0234375
 20
0.2405947894
  0
LWPOLYLINE
  5
AE5A
330
AE26
100
AcDbEntity
  8
0
  6
Continuous
100
AcDbPolyline
 90
        2
 70
     0
 43
0.0
 10
16.9765625
 20
0.1866487265
 10
17.0234375
 20
0.2335237265
  0
LWPOLYLINE
  5
AE5B
330
AE26
100
AcDbEntity
  8
0
  6
Continuous
100
AcDbPolyline
 90
        2
 70
     0
 43
0.0
 10
16.9765625
 20
0.1795776635
 10
17.0234375
 20
0.2264526635
  0
LWPOLYLINE
  5
AE5C
330
AE26
100
AcDbEntity
  8
0
  6
Continuous
100
AcDbPolyline
 90
        2
 70
     0
 43
0.0
 10
16.9765625
 20
0.1725065857
 10
17.0234375
 20
0.2193815857
  0
LWPOLYLINE
  5
AE5D
330
AE26
100
AcDbEntity
  8
0
  6
Continuous
100
AcDbPolyline
 90
        2
 70
     0
 43
0.0
 10
16.9765625
 20
0.1654355228
 10
17.0234375
 20
0.2123105228
  0
LWPOLYLINE
  5
AE5E
330
AE26
100
AcDbEntity
  8
0
  6
Continuous
100
AcDbPolyline
 90
        2
 70
     0
 43
0.0
 10
16.9765625
 20
0.1583644599
 10
17.0234375
 20
0.2052394599
  0
LWPOLYLINE
  5
AE5F
330
AE26
100
AcDbEntity
  8
0
  6
Continuous
100
AcDbPolyline
 90
        2
 70
     0
 43
0.0
 10
16.9765625
 20
0.151293382
 10
17.0234375
 20
0.198168382
  0
LWPOLYLINE
  5
AE60
330
AE26
100
AcDbEntity
  8
0
  6
Continuous
100
AcDbPolyline
 90
        2
 70
     0
 43
0.0
 10
16.9765625
 20
0.1442223191
 10
17.0234375
 20
0.1910973191
  0
LWPOLYLINE
  5
AE61
330
AE26
100
AcDbEntity
  8
0
  6
Continuous
100
AcDbPolyline
 90
        2
 70
     0
 43
0.0
 10
16.9765625
 20
0.1371512562
 10
17.0234375
 20
0.1840262562
  0
LWPOLYLINE
  5
AE62
330
AE26
100
AcDbEntity
  8
0
  6
Continuous
100
AcDbPolyline
 90
        2
 70
     0
 43
0.0
 10
16.9765625
 20
0.1300801784
 10
17.0234375
 20
0.1769551784
  0
LWPOLYLINE
  5
AE63
330
AE26
100
AcDbEntity
  8
0
  6
Continuous
100
AcDbPolyline
 90
        2
 70
     0
 43
0.0
 10
16.978553772
 20
0.125
 10
17.0234375
 20
0.1698841155
  0
LWPOLYLINE
  5
AE64
330
AE26
100
AcDbEntity
  8
0
  6
Continuous
100
AcDbPolyline
 90
        2
 70
     0
 43
0.0
 10
16.9856243134
 20
0.125
 10
17.0234375
 20
0.1628130525
  0
LWPOLYLINE
  5
AE65
330
AE26
100
AcDbEntity
  8
0
  6
Continuous
100
AcDbPolyline
 90
        2
 70
     0
 43
0.0
 10
16.9926948547
 20
0.125
 10
17.0234375
 20
0.1557419747
  0
LWPOLYLINE
  5
AE66
330
AE26
100
AcDbEntity
  8
0
  6
Continuous
100
AcDbPolyline
 90
        2
 70
     0
 43
0.0
 10
16.9997673035
 20
0.125
 10
17.0234375
 20
0.1486709118
  0
LWPOLYLINE
  5
AE67
330
AE26
100
AcDbEntity
  8
0
  6
Continuous
100
AcDbPolyline
 90
        2
 70
     0
 43
0.0
 10
17.0068378448
 20
0.125
 10
17.0234375
 20
0.1415998489
  0
LWPOLYLINE
  5
AE68
330
AE26
100
AcDbEntity
  8
0
  6
Continuous
100
AcDbPolyline
 90
        2
 70
     0
 43
0.0
 10
17.0139083862
 20
0.125
 10
17.0234375
 20
0.1345287859
  0
LWPOLYLINE
  5
AE69
330
AE26
100
AcDbEntity
  8
0
  6
Continuous
100
AcDbPolyline
 90
        2
 70
     0
 43
0.0
 10
17.0209789276
 20
0.125
 10
17.0234375
 20
0.1274577081
  0
LWPOLYLINE
  5
AE6A
330
AE26
100
AcDbEntity
  8
0
  6
Continuous
100
AcDbPolyline
 90
        2
 70
     0
 43
0.0
 10
29.5546875
 20
2.352303981799999
 10
29.5617580414
 20
2.359375
  0
LWPOLYLINE
  5
AE6B
330
AE26
100
AcDbEntity
  8
0
  6
Continuous
100
AcDbPolyline
 90
        2
 70
     0
 43
0.0
 10
29.5546875
 20
2.345232963599999
 10
29.5688304901
 20
2.359375
  0
LWPOLYLINE
  5
AE6C
330
AE26
100
AcDbEntity
  8
0
  6
Continuous
100
AcDbPolyline
 90
        2
 70
     0
 43
0.0
 10
29.5546875
 20
2.338161945299999
 10
29.5759010315
 20
2.359375
  0
LWPOLYLINE
  5
AE6D
330
AE26
100
AcDbEntity
  8
0
  6
Continuous
100
AcDbPolyline
 90
        2
 70
     0
 43
0.0
 10
29.5546875
 20
2.3310906887
 10
29.5829715729
 20
2.359375
  0
LWPOLYLINE
  5
AE6E
330
AE26
100
AcDbEntity
  8
0
  6
Continuous
100
AcDbPolyline
 90
        2
 70
     0
 43
0.0
 10
29.5546875
 20
2.3240196705
 10
29.5900421143
 20
2.359375
  0
LWPOLYLINE
  5
AE6F
330
AE26
100
AcDbEntity
  8
0
  6
Continuous
100
AcDbPolyline
 90
        2
 70
     0
 43
0.0
 10
29.5546875
 20
2.316948652299999
 10
29.597114563
 20
2.359375
  0
LWPOLYLINE
  5
AE70
330
AE26
100
AcDbEntity
  8
0
  6
Continuous
100
AcDbPolyline
 90
        2
 70
     0
 43
0.0
 10
29.5546875
 20
2.3098773956
 10
29.6041851044
 20
2.359375
  0
LWPOLYLINE
  5
AE71
330
AE26
100
AcDbEntity
  8
0
  6
Continuous
100
AcDbPolyline
 90
        2
 70
     0
 43
0.0
 10
29.5546875
 20
2.3028063774
 10
29.6112556458
 20
2.359375
  0
LWPOLYLINE
  5
AE72
330
AE26
100
AcDbEntity
  8
0
  6
Continuous
100
AcDbPolyline
 90
        2
 70
     0
 43
0.0
 10
29.5546875
 20
2.2957353592
 10
29.6183261871
 20
2.359375
  0
LWPOLYLINE
  5
AE73
330
AE26
100
AcDbEntity
  8
0
  6
Continuous
100
AcDbPolyline
 90
        2
 70
     0
 43
0.0
 10
29.5546875
 20
2.288664341
 10
29.6216869354
 20
2.3556642532
  0
LWPOLYLINE
  5
AE74
330
AE26
100
AcDbEntity
  8
0
  6
Continuous
100
AcDbPolyline
 90
        2
 70
     0
 43
0.0
 10
29.5546875
 20
2.2815933228
 10
29.6216869354
 20
2.348593235
  0
LWPOLYLINE
  5
AE75
330
AE26
100
AcDbEntity
  8
0
  6
Continuous
100
AcDbPolyline
 90
        2
 70
     0
 43
0.0
 10
29.5546875
 20
2.2745223045
 10
29.6216869354
 20
2.3415222168
  0
LWPOLYLINE
  5
AE76
330
AE26
100
AcDbEntity
  8
0
  6
Continuous
100
AcDbPolyline
 90
        2
 70
     0
 43
0.0
 10
29.5546875
 20
2.2674512863
 10
29.6216869354
 20
2.3344511986
  0
LWPOLYLINE
  5
AE77
330
AE26
100
AcDbEntity
  8
0
  6
Continuous
100
AcDbPolyline
 90
        2
 70
     0
 43
0.0
 10
29.5546875
 20
2.260380029699999
 10
29.6216869354
 20
2.3273801804
  0
LWPOLYLINE
  5
AE78
330
AE26
100
AcDbEntity
  8
0
  6
Continuous
100
AcDbPolyline
 90
        2
 70
     0
 43
0.0
 10
29.5546875
 20
2.253309011499999
 10
29.6216869354
 20
2.3203091621
  0
LWPOLYLINE
  5
AE79
330
AE26
100
AcDbEntity
  8
0
  6
Continuous
100
AcDbPolyline
 90
        2
 70
     0
 43
0.0
 10
29.5546875
 20
2.2462377548
 10
29.6216869354
 20
2.3132379055
  0
LWPOLYLINE
  5
AE7A
330
AE26
100
AcDbEntity
  8
0
  6
Continuous
100
AcDbPolyline
 90
        2
 70
     0
 43
0.0
 10
29.5546875
 20
2.2391667366
 10
29.6216869354
 20
2.306166887299999
  0
LWPOLYLINE
  5
AE7B
330
AE26
100
AcDbEntity
  8
0
  6
Continuous
100
AcDbPolyline
 90
        2
 70
     0
 43
0.0
 10
29.5546875
 20
2.2320957184
 10
29.6216869354
 20
2.2990956306
  0
LWPOLYLINE
  5
AE7C
330
AE26
100
AcDbEntity
  8
0
  6
Continuous
100
AcDbPolyline
 90
        2
 70
     0
 43
0.0
 10
29.5546875
 20
2.2250247002
 10
29.6216869354
 20
2.2920246124
  0
LWPOLYLINE
  5
AE7D
330
AE26
100
AcDbEntity
  8
0
  6
Continuous
100
AcDbPolyline
 90
        2
 70
     0
 43
0.0
 10
29.5546875
 20
2.2179536819
 10
29.6216869354
 20
2.284953594199999
  0
LWPOLYLINE
  5
AE7E
330
AE26
100
AcDbEntity
  8
0
  6
Continuous
100
AcDbPolyline
 90
        2
 70
     0
 43
0.0
 10
29.5546875
 20
2.2108826637
 10
29.6216869354
 20
2.277882576
  0
LWPOLYLINE
  5
AE7F
330
AE26
100
AcDbEntity
  8
0
  6
Continuous
100
AcDbPolyline
 90
        2
 70
     0
 43
0.0
 10
29.5546875
 20
2.2038116455
 10
29.7102508545
 20
2.359375
  0
LWPOLYLINE
  5
AE80
330
AE26
100
AcDbEntity
  8
0
  6
Continuous
100
AcDbPolyline
 90
        2
 70
     0
 43
0.0
 10
29.5546875
 20
2.196740388899999
 10
29.7173213959
 20
2.359375
  0
LWPOLYLINE
  5
AE81
330
AE26
100
AcDbEntity
  8
0
  6
Continuous
100
AcDbPolyline
 90
        2
 70
     0
 43
0.0
 10
29.5546875
 20
2.189669370699999
 10
29.7243938446
 20
2.359375
  0
LWPOLYLINE
  5
AE82
330
AE26
100
AcDbEntity
  8
0
  6
Continuous
100
AcDbPolyline
 90
        2
 70
     0
 43
0.0
 10
29.5546875
 20
2.182598352399999
 10
29.731464386
 20
2.359375
  0
LWPOLYLINE
  5
AE83
330
AE26
100
AcDbEntity
  8
0
  6
Continuous
100
AcDbPolyline
 90
        2
 70
     0
 43
0.0
 10
29.5546875
 20
2.1755270958
 10
29.7385349274
 20
2.359375
  0
LWPOLYLINE
  5
AE84
330
AE26
100
AcDbEntity
  8
0
  6
Continuous
100
AcDbPolyline
 90
        2
 70
     0
 43
0.0
 10
29.5546875
 20
2.168456077599999
 10
29.7456054688
 20
2.359375
  0
LWPOLYLINE
  5
AE85
330
AE26
100
AcDbEntity
  8
0
  6
Continuous
100
AcDbPolyline
 90
        2
 70
     0
 43
0.0
 10
29.5546875
 20
2.1613850594
 10
29.7526779175
 20
2.359375
  0
LWPOLYLINE
  5
AE86
330
AE26
100
AcDbEntity
  8
0
  6
Continuous
100
AcDbPolyline
 90
        2
 70
     0
 43
0.0
 10
29.5546875
 20
2.1543140411
 10
29.7597484589
 20
2.359375
  0
LWPOLYLINE
  5
AE87
330
AE26
100
AcDbEntity
  8
0
  6
Continuous
100
AcDbPolyline
 90
        2
 70
     0
 43
0.0
 10
29.5546875
 20
2.1472430229
 10
29.7668190002
 20
2.359375
  0
LWPOLYLINE
  5
AE88
330
AE26
100
AcDbEntity
  8
0
  6
Continuous
100
AcDbPolyline
 90
        2
 70
     0
 43
0.0
 10
29.5546875
 20
2.1401720047
 10
29.773891449
 20
2.359375
  0
LWPOLYLINE
  5
AE89
330
AE26
100
AcDbEntity
  8
0
  6
Continuous
100
AcDbPolyline
 90
        2
 70
     0
 43
0.0
 10
29.5546875
 20
2.1331009865
 10
29.7809619904
 20
2.359375
  0
LWPOLYLINE
  5
AE8A
330
AE26
100
AcDbEntity
  8
0
  6
Continuous
100
AcDbPolyline
 90
        2
 70
     0
 43
0.0
 10
29.5546875
 20
2.126029729799999
 10
29.6216869354
 20
2.1930298805
  0
LWPOLYLINE
  5
AE8B
330
AE26
100
AcDbEntity
  8
0
  6
Continuous
100
AcDbPolyline
 90
        2
 70
     0
 43
0.0
 10
29.6246185303
 20
2.1959600449
 10
29.7880325317
 20
2.359375
  0
LWPOLYLINE
  5
AE8C
330
AE26
100
AcDbEntity
  8
0
  6
Continuous
100
AcDbPolyline
 90
        2
 70
     0
 43
0.0
 10
29.5546875
 20
2.118958711599999
 10
29.6216869354
 20
2.185958862299999
  0
LWPOLYLINE
  5
AE8D
330
AE26
100
AcDbEntity
  8
0
  6
Continuous
100
AcDbPolyline
 90
        2
 70
     0
 43
0.0
 10
29.6277599335
 20
2.1920316219
 10
29.7951030731
 20
2.359375
  0
LWPOLYLINE
  5
AE8E
330
AE26
100
AcDbEntity
  8
0
  6
Continuous
100
AcDbPolyline
 90
        2
 70
     0
 43
0.0
 10
29.5546875
 20
2.111887455
 10
29.6216869354
 20
2.178887605699999
  0
LWPOLYLINE
  5
AE8F
330
AE26
100
AcDbEntity
  8
0
  6
Continuous
100
AcDbPolyline
 90
        2
 70
     0
 43
0.0
 10
29.630903244
 20
2.188103198999999
 10
29.8021755219
 20
2.359375
  0
LWPOLYLINE
  5
AE90
330
AE26
100
AcDbEntity
  8
0
  6
Continuous
100
AcDbPolyline
 90
        2
 70
     0
 43
0.0
 10
29.5546875
 20
2.1048164368
 10
29.6216869354
 20
2.171816587399999
  0
LWPOLYLINE
  5
AE91
330
AE26
100
AcDbEntity
  8
0
  6
Continuous
100
AcDbPolyline
 90
        2
 70
     0
 43
0.0
 10
29.6340465546
 20
2.1841747761
 10
29.6817131042
 20
2.2318425179
  0
LWPOLYLINE
  5
AE92
330
AE26
100
AcDbEntity
  8
0
  6
Continuous
100
AcDbPolyline
 90
        2
 70
     0
 43
0.0
 10
29.5546875
 20
2.097745418499999
 10
29.6216869354
 20
2.1647453308
  0
LWPOLYLINE
  5
AE93
330
AE26
100
AcDbEntity
  8
0
  6
Continuous
100
AcDbPolyline
 90
        2
 70
     0
 43
0.0
 10
29.6371879578
 20
2.180246353099999
 10
29.6848564148
 20
2.2279143333
  0
LWPOLYLINE
  5
AE94
330
AE26
100
AcDbEntity
  8
0
  6
Continuous
100
AcDbPolyline
 90
        2
 70
     0
 43
0.0
 10
29.5546875
 20
2.0906744003
 10
29.6216869354
 20
2.157674312599999
  0
LWPOLYLINE
  5
AE95
330
AE26
100
AcDbEntity
  8
0
  6
Continuous
100
AcDbPolyline
 90
        2
 70
     0
 43
0.0
 10
29.6403312683
 20
2.176318168599999
 10
29.6879997253
 20
2.223985671999999
  0
LWPOLYLINE
  5
AE96
330
AE26
100
AcDbEntity
  8
0
  6
Continuous
100
AcDbPolyline
 90
        2
 70
     0
 43
0.0
 10
29.5546875
 20
2.0836033821
 10
29.6216869354
 20
2.150603294399999
  0
LWPOLYLINE
  5
AE97
330
AE26
100
AcDbEntity
  8
0
  6
Continuous
100
AcDbPolyline
 90
        2
 70
     0
 43
0.0
 10
29.6434745789
 20
2.172389745699999
 10
29.6911411285
 20
2.2200574875
  0
LWPOLYLINE
  5
AE98
330
AE26
100
AcDbEntity
  8
0
  6
Continuous
100
AcDbPolyline
 90
        2
 70
     0
 43
0.0
 10
29.5562801361
 20
2.078125
 10
29.6216869354
 20
2.1435322762
  0
LWPOLYLINE
  5
AE99
330
AE26
100
AcDbEntity
  8
0
  6
Continuous
100
AcDbPolyline
 90
        2
 70
     0
 43
0.0
 10
29.6466159821
 20
2.168461322799999
 10
29.6942844391
 20
2.2161290646
  0
LWPOLYLINE
  5
AE9A
330
AE26
100
AcDbEntity
  8
0
  6
Continuous
100
AcDbPolyline
 90
        2
 70
     0
 43
0.0
 10
29.5633506775
 20
2.078125
 10
29.6216869354
 20
2.136461257899999
  0
LWPOLYLINE
  5
AE9B
330
AE26
100
AcDbEntity
  8
0
  6
Continuous
100
AcDbPolyline
 90
        2
 70
     0
 43
0.0
 10
29.6497592926
 20
2.164533138299999
 10
29.6974277496
 20
2.212200641599999
  0
LWPOLYLINE
  5
AE9C
330
AE26
100
AcDbEntity
  8
0
  6
Continuous
100
AcDbPolyline
 90
        2
 70
     0
 43
0.0
 10
29.5704231262
 20
2.078125
 10
29.6216869354
 20
2.1293902397
  0
LWPOLYLINE
  5
AE9D
330
AE26
100
AcDbEntity
  8
0
  6
Continuous
100
AcDbPolyline
 90
        2
 70
     0
 43
0.0
 10
29.6529026031
 20
2.1606044769
 10
29.70056915280001
 20
2.2082724571
  0
LWPOLYLINE
  5
AE9E
330
AE26
100
AcDbEntity
  8
0
  6
Continuous
100
AcDbPolyline
 90
        2
 70
     0
 43
0.0
 10
29.5774936676
 20
2.078125
 10
29.6216869354
 20
2.1223192215
  0
LWPOLYLINE
  5
AE9F
330
AE26
100
AcDbEntity
  8
0
  6
Continuous
100
AcDbPolyline
 90
        2
 70
     0
 43
0.0
 10
29.6560440063
 20
2.1566762924
 10
29.7037124634
 20
2.2043437958
  0
LWPOLYLINE
  5
AEA0
330
AE26
100
AcDbEntity
  8
0
  6
Continuous
100
AcDbPolyline
 90
        2
 70
     0
 43
0.0
 10
29.8027210236
 20
2.3033518791
 10
29.8286952972
 20
2.3293273449
  0
LWPOLYLINE
  5
AEA1
330
AE26
100
AcDbEntity
  8
0
  6
Continuous
100
AcDbPolyline
 90
        2
 70
     0
 43
0.0
 10
29.584564209
 20
2.078125
 10
29.6216869354
 20
2.115247964899999
  0
LWPOLYLINE
  5
AEA2
330
AE26
100
AcDbEntity
  8
0
  6
Continuous
100
AcDbPolyline
 90
        2
 70
     0
 43
0.0
 10
29.6591873169
 20
2.152747869499999
 10
29.7068557739
 20
2.200415611299999
  0
LWPOLYLINE
  5
AEA3
330
AE26
100
AcDbEntity
  8
0
  6
Continuous
100
AcDbPolyline
 90
        2
 70
     0
 43
0.0
 10
29.7906265259
 20
2.2841877937
 10
29.8494205475
 20
2.3429808617
  0
LWPOLYLINE
  5
AEA4
330
AE26
100
AcDbEntity
  8
0
  6
Continuous
100
AcDbPolyline
 90
        2
 70
     0
 43
0.0
 10
29.5916347504
 20
2.078125
 10
29.6216869354
 20
2.108176946599999
  0
LWPOLYLINE
  5
AEA5
330
AE26
100
AcDbEntity
  8
0
  6
Continuous
100
AcDbPolyline
 90
        2
 70
     0
 43
0.0
 10
29.6623306274
 20
2.1488194466
 10
29.7099971771
 20
2.1964871883
  0
LWPOLYLINE
  5
AEA6
330
AE26
100
AcDbEntity
  8
0
  6
Continuous
100
AcDbPolyline
 90
        2
 70
     0
 43
0.0
 10
29.783493042
 20
2.2699828148
 10
29.8618545532
 20
2.348344802899999
  0
LWPOLYLINE
  5
AEA7
330
AE26
100
AcDbEntity
  8
0
  6
Continuous
100
AcDbPolyline
 90
        2
 70
     0
 43
0.0
 10
29.5987071991
 20
2.078125
 10
29.6216869354
 20
2.101105928399999
  0
LWPOLYLINE
  5
AEA8
330
AE26
100
AcDbEntity
  8
0
  6
Continuous
100
AcDbPolyline
 90
        2
 70
     0
 43
0.0
 10
29.6654720306
 20
2.1448912621
 10
29.7131404877
 20
2.192558765399999
  0
LWPOLYLINE
  5
AEA9
330
AE26
100
AcDbEntity
  8
0
  6
Continuous
100
AcDbPolyline
 90
        2
 70
     0
 43
0.0
 10
29.7802066803
 20
2.259624958
 10
29.8741168976
 20
2.353535413699999
  0
LWPOLYLINE
  5
AEAA
330
AE26
100
AcDbEntity
  8
0
  6
Continuous
100
AcDbPolyline
 90
        2
 70
     0
 43
0.0
 10
29.6057777405
 20
2.078125
 10
29.6216869354
 20
2.0940346718
  0
LWPOLYLINE
  5
AEAB
330
AE26
100
AcDbEntity
  8
0
  6
Continuous
100
AcDbPolyline
 90
        2
 70
     0
 43
0.0
 10
29.6686153412
 20
2.140962600699999
 10
29.7162837982
 20
2.188630580899999
  0
LWPOLYLINE
  5
AEAC
330
AE26
100
AcDbEntity
  8
0
  6
Continuous
100
AcDbPolyline
 90
        2
 70
     0
 43
0.0
 10
29.7780094147
 20
2.250357627899999
 10
29.8827018738
 20
2.3550491333
  0
LWPOLYLINE
  5
AEAD
330
AE26
100
AcDbEntity
  8
0
  6
Continuous
100
AcDbPolyline
 90
        2
 70
     0
 43
0.0
 10
29.6128482819
 20
2.078125
 10
29.6216869354
 20
2.0869636536
  0
LWPOLYLINE
  5
AEAE
330
AE26
100
AcDbEntity
  8
0
  6
Continuous
100
AcDbPolyline
 90
        2
 70
     0
 43
0.0
 10
29.6717586517
 20
2.1370344162
 10
29.7194252014
 20
2.1847019196
  0
LWPOLYLINE
  5
AEAF
330
AE26
100
AcDbEntity
  8
0
  6
Continuous
100
AcDbPolyline
 90
        2
 70
     0
 43
0.0
 10
29.7758140564
 20
2.2410900593
 10
29.89128685
 20
2.356562852899999
  0
LWPOLYLINE
  5
AEB0
330
AE26
100
AcDbEntity
  8
0
  6
Continuous
100
AcDbPolyline
 90
        2
 70
     0
 43
0.0
 10
29.6199207306
 20
2.078125
 10
29.6216869354
 20
2.079892635299999
  0
LWPOLYLINE
  5
AEB1
330
AE26
100
AcDbEntity
  8
0
  6
Continuous
100
AcDbPolyline
 90
        2
 70
     0
 43
0.0
 10
29.6749000549
 20
2.1331059933
 10
29.722568512
 20
2.180773734999999
  0
LWPOLYLINE
  5
AEB2
330
AE26
100
AcDbEntity
  8
0
  6
Continuous
100
AcDbPolyline
 90
        2
 70
     0
 43
0.0
 10
29.774389267
 20
2.2325935364
 10
29.8998718262
 20
2.358076572399999
  0
LWPOLYLINE
  5
AEB3
330
AE26
100
AcDbEntity
  8
0
  6
Continuous
100
AcDbPolyline
 90
        2
 70
     0
 43
0.0
 10
29.6780433655
 20
2.129177570299999
 10
29.7257118225
 20
2.1768453121
  0
LWPOLYLINE
  5
AEB4
330
AE26
100
AcDbEntity
  8
0
  6
Continuous
100
AcDbPolyline
 90
        2
 70
     0
 43
0.0
 10
29.774389267
 20
2.2255225182
 10
29.9078865051
 20
2.359020709999999
  0
LWPOLYLINE
  5
AEB5
330
AE26
100
AcDbEntity
  8
0
  6
Continuous
100
AcDbPolyline
 90
        2
 70
     0
 43
0.0
 10
29.681186676
 20
2.1252493858
 10
29.7288532257
 20
2.172916889199999
  0
LWPOLYLINE
  5
AEB6
330
AE26
100
AcDbEntity
  8
0
  6
Continuous
100
AcDbPolyline
 90
        2
 70
     0
 43
0.0
 10
29.774389267
 20
2.2184514999
 10
29.9145679474
 20
2.3586313725
  0
LWPOLYLINE
  5
AEB7
330
AE26
100
AcDbEntity
  8
0
  6
Continuous
100
AcDbPolyline
 90
        2
 70
     0
 43
0.0
 10
29.6843280792
 20
2.121320724499999
 10
29.7319965363
 20
2.168988704699999
  0
LWPOLYLINE
  5
AEB8
330
AE26
100
AcDbEntity
  8
0
  6
Continuous
100
AcDbPolyline
 90
        2
 70
     0
 43
0.0
 10
29.774389267
 20
2.2113804817
 10
29.9212493896
 20
2.358242034899999
  0
LWPOLYLINE
  5
AEB9
330
AE26
100
AcDbEntity
  8
0
  6
Continuous
100
AcDbPolyline
 90
        2
 70
     0
 43
0.0
 10
29.6874713898
 20
2.117392539999999
 10
29.7351398468
 20
2.1650602818
  0
LWPOLYLINE
  5
AEBA
330
AE26
100
AcDbEntity
  8
0
  6
Continuous
100
AcDbPolyline
 90
        2
 70
     0
 43
0.0
 10
29.774389267
 20
2.204309225099999
 10
29.9279327393
 20
2.357852935799999
  0
LWPOLYLINE
  5
AEBB
330
AE26
100
AcDbEntity
  8
0
  6
Continuous
100
AcDbPolyline
 90
        2
 70
     0
 43
0.0
 10
29.69061470030001
 20
2.113464117099999
 10
29.73828125
 20
2.1611318588
  0
LWPOLYLINE
  5
AEBC
330
AE26
100
AcDbEntity
  8
0
  6
Continuous
100
AcDbPolyline
 90
        2
 70
     0
 43
0.0
 10
29.7753810883
 20
2.1982316971
 10
29.9346141815
 20
2.3574638367
  0
LWPOLYLINE
  5
AEBD
330
AE26
100
AcDbEntity
  8
0
  6
Continuous
100
AcDbPolyline
 90
        2
 70
     0
 43
0.0
 10
29.6937561035
 20
2.109535694099999
 10
29.7414245605
 20
2.1572034359
  0
LWPOLYLINE
  5
AEBE
330
AE26
100
AcDbEntity
  8
0
  6
Continuous
100
AcDbPolyline
 90
        2
 70
     0
 43
0.0
 10
29.7767372131
 20
2.192515611599999
 10
29.9407730103
 20
2.3565526009
  0
LWPOLYLINE
  5
AEBF
330
AE26
100
AcDbEntity
  8
0
  6
Continuous
100
AcDbPolyline
 90
        2
 70
     0
 43
0.0
 10
29.6968994141
 20
2.105607509599999
 10
29.7445678711
 20
2.153275013
  0
LWPOLYLINE
  5
AEC0
330
AE26
100
AcDbEntity
  8
0
  6
Continuous
100
AcDbPolyline
 90
        2
 70
     0
 43
0.0
 10
29.7780914307
 20
2.186799287799999
 10
29.9462146759
 20
2.354923248299999
  0
LWPOLYLINE
  5
AEC1
330
AE26
100
AcDbEntity
  8
0
  6
Continuous
100
AcDbPolyline
 90
        2
 70
     0
 43
0.0
 10
29.7000427246
 20
2.101679086699999
 10
29.7477092743
 20
2.1493468285
  0
LWPOLYLINE
  5
AEC2
330
AE26
100
AcDbEntity
  8
0
  6
Continuous
100
AcDbPolyline
 90
        2
 70
     0
 43
0.0
 10
29.77944564820001
 20
2.181082963899999
 10
29.84837913510001
 20
2.250016212499999
  0
LWPOLYLINE
  5
AEC3
330
AE26
100
AcDbEntity
  8
0
  6
Continuous
100
AcDbPolyline
 90
        2
 70
     0
 43
0.0
 10
29.8827972412
 20
2.284433126399999
 10
29.9516582489
 20
2.353293895699999
  0
LWPOLYLINE
  5
AEC4
330
AE26
100
AcDbEntity
  8
0
  6
Continuous
100
AcDbPolyline
 90
        2
 70
     0
 43
0.0
 10
29.7031860352
 20
2.097750663799999
 10
29.7508525848
 20
2.1454184055
  0
LWPOLYLINE
  5
AEC5
330
AE26
100
AcDbEntity
  8
0
  6
Continuous
100
AcDbPolyline
 90
        2
 70
     0
 43
0.0
 10
29.7808017731
 20
2.175366878499999
 10
29.84349632260001
 20
2.238061904899999
  0
LWPOLYLINE
  5
AEC6
330
AE26
100
AcDbEntity
  8
0
  6
Continuous
100
AcDbPolyline
 90
        2
 70
     0
 43
0.0
 10
29.89475059510001
 20
2.289316177399999
 10
29.9570999146
 20
2.351665019999999
  0
LWPOLYLINE
  5
AEC7
330
AE26
100
AcDbEntity
  8
0
  6
Continuous
100
AcDbPolyline
 90
        2
 70
     0
 43
0.0
 10
29.7063274384
 20
2.093822479199999
 10
29.7539958954
 20
2.1414899826
  0
LWPOLYLINE
  5
AEC8
330
AE26
100
AcDbEntity
  8
0
  6
Continuous
100
AcDbPolyline
 90
        2
 70
     0
 43
0.0
 10
29.782333374
 20
2.1698274612
 10
29.8421649933
 20
2.229660034199999
  0
LWPOLYLINE
  5
AEC9
330
AE26
100
AcDbEntity
  8
0
  6
Continuous
100
AcDbPolyline
 90
        2
 70
     0
 43
0.0
 10
29.9031524658
 20
2.2906470299
 10
29.9625415802
 20
2.3500356674
  0
LWPOLYLINE
  5
AECA
330
AE26
100
AcDbEntity
  8
0
  6
Continuous
100
AcDbPolyline
 90
        2
 70
     0
 43
0.0
 10
29.7094707489
 20
2.089893817899999
 10
29.7571372986
 20
2.1375617981
  0
LWPOLYLINE
  5
AECB
330
AE26
100
AcDbEntity
  8
0
  6
Continuous
100
AcDbPolyline
 90
        2
 70
     0
 43
0.0
 10
29.784696579
 20
2.165120601699999
 10
29.8408355713
 20
2.221258163499999
  0
LWPOLYLINE
  5
AECC
330
AE26
100
AcDbEntity
  8
0
  6
Continuous
100
AcDbPolyline
 90
        2
 70
     0
 43
0.0
 10
29.9115543365
 20
2.291977882399999
 10
29.9679832458
 20
2.3484063148
  0
LWPOLYLINE
  5
AECD
330
AE26
100
AcDbEntity
  8
0
  6
Continuous
100
AcDbPolyline
 90
        2
 70
     0
 43
0.0
 10
29.7126140594
 20
2.085965633399999
 10
29.7602806091
 20
2.133633136699999
  0
LWPOLYLINE
  5
AECE
330
AE26
100
AcDbEntity
  8
0
  6
Continuous
100
AcDbPolyline
 90
        2
 70
     0
 43
0.0
 10
29.7870616913
 20
2.1604132652
 10
29.8411159515
 20
2.214468002299999
  0
LWPOLYLINE
  5
AECF
330
AE26
100
AcDbEntity
  8
0
  6
Continuous
100
AcDbPolyline
 90
        2
 70
     0
 43
0.0
 10
29.9183444977
 20
2.291696786899999
 10
29.9727802277
 20
2.346131801599999
  0
LWPOLYLINE
  5
AED0
330
AE26
100
AcDbEntity
  8
0
  6
Continuous
100
AcDbPolyline
 90
        2
 70
     0
 43
0.0
 10
29.7157554626
 20
2.0820372105
 10
29.7634239197
 20
2.1297049522
  0
LWPOLYLINE
  5
AED1
330
AE26
100
AcDbEntity
  8
0
  6
Continuous
100
AcDbPolyline
 90
        2
 70
     0
 43
0.0
 10
29.7894248962
 20
2.1557064056
 10
29.8420829773
 20
2.208363771399999
  0
LWPOLYLINE
  5
AED2
330
AE26
100
AcDbEntity
  8
0
  6
Continuous
100
AcDbPolyline
 90
        2
 70
     0
 43
0.0
 10
29.9244480133
 20
2.290729999499999
 10
29.9772624969
 20
2.343543529499999
  0
LWPOLYLINE
  5
AED3
330
AE26
100
AcDbEntity
  8
0
  6
Continuous
100
AcDbPolyline
 90
        2
 70
     0
 43
0.0
 10
29.718914032
 20
2.078125
 10
29.7665672302
 20
2.125776529299999
  0
LWPOLYLINE
  5
AED4
330
AE26
100
AcDbEntity
  8
0
  6
Continuous
100
AcDbPolyline
 90
        2
 70
     0
 43
0.0
 10
29.7917881012
 20
2.1509990692
 10
29.8430500031
 20
2.2022595406
  0
LWPOLYLINE
  5
AED5
330
AE26
100
AcDbEntity
  8
0
  6
Continuous
100
AcDbPolyline
 90
        2
 70
     0
 43
0.0
 10
29.9305534363
 20
2.2897632122
 10
29.9817447662
 20
2.3409552574
  0
LWPOLYLINE
  5
AED6
330
AE26
100
AcDbEntity
  8
0
  6
Continuous
100
AcDbPolyline
 90
        2
 70
     0
 43
0.0
 10
29.7259864807
 20
2.078125
 10
29.7697086334
 20
2.121848106399999
  0
LWPOLYLINE
  5
AED7
330
AE26
100
AcDbEntity
  8
0
  6
Continuous
100
AcDbPolyline
 90
        2
 70
     0
 43
0.0
 10
29.7941532135
 20
2.146292209599999
 10
29.8440170288
 20
2.196155309699999
  0
LWPOLYLINE
  5
AED8
330
AE26
100
AcDbEntity
  8
0
  6
Continuous
100
AcDbPolyline
 90
        2
 70
     0
 43
0.0
 10
29.9366569519
 20
2.2887964249
 10
29.9862270355
 20
2.338366985299999
  0
LWPOLYLINE
  5
AED9
330
AE26
100
AcDbEntity
  8
0
  6
Continuous
100
AcDbPolyline
 90
        2
 70
     0
 43
0.0
 10
29.7330570221
 20
2.078125
 10
29.772851944
 20
2.1179199219
  0
LWPOLYLINE
  5
AEDA
330
AE26
100
AcDbEntity
  8
0
  6
Continuous
100
AcDbPolyline
 90
        2
 70
     0
 43
0.0
 10
29.7965164185
 20
2.141584873199999
 10
29.8463668823
 20
2.1914346218
  0
LWPOLYLINE
  5
AEDB
330
AE26
100
AcDbEntity
  8
0
  6
Continuous
100
AcDbPolyline
 90
        2
 70
     0
 43
0.0
 10
29.9413776398
 20
2.2864460945
 10
29.9907112122
 20
2.3357789516
  0
LWPOLYLINE
  5
AEDC
330
AE26
100
AcDbEntity
  8
0
  6
Continuous
100
AcDbPolyline
 90
        2
 70
     0
 43
0.0
 10
29.7401275635
 20
2.078125
 10
29.7759952545
 20
2.1139912605
  0
LWPOLYLINE
  5
AEDD
330
AE26
100
AcDbEntity
  8
0
  6
Continuous
100
AcDbPolyline
 90
        2
 70
     0
 43
0.0
 10
29.7997226715
 20
2.137720108
 10
29.8487529755
 20
2.186750411999999
  0
LWPOLYLINE
  5
AEDE
330
AE26
100
AcDbEntity
  8
0
  6
Continuous
100
AcDbPolyline
 90
        2
 70
     0
 43
0.0
 10
29.946062088
 20
2.2840592861
 10
29.9951934814
 20
2.333190679599999
  0
LWPOLYLINE
  5
AEDF
330
AE26
100
AcDbEntity
  8
0
  6
Continuous
100
AcDbPolyline
 90
        2
 70
     0
 43
0.0
 10
29.7471981049
 20
2.078125
 10
29.7791366577
 20
2.110063075999999
  0
LWPOLYLINE
  5
AEE0
330
AE26
100
AcDbEntity
  8
0
  6
Continuous
100
AcDbPolyline
 90
        2
 70
     0
 43
0.0
 10
29.8029499054
 20
2.13387537
 10
29.8511390686
 20
2.182065963699999
  0
LWPOLYLINE
  5
AEE1
330
AE26
100
AcDbEntity
  8
0
  6
Continuous
100
AcDbPolyline
 90
        2
 70
     0
 43
0.0
 10
29.9507465363
 20
2.281672477699999
 10
29.9993686676
 20
2.330293893799999
  0
LWPOLYLINE
  5
AEE2
330
AE26
100
AcDbEntity
  8
0
  6
Continuous
100
AcDbPolyline
 90
        2
 70
     0
 43
0.0
 10
29.7542705536
 20
2.078125
 10
29.7822799683
 20
2.106134653099999
  0
LWPOLYLINE
  5
AEE3
330
AE26
100
AcDbEntity
  8
0
  6
Continuous
100
AcDbPolyline
 90
        2
 70
     0
 43
0.0
 10
29.8061752319
 20
2.1300303936
 10
29.8535270691
 20
2.1773815155
  0
LWPOLYLINE
  5
AEE4
330
AE26
100
AcDbEntity
  8
0
  6
Continuous
100
AcDbPolyline
 90
        2
 70
     0
 43
0.0
 10
29.9554309845
 20
2.2792856693
 10
30.0030059814
 20
2.326861143099999
  0
LWPOLYLINE
  5
AEE5
330
AE26
100
AcDbEntity
  8
0
  6
Continuous
100
AcDbPolyline
 90
        2
 70
     0
 43
0.0
 10
29.761341095
 20
2.078125
 10
29.7854232788
 20
2.1022062302
  0
LWPOLYLINE
  5
AEE6
330
AE26
100
AcDbEntity
  8
0
  6
Continuous
100
AcDbPolyline
 90
        2
 70
     0
 43
0.0
 10
29.8094024658
 20
2.126185417199999
 10
29.85659408570001
 20
2.1733784676
  0
LWPOLYLINE
  5
AEE7
330
AE26
100
AcDbEntity
  8
0
  6
Continuous
100
AcDbPolyline
 90
        2
 70
     0
 43
0.0
 10
29.9594345093
 20
2.276217937499999
 10
30.0066452026
 20
2.3234286308
  0
LWPOLYLINE
  5
AEE8
330
AE26
100
AcDbEntity
  8
0
  6
Continuous
100
AcDbPolyline
 90
        2
 70
     0
 43
0.0
 10
29.7684116364
 20
2.078125
 10
29.788564682
 20
2.098278045699999
  0
LWPOLYLINE
  5
AEE9
330
AE26
100
AcDbEntity
  8
0
  6
Continuous
100
AcDbPolyline
 90
        2
 70
     0
 43
0.0
 10
29.8126277924
 20
2.122340679199999
 10
29.8601303101
 20
2.16984272
  0
LWPOLYLINE
  5
AEEA
330
AE26
100
AcDbEntity
  8
0
  6
Continuous
100
AcDbPolyline
 90
        2
 70
     0
 43
0.0
 10
29.9629688263
 20
2.2726824284
 10
30.0102825165
 20
2.3199958801
  0
LWPOLYLINE
  5
AEEB
330
AE26
100
AcDbEntity
  8
0
  6
Continuous
100
AcDbPolyline
 90
        2
 70
     0
 43
0.0
 10
29.77548408510001
 20
2.078125
 10
29.7917079926
 20
2.0943493843
  0
LWPOLYLINE
  5
AEEC
330
AE26
100
AcDbEntity
  8
0
  6
Continuous
100
AcDbPolyline
 90
        2
 70
     0
 43
0.0
 10
29.8158550262
 20
2.118495941199999
 10
29.8636665344
 20
2.1663074493
  0
LWPOLYLINE
  5
AEED
330
AE26
100
AcDbEntity
  8
0
  6
Continuous
100
AcDbPolyline
 90
        2
 70
     0
 43
0.0
 10
29.9665050507
 20
2.2691469193
 10
30.0139217377
 20
2.316563129399999
  0
LWPOLYLINE
  5
AEEE
330
AE26
100
AcDbEntity
  8
0
  6
Continuous
100
AcDbPolyline
 90
        2
 70
     0
 43
0.0
 10
29.7825546265
 20
2.078125
 10
29.7948513031
 20
2.090421199799999
  0
LWPOLYLINE
  5
AEEF
330
AE26
100
AcDbEntity
  8
0
  6
Continuous
100
AcDbPolyline
 90
        2
 70
     0
 43
0.0
 10
29.8194694519
 20
2.1150407791
 10
29.8672008514
 20
2.1627717018
  0
LWPOLYLINE
  5
AEF0
330
AE26
100
AcDbEntity
  8
0
  6
Continuous
100
AcDbPolyline
 90
        2
 70
     0
 43
0.0
 10
29.970041275
 20
2.265611171699999
 10
30.0175590515
 20
2.313130378699999
  0
LWPOLYLINE
  5
AEF1
330
AE26
100
AcDbEntity
  8
0
  6
Continuous
100
AcDbPolyline
 90
        2
 70
     0
 43
0.0
 10
29.7896251678
 20
2.078125
 10
29.7979927063
 20
2.0864927769
  0
LWPOLYLINE
  5
AEF2
330
AE26
100
AcDbEntity
  8
0
  6
Continuous
100
AcDbPolyline
 90
        2
 70
     0
 43
0.0
 10
29.8235244751
 20
2.112023115199999
 10
29.8707370758
 20
2.159236192699999
  0
LWPOLYLINE
  5
AEF3
330
AE26
100
AcDbEntity
  8
0
  6
Continuous
100
AcDbPolyline
 90
        2
 70
     0
 43
0.0
 10
29.973575592
 20
2.262075900999999
 10
30.0211982727
 20
2.3096978664
  0
LWPOLYLINE
  5
AEF4
330
AE26
100
AcDbEntity
  8
0
  6
Continuous
100
AcDbPolyline
 90
        2
 70
     0
 43
0.0
 10
29.7966957092
 20
2.078125
 10
29.8011360168
 20
2.0825643539
  0
LWPOLYLINE
  5
AEF5
330
AE26
100
AcDbEntity
  8
0
  6
Continuous
100
AcDbPolyline
 90
        2
 70
     0
 43
0.0
 10
29.8275775909
 20
2.1090054512
 10
29.8754043579
 20
2.1568331718
  0
LWPOLYLINE
  5
AEF6
330
AE26
100
AcDbEntity
  8
0
  6
Continuous
100
AcDbPolyline
 90
        2
 70
     0
 43
0.0
 10
29.9759788513
 20
2.2574076653
 10
30.0241394043
 20
2.3055672646
  0
LWPOLYLINE
  5
AEF7
330
AE26
100
AcDbEntity
  8
0
  6
Continuous
100
AcDbPolyline
 90
        2
 70
     0
 43
0.0
 10
29.803768158
 20
2.078125
 10
29.80427932739999
 20
2.0786361694
  0
LWPOLYLINE
  5
AEF8
330
AE26
100
AcDbEntity
  8
0
  6
Continuous
100
AcDbPolyline
 90
        2
 70
     0
 43
0.0
 10
29.8316307068
 20
2.105988025699999
 10
29.8800888062
 20
2.1544466019
  0
LWPOLYLINE
  5
AEF9
330
AE26
100
AcDbEntity
  8
0
  6
Continuous
100
AcDbPolyline
 90
        2
 70
     0
 43
0.0
 10
29.9783668518
 20
2.252723455399999
 10
30.0269451141
 20
2.3013014793
  0
LWPOLYLINE
  5
AEFA
330
AE26
100
AcDbEntity
  8
0
  6
Continuous
100
AcDbPolyline
 90
        2
 70
     0
 43
0.0
 10
29.83568382260001
 20
2.102970123299999
 10
29.8847732544
 20
2.152059555099999
  0
LWPOLYLINE
  5
AEFB
330
AE26
100
AcDbEntity
  8
0
  6
Continuous
100
AcDbPolyline
 90
        2
 70
     0
 43
0.0
 10
29.9807529449
 20
2.2480392456
 10
30.0297489166
 20
2.297036170999999
  0
LWPOLYLINE
  5
AEFC
330
AE26
100
AcDbEntity
  8
0
  6
Continuous
100
AcDbPolyline
 90
        2
 70
     0
 43
0.0
 10
30.0859375
 20
2.353223800699999
 10
30.0920886993
 20
2.359375
  0
LWPOLYLINE
  5
AEFD
330
AE26
100
AcDbEntity
  8
0
  6
Continuous
100
AcDbPolyline
 90
        2
 70
     0
 43
0.0
 10
29.8397369385
 20
2.0999526978
 10
29.8894577026
 20
2.1496729851
  0
LWPOLYLINE
  5
AEFE
330
AE26
100
AcDbEntity
  8
0
  6
Continuous
100
AcDbPolyline
 90
        2
 70
     0
 43
0.0
 10
29.9831390381
 20
2.243354797399999
 10
30.0325546265
 20
2.292770385699999
  0
LWPOLYLINE
  5
AEFF
330
AE26
100
AcDbEntity
  8
0
  6
Continuous
100
AcDbPolyline
 90
        2
 70
     0
 43
0.0
 10
30.0859375
 20
2.346152782399999
 10
30.0991592407
 20
2.359375
  0
LWPOLYLINE
  5
AF00
330
AE26
100
AcDbEntity
  8
0
  6
Continuous
100
AcDbPolyline
 90
        2
 70
     0
 43
0.0
 10
29.8437995911
 20
2.0969438553
 10
29.8950004578
 20
2.148144245099999
  0
LWPOLYLINE
  5
AF01
330
AE26
100
AcDbEntity
  8
0
  6
Continuous
100
AcDbPolyline
 90
        2
 70
     0
 43
0.0
 10
29.9846687317
 20
2.237812519099999
 10
30.0353603363
 20
2.288505077399999
  0
LWPOLYLINE
  5
AF02
330
AE26
100
AcDbEntity
  8
0
  6
Continuous
100
AcDbPolyline
 90
        2
 70
     0
 43
0.0
 10
30.0859375
 20
2.339081764199999
 10
30.1062316895
 20
2.359375
  0
LWPOLYLINE
  5
AF03
330
AE26
100
AcDbEntity
  8
0
  6
Continuous
100
AcDbPolyline
 90
        2
 70
     0
 43
0.0
 10
29.848739624
 20
2.09481287
 10
29.9011039734
 20
2.1471772194
  0
LWPOLYLINE
  5
AF04
330
AE26
100
AcDbEntity
  8
0
  6
Continuous
100
AcDbPolyline
 90
        2
 70
     0
 43
0.0
 10
29.9856357574
 20
2.2317082882
 10
30.0381660461
 20
2.2842392921
  0
LWPOLYLINE
  5
AF05
330
AE26
100
AcDbEntity
  8
0
  6
Continuous
100
AcDbPolyline
 90
        2
 70
     0
 43
0.0
 10
30.0859375
 20
2.332010745999999
 10
30.1133022308
 20
2.359375
  0
LWPOLYLINE
  5
AF06
330
AE26
100
AcDbEntity
  8
0
  6
Continuous
100
AcDbPolyline
 90
        2
 70
     0
 43
0.0
 10
29.853679657
 20
2.092681884799999
 10
29.9072093964
 20
2.146210670499999
  0
LWPOLYLINE
  5
AF07
330
AE26
100
AcDbEntity
  8
0
  6
Continuous
100
AcDbPolyline
 90
        2
 70
     0
 43
0.0
 10
29.9866027832
 20
2.225604057299999
 10
30.0405654907
 20
2.279567241699999
  0
LWPOLYLINE
  5
AF08
330
AE26
100
AcDbEntity
  8
0
  6
Continuous
100
AcDbPolyline
 90
        2
 70
     0
 43
0.0
 10
30.0859375
 20
2.324939727799999
 10
30.1203727722
 20
2.359375
  0
LWPOLYLINE
  5
AF09
330
AE26
100
AcDbEntity
  8
0
  6
Continuous
100
AcDbPolyline
 90
        2
 70
     0
 43
0.0
 10
29.8586196899
 20
2.090550899499999
 10
29.913312912
 20
2.145243644699999
  0
LWPOLYLINE
  5
AF0A
330
AE26
100
AcDbEntity
  8
0
  6
Continuous
100
AcDbPolyline
 90
        2
 70
     0
 43
0.0
 10
29.9875679016
 20
2.219499826399999
 10
30.0424518585
 20
2.2743830681
  0
LWPOLYLINE
  5
AF0B
330
AE26
100
AcDbEntity
  8
0
  6
Continuous
100
AcDbPolyline
 90
        2
 70
     0
 43
0.0
 10
30.0859375
 20
2.3178684711
 10
30.1274433136
 20
2.359375
  0
LWPOLYLINE
  5
AF0C
330
AE26
100
AcDbEntity
  8
0
  6
Continuous
100
AcDbPolyline
 90
        2
 70
     0
 43
0.0
 10
29.8635597229
 20
2.088419914199999
 10
29.92143249510001
 20
2.146292209599999
  0
LWPOLYLINE
  5
AF0D
330
AE26
100
AcDbEntity
  8
0
  6
Continuous
100
AcDbPolyline
 90
        2
 70
     0
 43
0.0
 10
29.9865207672
 20
2.2113802433
 10
30.0443382263
 20
2.269198894499999
  0
LWPOLYLINE
  5
AF0E
330
AE26
100
AcDbEntity
  8
0
  6
Continuous
100
AcDbPolyline
 90
        2
 70
     0
 43
0.0
 10
30.0859375
 20
2.310797452899999
 10
30.1345157623
 20
2.359375
  0
LWPOLYLINE
  5
AF0F
330
AE26
100
AcDbEntity
  8
0
  6
Continuous
100
AcDbPolyline
 90
        2
 70
     0
 43
0.0
 10
29.8684997559
 20
2.086288929
 10
29.9298343658
 20
2.1476230621
  0
LWPOLYLINE
  5
AF10
330
AE26
100
AcDbEntity
  8
0
  6
Continuous
100
AcDbPolyline
 90
        2
 70
     0
 43
0.0
 10
29.9851894379
 20
2.2029783726
 10
30.0462265015
 20
2.2640147209
  0
LWPOLYLINE
  5
AF11
330
AE26
100
AcDbEntity
  8
0
  6
Continuous
100
AcDbPolyline
 90
        2
 70
     0
 43
0.0
 10
30.0859375
 20
2.3037264347
 10
30.1415863037
 20
2.359375
  0
LWPOLYLINE
  5
AF12
330
AE26
100
AcDbEntity
  8
0
  6
Continuous
100
AcDbPolyline
 90
        2
 70
     0
 43
0.0
 10
29.8734397888
 20
2.0841579437
 10
29.9392547607
 20
2.1499717236
  0
LWPOLYLINE
  5
AF13
330
AE26
100
AcDbEntity
  8
0
  6
Continuous
100
AcDbPolyline
 90
        2
 70
     0
 43
0.0
 10
29.9828414917
 20
2.193558692899999
 10
30.0481128693
 20
2.2588305473
  0
LWPOLYLINE
  5
AF14
330
AE26
100
AcDbEntity
  8
0
  6
Continuous
100
AcDbPolyline
 90
        2
 70
     0
 43
0.0
 10
30.0859375
 20
2.296655178099999
 10
30.14865684510001
 20
2.359375
  0
LWPOLYLINE
  5
AF15
330
AE26
100
AcDbEntity
  8
0
  6
Continuous
100
AcDbPolyline
 90
        2
 70
     0
 43
0.0
 10
29.8793888092
 20
2.083034992199999
 10
29.9536705017
 20
2.157317399999999
  0
LWPOLYLINE
  5
AF16
330
AE26
100
AcDbEntity
  8
0
  6
Continuous
100
AcDbPolyline
 90
        2
 70
     0
 43
0.0
 10
29.9754943848
 20
2.1791417599
 10
30.0499992371
 20
2.253646135299999
  0
LWPOLYLINE
  5
AF17
330
AE26
100
AcDbEntity
  8
0
  6
Continuous
100
AcDbPolyline
 90
        2
 70
     0
 43
0.0
 10
30.0859375
 20
2.289584159899999
 10
30.1529369354
 20
2.356584072099999
  0
LWPOLYLINE
  5
AF18
330
AE26
100
AcDbEntity
  8
0
  6
Continuous
100
AcDbPolyline
 90
        2
 70
     0
 43
0.0
 10
29.8853988647
 20
2.0819752216
 10
30.05128479
 20
2.2478606701
  0
LWPOLYLINE
  5
AF19
330
AE26
100
AcDbEntity
  8
0
  6
Continuous
100
AcDbPolyline
 90
        2
 70
     0
 43
0.0
 10
30.0859375
 20
2.282513141599999
 10
30.1529369354
 20
2.349513053899999
  0
LWPOLYLINE
  5
AF1A
330
AE26
100
AcDbEntity
  8
0
  6
Continuous
100
AcDbPolyline
 90
        2
 70
     0
 43
0.0
 10
29.8914108276
 20
2.080915451
 10
30.0520248413
 20
2.2415294647
  0
LWPOLYLINE
  5
AF1B
330
AE26
100
AcDbEntity
  8
0
  6
Continuous
100
AcDbPolyline
 90
        2
 70
     0
 43
0.0
 10
30.0859375
 20
2.275442123399999
 10
30.1529369354
 20
2.342442035699999
  0
LWPOLYLINE
  5
AF1C
330
AE26
100
AcDbEntity
  8
0
  6
Continuous
100
AcDbPolyline
 90
        2
 70
     0
 43
0.0
 10
29.8974208832
 20
2.079855441999999
 10
30.0527648926
 20
2.235198497799999
  0
LWPOLYLINE
  5
AF1D
330
AE26
100
AcDbEntity
  8
0
  6
Continuous
100
AcDbPolyline
 90
        2
 70
     0
 43
0.0
 10
30.0859375
 20
2.268371105199999
 10
30.1529369354
 20
2.335371017499999
  0
LWPOLYLINE
  5
AF1E
330
AE26
100
AcDbEntity
  8
0
  6
Continuous
100
AcDbPolyline
 90
        2
 70
     0
 43
0.0
 10
29.90343284610001
 20
2.078795433
 10
30.0535049438
 20
2.2288675308
  0
LWPOLYLINE
  5
AF1F
330
AE26
100
AcDbEntity
  8
0
  6
Continuous
100
AcDbPolyline
 90
        2
 70
     0
 43
0.0
 10
30.0859375
 20
2.261300086999999
 10
30.1529369354
 20
2.328299999199999
  0
LWPOLYLINE
  5
AF20
330
AE26
100
AcDbEntity
  8
0
  6
Continuous
100
AcDbPolyline
 90
        2
 70
     0
 43
0.0
 10
29.9103298187
 20
2.0786218643
 10
30.05424499510001
 20
2.2225363255
  0
LWPOLYLINE
  5
AF21
330
AE26
100
AcDbEntity
  8
0
  6
Continuous
100
AcDbPolyline
 90
        2
 70
     0
 43
0.0
 10
30.0859375
 20
2.254229068799999
 10
30.1529369354
 20
2.321228980999999
  0
LWPOLYLINE
  5
AF22
330
AE26
100
AcDbEntity
  8
0
  6
Continuous
100
AcDbPolyline
 90
        2
 70
     0
 43
0.0
 10
29.91783905030001
 20
2.079059124
 10
30.0543117523
 20
2.215531825999999
  0
LWPOLYLINE
  5
AF23
330
AE26
100
AcDbEntity
  8
0
  6
Continuous
100
AcDbPolyline
 90
        2
 70
     0
 43
0.0
 10
30.0859375
 20
2.2471578121
 10
30.1529369354
 20
2.314157962799999
  0
LWPOLYLINE
  5
AF24
330
AE26
100
AcDbEntity
  8
0
  6
Continuous
100
AcDbPolyline
 90
        2
 70
     0
 43
0.0
 10
29.9253463745
 20
2.0794963837
 10
30.0533752441
 20
2.2075247765
  0
LWPOLYLINE
  5
AF25
330
AE26
100
AcDbEntity
  8
0
  6
Continuous
100
AcDbPolyline
 90
        2
 70
     0
 43
0.0
 10
30.0859375
 20
2.240086793899999
 10
30.1529369354
 20
2.307086944599999
  0
LWPOLYLINE
  5
AF26
330
AE26
100
AcDbEntity
  8
0
  6
Continuous
100
AcDbPolyline
 90
        2
 70
     0
 43
0.0
 10
29.9328556061
 20
2.079933643299999
 10
30.052438736
 20
2.199517726899999
  0
LWPOLYLINE
  5
AF27
330
AE26
100
AcDbEntity
  8
0
  6
Continuous
100
AcDbPolyline
 90
        2
 70
     0
 43
0.0
 10
30.0859375
 20
2.2330155373
 10
30.1529369354
 20
2.300015687899999
  0
LWPOLYLINE
  5
AF28
330
AE26
100
AcDbEntity
  8
0
  6
Continuous
100
AcDbPolyline
 90
        2
 70
     0
 43
0.0
 10
29.9410114288
 20
2.081018924699999
 10
30.0515041351
 20
2.191510677299999
  0
LWPOLYLINE
  5
AF29
330
AE26
100
AcDbEntity
  8
0
  6
Continuous
100
AcDbPolyline
 90
        2
 70
     0
 43
0.0
 10
30.0859375
 20
2.225944519
 10
30.1529369354
 20
2.292944669699999
  0
LWPOLYLINE
  5
AF2A
330
AE26
100
AcDbEntity
  8
0
  6
Continuous
100
AcDbPolyline
 90
        2
 70
     0
 43
0.0
 10
29.9511051178
 20
2.0840401649
 10
30.0494747162
 20
2.1824100018
  0
LWPOLYLINE
  5
AF2B
330
AE26
100
AcDbEntity
  8
0
  6
Continuous
100
AcDbPolyline
 90
        2
 70
     0
 43
0.0
 10
30.0859375
 20
2.2188735008
 10
30.1529369354
 20
2.2858734131
  0
LWPOLYLINE
  5
AF2C
330
AE26
100
AcDbEntity
  8
0
  6
Continuous
100
AcDbPolyline
 90
        2
 70
     0
 43
0.0
 10
29.9611968994
 20
2.087061881999999
 10
30.0454273224
 20
2.171292543399999
  0
LWPOLYLINE
  5
AF2D
330
AE26
100
AcDbEntity
  8
0
  6
Continuous
100
AcDbPolyline
 90
        2
 70
     0
 43
0.0
 10
30.0859375
 20
2.2118024826
 10
30.1529369354
 20
2.2788023949
  0
LWPOLYLINE
  5
AF2E
330
AE26
100
AcDbEntity
  8
0
  6
Continuous
100
AcDbPolyline
 90
        2
 70
     0
 43
0.0
 10
30.2310619354
 20
2.3569273949
 10
30.2335090637
 20
2.359375
  0
LWPOLYLINE
  5
AF2F
330
AE26
100
AcDbEntity
  8
0
  6
Continuous
100
AcDbPolyline
 90
        2
 70
     0
 43
0.0
 10
29.9722938538
 20
2.091088295
 10
30.0413818359
 20
2.160174846599999
  0
LWPOLYLINE
  5
AF30
330
AE26
100
AcDbEntity
  8
0
  6
Continuous
100
AcDbPolyline
 90
        2
 70
     0
 43
0.0
 10
30.0859375
 20
2.2047314644
 10
30.1529369354
 20
2.2717313766
  0
LWPOLYLINE
  5
AF31
330
AE26
100
AcDbEntity
  8
0
  6
Continuous
100
AcDbPolyline
 90
        2
 70
     0
 43
0.0
 10
30.2310619354
 20
2.3498563766
 10
30.2405815125
 20
2.359375
  0
LWPOLYLINE
  5
AF32
330
AE26
100
AcDbEntity
  8
0
  6
Continuous
100
AcDbPolyline
 90
        2
 70
     0
 43
0.0
 10
29.989025116
 20
2.1007475853
 10
30.0316886902
 20
2.143410682699999
  0
LWPOLYLINE
  5
AF33
330
AE26
100
AcDbEntity
  8
0
  6
Continuous
100
AcDbPolyline
 90
        2
 70
     0
 43
0.0
 10
30.0859375
 20
2.1976604462
 10
30.1561527252
 20
2.2678749561
  0
LWPOLYLINE
  5
AF34
330
AE26
100
AcDbEntity
  8
0
  6
Continuous
100
AcDbPolyline
 90
        2
 70
     0
 43
0.0
 10
30.2310619354
 20
2.3427853584
 10
30.2476520538
 20
2.359375
  0
LWPOLYLINE
  5
AF35
330
AE26
100
AcDbEntity
  8
0
  6
Continuous
100
AcDbPolyline
 90
        2
 70
     0
 43
0.0
 10
30.0859375
 20
2.190589427899999
 10
30.1632232666
 20
2.2678749561
  0
LWPOLYLINE
  5
AF36
330
AE26
100
AcDbEntity
  8
0
  6
Continuous
100
AcDbPolyline
 90
        2
 70
     0
 43
0.0
 10
30.2310619354
 20
2.3357143402
 10
30.2547225952
 20
2.359375
  0
LWPOLYLINE
  5
AF37
330
AE26
100
AcDbEntity
  8
0
  6
Continuous
100
AcDbPolyline
 90
        2
 70
     0
 43
0.0
 10
30.0859375
 20
2.183518409699999
 10
30.170293808
 20
2.2678749561
  0
LWPOLYLINE
  5
AF38
330
AE26
100
AcDbEntity
  8
0
  6
Continuous
100
AcDbPolyline
 90
        2
 70
     0
 43
0.0
 10
30.2310619354
 20
2.328643322
 10
30.2617950439
 20
2.359375
  0
LWPOLYLINE
  5
AF39
330
AE26
100
AcDbEntity
  8
0
  6
Continuous
100
AcDbPolyline
 90
        2
 70
     0
 43
0.0
 10
30.0859375
 20
2.176447153099999
 10
30.1773662567
 20
2.2678749561
  0
LWPOLYLINE
  5
AF3A
330
AE26
100
AcDbEntity
  8
0
  6
Continuous
100
AcDbPolyline
 90
        2
 70
     0
 43
0.0
 10
30.2310619354
 20
2.3215723038
 10
30.2688655853
 20
2.359375
  0
LWPOLYLINE
  5
AF3B
330
AE26
100
AcDbEntity
  8
0
  6
Continuous
100
AcDbPolyline
 90
        2
 70
     0
 43
0.0
 10
30.0859375
 20
2.1693761349
 10
30.1844367981
 20
2.2678749561
  0
LWPOLYLINE
  5
AF3C
330
AE26
100
AcDbEntity
  8
0
  6
Continuous
100
AcDbPolyline
 90
        2
 70
     0
 43
0.0
 10
30.2310619354
 20
2.3145010471
 10
30.2759361267
 20
2.359375
  0
LWPOLYLINE
  5
AF3D
330
AE26
100
AcDbEntity
  8
0
  6
Continuous
100
AcDbPolyline
 90
        2
 70
     0
 43
0.0
 10
30.0859375
 20
2.1623048782
 10
30.1915073395
 20
2.2678749561
  0
LWPOLYLINE
  5
AF3E
330
AE26
100
AcDbEntity
  8
0
  6
Continuous
100
AcDbPolyline
 90
        2
 70
     0
 43
0.0
 10
30.2310619354
 20
2.307430028899999
 10
30.2830066681
 20
2.359375
  0
LWPOLYLINE
  5
AF3F
330
AE26
100
AcDbEntity
  8
0
  6
Continuous
100
AcDbPolyline
 90
        2
 70
     0
 43
0.0
 10
30.0859375
 20
2.15523386
 10
30.1985778809
 20
2.2678749561
  0
LWPOLYLINE
  5
AF40
330
AE26
100
AcDbEntity
  8
0
  6
Continuous
100
AcDbPolyline
 90
        2
 70
     0
 43
0.0
 10
30.2310619354
 20
2.300359010699999
 10
30.2900791168
 20
2.359375
  0
LWPOLYLINE
  5
AF41
330
AE26
100
AcDbEntity
  8
0
  6
Continuous
100
AcDbPolyline
 90
        2
 70
     0
 43
0.0
 10
30.0859375
 20
2.1481628418
 10
30.2056503296
 20
2.2678749561
  0
LWPOLYLINE
  5
AF42
330
AE26
100
AcDbEntity
  8
0
  6
Continuous
100
AcDbPolyline
 90
        2
 70
     0
 43
0.0
 10
30.2310619354
 20
2.2932877541
 10
30.2971496582
 20
2.359375
  0
LWPOLYLINE
  5
AF43
330
AE26
100
AcDbEntity
  8
0
  6
Continuous
100
AcDbPolyline
 90
        2
 70
     0
 43
0.0
 10
30.0859375
 20
2.1410918236
 10
30.212720871
 20
2.2678749561
  0
LWPOLYLINE
  5
AF44
330
AE26
100
AcDbEntity
  8
0
  6
Continuous
100
AcDbPolyline
 90
        2
 70
     0
 43
0.0
 10
30.2310619354
 20
2.2862167358
 10
30.2980632782
 20
2.3532168865
  0
LWPOLYLINE
  5
AF45
330
AE26
100
AcDbEntity
  8
0
  6
Continuous
100
AcDbPolyline
 90
        2
 70
     0
 43
0.0
 10
30.0859375
 20
2.1340208054
 10
30.2197914124
 20
2.2678749561
  0
LWPOLYLINE
  5
AF46
330
AE26
100
AcDbEntity
  8
0
  6
Continuous
100
AcDbPolyline
 90
        2
 70
     0
 43
0.0
 10
30.2310619354
 20
2.2791457176
 10
30.2980632782
 20
2.3461456299
  0
LWPOLYLINE
  5
AF47
330
AE26
100
AcDbEntity
  8
0
  6
Continuous
100
AcDbPolyline
 90
        2
 70
     0
 43
0.0
 10
30.0859375
 20
2.1269497871
 10
30.1529369354
 20
2.1939496994
  0
LWPOLYLINE
  5
AF48
330
AE26
100
AcDbEntity
  8
0
  6
Continuous
100
AcDbPolyline
 90
        2
 70
     0
 43
0.0
 10
30.1598625183
 20
2.200875043899999
 10
30.2268619537
 20
2.2678749561
  0
LWPOLYLINE
  5
AF49
330
AE26
100
AcDbEntity
  8
0
  6
Continuous
100
AcDbPolyline
 90
        2
 70
     0
 43
0.0
 10
30.2310619354
 20
2.2720746994
 10
30.2980632782
 20
2.3390746117
  0
LWPOLYLINE
  5
AF4A
330
AE26
100
AcDbEntity
  8
0
  6
Continuous
100
AcDbPolyline
 90
        2
 70
     0
 43
0.0
 10
30.0859375
 20
2.1198787689
 10
30.1529369354
 20
2.1868786812
  0
LWPOLYLINE
  5
AF4B
330
AE26
100
AcDbEntity
  8
0
  6
Continuous
100
AcDbPolyline
 90
        2
 70
     0
 43
0.0
 10
30.1669330597
 20
2.200875043899999
 10
30.2980632782
 20
2.3320035934
  0
LWPOLYLINE
  5
AF4C
330
AE26
100
AcDbEntity
  8
0
  6
Continuous
100
AcDbPolyline
 90
        2
 70
     0
 43
0.0
 10
30.0859375
 20
2.112807512299999
 10
30.1529369354
 20
2.179807663
  0
LWPOLYLINE
  5
AF4D
330
AE26
100
AcDbEntity
  8
0
  6
Continuous
100
AcDbPolyline
 90
        2
 70
     0
 43
0.0
 10
30.1740055084
 20
2.200875043899999
 10
30.2980632782
 20
2.3249325752
  0
LWPOLYLINE
  5
AF4E
330
AE26
100
AcDbEntity
  8
0
  6
Continuous
100
AcDbPolyline
 90
        2
 70
     0
 43
0.0
 10
30.3293132782
 20
2.3561825752
 10
30.3325042725
 20
2.359375
  0
LWPOLYLINE
  5
AF4F
330
AE26
100
AcDbEntity
  8
0
  6
Continuous
100
AcDbPolyline
 90
        2
 70
     0
 43
0.0
 10
30.0859375
 20
2.105736494099999
 10
30.1529369354
 20
2.1727366447
  0
LWPOLYLINE
  5
AF50
330
AE26
100
AcDbEntity
  8
0
  6
Continuous
100
AcDbPolyline
 90
        2
 70
     0
 43
0.0
 10
30.1810760498
 20
2.200875043899999
 10
30.2980632782
 20
2.317861557
  0
LWPOLYLINE
  5
AF51
330
AE26
100
AcDbEntity
  8
0
  6
Continuous
100
AcDbPolyline
 90
        2
 70
     0
 43
0.0
 10
30.3293132782
 20
2.349111557
 10
30.3395767212
 20
2.359375
  0
LWPOLYLINE
  5
AF52
330
AE26
100
AcDbEntity
  8
0
  6
Continuous
100
AcDbPolyline
 90
        2
 70
     0
 43
0.0
 10
30.0859375
 20
2.0986654758
 10
30.1529369354
 20
2.165665388099999
  0
LWPOLYLINE
  5
AF53
330
AE26
100
AcDbEntity
  8
0
  6
Continuous
100
AcDbPolyline
 90
        2
 70
     0
 43
0.0
 10
30.1881465912
 20
2.200875043899999
 10
30.2980632782
 20
2.3107905388
  0
LWPOLYLINE
  5
AF54
330
AE26
100
AcDbEntity
  8
0
  6
Continuous
100
AcDbPolyline
 90
        2
 70
     0
 43
0.0
 10
30.3293132782
 20
2.3420405388
 10
30.3466472626
 20
2.359375
  0
LWPOLYLINE
  5
AF55
330
AE26
100
AcDbEntity
  8
0
  6
Continuous
100
AcDbPolyline
 90
        2
 70
     0
 43
0.0
 10
30.0859375
 20
2.091594219199999
 10
30.1529369354
 20
2.1585943699
  0
LWPOLYLINE
  5
AF56
330
AE26
100
AcDbEntity
  8
0
  6
Continuous
100
AcDbPolyline
 90
        2
 70
     0
 43
0.0
 10
30.1952190399
 20
2.200875043899999
 10
30.2980632782
 20
2.3037195206
  0
LWPOLYLINE
  5
AF57
330
AE26
100
AcDbEntity
  8
0
  6
Continuous
100
AcDbPolyline
 90
        2
 70
     0
 43
0.0
 10
30.3293132782
 20
2.3349695206
 10
30.353717804
 20
2.359375
  0
LWPOLYLINE
  5
AF58
330
AE26
100
AcDbEntity
  8
0
  6
Continuous
100
AcDbPolyline
 90
        2
 70
     0
 43
0.0
 10
30.0859375
 20
2.084523201
 10
30.1529369354
 20
2.1515231133
  0
LWPOLYLINE
  5
AF59
330
AE26
100
AcDbEntity
  8
0
  6
Continuous
100
AcDbPolyline
 90
        2
 70
     0
 43
0.0
 10
30.2022895813
 20
2.200875043899999
 10
30.2980632782
 20
2.296648263899999
  0
LWPOLYLINE
  5
AF5A
330
AE26
100
AcDbEntity
  8
0
  6
Continuous
100
AcDbPolyline
 90
        2
 70
     0
 43
0.0
 10
30.3293132782
 20
2.327898263899999
 10
30.3607883453
 20
2.359375
  0
LWPOLYLINE
  5
AF5B
330
AE26
100
AcDbEntity
  8
0
  6
Continuous
100
AcDbPolyline
 90
        2
 70
     0
 43
0.0
 10
30.0866107941
 20
2.078125
 10
30.1529369354
 20
2.144452095
  0
LWPOLYLINE
  5
AF5C
330
AE26
100
AcDbEntity
  8
0
  6
Continuous
100
AcDbPolyline
 90
        2
 70
     0
 43
0.0
 10
30.2093601227
 20
2.200875043899999
 10
30.2980632782
 20
2.289577245699999
  0
LWPOLYLINE
  5
AF5D
330
AE26
100
AcDbEntity
  8
0
  6
Continuous
100
AcDbPolyline
 90
        2
 70
     0
 43
0.0
 10
30.3293132782
 20
2.320827245699999
 10
30.3678607941
 20
2.359375
  0
LWPOLYLINE
  5
AF5E
330
AE26
100
AcDbEntity
  8
0
  6
Continuous
100
AcDbPolyline
 90
        2
 70
     0
 43
0.0
 10
30.0936813354
 20
2.078125
 10
30.1529369354
 20
2.1373810768
  0
LWPOLYLINE
  5
AF5F
330
AE26
100
AcDbEntity
  8
0
  6
Continuous
100
AcDbPolyline
 90
        2
 70
     0
 43
0.0
 10
30.2164306641
 20
2.200875043899999
 10
30.2980632782
 20
2.2825059891
  0
LWPOLYLINE
  5
AF60
330
AE26
100
AcDbEntity
  8
0
  6
Continuous
100
AcDbPolyline
 90
        2
 70
     0
 43
0.0
 10
30.3293132782
 20
2.3137559891
 10
30.3749313354
 20
2.359375
  0
LWPOLYLINE
  5
AF61
330
AE26
100
AcDbEntity
  8
0
  6
Continuous
100
AcDbPolyline
 90
        2
 70
     0
 43
0.0
 10
30.1007518768
 20
2.078125
 10
30.1529369354
 20
2.1303100586
  0
LWPOLYLINE
  5
AF62
330
AE26
100
AcDbEntity
  8
0
  6
Continuous
100
AcDbPolyline
 90
        2
 70
     0
 43
0.0
 10
30.2235031128
 20
2.200875043899999
 10
30.2980632782
 20
2.2754349709
  0
LWPOLYLINE
  5
AF63
330
AE26
100
AcDbEntity
  8
0
  6
Continuous
100
AcDbPolyline
 90
        2
 70
     0
 43
0.0
 10
30.3293132782
 20
2.3066849709
 10
30.3820018768
 20
2.359375
  0
LWPOLYLINE
  5
AF64
330
AE26
100
AcDbEntity
  8
0
  6
Continuous
100
AcDbPolyline
 90
        2
 70
     0
 43
0.0
 10
30.1078243256
 20
2.078125
 10
30.1529369354
 20
2.1232390404
  0
LWPOLYLINE
  5
AF65
330
AE26
100
AcDbEntity
  8
0
  6
Continuous
100
AcDbPolyline
 90
        2
 70
     0
 43
0.0
 10
30.2305736542
 20
2.200875043899999
 10
30.2980632782
 20
2.2683639526
  0
LWPOLYLINE
  5
AF66
330
AE26
100
AcDbEntity
  8
0
  6
Continuous
100
AcDbPolyline
 90
        2
 70
     0
 43
0.0
 10
30.3293132782
 20
2.2996139526
 10
30.3890743256
 20
2.359375
  0
LWPOLYLINE
  5
AF67
330
AE26
100
AcDbEntity
  8
0
  6
Continuous
100
AcDbPolyline
 90
        2
 70
     0
 43
0.0
 10
30.1148948669
 20
2.078125
 10
30.1529369354
 20
2.1161680222
  0
LWPOLYLINE
  5
AF68
330
AE26
100
AcDbEntity
  8
0
  6
Continuous
100
AcDbPolyline
 90
        2
 70
     0
 43
0.0
 10
30.2310619354
 20
2.1942930222
 10
30.2980632782
 20
2.2612929344
  0
LWPOLYLINE
  5
AF69
330
AE26
100
AcDbEntity
  8
0
  6
Continuous
100
AcDbPolyline
 90
        2
 70
     0
 43
0.0
 10
30.3293132782
 20
2.2925429344
 10
30.39614486690001
 20
2.359375
  0
LWPOLYLINE
  5
AF6A
330
AE26
100
AcDbEntity
  8
0
  6
Continuous
100
AcDbPolyline
 90
        2
 70
     0
 43
0.0
 10
30.1219654083
 20
2.078125
 10
30.1529369354
 20
2.109097003899999
  0
LWPOLYLINE
  5
AF6B
330
AE26
100
AcDbEntity
  8
0
  6
Continuous
100
AcDbPolyline
 90
        2
 70
     0
 43
0.0
 10
30.2310619354
 20
2.187222003899999
 10
30.2980632782
 20
2.2542219162
  0
LWPOLYLINE
  5
AF6C
330
AE26
100
AcDbEntity
  8
0
  6
Continuous
100
AcDbPolyline
 90
        2
 70
     0
 43
0.0
 10
30.3293132782
 20
2.2854719162
 10
30.3963127136
 20
2.3524718285
  0
LWPOLYLINE
  5
AF6D
330
AE26
100
AcDbEntity
  8
0
  6
Continuous
100
AcDbPolyline
 90
        2
 70
     0
 43
0.0
 10
30.1290359497
 20
2.078125
 10
30.1529369354
 20
2.1020259857
  0
LWPOLYLINE
  5
AF6E
330
AE26
100
AcDbEntity
  8
0
  6
Continuous
100
AcDbPolyline
 90
        2
 70
     0
 43
0.0
 10
30.2310619354
 20
2.1801509857
 10
30.2980632782
 20
2.247150898
  0
LWPOLYLINE
  5
AF6F
330
AE26
100
AcDbEntity
  8
0
  6
Continuous
100
AcDbPolyline
 90
        2
 70
     0
 43
0.0
 10
30.3293132782
 20
2.278400898
 10
30.3963127136
 20
2.3454008102
  0
LWPOLYLINE
  5
AF70
330
AE26
100
AcDbEntity
  8
0
  6
Continuous
100
AcDbPolyline
 90
        2
 70
     0
 43
0.0
 10
30.1361083984
 20
2.078125
 10
30.1529369354
 20
2.094954729099999
  0
LWPOLYLINE
  5
AF71
330
AE26
100
AcDbEntity
  8
0
  6
Continuous
100
AcDbPolyline
 90
        2
 70
     0
 43
0.0
 10
30.2310619354
 20
2.173079729099999
 10
30.2980632782
 20
2.240079879799999
  0
LWPOLYLINE
  5
AF72
330
AE26
100
AcDbEntity
  8
0
  6
Continuous
100
AcDbPolyline
 90
        2
 70
     0
 43
0.0
 10
30.3293132782
 20
2.271329879799999
 10
30.3963127136
 20
2.338329791999999
  0
LWPOLYLINE
  5
AF73
330
AE26
100
AcDbEntity
  8
0
  6
Continuous
100
AcDbPolyline
 90
        2
 70
     0
 43
0.0
 10
30.1431789398
 20
2.078125
 10
30.1529369354
 20
2.087883710899999
  0
LWPOLYLINE
  5
AF74
330
AE26
100
AcDbEntity
  8
0
  6
Continuous
100
AcDbPolyline
 90
        2
 70
     0
 43
0.0
 10
30.2310619354
 20
2.166008710899999
 10
30.2980632782
 20
2.233008623099999
  0
LWPOLYLINE
  5
AF75
330
AE26
100
AcDbEntity
  8
0
  6
Continuous
100
AcDbPolyline
 90
        2
 70
     0
 43
0.0
 10
30.3293132782
 20
2.264258623099999
 10
30.3963127136
 20
2.3312587738
  0
LWPOLYLINE
  5
AF76
330
AE26
100
AcDbEntity
  8
0
  6
Continuous
100
AcDbPolyline
 90
        2
 70
     0
 43
0.0
 10
30.1502494812
 20
2.078125
 10
30.1529369354
 20
2.080812454199999
  0
LWPOLYLINE
  5
AF77
330
AE26
100
AcDbEntity
  8
0
  6
Continuous
100
AcDbPolyline
 90
        2
 70
     0
 43
0.0
 10
30.2310619354
 20
2.158937454199999
 10
30.2980632782
 20
2.225937604899999
  0
LWPOLYLINE
  5
AF78
330
AE26
100
AcDbEntity
  8
0
  6
Continuous
100
AcDbPolyline
 90
        2
 70
     0
 43
0.0
 10
30.3293132782
 20
2.257187604899999
 10
30.3963127136
 20
2.3241877556
  0
LWPOLYLINE
  5
AF79
330
AE26
100
AcDbEntity
  8
0
  6
Continuous
100
AcDbPolyline
 90
        2
 70
     0
 43
0.0
 10
30.2310619354
 20
2.151866436
 10
30.2980632782
 20
2.218866586699999
  0
LWPOLYLINE
  5
AF7A
330
AE26
100
AcDbEntity
  8
0
  6
Continuous
100
AcDbPolyline
 90
        2
 70
     0
 43
0.0
 10
30.3293132782
 20
2.250116586699999
 10
30.3963127136
 20
2.317116498899999
  0
LWPOLYLINE
  5
AF7B
330
AE26
100
AcDbEntity
  8
0
  6
Continuous
100
AcDbPolyline
 90
        2
 70
     0
 43
0.0
 10
30.2310619354
 20
2.1447954178
 10
30.2980632782
 20
2.21179533
  0
LWPOLYLINE
  5
AF7C
330
AE26
100
AcDbEntity
  8
0
  6
Continuous
100
AcDbPolyline
 90
        2
 70
     0
 43
0.0
 10
30.3293132782
 20
2.24304533
 10
30.3963127136
 20
2.310045480699999
  0
LWPOLYLINE
  5
AF7D
330
AE26
100
AcDbEntity
  8
0
  6
Continuous
100
AcDbPolyline
 90
        2
 70
     0
 43
0.0
 10
30.2310619354
 20
2.1377243996
 10
30.2980632782
 20
2.2047243118
  0
LWPOLYLINE
  5
AF7E
330
AE26
100
AcDbEntity
  8
0
  6
Continuous
100
AcDbPolyline
 90
        2
 70
     0
 43
0.0
 10
30.3293132782
 20
2.2359743118
 10
30.3963127136
 20
2.302974462499999
  0
LWPOLYLINE
  5
AF7F
330
AE26
100
AcDbEntity
  8
0
  6
Continuous
100
AcDbPolyline
 90
        2
 70
     0
 43
0.0
 10
30.2310619354
 20
2.1306533813
 10
30.2980632782
 20
2.1976532936
  0
LWPOLYLINE
  5
AF80
330
AE26
100
AcDbEntity
  8
0
  6
Continuous
100
AcDbPolyline
 90
        2
 70
     0
 43
0.0
 10
30.3293132782
 20
2.2289032936
 10
30.3963127136
 20
2.2959032059
  0
LWPOLYLINE
  5
AF81
330
AE26
100
AcDbEntity
  8
0
  6
Continuous
100
AcDbPolyline
 90
        2
 70
     0
 43
0.0
 10
30.2310619354
 20
2.1235823631
 10
30.2980632782
 20
2.190582275399999
  0
LWPOLYLINE
  5
AF82
330
AE26
100
AcDbEntity
  8
0
  6
Continuous
100
AcDbPolyline
 90
        2
 70
     0
 43
0.0
 10
30.3293132782
 20
2.221832275399999
 10
30.3963127136
 20
2.2888321877
  0
LWPOLYLINE
  5
AF83
330
AE26
100
AcDbEntity
  8
0
  6
Continuous
100
AcDbPolyline
 90
        2
 70
     0
 43
0.0
 10
30.2310619354
 20
2.1165113449
 10
30.2980632782
 20
2.1835112572
  0
LWPOLYLINE
  5
AF84
330
AE26
100
AcDbEntity
  8
0
  6
Continuous
100
AcDbPolyline
 90
        2
 70
     0
 43
0.0
 10
30.3293132782
 20
2.2147612572
 10
30.3963127136
 20
2.2817611694
  0
LWPOLYLINE
  5
AF85
330
AE26
100
AcDbEntity
  8
0
  6
Continuous
100
AcDbPolyline
 90
        2
 70
     0
 43
0.0
 10
30.2310619354
 20
2.109440088299999
 10
30.2980632782
 20
2.176440239
  0
LWPOLYLINE
  5
AF86
330
AE26
100
AcDbEntity
  8
0
  6
Continuous
100
AcDbPolyline
 90
        2
 70
     0
 43
0.0
 10
30.3293132782
 20
2.207690239
 10
30.3963127136
 20
2.2746901512
  0
LWPOLYLINE
  5
AF87
330
AE26
100
AcDbEntity
  8
0
  6
Continuous
100
AcDbPolyline
 90
        2
 70
     0
 43
0.0
 10
30.2310619354
 20
2.102369070099999
 10
30.2980632782
 20
2.169369220699999
  0
LWPOLYLINE
  5
AF88
330
AE26
100
AcDbEntity
  8
0
  6
Continuous
100
AcDbPolyline
 90
        2
 70
     0
 43
0.0
 10
30.3293132782
 20
2.200619220699999
 10
30.3963127136
 20
2.267619133
  0
LWPOLYLINE
  5
AF89
330
AE26
100
AcDbEntity
  8
0
  6
Continuous
100
AcDbPolyline
 90
        2
 70
     0
 43
0.0
 10
30.2310619354
 20
2.095298051799999
 10
30.2980632782
 20
2.162297964099999
  0
LWPOLYLINE
  5
AF8A
330
AE26
100
AcDbEntity
  8
0
  6
Continuous
100
AcDbPolyline
 90
        2
 70
     0
 43
0.0
 10
30.3293132782
 20
2.193547964099999
 10
30.3963127136
 20
2.260548114799999
  0
LWPOLYLINE
  5
AF8B
330
AE26
100
AcDbEntity
  8
0
  6
Continuous
100
AcDbPolyline
 90
        2
 70
     0
 43
0.0
 10
30.2310619354
 20
2.0882267952
 10
30.2980632782
 20
2.155226945899999
  0
LWPOLYLINE
  5
AF8C
330
AE26
100
AcDbEntity
  8
0
  6
Continuous
100
AcDbPolyline
 90
        2
 70
     0
 43
0.0
 10
30.3293132782
 20
2.186476945899999
 10
30.3963127136
 20
2.2534770966
  0
LWPOLYLINE
  5
AF8D
330
AE26
100
AcDbEntity
  8
0
  6
Continuous
100
AcDbPolyline
 90
        2
 70
     0
 43
0.0
 10
30.2310619354
 20
2.081155776999999
 10
30.2980632782
 20
2.148155689199999
  0
LWPOLYLINE
  5
AF8E
330
AE26
100
AcDbEntity
  8
0
  6
Continuous
100
AcDbPolyline
 90
        2
 70
     0
 43
0.0
 10
30.3293132782
 20
2.179405689199999
 10
30.3963127136
 20
2.246405839899999
  0
LWPOLYLINE
  5
AF8F
330
AE26
100
AcDbEntity
  8
0
  6
Continuous
100
AcDbPolyline
 90
        2
 70
     0
 43
0.0
 10
30.2351036072
 20
2.078125
 10
30.2980632782
 20
2.141084670999999
  0
LWPOLYLINE
  5
AF90
330
AE26
100
AcDbEntity
  8
0
  6
Continuous
100
AcDbPolyline
 90
        2
 70
     0
 43
0.0
 10
30.3293132782
 20
2.172334670999999
 10
30.3963127136
 20
2.239334821699999
  0
LWPOLYLINE
  5
AF91
330
AE26
100
AcDbEntity
  8
0
  6
Continuous
100
AcDbPolyline
 90
        2
 70
     0
 43
0.0
 10
30.2421741486
 20
2.078125
 10
30.2980632782
 20
2.1340136528
  0
LWPOLYLINE
  5
AF92
330
AE26
100
AcDbEntity
  8
0
  6
Continuous
100
AcDbPolyline
 90
        2
 70
     0
 43
0.0
 10
30.3293132782
 20
2.1652636528
 10
30.3963127136
 20
2.232263565099999
  0
LWPOLYLINE
  5
AF93
330
AE26
100
AcDbEntity
  8
0
  6
Continuous
100
AcDbPolyline
 90
        2
 70
     0
 43
0.0
 10
30.5168132782
 20
2.3527636528
 10
30.5234241486
 20
2.359375
  0
LWPOLYLINE
  5
AF94
330
AE26
100
AcDbEntity
  8
0
  6
Continuous
100
AcDbPolyline
 90
        2
 70
     0
 43
0.0
 10
30.2492446899
 20
2.078125
 10
30.2980632782
 20
2.1269426346
  0
LWPOLYLINE
  5
AF95
330
AE26
100
AcDbEntity
  8
0
  6
Continuous
100
AcDbPolyline
 90
        2
 70
     0
 43
0.0
 10
30.3293132782
 20
2.1581926346
 10
30.3963127136
 20
2.2251925468
  0
LWPOLYLINE
  5
AF96
330
AE26
100
AcDbEntity
  8
0
  6
Continuous
100
AcDbPolyline
 90
        2
 70
     0
 43
0.0
 10
30.5168132782
 20
2.3456926346
 10
30.5304946899
 20
2.359375
  0
LWPOLYLINE
  5
AF97
330
AE26
100
AcDbEntity
  8
0
  6
Continuous
100
AcDbPolyline
 90
        2
 70
     0
 43
0.0
 10
30.2563152313
 20
2.078125
 10
30.2980632782
 20
2.119871616399999
  0
LWPOLYLINE
  5
AF98
330
AE26
100
AcDbEntity
  8
0
  6
Continuous
100
AcDbPolyline
 90
        2
 70
     0
 43
0.0
 10
30.3293132782
 20
2.151121616399999
 10
30.3963127136
 20
2.2181215286
  0
LWPOLYLINE
  5
AF99
330
AE26
100
AcDbEntity
  8
0
  6
Continuous
100
AcDbPolyline
 90
        2
 70
     0
 43
0.0
 10
30.5168132782
 20
2.338621616399999
 10
30.5375652313
 20
2.359375
  0
LWPOLYLINE
  5
AF9A
330
AE26
100
AcDbEntity
  8
0
  6
Continuous
100
AcDbPolyline
 90
        2
 70
     0
 43
0.0
 10
30.2633876801
 20
2.078125
 10
30.2980632782
 20
2.1128005981
  0
LWPOLYLINE
  5
AF9B
330
AE26
100
AcDbEntity
  8
0
  6
Continuous
100
AcDbPolyline
 90
        2
 70
     0
 43
0.0
 10
30.3293132782
 20
2.1440505981
 10
30.3963127136
 20
2.211050510399999
  0
LWPOLYLINE
  5
AF9C
330
AE26
100
AcDbEntity
  8
0
  6
Continuous
100
AcDbPolyline
 90
        2
 70
     0
 43
0.0
 10
30.5168132782
 20
2.3315505981
 10
30.54463768010001
 20
2.359375
  0
LWPOLYLINE
  5
AF9D
330
AE26
100
AcDbEntity
  8
0
  6
Continuous
100
AcDbPolyline
 90
        2
 70
     0
 43
0.0
 10
30.2704582214
 20
2.078125
 10
30.2980632782
 20
2.1057295799
  0
LWPOLYLINE
  5
AF9E
330
AE26
100
AcDbEntity
  8
0
  6
Continuous
100
AcDbPolyline
 90
        2
 70
     0
 43
0.0
 10
30.3293132782
 20
2.1369795799
 10
30.3963127136
 20
2.203979492199999
  0
LWPOLYLINE
  5
AF9F
330
AE26
100
AcDbEntity
  8
0
  6
Continuous
100
AcDbPolyline
 90
        2
 70
     0
 43
0.0
 10
30.5168132782
 20
2.3244795799
 10
30.5517082214
 20
2.359375
  0
LWPOLYLINE
  5
AFA0
330
AE26
100
AcDbEntity
  8
0
  6
Continuous
100
AcDbPolyline
 90
        2
 70
     0
 43
0.0
 10
30.27752876280001
 20
2.078125
 10
30.2980632782
 20
2.098658561699999
  0
LWPOLYLINE
  5
AFA1
330
AE26
100
AcDbEntity
  8
0
  6
Continuous
100
AcDbPolyline
 90
        2
 70
     0
 43
0.0
 10
30.3293132782
 20
2.129908561699999
 10
30.3963127136
 20
2.196908474
  0
LWPOLYLINE
  5
AFA2
330
AE26
100
AcDbEntity
  8
0
  6
Continuous
100
AcDbPolyline
 90
        2
 70
     0
 43
0.0
 10
30.5168132782
 20
2.317408561699999
 10
30.5587787628
 20
2.359375
  0
LWPOLYLINE
  5
AFA3
330
AE26
100
AcDbEntity
  8
0
  6
Continuous
100
AcDbPolyline
 90
        2
 70
     0
 43
0.0
 10
30.2845993042
 20
2.078125
 10
30.2980632782
 20
2.0915873051
  0
LWPOLYLINE
  5
AFA4
330
AE26
100
AcDbEntity
  8
0
  6
Continuous
100
AcDbPolyline
 90
        2
 70
     0
 43
0.0
 10
30.3293132782
 20
2.1228373051
 10
30.3963127136
 20
2.189837455699999
  0
LWPOLYLINE
  5
AFA5
330
AE26
100
AcDbEntity
  8
0
  6
Continuous
100
AcDbPolyline
 90
        2
 70
     0
 43
0.0
 10
30.5168132782
 20
2.3103373051
 10
30.5658493042
 20
2.359375
  0
LWPOLYLINE
  5
AFA6
330
AE26
100
AcDbEntity
  8
0
  6
Continuous
100
AcDbPolyline
 90
        2
 70
     0
 43
0.0
 10
30.2916717529
 20
2.078125
 10
30.2980632782
 20
2.0845162868
  0
LWPOLYLINE
  5
AFA7
330
AE26
100
AcDbEntity
  8
0
  6
Continuous
100
AcDbPolyline
 90
        2
 70
     0
 43
0.0
 10
30.3293132782
 20
2.1157662868
 10
30.3963127136
 20
2.1827661991
  0
LWPOLYLINE
  5
AFA8
330
AE26
100
AcDbEntity
  8
0
  6
Continuous
100
AcDbPolyline
 90
        2
 70
     0
 43
0.0
 10
30.5168132782
 20
2.3032662868
 10
30.5729217529
 20
2.359375
  0
LWPOLYLINE
  5
AFA9
330
AE26
100
AcDbEntity
  8
0
  6
Continuous
100
AcDbPolyline
 90
        2
 70
     0
 43
0.0
 10
30.3293132782
 20
2.1086950302
 10
30.3963127136
 20
2.1756951809
  0
LWPOLYLINE
  5
AFAA
330
AE26
100
AcDbEntity
  8
0
  6
Continuous
100
AcDbPolyline
 90
        2
 70
     0
 43
0.0
 10
30.5168132782
 20
2.2961950302
 10
30.5799922943
 20
2.359375
  0
LWPOLYLINE
  5
AFAB
330
AE26
100
AcDbEntity
  8
0
  6
Continuous
100
AcDbPolyline
 90
        2
 70
     0
 43
0.0
 10
30.3293132782
 20
2.101624011999999
 10
30.3963127136
 20
2.1686241627
  0
LWPOLYLINE
  5
AFAC
330
AE26
100
AcDbEntity
  8
0
  6
Continuous
100
AcDbPolyline
 90
        2
 70
     0
 43
0.0
 10
30.5168132782
 20
2.289124011999999
 10
30.5870628357
 20
2.359375
  0
LWPOLYLINE
  5
AFAD
330
AE26
100
AcDbEntity
  8
0
  6
Continuous
100
AcDbPolyline
 90
        2
 70
     0
 43
0.0
 10
30.3293132782
 20
2.094552993799999
 10
30.3963127136
 20
2.161552905999999
  0
LWPOLYLINE
  5
AFAE
330
AE26
100
AcDbEntity
  8
0
  6
Continuous
100
AcDbPolyline
 90
        2
 70
     0
 43
0.0
 10
30.5168132782
 20
2.282052993799999
 10
30.5941352844
 20
2.359375
  0
LWPOLYLINE
  5
AFAF
330
AE26
100
AcDbEntity
  8
0
  6
Continuous
100
AcDbPolyline
 90
        2
 70
     0
 43
0.0
 10
30.3293132782
 20
2.087481975599999
 10
30.3963127136
 20
2.154481887799999
  0
LWPOLYLINE
  5
AFB0
330
AE26
100
AcDbEntity
  8
0
  6
Continuous
100
AcDbPolyline
 90
        2
 70
     0
 43
0.0
 10
30.5168132782
 20
2.274981975599999
 10
30.6012058258
 20
2.359375
  0
LWPOLYLINE
  5
AFB1
330
AE26
100
AcDbEntity
  8
0
  6
Continuous
100
AcDbPolyline
 90
        2
 70
     0
 43
0.0
 10
30.3293132782
 20
2.080410957299999
 10
30.3963127136
 20
2.1474108696
  0
LWPOLYLINE
  5
AFB2
330
AE26
100
AcDbEntity
  8
0
  6
Continuous
100
AcDbPolyline
 90
        2
 70
     0
 43
0.0
 10
30.5168132782
 20
2.267910957299999
 10
30.6082763672
 20
2.359375
  0
LWPOLYLINE
  5
AFB3
330
AE26
100
AcDbEntity
  8
0
  6
Continuous
100
AcDbPolyline
 90
        2
 70
     0
 43
0.0
 10
30.33409690860001
 20
2.078125
 10
30.4010982513
 20
2.1451249123
  0
LWPOLYLINE
  5
AFB4
330
AE26
100
AcDbEntity
  8
0
  6
Continuous
100
AcDbPolyline
 90
        2
 70
     0
 43
0.0
 10
30.5168132782
 20
2.260839939099999
 10
30.6153469086
 20
2.359375
  0
LWPOLYLINE
  5
AFB5
330
AE26
100
AcDbEntity
  8
0
  6
Continuous
100
AcDbPolyline
 90
        2
 70
     0
 43
0.0
 10
30.3411693573
 20
2.078125
 10
30.4081687927
 20
2.1451249123
  0
LWPOLYLINE
  5
AFB6
330
AE26
100
AcDbEntity
  8
0
  6
Continuous
100
AcDbPolyline
 90
        2
 70
     0
 43
0.0
 10
30.5168132782
 20
2.2537689209
 10
30.6224193573
 20
2.359375
  0
LWPOLYLINE
  5
AFB7
330
AE26
100
AcDbEntity
  8
0
  6
Continuous
100
AcDbPolyline
 90
        2
 70
     0
 43
0.0
 10
30.3482398987
 20
2.078125
 10
30.4152393341
 20
2.1451249123
  0
LWPOLYLINE
  5
AFB8
330
AE26
100
AcDbEntity
  8
0
  6
Continuous
100
AcDbPolyline
 90
        2
 70
     0
 43
0.0
 10
30.5168132782
 20
2.2466976643
 10
30.6294898987
 20
2.359375
  0
LWPOLYLINE
  5
AFB9
330
AE26
100
AcDbEntity
  8
0
  6
Continuous
100
AcDbPolyline
 90
        2
 70
     0
 43
0.0
 10
30.3553104401
 20
2.078125
 10
30.4223117828
 20
2.1451249123
  0
LWPOLYLINE
  5
AFBA
330
AE26
100
AcDbEntity
  8
0
  6
Continuous
100
AcDbPolyline
 90
        2
 70
     0
 43
0.0
 10
30.5168132782
 20
2.239626646
 10
30.6365604401
 20
2.359375
  0
LWPOLYLINE
  5
AFBB
330
AE26
100
AcDbEntity
  8
0
  6
Continuous
100
AcDbPolyline
 90
        2
 70
     0
 43
0.0
 10
30.3623809814
 20
2.078125
 10
30.4293823242
 20
2.1451249123
  0
LWPOLYLINE
  5
AFBC
330
AE26
100
AcDbEntity
  8
0
  6
Continuous
100
AcDbPolyline
 90
        2
 70
     0
 43
0.0
 10
30.5168132782
 20
2.2325556278
 10
30.6436309814
 20
2.359375
  0
LWPOLYLINE
  5
AFBD
330
AE26
100
AcDbEntity
  8
0
  6
Continuous
100
AcDbPolyline
 90
        2
 70
     0
 43
0.0
 10
30.3694534302
 20
2.078125
 10
30.4364528656
 20
2.1451249123
  0
LWPOLYLINE
  5
AFBE
330
AE26
100
AcDbEntity
  8
0
  6
Continuous
100
AcDbPolyline
 90
        2
 70
     0
 43
0.0
 10
30.5168132782
 20
2.225484371199999
 10
30.6507034302
 20
2.359375
  0
LWPOLYLINE
  5
AFBF
330
AE26
100
AcDbEntity
  8
0
  6
Continuous
100
AcDbPolyline
 90
        2
 70
     0
 43
0.0
 10
30.3765239716
 20
2.078125
 10
30.443523407
 20
2.1451249123
  0
LWPOLYLINE
  5
AFC0
330
AE26
100
AcDbEntity
  8
0
  6
Continuous
100
AcDbPolyline
 90
        2
 70
     0
 43
0.0
 10
30.5168132782
 20
2.218413353
 10
30.5838127136
 20
2.2854135036
  0
LWPOLYLINE
  5
AFC1
330
AE26
100
AcDbEntity
  8
0
  6
Continuous
100
AcDbPolyline
 90
        2
 70
     0
 43
0.0
 10
30.5907745361
 20
2.292375087699999
 10
30.6577739716
 20
2.359375
  0
LWPOLYLINE
  5
AFC2
330
AE26
100
AcDbEntity
  8
0
  6
Continuous
100
AcDbPolyline
 90
        2
 70
     0
 43
0.0
 10
30.3835945129
 20
2.078125
 10
30.4505958557
 20
2.1451249123
  0
LWPOLYLINE
  5
AFC3
330
AE26
100
AcDbEntity
  8
0
  6
Continuous
100
AcDbPolyline
 90
        2
 70
     0
 43
0.0
 10
30.5168132782
 20
2.211342334699999
 10
30.5838127136
 20
2.278342246999999
  0
LWPOLYLINE
  5
AFC4
330
AE26
100
AcDbEntity
  8
0
  6
Continuous
100
AcDbPolyline
 90
        2
 70
     0
 43
0.0
 10
30.5978450775
 20
2.292375087699999
 10
30.6648445129
 20
2.359375
  0
LWPOLYLINE
  5
AFC5
330
AE26
100
AcDbEntity
  8
0
  6
Continuous
100
AcDbPolyline
 90
        2
 70
     0
 43
0.0
 10
30.3906669617
 20
2.078125
 10
30.4576663971
 20
2.1451249123
  0
LWPOLYLINE
  5
AFC6
330
AE26
100
AcDbEntity
  8
0
  6
Continuous
100
AcDbPolyline
 90
        2
 70
     0
 43
0.0
 10
30.5168132782
 20
2.204271316499999
 10
30.5838127136
 20
2.271271228799999
  0
LWPOLYLINE
  5
AFC7
330
AE26
100
AcDbEntity
  8
0
  6
Continuous
100
AcDbPolyline
 90
        2
 70
     0
 43
0.0
 10
30.6049156189
 20
2.292375087699999
 10
30.6719169617
 20
2.359375
  0
LWPOLYLINE
  5
AFC8
330
AE26
100
AcDbEntity
  8
0
  6
Continuous
100
AcDbPolyline
 90
        2
 70
     0
 43
0.0
 10
30.3977375031
 20
2.078125
 10
30.4647369385
 20
2.1451249123
  0
LWPOLYLINE
  5
AFC9
330
AE26
100
AcDbEntity
  8
0
  6
Continuous
100
AcDbPolyline
 90
        2
 70
     0
 43
0.0
 10
30.5168132782
 20
2.1972002983
 10
30.5838127136
 20
2.264200210599999
  0
LWPOLYLINE
  5
AFCA
330
AE26
100
AcDbEntity
  8
0
  6
Continuous
100
AcDbPolyline
 90
        2
 70
     0
 43
0.0
 10
30.6119880676
 20
2.292375087699999
 10
30.6730632782
 20
2.3534502983
  0
LWPOLYLINE
  5
AFCB
330
AE26
100
AcDbEntity
  8
0
  6
Continuous
100
AcDbPolyline
 90
        2
 70
     0
 43
0.0
 10
30.4048080444
 20
2.078125
 10
30.4718074799
 20
2.1451249123
  0
LWPOLYLINE
  5
AFCC
330
AE26
100
AcDbEntity
  8
0
  6
Continuous
100
AcDbPolyline
 90
        2
 70
     0
 43
0.0
 10
30.5168132782
 20
2.190129280099999
 10
30.5838127136
 20
2.2571291924
  0
LWPOLYLINE
  5
AFCD
330
AE26
100
AcDbEntity
  8
0
  6
Continuous
100
AcDbPolyline
 90
        2
 70
     0
 43
0.0
 10
30.619058609
 20
2.292375087699999
 10
30.6730632782
 20
2.346379280099999
  0
LWPOLYLINE
  5
AFCE
330
AE26
100
AcDbEntity
  8
0
  6
Continuous
100
AcDbPolyline
 90
        2
 70
     0
 43
0.0
 10
30.4118785858
 20
2.078125
 10
30.4788799286
 20
2.1451249123
  0
LWPOLYLINE
  5
AFCF
330
AE26
100
AcDbEntity
  8
0
  6
Continuous
100
AcDbPolyline
 90
        2
 70
     0
 43
0.0
 10
30.5168132782
 20
2.183058261899999
 10
30.5838127136
 20
2.250058174099999
  0
LWPOLYLINE
  5
AFD0
330
AE26
100
AcDbEntity
  8
0
  6
Continuous
100
AcDbPolyline
 90
        2
 70
     0
 43
0.0
 10
30.6261291504
 20
2.292375087699999
 10
30.6730632782
 20
2.339308261899999
  0
LWPOLYLINE
  5
AFD1
330
AE26
100
AcDbEntity
  8
0
  6
Continuous
100
AcDbPolyline
 90
        2
 70
     0
 43
0.0
 10
30.4189510345
 20
2.078125
 10
30.4855632782
 20
2.1447370052
  0
LWPOLYLINE
  5
AFD2
330
AE26
100
AcDbEntity
  8
0
  6
Continuous
100
AcDbPolyline
 90
        2
 70
     0
 43
0.0
 10
30.5168132782
 20
2.1759870052
 10
30.5852622986
 20
2.2444374561
  0
LWPOLYLINE
  5
AFD3
330
AE26
100
AcDbEntity
  8
0
  6
Continuous
100
AcDbPolyline
 90
        2
 70
     0
 43
0.0
 10
30.6331996918
 20
2.292375087699999
 10
30.6730632782
 20
2.3322370052
  0
LWPOLYLINE
  5
AFD4
330
AE26
100
AcDbEntity
  8
0
  6
Continuous
100
AcDbPolyline
 90
        2
 70
     0
 43
0.0
 10
30.4260215759
 20
2.078125
 10
30.4855632782
 20
2.137665987
  0
LWPOLYLINE
  5
AFD5
330
AE26
100
AcDbEntity
  8
0
  6
Continuous
100
AcDbPolyline
 90
        2
 70
     0
 43
0.0
 10
30.5168132782
 20
2.168915987
 10
30.5923347473
 20
2.2444374561
  0
LWPOLYLINE
  5
AFD6
330
AE26
100
AcDbEntity
  8
0
  6
Continuous
100
AcDbPolyline
 90
        2
 70
     0
 43
0.0
 10
30.6402721405
 20
2.292375087699999
 10
30.6730632782
 20
2.325165987
  0
LWPOLYLINE
  5
AFD7
330
AE26
100
AcDbEntity
  8
0
  6
Continuous
100
AcDbPolyline
 90
        2
 70
     0
 43
0.0
 10
30.7043132782
 20
2.356415987
 10
30.7072715759
 20
2.359375
  0
LWPOLYLINE
  5
AFD8
330
AE26
100
AcDbEntity
  8
0
  6
Continuous
100
AcDbPolyline
 90
        2
 70
     0
 43
0.0
 10
30.4330921173
 20
2.078125
 10
30.4855632782
 20
2.130594730399999
  0
LWPOLYLINE
  5
AFD9
330
AE26
100
AcDbEntity
  8
0
  6
Continuous
100
AcDbPolyline
 90
        2
 70
     0
 43
0.0
 10
30.5168132782
 20
2.161844730399999
 10
30.5994052887
 20
2.2444374561
  0
LWPOLYLINE
  5
AFDA
330
AE26
100
AcDbEntity
  8
0
  6
Continuous
100
AcDbPolyline
 90
        2
 70
     0
 43
0.0
 10
30.6473426819
 20
2.292375087699999
 10
30.6730632782
 20
2.318094730399999
  0
LWPOLYLINE
  5
AFDB
330
AE26
100
AcDbEntity
  8
0
  6
Continuous
100
AcDbPolyline
 90
        2
 70
     0
 43
0.0
 10
30.7043132782
 20
2.349344730399999
 10
30.7143421173
 20
2.359375
  0
LWPOLYLINE
  5
AFDC
330
AE26
100
AcDbEntity
  8
0
  6
Continuous
100
AcDbPolyline
 90
        2
 70
     0
 43
0.0
 10
30.440164566
 20
2.078125
 10
30.4855632782
 20
2.123523712199999
  0
LWPOLYLINE
  5
AFDD
330
AE26
100
AcDbEntity
  8
0
  6
Continuous
100
AcDbPolyline
 90
        2
 70
     0
 43
0.0
 10
30.5168132782
 20
2.154773712199999
 10
30.60647583010001
 20
2.2444374561
  0
LWPOLYLINE
  5
AFDE
330
AE26
100
AcDbEntity
  8
0
  6
Continuous
100
AcDbPolyline
 90
        2
 70
     0
 43
0.0
 10
30.6544132233
 20
2.292375087699999
 10
30.6730632782
 20
2.311023712199999
  0
LWPOLYLINE
  5
AFDF
330
AE26
100
AcDbEntity
  8
0
  6
Continuous
100
AcDbPolyline
 90
        2
 70
     0
 43
0.0
 10
30.7043132782
 20
2.342273712199999
 10
30.721414566
 20
2.359375
  0
LWPOLYLINE
  5
AFE0
330
AE26
100
AcDbEntity
  8
0
  6
Continuous
100
AcDbPolyline
 90
        2
 70
     0
 43
0.0
 10
30.4472351074
 20
2.078125
 10
30.4855632782
 20
2.116452693899999
  0
LWPOLYLINE
  5
AFE1
330
AE26
100
AcDbEntity
  8
0
  6
Continuous
100
AcDbPolyline
 90
        2
 70
     0
 43
0.0
 10
30.5168132782
 20
2.147702693899999
 10
30.6135463715
 20
2.2444374561
  0
LWPOLYLINE
  5
AFE2
330
AE26
100
AcDbEntity
  8
0
  6
Continuous
100
AcDbPolyline
 90
        2
 70
     0
 43
0.0
 10
30.661485672
 20
2.292375087699999
 10
30.6730632782
 20
2.303952693899999
  0
LWPOLYLINE
  5
AFE3
330
AE26
100
AcDbEntity
  8
0
  6
Continuous
100
AcDbPolyline
 90
        2
 70
     0
 43
0.0
 10
30.7043132782
 20
2.335202693899999
 10
30.7284851074
 20
2.359375
  0
LWPOLYLINE
  5
AFE4
330
AE26
100
AcDbEntity
  8
0
  6
Continuous
100
AcDbPolyline
 90
        2
 70
     0
 43
0.0
 10
30.4543056488
 20
2.078125
 10
30.4855632782
 20
2.109381675699999
  0
LWPOLYLINE
  5
AFE5
330
AE26
100
AcDbEntity
  8
0
  6
Continuous
100
AcDbPolyline
 90
        2
 70
     0
 43
0.0
 10
30.5168132782
 20
2.140631675699999
 10
30.6206188202
 20
2.2444374561
  0
LWPOLYLINE
  5
AFE6
330
AE26
100
AcDbEntity
  8
0
  6
Continuous
100
AcDbPolyline
 90
        2
 70
     0
 43
0.0
 10
30.6685562134
 20
2.292375087699999
 10
30.6730632782
 20
2.296881675699999
  0
LWPOLYLINE
  5
AFE7
330
AE26
100
AcDbEntity
  8
0
  6
Continuous
100
AcDbPolyline
 90
        2
 70
     0
 43
0.0
 10
30.7043132782
 20
2.328131675699999
 10
30.7355556488
 20
2.359375
  0
LWPOLYLINE
  5
AFE8
330
AE26
100
AcDbEntity
  8
0
  6
Continuous
100
AcDbPolyline
 90
        2
 70
     0
 43
0.0
 10
30.4613761902
 20
2.078125
 10
30.4855632782
 20
2.102310657499999
  0
LWPOLYLINE
  5
AFE9
330
AE26
100
AcDbEntity
  8
0
  6
Continuous
100
AcDbPolyline
 90
        2
 70
     0
 43
0.0
 10
30.5168132782
 20
2.133560657499999
 10
30.6276893616
 20
2.2444374561
  0
LWPOLYLINE
  5
AFEA
330
AE26
100
AcDbEntity
  8
0
  6
Continuous
100
AcDbPolyline
 90
        2
 70
     0
 43
0.0
 10
30.7043132782
 20
2.321060657499999
 10
30.7426261902
 20
2.359375
  0
LWPOLYLINE
  5
AFEB
330
AE26
100
AcDbEntity
  8
0
  6
Continuous
100
AcDbPolyline
 90
        2
 70
     0
 43
0.0
 10
30.4684486389
 20
2.078125
 10
30.4855632782
 20
2.095239639299999
  0
LWPOLYLINE
  5
AFEC
330
AE26
100
AcDbEntity
  8
0
  6
Continuous
100
AcDbPolyline
 90
        2
 70
     0
 43
0.0
 10
30.5168132782
 20
2.126489639299999
 10
30.63475990300001
 20
2.2444374561
  0
LWPOLYLINE
  5
AFED
330
AE26
100
AcDbEntity
  8
0
  6
Continuous
100
AcDbPolyline
 90
        2
 70
     0
 43
0.0
 10
30.7043132782
 20
2.313989639299999
 10
30.7496986389
 20
2.359375
  0
LWPOLYLINE
  5
AFEE
330
AE26
100
AcDbEntity
  8
0
  6
Continuous
100
AcDbPolyline
 90
        2
 70
     0
 43
0.0
 10
30.4755191803
 20
2.078125
 10
30.4855632782
 20
2.0881686211
  0
LWPOLYLINE
  5
AFEF
330
AE26
100
AcDbEntity
  8
0
  6
Continuous
100
AcDbPolyline
 90
        2
 70
     0
 43
0.0
 10
30.5168132782
 20
2.1194186211
 10
30.5838127136
 20
2.186418533299999
  0
LWPOLYLINE
  5
AFF0
330
AE26
100
AcDbEntity
  8
0
  6
Continuous
100
AcDbPolyline
 90
        2
 70
     0
 43
0.0
 10
30.5904560089
 20
2.193062543899999
 10
30.6418323517
 20
2.2444374561
  0
LWPOLYLINE
  5
AFF1
330
AE26
100
AcDbEntity
  8
0
  6
Continuous
100
AcDbPolyline
 90
        2
 70
     0
 43
0.0
 10
30.7043132782
 20
2.3069186211
 10
30.7567691803
 20
2.359375
  0
LWPOLYLINE
  5
AFF2
330
AE26
100
AcDbEntity
  8
0
  6
Continuous
100
AcDbPolyline
 90
        2
 70
     0
 43
0.0
 10
30.4825897217
 20
2.078125
 10
30.4855632782
 20
2.081097602799999
  0
LWPOLYLINE
  5
AFF3
330
AE26
100
AcDbEntity
  8
0
  6
Continuous
100
AcDbPolyline
 90
        2
 70
     0
 43
0.0
 10
30.5168132782
 20
2.112347602799999
 10
30.5838127136
 20
2.179347515099999
  0
LWPOLYLINE
  5
AFF4
330
AE26
100
AcDbEntity
  8
0
  6
Continuous
100
AcDbPolyline
 90
        2
 70
     0
 43
0.0
 10
30.5975284576
 20
2.193062543899999
 10
30.6489028931
 20
2.2444374561
  0
LWPOLYLINE
  5
AFF5
330
AE26
100
AcDbEntity
  8
0
  6
Continuous
100
AcDbPolyline
 90
        2
 70
     0
 43
0.0
 10
30.7043132782
 20
2.299847602799999
 10
30.7638397217
 20
2.359375
  0
LWPOLYLINE
  5
AFF6
330
AE26
100
AcDbEntity
  8
0
  6
Continuous
100
AcDbPolyline
 90
        2
 70
     0
 43
0.0
 10
30.5168132782
 20
2.1052763462
 10
30.5838127136
 20
2.172276496899999
  0
LWPOLYLINE
  5
AFF7
330
AE26
100
AcDbEntity
  8
0
  6
Continuous
100
AcDbPolyline
 90
        2
 70
     0
 43
0.0
 10
30.604598999
 20
2.193062543899999
 10
30.6559734344
 20
2.2444374561
  0
LWPOLYLINE
  5
AFF8
330
AE26
100
AcDbEntity
  8
0
  6
Continuous
100
AcDbPolyline
 90
        2
 70
     0
 43
0.0
 10
30.7043132782
 20
2.2927763462
 10
30.7709102631
 20
2.359375
  0
LWPOLYLINE
  5
AFF9
330
AE26
100
AcDbEntity
  8
0
  6
Continuous
100
AcDbPolyline
 90
        2
 70
     0
 43
0.0
 10
30.5168132782
 20
2.098205328
 10
30.5838127136
 20
2.1652052402
  0
LWPOLYLINE
  5
AFFA
330
AE26
100
AcDbEntity
  8
0
  6
Continuous
100
AcDbPolyline
 90
        2
 70
     0
 43
0.0
 10
30.6116695404
 20
2.193062543899999
 10
30.6630439758
 20
2.2444374561
  0
LWPOLYLINE
  5
AFFB
330
AE26
100
AcDbEntity
  8
0
  6
Continuous
100
AcDbPolyline
 90
        2
 70
     0
 43
0.0
 10
30.7043132782
 20
2.285705328
 10
30.7779827118
 20
2.359375
  0
LWPOLYLINE
  5
AFFC
330
AE26
100
AcDbEntity
  8
0
  6
Continuous
100
AcDbPolyline
 90
        2
 70
     0
 43
0.0
 10
30.5168132782
 20
2.091134071399999
 10
30.5838127136
 20
2.158134221999999
  0
LWPOLYLINE
  5
AFFD
330
AE26
100
AcDbEntity
  8
0
  6
Continuous
100
AcDbPolyline
 90
        2
 70
     0
 43
0.0
 10
30.6187400818
 20
2.193062543899999
 10
30.6701164246
 20
2.2444374561
  0
LWPOLYLINE
  5
AFFE
330
AE26
100
AcDbEntity
  8
0
  6
Continuous
100
AcDbPolyline
 90
        2
 70
     0
 43
0.0
 10
30.7043132782
 20
2.278634071399999
 10
30.7850532532
 20
2.359375
  0
LWPOLYLINE
  5
AFFF
330
AE26
100
AcDbEntity
  8
0
  6
Continuous
100
AcDbPolyline
 90
        2
 70
     0
 43
0.0
 10
30.5168132782
 20
2.084063053099999
 10
30.5838127136
 20
2.1510632038
  0
LWPOLYLINE
  5
B000
330
AE26
100
AcDbEntity
  8
0
  6
Continuous
100
AcDbPolyline
 90
        2
 70
     0
 43
0.0
 10
30.6258125305
 20
2.193062543899999
 10
30.6730632782
 20
2.240313053099999
  0
LWPOLYLINE
  5
B001
330
AE26
100
AcDbEntity
  8
0
  6
Continuous
100
AcDbPolyline
 90
        2
 70
     0
 43
0.0
 10
30.7043132782
 20
2.271563053099999
 10
30.7921237946
 20
2.359375
  0
LWPOLYLINE
  5
B002
330
AE26
100
AcDbEntity
  8
0
  6
Continuous
100
AcDbPolyline
 90
        2
 70
     0
 43
0.0
 10
30.5179462433
 20
2.078125
 10
30.5849456787
 20
2.1451249123
  0
LWPOLYLINE
  5
B003
330
AE26
100
AcDbEntity
  8
0
  6
Continuous
100
AcDbPolyline
 90
        2
 70
     0
 43
0.0
 10
30.6328830719
 20
2.193062543899999
 10
30.6730632782
 20
2.233242034899999
  0
LWPOLYLINE
  5
B004
330
AE26
100
AcDbEntity
  8
0
  6
Continuous
100
AcDbPolyline
 90
        2
 70
     0
 43
0.0
 10
30.7043132782
 20
2.264492034899999
 10
30.7991962433
 20
2.359375
  0
LWPOLYLINE
  5
B005
330
AE26
100
AcDbEntity
  8
0
  6
Continuous
100
AcDbPolyline
 90
        2
 70
     0
 43
0.0
 10
30.5250167847
 20
2.078125
 10
30.59201622010001
 20
2.1451249123
  0
LWPOLYLINE
  5
B006
330
AE26
100
AcDbEntity
  8
0
  6
Continuous
100
AcDbPolyline
 90
        2
 70
     0
 43
0.0
 10
30.6399536133
 20
2.193062543899999
 10
30.6730632782
 20
2.226171016699999
  0
LWPOLYLINE
  5
B007
330
AE26
100
AcDbEntity
  8
0
  6
Continuous
100
AcDbPolyline
 90
        2
 70
     0
 43
0.0
 10
30.7043132782
 20
2.257421016699999
 10
30.8062171936
 20
2.3593263626
  0
LWPOLYLINE
  5
B008
330
AE26
100
AcDbEntity
  8
0
  6
Continuous
100
AcDbPolyline
 90
        2
 70
     0
 43
0.0
 10
30.532087326
 20
2.078125
 10
30.5990867615
 20
2.1451249123
  0
LWPOLYLINE
  5
B009
330
AE26
100
AcDbEntity
  8
0
  6
Continuous
100
AcDbPolyline
 90
        2
 70
     0
 43
0.0
 10
30.6470241547
 20
2.193062543899999
 10
30.6730632782
 20
2.219099998499999
  0
LWPOLYLINE
  5
B00A
330
AE26
100
AcDbEntity
  8
0
  6
Continuous
100
AcDbPolyline
 90
        2
 70
     0
 43
0.0
 10
30.7043132782
 20
2.250349998499999
 10
30.8124084473
 20
2.3584451675
  0
LWPOLYLINE
  5
B00B
330
AE26
100
AcDbEntity
  8
0
  6
Continuous
100
AcDbPolyline
 90
        2
 70
     0
 43
0.0
 10
30.5391578674
 20
2.078125
 10
30.6061592102
 20
2.1451249123
  0
LWPOLYLINE
  5
B00C
330
AE26
100
AcDbEntity
  8
0
  6
Continuous
100
AcDbPolyline
 90
        2
 70
     0
 43
0.0
 10
30.6540966034
 20
2.193062543899999
 10
30.6730632782
 20
2.212028980299999
  0
LWPOLYLINE
  5
B00D
330
AE26
100
AcDbEntity
  8
0
  6
Continuous
100
AcDbPolyline
 90
        2
 70
     0
 43
0.0
 10
30.7043132782
 20
2.243278980299999
 10
30.8185977936
 20
2.357563972499999
  0
LWPOLYLINE
  5
B00E
330
AE26
100
AcDbEntity
  8
0
  6
Continuous
100
AcDbPolyline
 90
        2
 70
     0
 43
0.0
 10
30.5462303162
 20
2.078125
 10
30.6132297516
 20
2.1451249123
  0
LWPOLYLINE
  5
B00F
330
AE26
100
AcDbEntity
  8
0
  6
Continuous
100
AcDbPolyline
 90
        2
 70
     0
 43
0.0
 10
30.6611671448
 20
2.193062543899999
 10
30.6730632782
 20
2.204957961999999
  0
LWPOLYLINE
  5
B010
330
AE26
100
AcDbEntity
  8
0
  6
Continuous
100
AcDbPolyline
 90
        2
 70
     0
 43
0.0
 10
30.7043132782
 20
2.236207961999999
 10
30.7713127136
 20
2.303207874299999
  0
LWPOLYLINE
  5
B011
330
AE26
100
AcDbEntity
  8
0
  6
Continuous
100
AcDbPolyline
 90
        2
 70
     0
 43
0.0
 10
30.7729797363
 20
2.304874896999999
 10
30.8247871399
 20
2.3566827774
  0
LWPOLYLINE
  5
B012
330
AE26
100
AcDbEntity
  8
0
  6
Continuous
100
AcDbPolyline
 90
        2
 70
     0
 43
0.0
 10
30.5533008575
 20
2.078125
 10
30.62030029300001
 20
2.1451249123
  0
LWPOLYLINE
  5
B013
330
AE26
100
AcDbEntity
  8
0
  6
Continuous
100
AcDbPolyline
 90
        2
 70
     0
 43
0.0
 10
30.6682376862
 20
2.193062543899999
 10
30.6730632782
 20
2.197886705399999
  0
LWPOLYLINE
  5
B014
330
AE26
100
AcDbEntity
  8
0
  6
Continuous
100
AcDbPolyline
 90
        2
 70
     0
 43
0.0
 10
30.7043132782
 20
2.229136705399999
 10
30.7713127136
 20
2.296136856099999
  0
LWPOLYLINE
  5
B015
330
AE26
100
AcDbEntity
  8
0
  6
Continuous
100
AcDbPolyline
 90
        2
 70
     0
 43
0.0
 10
30.7800502777
 20
2.304874896999999
 10
30.8307380676
 20
2.355562686899999
  0
LWPOLYLINE
  5
B016
330
AE26
100
AcDbEntity
  8
0
  6
Continuous
100
AcDbPolyline
 90
        2
 70
     0
 43
0.0
 10
30.5603713989
 20
2.078125
 10
30.6273727417
 20
2.1451249123
  0
LWPOLYLINE
  5
B017
330
AE26
100
AcDbEntity
  8
0
  6
Continuous
100
AcDbPolyline
 90
        2
 70
     0
 43
0.0
 10
30.7043132782
 20
2.2220656872
 10
30.7713127136
 20
2.289065837899999
  0
LWPOLYLINE
  5
B018
330
AE26
100
AcDbEntity
  8
0
  6
Continuous
100
AcDbPolyline
 90
        2
 70
     0
 43
0.0
 10
30.7871227264
 20
2.304874896999999
 10
30.835609436
 20
2.3533627987
  0
LWPOLYLINE
  5
B019
330
AE26
100
AcDbEntity
  8
0
  6
Continuous
100
AcDbPolyline
 90
        2
 70
     0
 43
0.0
 10
30.56744194030001
 20
2.078125
 10
30.6344432831
 20
2.1451249123
  0
LWPOLYLINE
  5
B01A
330
AE26
100
AcDbEntity
  8
0
  6
Continuous
100
AcDbPolyline
 90
        2
 70
     0
 43
0.0
 10
30.7043132782
 20
2.214994669
 10
30.7713127136
 20
2.2819945812
  0
LWPOLYLINE
  5
B01B
330
AE26
100
AcDbEntity
  8
0
  6
Continuous
100
AcDbPolyline
 90
        2
 70
     0
 43
0.0
 10
30.7941932678
 20
2.304874896999999
 10
30.84048080440001
 20
2.3511629105
  0
LWPOLYLINE
  5
B01C
330
AE26
100
AcDbEntity
  8
0
  6
Continuous
100
AcDbPolyline
 90
        2
 70
     0
 43
0.0
 10
30.574514389
 20
2.078125
 10
30.6415138245
 20
2.1451249123
  0
LWPOLYLINE
  5
B01D
330
AE26
100
AcDbEntity
  8
0
  6
Continuous
100
AcDbPolyline
 90
        2
 70
     0
 43
0.0
 10
30.7043132782
 20
2.207923412299999
 10
30.7713127136
 20
2.274923563
  0
LWPOLYLINE
  5
B01E
330
AE26
100
AcDbEntity
  8
0
  6
Continuous
100
AcDbPolyline
 90
        2
 70
     0
 43
0.0
 10
30.8012638092
 20
2.304874896999999
 10
30.8453521729
 20
2.348962783799999
  0
LWPOLYLINE
  5
B01F
330
AE26
100
AcDbEntity
  8
0
  6
Continuous
100
AcDbPolyline
 90
        2
 70
     0
 43
0.0
 10
30.5815849304
 20
2.078125
 10
30.6485843658
 20
2.1451249123
  0
LWPOLYLINE
  5
B020
330
AE26
100
AcDbEntity
  8
0
  6
Continuous
100
AcDbPolyline
 90
        2
 70
     0
 43
0.0
 10
30.7043132782
 20
2.200852394099999
 10
30.7713127136
 20
2.2678523064
  0
LWPOLYLINE
  5
B021
330
AE26
100
AcDbEntity
  8
0
  6
Continuous
100
AcDbPolyline
 90
        2
 70
     0
 43
0.0
 10
30.8076572418
 20
2.304197311399999
 10
30.8502235413
 20
2.346762895599999
  0
LWPOLYLINE
  5
B022
330
AE26
100
AcDbEntity
  8
0
  6
Continuous
100
AcDbPolyline
 90
        2
 70
     0
 43
0.0
 10
30.5886554718
 20
2.078125
 10
30.6556568146
 20
2.1451249123
  0
LWPOLYLINE
  5
B023
330
AE26
100
AcDbEntity
  8
0
  6
Continuous
100
AcDbPolyline
 90
        2
 70
     0
 43
0.0
 10
30.7043132782
 20
2.193781375899999
 10
30.7713127136
 20
2.2607812881
  0
LWPOLYLINE
  5
B024
330
AE26
100
AcDbEntity
  8
0
  6
Continuous
100
AcDbPolyline
 90
        2
 70
     0
 43
0.0
 10
30.81341362
 20
2.302883148199999
 10
30.8544063568
 20
2.343876123399999
  0
LWPOLYLINE
  5
B025
330
AE26
100
AcDbEntity
  8
0
  6
Continuous
100
AcDbPolyline
 90
        2
 70
     0
 43
0.0
 10
30.5957279205
 20
2.078125
 10
30.662727356
 20
2.1451249123
  0
LWPOLYLINE
  5
B026
330
AE26
100
AcDbEntity
  8
0
  6
Continuous
100
AcDbPolyline
 90
        2
 70
     0
 43
0.0
 10
30.7043132782
 20
2.186710357699999
 10
30.7713127136
 20
2.2537102699
  0
LWPOLYLINE
  5
B027
330
AE26
100
AcDbEntity
  8
0
  6
Continuous
100
AcDbPolyline
 90
        2
 70
     0
 43
0.0
 10
30.8187961578
 20
2.301194667799999
 10
30.8582210541
 20
2.340618371999999
  0
LWPOLYLINE
  5
B028
330
AE26
100
AcDbEntity
  8
0
  6
Continuous
100
AcDbPolyline
 90
        2
 70
     0
 43
0.0
 10
30.6027984619
 20
2.078125
 10
30.6697978973
 20
2.1451249123
  0
LWPOLYLINE
  5
B029
330
AE26
100
AcDbEntity
  8
0
  6
Continuous
100
AcDbPolyline
 90
        2
 70
     0
 43
0.0
 10
30.7043132782
 20
2.179639339399999
 10
30.7713127136
 20
2.2466392517
  0
LWPOLYLINE
  5
B02A
330
AE26
100
AcDbEntity
  8
0
  6
Continuous
100
AcDbPolyline
 90
        2
 70
     0
 43
0.0
 10
30.8227310181
 20
2.298057556199999
 10
30.862033844
 20
2.337360382099999
  0
LWPOLYLINE
  5
B02B
330
AE26
100
AcDbEntity
  8
0
  6
Continuous
100
AcDbPolyline
 90
        2
 70
     0
 43
0.0
 10
30.6098690033
 20
2.078125
 10
30.6730632782
 20
2.141318321199999
  0
LWPOLYLINE
  5
B02C
330
AE26
100
AcDbEntity
  8
0
  6
Continuous
100
AcDbPolyline
 90
        2
 70
     0
 43
0.0
 10
30.7043132782
 20
2.172568321199999
 10
30.7753067017
 20
2.2435624599
  0
LWPOLYLINE
  5
B02D
330
AE26
100
AcDbEntity
  8
0
  6
Continuous
100
AcDbPolyline
 90
        2
 70
     0
 43
0.0
 10
30.8266639709
 20
2.294920444499999
 10
30.8658466339
 20
2.334102630599999
  0
LWPOLYLINE
  5
B02E
330
AE26
100
AcDbEntity
  8
0
  6
Continuous
100
AcDbPolyline
 90
        2
 70
     0
 43
0.0
 10
30.6169395447
 20
2.078125
 10
30.6730632782
 20
2.134247302999999
  0
LWPOLYLINE
  5
B02F
330
AE26
100
AcDbEntity
  8
0
  6
Continuous
100
AcDbPolyline
 90
        2
 70
     0
 43
0.0
 10
30.7043132782
 20
2.165497302999999
 10
30.782377243
 20
2.2435624599
  0
LWPOLYLINE
  5
B030
330
AE26
100
AcDbEntity
  8
0
  6
Continuous
100
AcDbPolyline
 90
        2
 70
     0
 43
0.0
 10
30.8297901154
 20
2.290975332299999
 10
30.8696594238
 20
2.330844879199999
  0
LWPOLYLINE
  5
B031
330
AE26
100
AcDbEntity
  8
0
  6
Continuous
100
AcDbPolyline
 90
        2
 70
     0
 43
0.0
 10
30.6240119934
 20
2.078125
 10
30.6730632782
 20
2.127176046399999
  0
LWPOLYLINE
  5
B032
330
AE26
100
AcDbEntity
  8
0
  6
Continuous
100
AcDbPolyline
 90
        2
 70
     0
 43
0.0
 10
30.7043132782
 20
2.158426046399999
 10
30.7894496918
 20
2.2435624599
  0
LWPOLYLINE
  5
B033
330
AE26
100
AcDbEntity
  8
0
  6
Continuous
100
AcDbPolyline
 90
        2
 70
     0
 43
0.0
 10
30.8320884705
 20
2.2862026691
 10
30.8726444244
 20
2.3267588615
  0
LWPOLYLINE
  5
B034
330
AE26
100
AcDbEntity
  8
0
  6
Continuous
100
AcDbPolyline
 90
        2
 70
     0
 43
0.0
 10
30.6310825348
 20
2.078125
 10
30.6730632782
 20
2.120105028199999
  0
LWPOLYLINE
  5
B035
330
AE26
100
AcDbEntity
  8
0
  6
Continuous
100
AcDbPolyline
 90
        2
 70
     0
 43
0.0
 10
30.7043132782
 20
2.151355028199999
 10
30.7965202332
 20
2.2435624599
  0
LWPOLYLINE
  5
B036
330
AE26
100
AcDbEntity
  8
0
  6
Continuous
100
AcDbPolyline
 90
        2
 70
     0
 43
0.0
 10
30.8343868256
 20
2.281430005999999
 10
30.8754482269
 20
2.3224902153
  0
LWPOLYLINE
  5
B037
330
AE26
100
AcDbEntity
  8
0
  6
Continuous
100
AcDbPolyline
 90
        2
 70
     0
 43
0.0
 10
30.6381530762
 20
2.078125
 10
30.6730632782
 20
2.1130337715
  0
LWPOLYLINE
  5
B038
330
AE26
100
AcDbEntity
  8
0
  6
Continuous
100
AcDbPolyline
 90
        2
 70
     0
 43
0.0
 10
30.7043132782
 20
2.1442837715
 10
30.8035907745
 20
2.2435624599
  0
LWPOLYLINE
  5
B039
330
AE26
100
AcDbEntity
  8
0
  6
Continuous
100
AcDbPolyline
 90
        2
 70
     0
 43
0.0
 10
30.8345756531
 20
2.2745466232
 10
30.8782501221
 20
2.318221569099999
  0
LWPOLYLINE
  5
B03A
330
AE26
100
AcDbEntity
  8
0
  6
Continuous
100
AcDbPolyline
 90
        2
 70
     0
 43
0.0
 10
30.6452255249
 20
2.078125
 10
30.6730632782
 20
2.1059627533
  0
LWPOLYLINE
  5
B03B
330
AE26
100
AcDbEntity
  8
0
  6
Continuous
100
AcDbPolyline
 90
        2
 70
     0
 43
0.0
 10
30.7043132782
 20
2.1372127533
 10
30.8124294281
 20
2.245329379999999
  0
LWPOLYLINE
  5
B03C
330
AE26
100
AcDbEntity
  8
0
  6
Continuous
100
AcDbPolyline
 90
        2
 70
     0
 43
0.0
 10
30.8345756531
 20
2.267475605
 10
30.8810520172
 20
2.3139531612
  0
LWPOLYLINE
  5
B03D
330
AE26
100
AcDbEntity
  8
0
  6
Continuous
100
AcDbPolyline
 90
        2
 70
     0
 43
0.0
 10
30.6522960663
 20
2.078125
 10
30.6730632782
 20
2.0988917351
  0
LWPOLYLINE
  5
B03E
330
AE26
100
AcDbEntity
  8
0
  6
Continuous
100
AcDbPolyline
 90
        2
 70
     0
 43
0.0
 10
30.7043132782
 20
2.1301417351
 10
30.8837680817
 20
2.309597969099999
  0
LWPOLYLINE
  5
B03F
330
AE26
100
AcDbEntity
  8
0
  6
Continuous
100
AcDbPolyline
 90
        2
 70
     0
 43
0.0
 10
30.6593666077
 20
2.078125
 10
30.6730632782
 20
2.0918207169
  0
LWPOLYLINE
  5
B040
330
AE26
100
AcDbEntity
  8
0
  6
Continuous
100
AcDbPolyline
 90
        2
 70
     0
 43
0.0
 10
30.7043132782
 20
2.1230707169
 10
30.8854312897
 20
2.3041892052
  0
LWPOLYLINE
  5
B041
330
AE26
100
AcDbEntity
  8
0
  6
Continuous
100
AcDbPolyline
 90
        2
 70
     0
 43
0.0
 10
30.666437149
 20
2.078125
 10
30.6730632782
 20
2.0847496986
  0
LWPOLYLINE
  5
B042
330
AE26
100
AcDbEntity
  8
0
  6
Continuous
100
AcDbPolyline
 90
        2
 70
     0
 43
0.0
 10
30.7043132782
 20
2.1159996986
 10
30.7713127136
 20
2.1829996109
  0
LWPOLYLINE
  5
B043
330
AE26
100
AcDbEntity
  8
0
  6
Continuous
100
AcDbPolyline
 90
        2
 70
     0
 43
0.0
 10
30.775812149
 20
2.1875
 10
30.88709259030001
 20
2.298780441299999
  0
LWPOLYLINE
  5
B044
330
AE26
100
AcDbEntity
  8
0
  6
Continuous
100
AcDbPolyline
 90
        2
 70
     0
 43
0.0
 10
30.7043132782
 20
2.1089286804
 10
30.7713127136
 20
2.1759285927
  0
LWPOLYLINE
  5
B045
330
AE26
100
AcDbEntity
  8
0
  6
Continuous
100
AcDbPolyline
 90
        2
 70
     0
 43
0.0
 10
30.7828845978
 20
2.1875
 10
30.8887557983
 20
2.2933716774
  0
LWPOLYLINE
  5
B046
330
AE26
100
AcDbEntity
  8
0
  6
Continuous
100
AcDbPolyline
 90
        2
 70
     0
 43
0.0
 10
30.7043132782
 20
2.1018576622
 10
30.7713127136
 20
2.1688575745
  0
LWPOLYLINE
  5
B047
330
AE26
100
AcDbEntity
  8
0
  6
Continuous
100
AcDbPolyline
 90
        2
 70
     0
 43
0.0
 10
30.7872486115
 20
2.184793233899999
 10
30.890417099
 20
2.287962913499999
  0
LWPOLYLINE
  5
B048
330
AE26
100
AcDbEntity
  8
0
  6
Continuous
100
AcDbPolyline
 90
        2
 70
     0
 43
0.0
 10
30.7043132782
 20
2.094786644
 10
30.7713127136
 20
2.1617865562
  0
LWPOLYLINE
  5
B049
330
AE26
100
AcDbEntity
  8
0
  6
Continuous
100
AcDbPolyline
 90
        2
 70
     0
 43
0.0
 10
30.7897720337
 20
2.180245637899999
 10
30.89084434510001
 20
2.2813177109
  0
LWPOLYLINE
  5
B04A
330
AE26
100
AcDbEntity
  8
0
  6
Continuous
100
AcDbPolyline
 90
        2
 70
     0
 43
0.0
 10
30.7043132782
 20
2.087715387299999
 10
30.7713127136
 20
2.154715538
  0
LWPOLYLINE
  5
B04B
330
AE26
100
AcDbEntity
  8
0
  6
Continuous
100
AcDbPolyline
 90
        2
 70
     0
 43
0.0
 10
30.7922954559
 20
2.1756980419
 10
30.8909511566
 20
2.2743535042
  0
LWPOLYLINE
  5
B04C
330
AE26
100
AcDbEntity
  8
0
  6
Continuous
100
AcDbPolyline
 90
        2
 70
     0
 43
0.0
 10
30.7043132782
 20
2.080644369099999
 10
30.7713127136
 20
2.147644281399999
  0
LWPOLYLINE
  5
B04D
330
AE26
100
AcDbEntity
  8
0
  6
Continuous
100
AcDbPolyline
 90
        2
 70
     0
 43
0.0
 10
30.7948188782
 20
2.171150445899999
 10
30.8910579681
 20
2.2673897743
  0
LWPOLYLINE
  5
B04E
330
AE26
100
AcDbEntity
  8
0
  6
Continuous
100
AcDbPolyline
 90
        2
 70
     0
 43
0.0
 10
30.708864212
 20
2.078125
 10
30.7713127136
 20
2.140573263199999
  0
LWPOLYLINE
  5
B04F
330
AE26
100
AcDbEntity
  8
0
  6
Continuous
100
AcDbPolyline
 90
        2
 70
     0
 43
0.0
 10
30.7973423004
 20
2.166602849999999
 10
30.8902835846
 20
2.2595448494
  0
LWPOLYLINE
  5
B050
330
AE26
100
AcDbEntity
  8
0
  6
Continuous
100
AcDbPolyline
 90
        2
 70
     0
 43
0.0
 10
30.7159347534
 20
2.078125
 10
30.7713127136
 20
2.1335022449
  0
LWPOLYLINE
  5
B051
330
AE26
100
AcDbEntity
  8
0
  6
Continuous
100
AcDbPolyline
 90
        2
 70
     0
 43
0.0
 10
30.7998657227
 20
2.162055254
 10
30.8876152039
 20
2.2498049736
  0
LWPOLYLINE
  5
B052
330
AE26
100
AcDbEntity
  8
0
  6
Continuous
100
AcDbPolyline
 90
        2
 70
     0
 43
0.0
 10
30.7230072021
 20
2.078125
 10
30.7713127136
 20
2.1264309883
  0
LWPOLYLINE
  5
B053
330
AE26
100
AcDbEntity
  8
0
  6
Continuous
100
AcDbPolyline
 90
        2
 70
     0
 43
0.0
 10
30.8023891449
 20
2.157507658
 10
30.8849468231
 20
2.2400653362
  0
LWPOLYLINE
  5
B054
330
AE26
100
AcDbEntity
  8
0
  6
Continuous
100
AcDbPolyline
 90
        2
 70
     0
 43
0.0
 10
30.7300777435
 20
2.078125
 10
30.7713127136
 20
2.1193599701
  0
LWPOLYLINE
  5
B055
330
AE26
100
AcDbEntity
  8
0
  6
Continuous
100
AcDbPolyline
 90
        2
 70
     0
 43
0.0
 10
30.8049125671
 20
2.152960062
 10
30.8541908264
 20
2.202239036599999
  0
LWPOLYLINE
  5
B056
330
AE26
100
AcDbEntity
  8
0
  6
Continuous
100
AcDbPolyline
 90
        2
 70
     0
 43
0.0
 10
30.8557472229
 20
2.2037951946
 10
30.874420166
 20
2.2224683762
  0
LWPOLYLINE
  5
B057
330
AE26
100
AcDbEntity
  8
0
  6
Continuous
100
AcDbPolyline
 90
        2
 70
     0
 43
0.0
 10
30.7371482849
 20
2.078125
 10
30.7713127136
 20
2.1122889519
  0
LWPOLYLINE
  5
B058
330
AE26
100
AcDbEntity
  8
0
  6
Continuous
100
AcDbPolyline
 90
        2
 70
     0
 43
0.0
 10
30.8074359894
 20
2.148412465999999
 10
30.8567142487
 20
2.197691440599999
  0
LWPOLYLINE
  5
B059
330
AE26
100
AcDbEntity
  8
0
  6
Continuous
100
AcDbPolyline
 90
        2
 70
     0
 43
0.0
 10
30.7442188263
 20
2.078125
 10
30.7713127136
 20
2.1052179337
  0
LWPOLYLINE
  5
B05A
330
AE26
100
AcDbEntity
  8
0
  6
Continuous
100
AcDbPolyline
 90
        2
 70
     0
 43
0.0
 10
30.8099594116
 20
2.143864870099999
 10
30.8592376709
 20
2.1931438446
  0
LWPOLYLINE
  5
B05B
330
AE26
100
AcDbEntity
  8
0
  6
Continuous
100
AcDbPolyline
 90
        2
 70
     0
 43
0.0
 10
30.751291275
 20
2.078125
 10
30.7713127136
 20
2.0981469154
  0
LWPOLYLINE
  5
B05C
330
AE26
100
AcDbEntity
  8
0
  6
Continuous
100
AcDbPolyline
 90
        2
 70
     0
 43
0.0
 10
30.8124828339
 20
2.1393172741
 10
30.8617610931
 20
2.1885962486
  0
LWPOLYLINE
  5
B05D
330
AE26
100
AcDbEntity
  8
0
  6
Continuous
100
AcDbPolyline
 90
        2
 70
     0
 43
0.0
 10
30.7583618164
 20
2.078125
 10
30.7713127136
 20
2.0910758972
  0
LWPOLYLINE
  5
B05E
330
AE26
100
AcDbEntity
  8
0
  6
Continuous
100
AcDbPolyline
 90
        2
 70
     0
 43
0.0
 10
30.8150062561
 20
2.1347696781
 10
30.8642845154
 20
2.1840486526
  0
LWPOLYLINE
  5
B05F
330
AE26
100
AcDbEntity
  8
0
  6
Continuous
100
AcDbPolyline
 90
        2
 70
     0
 43
0.0
 10
30.7654323578
 20
2.078125
 10
30.7713127136
 20
2.084004879
  0
LWPOLYLINE
  5
B060
330
AE26
100
AcDbEntity
  8
0
  6
Continuous
100
AcDbPolyline
 90
        2
 70
     0
 43
0.0
 10
30.8175296783
 20
2.130222082099999
 10
30.8668079376
 20
2.179501056699999
  0
LWPOLYLINE
  5
B061
330
AE26
100
AcDbEntity
  8
0
  6
Continuous
100
AcDbPolyline
 90
        2
 70
     0
 43
0.0
 10
30.8200531006
 20
2.125674486199999
 10
30.8693332672
 20
2.174953460699999
  0
LWPOLYLINE
  5
B062
330
AE26
100
AcDbEntity
  8
0
  6
Continuous
100
AcDbPolyline
 90
        2
 70
     0
 43
0.0
 10
30.8225765228
 20
2.1211268902
 10
30.8718566895
 20
2.1704058647
  0
LWPOLYLINE
  5
B063
330
AE26
100
AcDbEntity
  8
0
  6
Continuous
100
AcDbPolyline
 90
        2
 70
     0
 43
0.0
 10
30.8250999451
 20
2.116579294199999
 10
30.87438011170001
 20
2.1658582687
  0
LWPOLYLINE
  5
B064
330
AE26
100
AcDbEntity
  8
0
  6
Continuous
100
AcDbPolyline
 90
        2
 70
     0
 43
0.0
 10
30.8276233673
 20
2.1120316982
 10
30.8769035339
 20
2.161310672799999
  0
LWPOLYLINE
  5
B065
330
AE26
100
AcDbEntity
  8
0
  6
Continuous
100
AcDbPolyline
 90
        2
 70
     0
 43
0.0
 10
30.8301467896
 20
2.107484102199999
 10
30.8794269562
 20
2.156763076799999
  0
LWPOLYLINE
  5
B066
330
AE26
100
AcDbEntity
  8
0
  6
Continuous
100
AcDbPolyline
 90
        2
 70
     0
 43
0.0
 10
30.8326702118
 20
2.102936506299999
 10
30.8819503784
 20
2.1522154808
  0
LWPOLYLINE
  5
B067
330
AE26
100
AcDbEntity
  8
0
  6
Continuous
100
AcDbPolyline
 90
        2
 70
     0
 43
0.0
 10
30.835193634
 20
2.0983889103
 10
30.8844738007
 20
2.147667884799999
  0
LWPOLYLINE
  5
B068
330
AE26
100
AcDbEntity
  8
0
  6
Continuous
100
AcDbPolyline
 90
        2
 70
     0
 43
0.0
 10
30.8377170563
 20
2.0938413143
 10
30.8869972229
 20
2.1431202888
  0
LWPOLYLINE
  5
B069
330
AE26
100
AcDbEntity
  8
0
  6
Continuous
100
AcDbPolyline
 90
        2
 70
     0
 43
0.0
 10
30.8402404785
 20
2.089293718299999
 10
30.8895206451
 20
2.138572692899999
  0
LWPOLYLINE
  5
B06A
330
AE26
100
AcDbEntity
  8
0
  6
Continuous
100
AcDbPolyline
 90
        2
 70
     0
 43
0.0
 10
30.8427639008
 20
2.084746122399999
 10
30.8920440674
 20
2.134025096899999
  0
LWPOLYLINE
  5
B06B
330
AE26
100
AcDbEntity
  8
0
  6
Continuous
100
AcDbPolyline
 90
        2
 70
     0
 43
0.0
 10
30.845287323
 20
2.080198288
 10
30.8945674896
 20
2.1294775009
  0
LWPOLYLINE
  5
B06C
330
AE26
100
AcDbEntity
  8
0
  6
Continuous
100
AcDbPolyline
 90
        2
 70
     0
 43
0.0
 10
30.8502864838
 20
2.078125
 10
30.8970909119
 20
2.1249299049
  0
LWPOLYLINE
  5
B06D
330
AE26
100
AcDbEntity
  8
0
  6
Continuous
100
AcDbPolyline
 90
        2
 70
     0
 43
0.0
 10
30.8573570251
 20
2.078125
 10
30.8996143341
 20
2.120382309
  0
LWPOLYLINE
  5
B06E
330
AE26
100
AcDbEntity
  8
0
  6
Continuous
100
AcDbPolyline
 90
        2
 70
     0
 43
0.0
 10
30.8644275665
 20
2.078125
 10
30.9021377563
 20
2.115834712999999
  0
LWPOLYLINE
  5
B06F
330
AE26
100
AcDbEntity
  8
0
  6
Continuous
100
AcDbPolyline
 90
        2
 70
     0
 43
0.0
 10
30.8714981079
 20
2.078125
 10
30.9046611786
 20
2.111287116999999
  0
LWPOLYLINE
  5
B070
330
AE26
100
AcDbEntity
  8
0
  6
Continuous
100
AcDbPolyline
 90
        2
 70
     0
 43
0.0
 10
30.8785705566
 20
2.078125
 10
30.9071846008
 20
2.106739520999999
  0
LWPOLYLINE
  5
B071
330
AE26
100
AcDbEntity
  8
0
  6
Continuous
100
AcDbPolyline
 90
        2
 70
     0
 43
0.0
 10
30.885641098
 20
2.078125
 10
30.9097080231
 20
2.102191925
  0
LWPOLYLINE
  5
B072
330
AE26
100
AcDbEntity
  8
0
  6
Continuous
100
AcDbPolyline
 90
        2
 70
     0
 43
0.0
 10
30.8927116394
 20
2.078125
 10
30.9122314453
 20
2.097644329099999
  0
LWPOLYLINE
  5
B073
330
AE26
100
AcDbEntity
  8
0
  6
Continuous
100
AcDbPolyline
 90
        2
 70
     0
 43
0.0
 10
30.8997821808
 20
2.078125
 10
30.9147548676
 20
2.093096733099999
  0
LWPOLYLINE
  5
B074
330
AE26
100
AcDbEntity
  8
0
  6
Continuous
100
AcDbPolyline
 90
        2
 70
     0
 43
0.0
 10
30.9068546295
 20
2.078125
 10
30.9172782898
 20
2.0885491371
  0
LWPOLYLINE
  5
B075
330
AE26
100
AcDbEntity
  8
0
  6
Continuous
100
AcDbPolyline
 90
        2
 70
     0
 43
0.0
 10
30.9139251709
 20
2.078125
 10
30.919801712
 20
2.0840015411
  0
LWPOLYLINE
  5
B076
330
AE26
100
AcDbEntity
  8
0
  6
Continuous
100
AcDbPolyline
 90
        2
 70
     0
 43
0.0
 10
30.9209957123
 20
2.078125
 10
30.9223251343
 20
2.0794539452
  0
LWPOLYLINE
  5
B077
330
AE26
100
AcDbEntity
  8
0
  6
Continuous
100
AcDbPolyline
 90
        2
 70
     0
 43
0.0
 10
32.9696884155
 20
2.8054289818
 10
32.9767570496
 20
2.8125
  0
LWPOLYLINE
  5
B078
330
AE26
100
AcDbEntity
  8
0
  6
Continuous
100
AcDbPolyline
 90
        2
 70
     0
 43
0.0
 10
32.9696884155
 20
2.798357963599999
 10
32.9838294983
 20
2.8125
  0
LWPOLYLINE
  5
B079
330
AE26
100
AcDbEntity
  8
0
  6
Continuous
100
AcDbPolyline
 90
        2
 70
     0
 43
0.0
 10
32.9696884155
 20
2.791286706899999
 10
32.990901947
 20
2.8125
  0
LWPOLYLINE
  5
B07A
330
AE26
100
AcDbEntity
  8
0
  6
Continuous
100
AcDbPolyline
 90
        2
 70
     0
 43
0.0
 10
32.9696884155
 20
2.7842156887
 10
32.9979705811
 20
2.8125
  0
LWPOLYLINE
  5
B07B
330
AE26
100
AcDbEntity
  8
0
  6
Continuous
100
AcDbPolyline
 90
        2
 70
     0
 43
0.0
 10
32.9696884155
 20
2.7771446705
 10
33.0050430298
 20
2.8125
  0
LWPOLYLINE
  5
B07C
330
AE26
100
AcDbEntity
  8
0
  6
Continuous
100
AcDbPolyline
 90
        2
 70
     0
 43
0.0
 10
32.9696884155
 20
2.7700736523
 10
33.0121154785
 20
2.8125
  0
LWPOLYLINE
  5
B07D
330
AE26
100
AcDbEntity
  8
0
  6
Continuous
100
AcDbPolyline
 90
        2
 70
     0
 43
0.0
 10
32.9696884155
 20
2.763002633999999
 10
33.0191841125
 20
2.8125
  0
LWPOLYLINE
  5
B07E
330
AE26
100
AcDbEntity
  8
0
  6
Continuous
100
AcDbPolyline
 90
        2
 70
     0
 43
0.0
 10
32.9696884155
 20
2.7559313774
 10
33.0262565613
 20
2.8125
  0
LWPOLYLINE
  5
B07F
330
AE26
100
AcDbEntity
  8
0
  6
Continuous
100
AcDbPolyline
 90
        2
 70
     0
 43
0.0
 10
32.9696884155
 20
2.7488603592
 10
33.03332901
 20
2.8125
  0
LWPOLYLINE
  5
B080
330
AE26
100
AcDbEntity
  8
0
  6
Continuous
100
AcDbPolyline
 90
        2
 70
     0
 43
0.0
 10
32.9696884155
 20
2.741789341
 10
33.04039764400001
 20
2.8125
  0
LWPOLYLINE
  5
B081
330
AE26
100
AcDbEntity
  8
0
  6
Continuous
100
AcDbPolyline
 90
        2
 70
     0
 43
0.0
 10
32.9696884155
 20
2.734718322799999
 10
33.04747009280001
 20
2.8125
  0
LWPOLYLINE
  5
B082
330
AE26
100
AcDbEntity
  8
0
  6
Continuous
100
AcDbPolyline
 90
        2
 70
     0
 43
0.0
 10
32.9696884155
 20
2.7276473045
 10
33.0096893311
 20
2.7676472664
  0
LWPOLYLINE
  5
B083
330
AE26
100
AcDbEntity
  8
0
  6
Continuous
100
AcDbPolyline
 90
        2
 70
     0
 43
0.0
 10
33.014541626
 20
2.7725000381
 10
33.0545387268
 20
2.8125
  0
LWPOLYLINE
  5
B084
330
AE26
100
AcDbEntity
  8
0
  6
Continuous
100
AcDbPolyline
 90
        2
 70
     0
 43
0.0
 10
32.9696884155
 20
2.7205760479
 10
33.0096893311
 20
2.7605760098
  0
LWPOLYLINE
  5
B085
330
AE26
100
AcDbEntity
  8
0
  6
Continuous
100
AcDbPolyline
 90
        2
 70
     0
 43
0.0
 10
33.02161026
 20
2.7725000381
 10
33.06161117550001
 20
2.8125
  0
LWPOLYLINE
  5
B086
330
AE26
100
AcDbEntity
  8
0
  6
Continuous
100
AcDbPolyline
 90
        2
 70
     0
 43
0.0
 10
32.9696884155
 20
2.7135050297
 10
33.0096893311
 20
2.753504991499999
  0
LWPOLYLINE
  5
B087
330
AE26
100
AcDbEntity
  8
0
  6
Continuous
100
AcDbPolyline
 90
        2
 70
     0
 43
0.0
 10
33.0286827087
 20
2.7725000381
 10
33.0686836243
 20
2.8125
  0
LWPOLYLINE
  5
B088
330
AE26
100
AcDbEntity
  8
0
  6
Continuous
100
AcDbPolyline
 90
        2
 70
     0
 43
0.0
 10
32.9696884155
 20
2.706434011499999
 10
33.0096893311
 20
2.746433973299999
  0
LWPOLYLINE
  5
B089
330
AE26
100
AcDbEntity
  8
0
  6
Continuous
100
AcDbPolyline
 90
        2
 70
     0
 43
0.0
 10
33.0357551575
 20
2.7725000381
 10
33.0757522583
 20
2.8125
  0
LWPOLYLINE
  5
B08A
330
AE26
100
AcDbEntity
  8
0
  6
Continuous
100
AcDbPolyline
 90
        2
 70
     0
 43
0.0
 10
32.9696884155
 20
2.699362993199999
 10
33.0096893311
 20
2.739362955099999
  0
LWPOLYLINE
  5
B08B
330
AE26
100
AcDbEntity
  8
0
  6
Continuous
100
AcDbPolyline
 90
        2
 70
     0
 43
0.0
 10
33.0428237915
 20
2.7725000381
 10
33.082321167
 20
2.811997175199999
  0
LWPOLYLINE
  5
B08C
330
AE26
100
AcDbEntity
  8
0
  6
Continuous
100
AcDbPolyline
 90
        2
 70
     0
 43
0.0
 10
32.9696884155
 20
2.6922917366
 10
33.0096893311
 20
2.732291936899999
  0
LWPOLYLINE
  5
B08D
330
AE26
100
AcDbEntity
  8
0
  6
Continuous
100
AcDbPolyline
 90
        2
 70
     0
 43
0.0
 10
33.0498962402
 20
2.7725000381
 10
33.0886421204
 20
2.811246395099999
  0
LWPOLYLINE
  5
B08E
330
AE26
100
AcDbEntity
  8
0
  6
Continuous
100
AcDbPolyline
 90
        2
 70
     0
 43
0.0
 10
32.9696884155
 20
2.685220718399999
 10
33.0096893311
 20
2.725220680199999
  0
LWPOLYLINE
  5
B08F
330
AE26
100
AcDbEntity
  8
0
  6
Continuous
100
AcDbPolyline
 90
        2
 70
     0
 43
0.0
 10
33.0569648743
 20
2.7725000381
 10
33.0949630737
 20
2.810495614999999
  0
LWPOLYLINE
  5
B090
330
AE26
100
AcDbEntity
  8
0
  6
Continuous
100
AcDbPolyline
 90
        2
 70
     0
 43
0.0
 10
32.9696884155
 20
2.6781497002
 10
33.0096893311
 20
2.718149662
  0
LWPOLYLINE
  5
B091
330
AE26
100
AcDbEntity
  8
0
  6
Continuous
100
AcDbPolyline
 90
        2
 70
     0
 43
0.0
 10
33.064037323
 20
2.7725000381
 10
33.1012840271
 20
2.8097448349
  0
LWPOLYLINE
  5
B092
330
AE26
100
AcDbEntity
  8
0
  6
Continuous
100
AcDbPolyline
 90
        2
 70
     0
 43
0.0
 10
32.9696884155
 20
2.6710786819
 10
33.0096893311
 20
2.7110786438
  0
LWPOLYLINE
  5
B093
330
AE26
100
AcDbEntity
  8
0
  6
Continuous
100
AcDbPolyline
 90
        2
 70
     0
 43
0.0
 10
33.0711097717
 20
2.7725000381
 10
33.1064834595
 20
2.8078761101
  0
LWPOLYLINE
  5
B094
330
AE26
100
AcDbEntity
  8
0
  6
Continuous
100
AcDbPolyline
 90
        2
 70
     0
 43
0.0
 10
32.9696884155
 20
2.6640076637
 10
33.0096893311
 20
2.7040076256
  0
LWPOLYLINE
  5
B095
330
AE26
100
AcDbEntity
  8
0
  6
Continuous
100
AcDbPolyline
 90
        2
 70
     0
 43
0.0
 10
33.0781784058
 20
2.7725000381
 10
33.1116447449
 20
2.805965185199999
  0
LWPOLYLINE
  5
B096
330
AE26
100
AcDbEntity
  8
0
  6
Continuous
100
AcDbPolyline
 90
        2
 70
     0
 43
0.0
 10
32.9696884155
 20
2.656936407099999
 10
33.0096893311
 20
2.6969366074
  0
LWPOLYLINE
  5
B097
330
AE26
100
AcDbEntity
  8
0
  6
Continuous
100
AcDbPolyline
 90
        2
 70
     0
 43
0.0
 10
33.0842819214
 20
2.7715303898
 10
33.11680603030001
 20
2.804054260299999
  0
LWPOLYLINE
  5
B098
330
AE26
100
AcDbEntity
  8
0
  6
Continuous
100
AcDbPolyline
 90
        2
 70
     0
 43
0.0
 10
32.9696884155
 20
2.649865388899999
 10
33.0096893311
 20
2.689865350699999
  0
LWPOLYLINE
  5
B099
330
AE26
100
AcDbEntity
  8
0
  6
Continuous
100
AcDbPolyline
 90
        2
 70
     0
 43
0.0
 10
33.0903816223
 20
2.770559310899999
 10
33.121963501
 20
2.802143335299999
  0
LWPOLYLINE
  5
B09A
330
AE26
100
AcDbEntity
  8
0
  6
Continuous
100
AcDbPolyline
 90
        2
 70
     0
 43
0.0
 10
32.9696884155
 20
2.642794370699999
 10
33.0096893311
 20
2.682794332499999
  0
LWPOLYLINE
  5
B09B
330
AE26
100
AcDbEntity
  8
0
  6
Continuous
100
AcDbPolyline
 90
        2
 70
     0
 43
0.0
 10
33.0964813232
 20
2.769588231999999
 10
33.1264953613
 20
2.7996037006
  0
LWPOLYLINE
  5
B09C
330
AE26
100
AcDbEntity
  8
0
  6
Continuous
100
AcDbPolyline
 90
        2
 70
     0
 43
0.0
 10
32.9696884155
 20
2.635723352399999
 10
33.0096893311
 20
2.675723314299999
  0
LWPOLYLINE
  5
B09D
330
AE26
100
AcDbEntity
  8
0
  6
Continuous
100
AcDbPolyline
 90
        2
 70
     0
 43
0.0
 10
33.101234436
 20
2.767271518699999
 10
33.13072967530001
 20
2.796763896899999
  0
LWPOLYLINE
  5
B09E
330
AE26
100
AcDbEntity
  8
0
  6
Continuous
100
AcDbPolyline
 90
        2
 70
     0
 43
0.0
 10
32.9696884155
 20
2.628652334199999
 10
33.0096893311
 20
2.6686522961
  0
LWPOLYLINE
  5
B09F
330
AE26
100
AcDbEntity
  8
0
  6
Continuous
100
AcDbPolyline
 90
        2
 70
     0
 43
0.0
 10
33.1059112549
 20
2.7648756504
 10
33.1349601746
 20
2.793924093199999
  0
LWPOLYLINE
  5
B0A0
330
AE26
100
AcDbEntity
  8
0
  6
Continuous
100
AcDbPolyline
 90
        2
 70
     0
 43
0.0
 10
32.9696884155
 20
2.621581077599999
 10
33.0096893311
 20
2.661581277799999
  0
LWPOLYLINE
  5
B0A1
330
AE26
100
AcDbEntity
  8
0
  6
Continuous
100
AcDbPolyline
 90
        2
 70
     0
 43
0.0
 10
33.110584259
 20
2.7624795437
 10
33.1391906738
 20
2.7910840511
  0
LWPOLYLINE
  5
B0A2
330
AE26
100
AcDbEntity
  8
0
  6
Continuous
100
AcDbPolyline
 90
        2
 70
     0
 43
0.0
 10
32.9696884155
 20
2.6145100594
 10
33.0096893311
 20
2.6545100212
  0
LWPOLYLINE
  5
B0A3
330
AE26
100
AcDbEntity
  8
0
  6
Continuous
100
AcDbPolyline
 90
        2
 70
     0
 43
0.0
 10
33.11485290530001
 20
2.759676218
 10
33.1433830261
 20
2.788204193099999
  0
LWPOLYLINE
  5
B0A4
330
AE26
100
AcDbEntity
  8
0
  6
Continuous
100
AcDbPolyline
 90
        2
 70
     0
 43
0.0
 10
32.9696884155
 20
2.6074390411
 10
33.0096893311
 20
2.647439003
  0
LWPOLYLINE
  5
B0A5
330
AE26
100
AcDbEntity
  8
0
  6
Continuous
100
AcDbPolyline
 90
        2
 70
     0
 43
0.0
 10
33.1183738708
 20
2.7561266422
 10
33.1467666626
 20
2.784519433999999
  0
LWPOLYLINE
  5
B0A6
330
AE26
100
AcDbEntity
  8
0
  6
Continuous
100
AcDbPolyline
 90
        2
 70
     0
 43
0.0
 10
32.9696884155
 20
2.6003680229
 10
33.0096893311
 20
2.640367984799999
  0
LWPOLYLINE
  5
B0A7
330
AE26
100
AcDbEntity
  8
0
  6
Continuous
100
AcDbPolyline
 90
        2
 70
     0
 43
0.0
 10
33.12189865110001
 20
2.7525773048
 10
33.1501541138
 20
2.7808346748
  0
LWPOLYLINE
  5
B0A8
330
AE26
100
AcDbEntity
  8
0
  6
Continuous
100
AcDbPolyline
 90
        2
 70
     0
 43
0.0
 10
32.9696884155
 20
2.5932970047
 10
33.0096893311
 20
2.6332969666
  0
LWPOLYLINE
  5
B0A9
330
AE26
100
AcDbEntity
  8
0
  6
Continuous
100
AcDbPolyline
 90
        2
 70
     0
 43
0.0
 10
33.1254196167
 20
2.7490279675
 10
33.1535415649
 20
2.7771501541
  0
LWPOLYLINE
  5
B0AA
330
AE26
100
AcDbEntity
  8
0
  6
Continuous
100
AcDbPolyline
 90
        2
 70
     0
 43
0.0
 10
32.9696884155
 20
2.586225748099999
 10
33.0096893311
 20
2.6262259483
  0
LWPOLYLINE
  5
B0AB
330
AE26
100
AcDbEntity
  8
0
  6
Continuous
100
AcDbPolyline
 90
        2
 70
     0
 43
0.0
 10
33.1283874512
 20
2.744924545299999
 10
33.1569252014
 20
2.773465395
  0
LWPOLYLINE
  5
B0AC
330
AE26
100
AcDbEntity
  8
0
  6
Continuous
100
AcDbPolyline
 90
        2
 70
     0
 43
0.0
 10
32.9696884155
 20
2.579154729799999
 10
33.0096893311
 20
2.619154691699999
  0
LWPOLYLINE
  5
B0AD
330
AE26
100
AcDbEntity
  8
0
  6
Continuous
100
AcDbPolyline
 90
        2
 70
     0
 43
0.0
 10
33.1309547424
 20
2.740420818299999
 10
33.1600418091
 20
2.7695086002
  0
LWPOLYLINE
  5
B0AE
330
AE26
100
AcDbEntity
  8
0
  6
Continuous
100
AcDbPolyline
 90
        2
 70
     0
 43
0.0
 10
32.9757270813
 20
2.578125
 10
33.0157279968
 20
2.618124961899999
  0
LWPOLYLINE
  5
B0AF
330
AE26
100
AcDbEntity
  8
0
  6
Continuous
100
AcDbPolyline
 90
        2
 70
     0
 43
0.0
 10
33.1335220337
 20
2.735916852999999
 10
33.162612915
 20
2.765008926399999
  0
LWPOLYLINE
  5
B0B0
330
AE26
100
AcDbEntity
  8
0
  6
Continuous
100
AcDbPolyline
 90
        2
 70
     0
 43
0.0
 10
32.98279953
 20
2.578125
 10
33.0228004456
 20
2.618124961899999
  0
LWPOLYLINE
  5
B0B1
330
AE26
100
AcDbEntity
  8
0
  6
Continuous
100
AcDbPolyline
 90
        2
 70
     0
 43
0.0
 10
33.136089325
 20
2.731412887599999
 10
33.165184021
 20
2.760509252499999
  0
LWPOLYLINE
  5
B0B2
330
AE26
100
AcDbEntity
  8
0
  6
Continuous
100
AcDbPolyline
 90
        2
 70
     0
 43
0.0
 10
32.98987197880001
 20
2.578125
 10
33.0298690796
 20
2.618124961899999
  0
LWPOLYLINE
  5
B0B3
330
AE26
100
AcDbEntity
  8
0
  6
Continuous
100
AcDbPolyline
 90
        2
 70
     0
 43
0.0
 10
33.1383056641
 20
2.7265615463
 10
33.167755127
 20
2.7560095787
  0
LWPOLYLINE
  5
B0B4
330
AE26
100
AcDbEntity
  8
0
  6
Continuous
100
AcDbPolyline
 90
        2
 70
     0
 43
0.0
 10
32.9969406128
 20
2.578125
 10
33.0369415283
 20
2.618124961899999
  0
LWPOLYLINE
  5
B0B5
330
AE26
100
AcDbEntity
  8
0
  6
Continuous
100
AcDbPolyline
 90
        2
 70
     0
 43
0.0
 10
33.1400108337
 20
2.7211923599
 10
33.1703262329
 20
2.7515099049
  0
LWPOLYLINE
  5
B0B6
330
AE26
100
AcDbEntity
  8
0
  6
Continuous
100
AcDbPolyline
 90
        2
 70
     0
 43
0.0
 10
33.0040130615
 20
2.578125
 10
33.0440139771
 20
2.618124961899999
  0
LWPOLYLINE
  5
B0B7
330
AE26
100
AcDbEntity
  8
0
  6
Continuous
100
AcDbPolyline
 90
        2
 70
     0
 43
0.0
 10
33.1417121887
 20
2.7158231735
 10
33.1728973389
 20
2.747010231
  0
LWPOLYLINE
  5
B0B8
330
AE26
100
AcDbEntity
  8
0
  6
Continuous
100
AcDbPolyline
 90
        2
 70
     0
 43
0.0
 10
33.0110855103
 20
2.578125
 10
33.0510826111
 20
2.618124961899999
  0
LWPOLYLINE
  5
B0B9
330
AE26
100
AcDbEntity
  8
0
  6
Continuous
100
AcDbPolyline
 90
        2
 70
     0
 43
0.0
 10
33.1434135437
 20
2.710453987099999
 10
33.1750221252
 20
2.742063999199999
  0
LWPOLYLINE
  5
B0BA
330
AE26
100
AcDbEntity
  8
0
  6
Continuous
100
AcDbPolyline
 90
        2
 70
     0
 43
0.0
 10
33.0181541443
 20
2.578125
 10
33.0581550598
 20
2.618124961899999
  0
LWPOLYLINE
  5
B0BB
330
AE26
100
AcDbEntity
  8
0
  6
Continuous
100
AcDbPolyline
 90
        2
 70
     0
 43
0.0
 10
33.1445159912
 20
2.704483985899999
 10
33.1767272949
 20
2.736697196999999
  0
LWPOLYLINE
  5
B0BC
330
AE26
100
AcDbEntity
  8
0
  6
Continuous
100
AcDbPolyline
 90
        2
 70
     0
 43
0.0
 10
33.025226593
 20
2.578125
 10
33.0652275085
 20
2.618124961899999
  0
LWPOLYLINE
  5
B0BD
330
AE26
100
AcDbEntity
  8
0
  6
Continuous
100
AcDbPolyline
 90
        2
 70
     0
 43
0.0
 10
33.1451339722
 20
2.698033332799999
 10
33.1784324646
 20
2.7313303947
  0
LWPOLYLINE
  5
B0BE
330
AE26
100
AcDbEntity
  8
0
  6
Continuous
100
AcDbPolyline
 90
        2
 70
     0
 43
0.0
 10
33.0322990417
 20
2.578125
 10
33.07229614260001
 20
2.618124961899999
  0
LWPOLYLINE
  5
B0BF
330
AE26
100
AcDbEntity
  8
0
  6
Continuous
100
AcDbPolyline
 90
        2
 70
     0
 43
0.0
 10
33.14575576780001
 20
2.6915824413
 10
33.1801376343
 20
2.725963592499999
  0
LWPOLYLINE
  5
B0C0
330
AE26
100
AcDbEntity
  8
0
  6
Continuous
100
AcDbPolyline
 90
        2
 70
     0
 43
0.0
 10
33.0393676758
 20
2.578125
 10
33.07936859130001
 20
2.618124961899999
  0
LWPOLYLINE
  5
B0C1
330
AE26
100
AcDbEntity
  8
0
  6
Continuous
100
AcDbPolyline
 90
        2
 70
     0
 43
0.0
 10
33.1460456848
 20
2.6848027706
 10
33.1818389893
 20
2.720597028699999
  0
LWPOLYLINE
  5
B0C2
330
AE26
100
AcDbEntity
  8
0
  6
Continuous
100
AcDbPolyline
 90
        2
 70
     0
 43
0.0
 10
33.0464401245
 20
2.578125
 10
33.08669281010001
 20
2.6183776855
  0
LWPOLYLINE
  5
B0C3
330
AE26
100
AcDbEntity
  8
0
  6
Continuous
100
AcDbPolyline
 90
        2
 70
     0
 43
0.0
 10
33.1451225281
 20
2.6768062115
 10
33.18337249760001
 20
2.715057134599999
  0
LWPOLYLINE
  5
B0C4
330
AE26
100
AcDbEntity
  8
0
  6
Continuous
100
AcDbPolyline
 90
        2
 70
     0
 43
0.0
 10
33.0535087585
 20
2.578125
 10
33.0952148438
 20
2.619829893099999
  0
LWPOLYLINE
  5
B0C5
330
AE26
100
AcDbEntity
  8
0
  6
Continuous
100
AcDbPolyline
 90
        2
 70
     0
 43
0.0
 10
33.1441955566
 20
2.668809652299999
 10
33.1839904785
 20
2.7086060047
  0
LWPOLYLINE
  5
B0C6
330
AE26
100
AcDbEntity
  8
0
  6
Continuous
100
AcDbPolyline
 90
        2
 70
     0
 43
0.0
 10
33.0605812073
 20
2.578125
 10
33.1037368774
 20
2.6212818623
  0
LWPOLYLINE
  5
B0C7
330
AE26
100
AcDbEntity
  8
0
  6
Continuous
100
AcDbPolyline
 90
        2
 70
     0
 43
0.0
 10
33.1411819458
 20
2.658726453799999
 10
33.1846122742
 20
2.7021548748
  0
LWPOLYLINE
  5
B0C8
330
AE26
100
AcDbEntity
  8
0
  6
Continuous
100
AcDbPolyline
 90
        2
 70
     0
 43
0.0
 10
33.067653656
 20
2.578125
 10
33.1184539795
 20
2.628927707699999
  0
LWPOLYLINE
  5
B0C9
330
AE26
100
AcDbEntity
  8
0
  6
Continuous
100
AcDbPolyline
 90
        2
 70
     0
 43
0.0
 10
33.1362571716
 20
2.6467313766
 10
33.1852302551
 20
2.6957039833
  0
LWPOLYLINE
  5
B0CA
330
AE26
100
AcDbEntity
  8
0
  6
Continuous
100
AcDbPolyline
 90
        2
 70
     0
 43
0.0
 10
33.07472229
 20
2.578125
 10
33.1858520508
 20
2.689252853399999
  0
LWPOLYLINE
  5
B0CB
330
AE26
100
AcDbEntity
  8
0
  6
Continuous
100
AcDbPolyline
 90
        2
 70
     0
 43
0.0
 10
33.0817947388
 20
2.578125
 10
33.1856842041
 20
2.6820158958
  0
LWPOLYLINE
  5
B0CC
330
AE26
100
AcDbEntity
  8
0
  6
Continuous
100
AcDbPolyline
 90
        2
 70
     0
 43
0.0
 10
33.0894546509
 20
2.5787127018
 10
33.184753418
 20
2.6740136147
  0
LWPOLYLINE
  5
B0CD
330
AE26
100
AcDbEntity
  8
0
  6
Continuous
100
AcDbPolyline
 90
        2
 70
     0
 43
0.0
 10
33.0976333618
 20
2.5798230171
 10
33.1838226318
 20
2.666011094999999
  0
LWPOLYLINE
  5
B0CE
330
AE26
100
AcDbEntity
  8
0
  6
Continuous
100
AcDbPolyline
 90
        2
 70
     0
 43
0.0
 10
33.1058158875
 20
2.580933332399999
 10
33.1828918457
 20
2.658008575399999
  0
LWPOLYLINE
  5
B0CF
330
AE26
100
AcDbEntity
  8
0
  6
Continuous
100
AcDbPolyline
 90
        2
 70
     0
 43
0.0
 10
33.1151351929
 20
2.583181142799999
 10
33.17946243290001
 20
2.6475093365
  0
LWPOLYLINE
  5
B0D0
330
AE26
100
AcDbEntity
  8
0
  6
Continuous
100
AcDbPolyline
 90
        2
 70
     0
 43
0.0
 10
33.1275024414
 20
2.588478565199999
 10
33.1752624512
 20
2.6362359524
  0
LWPOLYLINE
  5
B0D1
330
AE26
100
AcDbEntity
  8
0
  6
Continuous
100
AcDbPolyline
 90
        2
 70
     0
 43
0.0
 10
33.1461181641
 20
2.600022077599999
 10
33.1634902954
 20
2.617395401
  0
LWPOLYLINE
  5
B0D2
330
AE26
100
AcDbEntity
  8
0
  6
Continuous
100
AcDbPolyline
 90
        2
 70
     0
 43
0.0
 10
33.5
 20
0.5
 10
33.5
 20
21.5
  0
LWPOLYLINE
  5
B0D3
330
AE26
100
AcDbEntity
  8
0
  6
Continuous
100
AcDbPolyline
 90
        2
 70
     0
 43
0.0
 10
0.5
 20
0.5
 10
0.5
 20
21.5
  0
LWPOLYLINE
  5
B0D4
330
AE26
100
AcDbEntity
  8
0
  6
Continuous
100
AcDbPolyline
 90
        2
 70
     0
 43
0.0
 10
0.0
 20
22.0
 10
0.0
 20
0.0
  0
LWPOLYLINE
  5
B0D5
330
AE26
100
AcDbEntity
  8
0
  6
Continuous
100
AcDbPolyline
 90
        2
 70
     0
 43
0.0
 10
34.0
 20
22.0
 10
34.0
 20
0.0
  0
LWPOLYLINE
  5
B0D6
330
AE26
100
AcDbEntity
  8
0
  6
Continuous
100
AcDbPolyline
 90
        2
 70
     0
 43
0.0
 10
0.0
 20
0.0
 10
34.0
 20
0.0
  0
LWPOLYLINE
  5
B0D7
330
AE26
100
AcDbEntity
  8
0
  6
Continuous
100
AcDbPolyline
 90
        2
 70
     0
 43
0.0
 10
0.0
 20
22.0
 10
34.0
 20
22.0
  0
LWPOLYLINE
  5
B0D8
330
AE26
100
AcDbEntity
  8
0
  6
Continuous
100
AcDbPolyline
 90
        2
 70
     0
 43
0.0
 10
0.5
 20
11.0
 10
0.3125
 20
11.09375
  0
LWPOLYLINE
  5
B0D9
330
AE26
100
AcDbEntity
  8
0
  6
Continuous
100
AcDbPolyline
 90
        2
 70
     0
 43
0.0
 10
0.3125
 20
10.90625
 10
0.5
 20
11.0
  0
LWPOLYLINE
  5
B0DA
330
AE26
100
AcDbEntity
  8
0
  6
Continuous
100
AcDbPolyline
 90
        2
 70
     0
 43
0.0
 10
0.3125
 20
10.9765625
 10
0.3125
 20
10.90625
  0
LWPOLYLINE
  5
B0DB
330
AE26
100
AcDbEntity
  8
0
  6
Continuous
100
AcDbPolyline
 90
        3
 70
     0
 43
0.0
 10
0.3125
 20
11.09375
 10
0.3125
 20
11.0234375
 10
0.125
 20
11.0234375
  0
LWPOLYLINE
  5
B0DC
330
AE26
100
AcDbEntity
  8
0
  6
Continuous
100
AcDbPolyline
 90
        2
 70
     0
 43
0.0
 10
0.125
 20
10.9765625
 10
0.3125
 20
10.9765625
  0
LWPOLYLINE
  5
B0DD
330
AE26
100
AcDbEntity
  8
0
  6
Continuous
100
AcDbPolyline
 90
        2
 70
     0
 43
0.0
 10
0.125
 20
11.0234375
 10
0.125
 20
10.9765625
  0
LWPOLYLINE
  5
B0DE
330
AE26
100
AcDbEntity
  8
0
  6
Continuous
100
AcDbPolyline
 90
        2
 70
     0
 43
0.0
 10
16.9765625
 20
21.8679294586
 10
16.9836330414
 20
21.875
  0
LWPOLYLINE
  5
B0DF
330
AE26
100
AcDbEntity
  8
0
  6
Continuous
100
AcDbPolyline
 90
        2
 70
     0
 43
0.0
 10
16.9765625
 20
21.8608570099
 10
16.9907054901
 20
21.875
  0
LWPOLYLINE
  5
B0E0
330
AE26
100
AcDbEntity
  8
0
  6
Continuous
100
AcDbPolyline
 90
        2
 70
     0
 43
0.0
 10
16.9765625
 20
21.8537864685
 10
16.9977760315
 20
21.875
  0
LWPOLYLINE
  5
B0E1
330
AE26
100
AcDbEntity
  8
0
  6
Continuous
100
AcDbPolyline
 90
        2
 70
     0
 43
0.0
 10
16.9765625
 20
21.8467159271
 10
17.0048465729
 20
21.875
  0
LWPOLYLINE
  5
B0E2
330
AE26
100
AcDbEntity
  8
0
  6
Continuous
100
AcDbPolyline
 90
        2
 70
     0
 43
0.0
 10
16.9765625
 20
21.8396453857
 10
17.0119171143
 20
21.875
  0
LWPOLYLINE
  5
B0E3
330
AE26
100
AcDbEntity
  8
0
  6
Continuous
100
AcDbPolyline
 90
        2
 70
     0
 43
0.0
 10
16.9765625
 20
21.832572937
 10
17.018989563
 20
21.875
  0
LWPOLYLINE
  5
B0E4
330
AE26
100
AcDbEntity
  8
0
  6
Continuous
100
AcDbPolyline
 90
        2
 70
     0
 43
0.0
 10
16.9765625
 20
21.8255023956
 10
17.0234375
 20
21.8723773956
  0
LWPOLYLINE
  5
B0E5
330
AE26
100
AcDbEntity
  8
0
  6
Continuous
100
AcDbPolyline
 90
        2
 70
     0
 43
0.0
 10
16.9765625
 20
21.8184318542
 10
17.0234375
 20
21.8653068542
  0
LWPOLYLINE
  5
B0E6
330
AE26
100
AcDbEntity
  8
0
  6
Continuous
100
AcDbPolyline
 90
        2
 70
     0
 43
0.0
 10
16.9765625
 20
21.8113613129
 10
17.0234375
 20
21.8582363129
  0
LWPOLYLINE
  5
B0E7
330
AE26
100
AcDbEntity
  8
0
  6
Continuous
100
AcDbPolyline
 90
        2
 70
     0
 43
0.0
 10
16.9765625
 20
21.8042888641
 10
17.0234375
 20
21.8511638641
  0
LWPOLYLINE
  5
B0E8
330
AE26
100
AcDbEntity
  8
0
  6
Continuous
100
AcDbPolyline
 90
        2
 70
     0
 43
0.0
 10
16.9765625
 20
21.7972183228
 10
17.0234375
 20
21.8440933228
  0
LWPOLYLINE
  5
B0E9
330
AE26
100
AcDbEntity
  8
0
  6
Continuous
100
AcDbPolyline
 90
        2
 70
     0
 43
0.0
 10
16.9765625
 20
21.7901477814
 10
17.0234375
 20
21.8370227814
  0
LWPOLYLINE
  5
B0EA
330
AE26
100
AcDbEntity
  8
0
  6
Continuous
100
AcDbPolyline
 90
        2
 70
     0
 43
0.0
 10
16.9765625
 20
21.7830753326
 10
17.0234375
 20
21.8299503326
  0
LWPOLYLINE
  5
B0EB
330
AE26
100
AcDbEntity
  8
0
  6
Continuous
100
AcDbPolyline
 90
        2
 70
     0
 43
0.0
 10
16.9765625
 20
21.7760047913
 10
17.0234375
 20
21.8228797913
  0
LWPOLYLINE
  5
B0EC
330
AE26
100
AcDbEntity
  8
0
  6
Continuous
100
AcDbPolyline
 90
        2
 70
     0
 43
0.0
 10
16.9765625
 20
21.7689342499
 10
17.0234375
 20
21.8158092499
  0
LWPOLYLINE
  5
B0ED
330
AE26
100
AcDbEntity
  8
0
  6
Continuous
100
AcDbPolyline
 90
        2
 70
     0
 43
0.0
 10
16.9765625
 20
21.7618637085
 10
17.0234375
 20
21.8087387085
  0
LWPOLYLINE
  5
B0EE
330
AE26
100
AcDbEntity
  8
0
  6
Continuous
100
AcDbPolyline
 90
        2
 70
     0
 43
0.0
 10
16.9072570801
 20
21.6854858398
 10
16.9092712402
 20
21.6875
  0
LWPOLYLINE
  5
B0EF
330
AE26
100
AcDbEntity
  8
0
  6
Continuous
100
AcDbPolyline
 90
        2
 70
     0
 43
0.0
 10
16.9765625
 20
21.7547912598
 10
17.0234375
 20
21.8016662598
  0
LWPOLYLINE
  5
B0F0
330
AE26
100
AcDbEntity
  8
0
  6
Continuous
100
AcDbPolyline
 90
        2
 70
     0
 43
0.0
 10
16.909614563
 20
21.6807727814
 10
16.9163417816
 20
21.6875
  0
LWPOLYLINE
  5
B0F1
330
AE26
100
AcDbEntity
  8
0
  6
Continuous
100
AcDbPolyline
 90
        2
 70
     0
 43
0.0
 10
16.9765625
 20
21.7477207184
 10
17.0234375
 20
21.7945957184
  0
LWPOLYLINE
  5
B0F2
330
AE26
100
AcDbEntity
  8
0
  6
Continuous
100
AcDbPolyline
 90
        2
 70
     0
 43
0.0
 10
16.9119701385
 20
21.6760578156
 10
16.923412323
 20
21.6875
  0
LWPOLYLINE
  5
B0F3
330
AE26
100
AcDbEntity
  8
0
  6
Continuous
100
AcDbPolyline
 90
        2
 70
     0
 43
0.0
 10
16.9765625
 20
21.740650177
 10
17.0234375
 20
21.787525177
  0
LWPOLYLINE
  5
B0F4
330
AE26
100
AcDbEntity
  8
0
  6
Continuous
100
AcDbPolyline
 90
        2
 70
     0
 43
0.0
 10
16.9143276215
 20
21.6713447571
 10
16.9304847717
 20
21.6875
  0
LWPOLYLINE
  5
B0F5
330
AE26
100
AcDbEntity
  8
0
  6
Continuous
100
AcDbPolyline
 90
        2
 70
     0
 43
0.0
 10
16.9765625
 20
21.7335777283
 10
17.0234375
 20
21.7804527283
  0
LWPOLYLINE
  5
B0F6
330
AE26
100
AcDbEntity
  8
0
  6
Continuous
100
AcDbPolyline
 90
        2
 70
     0
 43
0.0
 10
16.9166851044
 20
21.6666297913
 10
16.9375553131
 20
21.6875
  0
LWPOLYLINE
  5
B0F7
330
AE26
100
AcDbEntity
  8
0
  6
Continuous
100
AcDbPolyline
 90
        2
 70
     0
 43
0.0
 10
16.9765625
 20
21.7265071869
 10
17.0234375
 20
21.7733821869
  0
LWPOLYLINE
  5
B0F8
330
AE26
100
AcDbEntity
  8
0
  6
Continuous
100
AcDbPolyline
 90
        2
 70
     0
 43
0.0
 10
16.9190425873
 20
21.6619167328
 10
16.9446258545
 20
21.6875
  0
LWPOLYLINE
  5
B0F9
330
AE26
100
AcDbEntity
  8
0
  6
Continuous
100
AcDbPolyline
 90
        2
 70
     0
 43
0.0
 10
16.9765625
 20
21.7194366455
 10
17.0234375
 20
21.7663116455
  0
LWPOLYLINE
  5
B0FA
330
AE26
100
AcDbEntity
  8
0
  6
Continuous
100
AcDbPolyline
 90
        2
 70
     0
 43
0.0
 10
16.9213981628
 20
21.657201767
 10
16.9516963959
 20
21.6875
  0
LWPOLYLINE
  5
B0FB
330
AE26
100
AcDbEntity
  8
0
  6
Continuous
100
AcDbPolyline
 90
        2
 70
     0
 43
0.0
 10
16.9765625
 20
21.7123661041
 10
17.0234375
 20
21.7592411041
  0
LWPOLYLINE
  5
B0FC
330
AE26
100
AcDbEntity
  8
0
  6
Continuous
100
AcDbPolyline
 90
        2
 70
     0
 43
0.0
 10
16.9237556458
 20
21.6524887085
 10
16.9587688446
 20
21.6875
  0
LWPOLYLINE
  5
B0FD
330
AE26
100
AcDbEntity
  8
0
  6
Continuous
100
AcDbPolyline
 90
        2
 70
     0
 43
0.0
 10
16.9765625
 20
21.7052936554
 10
17.0234375
 20
21.7521686554
  0
LWPOLYLINE
  5
B0FE
330
AE26
100
AcDbEntity
  8
0
  6
Continuous
100
AcDbPolyline
 90
        2
 70
     0
 43
0.0
 10
16.9261131287
 20
21.6477737427
 10
16.965839386
 20
21.6875
  0
LWPOLYLINE
  5
B0FF
330
AE26
100
AcDbEntity
  8
0
  6
Continuous
100
AcDbPolyline
 90
        2
 70
     0
 43
0.0
 10
16.9765625
 20
21.698223114
 10
17.0234375
 20
21.745098114
  0
LWPOLYLINE
  5
B100
330
AE26
100
AcDbEntity
  8
0
  6
Continuous
100
AcDbPolyline
 90
        2
 70
     0
 43
0.0
 10
16.9284706116
 20
21.6430606842
 10
16.9729099274
 20
21.6875
  0
LWPOLYLINE
  5
B101
330
AE26
100
AcDbEntity
  8
0
  6
Continuous
100
AcDbPolyline
 90
        2
 70
     0
 43
0.0
 10
16.9765625
 20
21.6911525726
 10
17.0234375
 20
21.7380275726
  0
LWPOLYLINE
  5
B102
330
AE26
100
AcDbEntity
  8
0
  6
Continuous
100
AcDbPolyline
 90
        2
 70
     0
 43
0.0
 10
16.9308261871
 20
21.6383457184
 10
17.0234375
 20
21.7309570313
  0
LWPOLYLINE
  5
B103
330
AE26
100
AcDbEntity
  8
0
  6
Continuous
100
AcDbPolyline
 90
        2
 70
     0
 43
0.0
 10
16.93318367
 20
21.6336326599
 10
17.0234375
 20
21.7238845825
  0
LWPOLYLINE
  5
B104
330
AE26
100
AcDbEntity
  8
0
  6
Continuous
100
AcDbPolyline
 90
        2
 70
     0
 43
0.0
 10
16.935541153
 20
21.6289176941
 10
17.0234375
 20
21.7168140411
  0
LWPOLYLINE
  5
B105
330
AE26
100
AcDbEntity
  8
0
  6
Continuous
100
AcDbPolyline
 90
        2
 70
     0
 43
0.0
 10
16.9378986359
 20
21.6242027283
 10
17.0234375
 20
21.7097434998
  0
LWPOLYLINE
  5
B106
330
AE26
100
AcDbEntity
  8
0
  6
Continuous
100
AcDbPolyline
 90
        2
 70
     0
 43
0.0
 10
16.9402561188
 20
21.6194896698
 10
17.0234375
 20
21.702671051
  0
LWPOLYLINE
  5
B107
330
AE26
100
AcDbEntity
  8
0
  6
Continuous
100
AcDbPolyline
 90
        2
 70
     0
 43
0.0
 10
16.9426116943
 20
21.614774704
 10
17.0234375
 20
21.6956005096
  0
LWPOLYLINE
  5
B108
330
AE26
100
AcDbEntity
  8
0
  6
Continuous
100
AcDbPolyline
 90
        2
 70
     0
 43
0.0
 10
16.9449691772
 20
21.6100616455
 10
17.0234375
 20
21.6885299683
  0
LWPOLYLINE
  5
B109
330
AE26
100
AcDbEntity
  8
0
  6
Continuous
100
AcDbPolyline
 90
        2
 70
     0
 43
0.0
 10
16.9473266602
 20
21.6053466797
 10
17.0294780731
 20
21.6875
  0
LWPOLYLINE
  5
B10A
330
AE26
100
AcDbEntity
  8
0
  6
Continuous
100
AcDbPolyline
 90
        2
 70
     0
 43
0.0
 10
16.9496841431
 20
21.6006336212
 10
17.0365505219
 20
21.6875
  0
LWPOLYLINE
  5
B10B
330
AE26
100
AcDbEntity
  8
0
  6
Continuous
100
AcDbPolyline
 90
        2
 70
     0
 43
0.0
 10
16.9520397186
 20
21.5959186554
 10
17.0436210632
 20
21.6875
  0
LWPOLYLINE
  5
B10C
330
AE26
100
AcDbEntity
  8
0
  6
Continuous
100
AcDbPolyline
 90
        2
 70
     0
 43
0.0
 10
16.9543972015
 20
21.5912055969
 10
17.0506916046
 20
21.6875
  0
LWPOLYLINE
  5
B10D
330
AE26
100
AcDbEntity
  8
0
  6
Continuous
100
AcDbPolyline
 90
        2
 70
     0
 43
0.0
 10
16.9567546844
 20
21.5864906311
 10
17.057762146
 20
21.6875
  0
LWPOLYLINE
  5
B10E
330
AE26
100
AcDbEntity
  8
0
  6
Continuous
100
AcDbPolyline
 90
        2
 70
     0
 43
0.0
 10
16.9591121674
 20
21.5817775726
 10
17.0648345947
 20
21.6875
  0
LWPOLYLINE
  5
B10F
330
AE26
100
AcDbEntity
  8
0
  6
Continuous
100
AcDbPolyline
 90
        2
 70
     0
 43
0.0
 10
16.9614677429
 20
21.5770626068
 10
17.0719051361
 20
21.6875
  0
LWPOLYLINE
  5
B110
330
AE26
100
AcDbEntity
  8
0
  6
Continuous
100
AcDbPolyline
 90
        2
 70
     0
 43
0.0
 10
16.9638252258
 20
21.5723495483
 10
17.0789756775
 20
21.6875
  0
LWPOLYLINE
  5
B111
330
AE26
100
AcDbEntity
  8
0
  6
Continuous
100
AcDbPolyline
 90
        2
 70
     0
 43
0.0
 10
16.9661827087
 20
21.5676345825
 10
17.0860481262
 20
21.6875
  0
LWPOLYLINE
  5
B112
330
AE26
100
AcDbEntity
  8
0
  6
Continuous
100
AcDbPolyline
 90
        2
 70
     0
 43
0.0
 10
16.9685401917
 20
21.562921524
 10
17.0931186676
 20
21.6875
  0
LWPOLYLINE
  5
B113
330
AE26
100
AcDbEntity
  8
0
  6
Continuous
100
AcDbPolyline
 90
        2
 70
     0
 43
0.0
 10
16.9708957672
 20
21.5582065582
 10
17.087310791
 20
21.674621582
  0
LWPOLYLINE
  5
B114
330
AE26
100
AcDbEntity
  8
0
  6
Continuous
100
AcDbPolyline
 90
        2
 70
     0
 43
0.0
 10
16.9732532501
 20
21.5534934998
 10
17.0802402496
 20
21.6604785919
  0
LWPOLYLINE
  5
B115
330
AE26
100
AcDbEntity
  8
0
  6
Continuous
100
AcDbPolyline
 90
        2
 70
     0
 43
0.0
 10
16.975610733
 20
21.5487785339
 10
17.0731678009
 20
21.6463375092
  0
LWPOLYLINE
  5
B116
330
AE26
100
AcDbEntity
  8
0
  6
Continuous
100
AcDbPolyline
 90
        2
 70
     0
 43
0.0
 10
16.9779682159
 20
21.5440654755
 10
17.0660972595
 20
21.632194519
  0
LWPOLYLINE
  5
B117
330
AE26
100
AcDbEntity
  8
0
  6
Continuous
100
AcDbPolyline
 90
        2
 70
     0
 43
0.0
 10
16.9803237915
 20
21.5393505096
 10
17.0590267181
 20
21.6180534363
  0
LWPOLYLINE
  5
B118
330
AE26
100
AcDbEntity
  8
0
  6
Continuous
100
AcDbPolyline
 90
        2
 70
     0
 43
0.0
 10
16.9826812744
 20
21.5346374512
 10
17.0519542694
 20
21.6039104462
  0
LWPOLYLINE
  5
B119
330
AE26
100
AcDbEntity
  8
0
  6
Continuous
100
AcDbPolyline
 90
        2
 70
     0
 43
0.0
 10
16.9850387573
 20
21.5299224854
 10
17.044883728
 20
21.5897674561
  0
LWPOLYLINE
  5
B11A
330
AE26
100
AcDbEntity
  8
0
  6
Continuous
100
AcDbPolyline
 90
        2
 70
     0
 43
0.0
 10
16.9873962402
 20
21.5252094269
 10
17.0378131866
 20
21.5756263733
  0
LWPOLYLINE
  5
B11B
330
AE26
100
AcDbEntity
  8
0
  6
Continuous
100
AcDbPolyline
 90
        2
 70
     0
 43
0.0
 10
16.9897518158
 20
21.5204944611
 10
17.0307426453
 20
21.5614833832
  0
LWPOLYLINE
  5
B11C
330
AE26
100
AcDbEntity
  8
0
  6
Continuous
100
AcDbPolyline
 90
        2
 70
     0
 43
0.0
 10
16.99210929869999
 20
21.5157814026
 10
17.0236701965
 20
21.5473423004
  0
LWPOLYLINE
  5
B11D
330
AE26
100
AcDbEntity
  8
0
  6
Continuous
100
AcDbPolyline
 90
        2
 70
     0
 43
0.0
 10
16.9944667816
 20
21.5110664368
 10
17.0165996552
 20
21.5331993103
  0
LWPOLYLINE
  5
B11E
330
AE26
100
AcDbEntity
  8
0
  6
Continuous
100
AcDbPolyline
 90
        2
 70
     0
 43
0.0
 10
16.9968242645
 20
21.5063533783
 10
17.0095291138
 20
21.5190582275
  0
LWPOLYLINE
  5
B11F
330
AE26
100
AcDbEntity
  8
0
  6
Continuous
100
AcDbPolyline
 90
        2
 70
     0
 43
0.0
 10
16.9991798401
 20
21.5016384125
 10
17.0024585724
 20
21.5049152374
  0
LWPOLYLINE
  5
B120
330
AE26
100
AcDbEntity
  8
0
  6
Continuous
100
AcDbPolyline
 90
        3
 70
     0
 43
0.0
 10
16.9765625
 20
0.125
 10
17.0234375
 20
0.125
 10
17.0234375
 20
0.3125
  0
LWPOLYLINE
  5
B121
330
AE26
100
AcDbEntity
  8
0
  6
Continuous
100
AcDbPolyline
 90
        2
 70
     0
 43
0.0
 10
16.9765625
 20
0.3125
 10
16.9765625
 20
0.125
  0
LWPOLYLINE
  5
B122
330
AE26
100
AcDbEntity
  8
0
  6
Continuous
100
AcDbPolyline
 90
        2
 70
     0
 43
0.0
 10
16.90625
 20
0.3125
 10
16.9765625
 20
0.3125
  0
LWPOLYLINE
  5
B123
330
AE26
100
AcDbEntity
  8
0
  6
Continuous
100
AcDbPolyline
 90
        2
 70
     0
 43
0.0
 10
17.0
 20
0.5
 10
16.90625
 20
0.3125
  0
LWPOLYLINE
  5
B124
330
AE26
100
AcDbEntity
  8
0
  6
Continuous
100
AcDbPolyline
 90
        2
 70
     0
 43
0.0
 10
17.09375
 20
0.3125
 10
17.0
 20
0.5
  0
LWPOLYLINE
  5
B125
330
AE26
100
AcDbEntity
  8
0
  6
Continuous
100
AcDbPolyline
 90
        2
 70
     0
 43
0.0
 10
17.0234375
 20
0.3125
 10
17.09375
 20
0.3125
  0
LWPOLYLINE
  5
B126
330
AE26
100
AcDbEntity
  8
0
  6
Continuous
100
AcDbPolyline
 90
        2
 70
     0
 43
0.0
 10
33.5047149658
 20
10.9976425171
 10
33.5141410828
 20
11.0070714951
  0
LWPOLYLINE
  5
B127
330
AE26
100
AcDbEntity
  8
0
  6
Continuous
100
AcDbPolyline
 90
        2
 70
     0
 43
0.0
 10
33.5094299316
 20
10.9952859879
 10
33.5282859802
 20
11.0141420364
  0
LWPOLYLINE
  5
B128
330
AE26
100
AcDbEntity
  8
0
  6
Continuous
100
AcDbPolyline
 90
        2
 70
     0
 43
0.0
 10
33.5141410828
 20
10.9929285049
 10
33.54242706300001
 20
11.0212135315
  0
LWPOLYLINE
  5
B129
330
AE26
100
AcDbEntity
  8
0
  6
Continuous
100
AcDbPolyline
 90
        2
 70
     0
 43
0.0
 10
33.5188560486
 20
10.9905719757
 10
33.5565681458
 20
11.0282840729
  0
LWPOLYLINE
  5
B12A
330
AE26
100
AcDbEntity
  8
0
  6
Continuous
100
AcDbPolyline
 90
        2
 70
     0
 43
0.0
 10
33.5235710144
 20
10.9882144928
 10
33.5707092285
 20
11.0353555679
  0
LWPOLYLINE
  5
B12B
330
AE26
100
AcDbEntity
  8
0
  6
Continuous
100
AcDbPolyline
 90
        2
 70
     0
 43
0.0
 10
33.5282859802
 20
10.9858579636
 10
33.584854126
 20
11.0424261093
  0
LWPOLYLINE
  5
B12C
330
AE26
100
AcDbEntity
  8
0
  6
Continuous
100
AcDbPolyline
 90
        2
 70
     0
 43
0.0
 10
33.5329971313
 20
10.9835004807
 10
33.5989952087
 20
11.0494976044
  0
LWPOLYLINE
  5
B12D
330
AE26
100
AcDbEntity
  8
0
  6
Continuous
100
AcDbPolyline
 90
        2
 70
     0
 43
0.0
 10
33.5377120972
 20
10.9811439514
 10
33.6131362915
 20
11.0565681458
  0
LWPOLYLINE
  5
B12E
330
AE26
100
AcDbEntity
  8
0
  6
Continuous
100
AcDbPolyline
 90
        2
 70
     0
 43
0.0
 10
33.54242706300001
 20
10.9787864685
 10
33.6272773743
 20
11.0636396408
  0
LWPOLYLINE
  5
B12F
330
AE26
100
AcDbEntity
  8
0
  6
Continuous
100
AcDbPolyline
 90
        2
 70
     0
 43
0.0
 10
33.5471420288
 20
10.9764299393
 10
33.6414222717
 20
11.0707111359
  0
LWPOLYLINE
  5
B130
330
AE26
100
AcDbEntity
  8
0
  6
Continuous
100
AcDbPolyline
 90
        2
 70
     0
 43
0.0
 10
33.5518531799
 20
10.9740724564
 10
33.6555633545
 20
11.0777816772
  0
LWPOLYLINE
  5
B131
330
AE26
100
AcDbEntity
  8
0
  6
Continuous
100
AcDbPolyline
 90
        2
 70
     0
 43
0.0
 10
33.5565681458
 20
10.9717159271
 10
33.6697044373
 20
11.0848531723
  0
LWPOLYLINE
  5
B132
330
AE26
100
AcDbEntity
  8
0
  6
Continuous
100
AcDbPolyline
 90
        2
 70
     0
 43
0.0
 10
33.5612831116
 20
10.9693584442
 10
33.6838493347
 20
11.0919237137
  0
LWPOLYLINE
  5
B133
330
AE26
100
AcDbEntity
  8
0
  6
Continuous
100
AcDbPolyline
 90
        2
 70
     0
 43
0.0
 10
33.5659980774
 20
10.967001915
 10
33.6875
 20
11.0885047913
  0
LWPOLYLINE
  5
B134
330
AE26
100
AcDbEntity
  8
0
  6
Continuous
100
AcDbPolyline
 90
        2
 70
     0
 43
0.0
 10
33.5707092285
 20
10.9646444321
 10
33.6875
 20
11.0814342499
  0
LWPOLYLINE
  5
B135
330
AE26
100
AcDbEntity
  8
0
  6
Continuous
100
AcDbPolyline
 90
        2
 70
     0
 43
0.0
 10
33.5754241943
 20
10.9622879028
 10
33.6875
 20
11.0743627548
  0
LWPOLYLINE
  5
B136
330
AE26
100
AcDbEntity
  8
0
  6
Continuous
100
AcDbPolyline
 90
        2
 70
     0
 43
0.0
 10
33.5801391602
 20
10.9599304199
 10
33.6875
 20
11.0672922134
  0
LWPOLYLINE
  5
B137
330
AE26
100
AcDbEntity
  8
0
  6
Continuous
100
AcDbPolyline
 90
        2
 70
     0
 43
0.0
 10
33.584854126
 20
10.9575738907
 10
33.6875
 20
11.0602207184
  0
LWPOLYLINE
  5
B138
330
AE26
100
AcDbEntity
  8
0
  6
Continuous
100
AcDbPolyline
 90
        2
 70
     0
 43
0.0
 10
33.5895652771
 20
10.9552164078
 10
33.6875
 20
11.053150177
  0
LWPOLYLINE
  5
B139
330
AE26
100
AcDbEntity
  8
0
  6
Continuous
100
AcDbPolyline
 90
        2
 70
     0
 43
0.0
 10
33.5942802429
 20
10.9528598785
 10
33.6875
 20
11.0460786819
  0
LWPOLYLINE
  5
B13A
330
AE26
100
AcDbEntity
  8
0
  6
Continuous
100
AcDbPolyline
 90
        2
 70
     0
 43
0.0
 10
33.5989952087
 20
10.9505023956
 10
33.6875
 20
11.0390071869
  0
LWPOLYLINE
  5
B13B
330
AE26
100
AcDbEntity
  8
0
  6
Continuous
100
AcDbPolyline
 90
        2
 70
     0
 43
0.0
 10
33.6037101746
 20
10.9481458664
 10
33.6875
 20
11.0319366455
  0
LWPOLYLINE
  5
B13C
330
AE26
100
AcDbEntity
  8
0
  6
Continuous
100
AcDbPolyline
 90
        2
 70
     0
 43
0.0
 10
33.6084213257
 20
10.9457883835
 10
33.6875
 20
11.0248651505
  0
LWPOLYLINE
  5
B13D
330
AE26
100
AcDbEntity
  8
0
  6
Continuous
100
AcDbPolyline
 90
        2
 70
     0
 43
0.0
 10
33.6131362915
 20
10.9434318542
 10
33.6931419373
 20
11.0234375
  0
LWPOLYLINE
  5
B13E
330
AE26
100
AcDbEntity
  8
0
  6
Continuous
100
AcDbPolyline
 90
        2
 70
     0
 43
0.0
 10
33.6178512573
 20
10.9410743713
 10
33.700214386
 20
11.0234375
  0
LWPOLYLINE
  5
B13F
330
AE26
100
AcDbEntity
  8
0
  6
Continuous
100
AcDbPolyline
 90
        2
 70
     0
 43
0.0
 10
33.6225662231
 20
10.9387178421
 10
33.7072868347
 20
11.0234375
  0
LWPOLYLINE
  5
B140
330
AE26
100
AcDbEntity
  8
0
  6
Continuous
100
AcDbPolyline
 90
        2
 70
     0
 43
0.0
 10
33.6272773743
 20
10.9363603592
 10
33.7143554688
 20
11.0234375
  0
LWPOLYLINE
  5
B141
330
AE26
100
AcDbEntity
  8
0
  6
Continuous
100
AcDbPolyline
 90
        2
 70
     0
 43
0.0
 10
33.6319923401
 20
10.93400383
 10
33.7214279175
 20
11.0234375
  0
LWPOLYLINE
  5
B142
330
AE26
100
AcDbEntity
  8
0
  6
Continuous
100
AcDbPolyline
 90
        2
 70
     0
 43
0.0
 10
33.6367073059
 20
10.931646347
 10
33.7285003662
 20
11.0234375
  0
LWPOLYLINE
  5
B143
330
AE26
100
AcDbEntity
  8
0
  6
Continuous
100
AcDbPolyline
 90
        2
 70
     0
 43
0.0
 10
33.6414222717
 20
10.9292888641
 10
33.6875
 20
10.9753675461
  0
LWPOLYLINE
  5
B144
330
AE26
100
AcDbEntity
  8
0
  6
Continuous
100
AcDbPolyline
 90
        2
 70
     0
 43
0.0
 10
33.6886940002
 20
10.9765625
 10
33.7355690002
 20
11.0234375
  0
LWPOLYLINE
  5
B145
330
AE26
100
AcDbEntity
  8
0
  6
Continuous
100
AcDbPolyline
 90
        2
 70
     0
 43
0.0
 10
33.6461372375
 20
10.9269323349
 10
33.6875
 20
10.9682970047
  0
LWPOLYLINE
  5
B146
330
AE26
100
AcDbEntity
  8
0
  6
Continuous
100
AcDbPolyline
 90
        2
 70
     0
 43
0.0
 10
33.695766449
 20
10.9765625
 10
33.74264144900001
 20
11.0234375
  0
LWPOLYLINE
  5
B147
330
AE26
100
AcDbEntity
  8
0
  6
Continuous
100
AcDbPolyline
 90
        2
 70
     0
 43
0.0
 10
33.6508483887
 20
10.924574852
 10
33.6875
 20
10.9612255096
  0
LWPOLYLINE
  5
B148
330
AE26
100
AcDbEntity
  8
0
  6
Continuous
100
AcDbPolyline
 90
        2
 70
     0
 43
0.0
 10
33.702835083
 20
10.9765625
 10
33.74971008300001
 20
11.0234375
  0
LWPOLYLINE
  5
B149
330
AE26
100
AcDbEntity
  8
0
  6
Continuous
100
AcDbPolyline
 90
        2
 70
     0
 43
0.0
 10
33.6555633545
 20
10.9222183228
 10
33.6875
 20
10.9541549683
  0
LWPOLYLINE
  5
B14A
330
AE26
100
AcDbEntity
  8
0
  6
Continuous
100
AcDbPolyline
 90
        2
 70
     0
 43
0.0
 10
33.7099075317
 20
10.9765625
 10
33.75678253170001
 20
11.0234375
  0
LWPOLYLINE
  5
B14B
330
AE26
100
AcDbEntity
  8
0
  6
Continuous
100
AcDbPolyline
 90
        2
 70
     0
 43
0.0
 10
33.6602783203
 20
10.9198608398
 10
33.6875
 20
10.9470834732
  0
LWPOLYLINE
  5
B14C
330
AE26
100
AcDbEntity
  8
0
  6
Continuous
100
AcDbPolyline
 90
        2
 70
     0
 43
0.0
 10
33.7169799805
 20
10.9765625
 10
33.7638549805
 20
11.0234375
  0
LWPOLYLINE
  5
B14D
330
AE26
100
AcDbEntity
  8
0
  6
Continuous
100
AcDbPolyline
 90
        2
 70
     0
 43
0.0
 10
33.6649932861
 20
10.9175043106
 10
33.6875
 20
10.9400129318
  0
LWPOLYLINE
  5
B14E
330
AE26
100
AcDbEntity
  8
0
  6
Continuous
100
AcDbPolyline
 90
        2
 70
     0
 43
0.0
 10
33.7240486145
 20
10.9765625
 10
33.7709236145
 20
11.0234375
  0
LWPOLYLINE
  5
B14F
330
AE26
100
AcDbEntity
  8
0
  6
Continuous
100
AcDbPolyline
 90
        2
 70
     0
 43
0.0
 10
33.6697044373
 20
10.9151468277
 10
33.6875
 20
10.9329414368
  0
LWPOLYLINE
  5
B150
330
AE26
100
AcDbEntity
  8
0
  6
Continuous
100
AcDbPolyline
 90
        2
 70
     0
 43
0.0
 10
33.7311210632
 20
10.9765625
 10
33.7779960632
 20
11.0234375
  0
LWPOLYLINE
  5
B151
330
AE26
100
AcDbEntity
  8
0
  6
Continuous
100
AcDbPolyline
 90
        2
 70
     0
 43
0.0
 10
33.6744194031
 20
10.9127902985
 10
33.6875
 20
10.9258708954
  0
LWPOLYLINE
  5
B152
330
AE26
100
AcDbEntity
  8
0
  6
Continuous
100
AcDbPolyline
 90
        2
 70
     0
 43
0.0
 10
33.738193512
 20
10.9765625
 10
33.785068512
 20
11.0234375
  0
LWPOLYLINE
  5
B153
330
AE26
100
AcDbEntity
  8
0
  6
Continuous
100
AcDbPolyline
 90
        2
 70
     0
 43
0.0
 10
33.6791343689
 20
10.9104328156
 10
33.6875
 20
10.9187994003
  0
LWPOLYLINE
  5
B154
330
AE26
100
AcDbEntity
  8
0
  6
Continuous
100
AcDbPolyline
 90
        2
 70
     0
 43
0.0
 10
33.745262146
 20
10.9765625
 10
33.792137146
 20
11.0234375
  0
LWPOLYLINE
  5
B155
330
AE26
100
AcDbEntity
  8
0
  6
Continuous
100
AcDbPolyline
 90
        2
 70
     0
 43
0.0
 10
33.6838493347
 20
10.9080762863
 10
33.6875
 20
10.9117279053
  0
LWPOLYLINE
  5
B156
330
AE26
100
AcDbEntity
  8
0
  6
Continuous
100
AcDbPolyline
 90
        2
 70
     0
 43
0.0
 10
33.75233459469999
 20
10.9765625
 10
33.7992095947
 20
11.0234375
  0
LWPOLYLINE
  5
B157
330
AE26
100
AcDbEntity
  8
0
  6
Continuous
100
AcDbPolyline
 90
        2
 70
     0
 43
0.0
 10
33.7594070435
 20
10.9765625
 10
33.8062820435
 20
11.0234375
  0
LWPOLYLINE
  5
B158
330
AE26
100
AcDbEntity
  8
0
  6
Continuous
100
AcDbPolyline
 90
        2
 70
     0
 43
0.0
 10
33.7664756775
 20
10.9765625
 10
33.8133506775
 20
11.0234375
  0
LWPOLYLINE
  5
B159
330
AE26
100
AcDbEntity
  8
0
  6
Continuous
100
AcDbPolyline
 90
        2
 70
     0
 43
0.0
 10
33.7735481262
 20
10.9765625
 10
33.8204231262
 20
11.0234375
  0
LWPOLYLINE
  5
B15A
330
AE26
100
AcDbEntity
  8
0
  6
Continuous
100
AcDbPolyline
 90
        2
 70
     0
 43
0.0
 10
33.7806167603
 20
10.9765625
 10
33.8274917603
 20
11.0234375
  0
LWPOLYLINE
  5
B15B
330
AE26
100
AcDbEntity
  8
0
  6
Continuous
100
AcDbPolyline
 90
        2
 70
     0
 43
0.0
 10
33.787689209
 20
10.9765625
 10
33.834564209
 20
11.0234375
  0
LWPOLYLINE
  5
B15C
330
AE26
100
AcDbEntity
  8
0
  6
Continuous
100
AcDbPolyline
 90
        2
 70
     0
 43
0.0
 10
33.7947616577
 20
10.9765625
 10
33.8416366577
 20
11.0234375
  0
LWPOLYLINE
  5
B15D
330
AE26
100
AcDbEntity
  8
0
  6
Continuous
100
AcDbPolyline
 90
        2
 70
     0
 43
0.0
 10
33.8018302917
 20
10.9765625
 10
33.8487052917
 20
11.0234375
  0
LWPOLYLINE
  5
B15E
330
AE26
100
AcDbEntity
  8
0
  6
Continuous
100
AcDbPolyline
 90
        2
 70
     0
 43
0.0
 10
33.8089027405
 20
10.9765625
 10
33.85577774050001
 20
11.0234375
  0
LWPOLYLINE
  5
B15F
330
AE26
100
AcDbEntity
  8
0
  6
Continuous
100
AcDbPolyline
 90
        2
 70
     0
 43
0.0
 10
33.8159751892
 20
10.9765625
 10
33.86285018920001
 20
11.0234375
  0
LWPOLYLINE
  5
B160
330
AE26
100
AcDbEntity
  8
0
  6
Continuous
100
AcDbPolyline
 90
        2
 70
     0
 43
0.0
 10
33.8230438232
 20
10.9765625
 10
33.8699188232
 20
11.0234375
  0
LWPOLYLINE
  5
B161
330
AE26
100
AcDbEntity
  8
0
  6
Continuous
100
AcDbPolyline
 90
        2
 70
     0
 43
0.0
 10
33.830116272
 20
10.9765625
 10
33.875
 20
11.021446228
  0
LWPOLYLINE
  5
B162
330
AE26
100
AcDbEntity
  8
0
  6
Continuous
100
AcDbPolyline
 90
        2
 70
     0
 43
0.0
 10
33.8371887207
 20
10.9765625
 10
33.875
 20
11.0143756866
  0
LWPOLYLINE
  5
B163
330
AE26
100
AcDbEntity
  8
0
  6
Continuous
100
AcDbPolyline
 90
        2
 70
     0
 43
0.0
 10
33.8442573547
 20
10.9765625
 10
33.875
 20
11.0073041916
  0
LWPOLYLINE
  5
B164
330
AE26
100
AcDbEntity
  8
0
  6
Continuous
100
AcDbPolyline
 90
        2
 70
     0
 43
0.0
 10
33.8513298035
 20
10.9765625
 10
33.875
 20
11.0002336502
  0
LWPOLYLINE
  5
B165
330
AE26
100
AcDbEntity
  8
0
  6
Continuous
100
AcDbPolyline
 90
        2
 70
     0
 43
0.0
 10
33.8583984375
 20
10.9765625
 10
33.875
 20
10.9931621552
  0
LWPOLYLINE
  5
B166
330
AE26
100
AcDbEntity
  8
0
  6
Continuous
100
AcDbPolyline
 90
        2
 70
     0
 43
0.0
 10
33.8654708862
 20
10.9765625
 10
33.875
 20
10.9860916138
  0
LWPOLYLINE
  5
B167
330
AE26
100
AcDbEntity
  8
0
  6
Continuous
100
AcDbPolyline
 90
        2
 70
     0
 43
0.0
 10
33.872543335
 20
10.9765625
 10
33.875
 20
10.9790201187
  0
LWPOLYLINE
  5
B168
330
AE26
100
AcDbEntity
  8
0
  6
Continuous
100
AcDbPolyline
 90
        3
 70
     0
 43
0.0
 10
33.875
 20
10.9765625
 10
33.875
 20
11.0234375
 10
33.6875
 20
11.0234375
  0
LWPOLYLINE
  5
B169
330
AE26
100
AcDbEntity
  8
0
  6
Continuous
100
AcDbPolyline
 90
        2
 70
     0
 43
0.0
 10
33.6875
 20
10.9765625
 10
33.875
 20
10.9765625
  0
LWPOLYLINE
  5
B16A
330
AE26
100
AcDbEntity
  8
0
  6
Continuous
100
AcDbPolyline
 90
        2
 70
     0
 43
0.0
 10
33.6875
 20
10.90625
 10
33.6875
 20
10.9765625
  0
LWPOLYLINE
  5
B16B
330
AE26
100
AcDbEntity
  8
0
  6
Continuous
100
AcDbPolyline
 90
        2
 70
     0
 43
0.0
 10
33.5
 20
11.0
 10
33.6875
 20
10.90625
  0
LWPOLYLINE
  5
B16C
330
AE26
100
AcDbEntity
  8
0
  6
Continuous
100
AcDbPolyline
 90
        2
 70
     0
 43
0.0
 10
33.6875
 20
11.09375
 10
33.5
 20
11.0
  0
LWPOLYLINE
  5
B16D
330
AE26
100
AcDbEntity
  8
0
  6
Continuous
100
AcDbPolyline
 90
        2
 70
     0
 43
0.0
 10
33.6875
 20
11.0234375
 10
33.6875
 20
11.09375
  0
LWPOLYLINE
  5
B16E
330
AE26
100
AcDbEntity
  8
0
  6
Continuous
100
AcDbPolyline
 90
        2
 70
     0
 43
0.0
 10
0.125
 20
11.0163660049
 10
0.1320710629
 20
11.0234375
  0
LWPOLYLINE
  5
B16F
330
AE26
100
AcDbEntity
  8
0
  6
Continuous
100
AcDbPolyline
 90
        2
 70
     0
 43
0.0
 10
0.125
 20
11.0092954636
 10
0.1391421407
 20
11.0234375
  0
LWPOLYLINE
  5
B170
330
AE26
100
AcDbEntity
  8
0
  6
Continuous
100
AcDbPolyline
 90
        2
 70
     0
 43
0.0
 10
0.125
 20
11.0022239685
 10
0.1462132037
 20
11.0234375
  0
LWPOLYLINE
  5
B171
330
AE26
100
AcDbEntity
  8
0
  6
Continuous
100
AcDbPolyline
 90
        2
 70
     0
 43
0.0
 10
0.125
 20
10.9951534271
 10
0.1532842666
 20
11.0234375
  0
LWPOLYLINE
  5
B172
330
AE26
100
AcDbEntity
  8
0
  6
Continuous
100
AcDbPolyline
 90
        2
 70
     0
 43
0.0
 10
0.125
 20
10.9880819321
 10
0.1603553444
 20
11.0234375
  0
LWPOLYLINE
  5
B173
330
AE26
100
AcDbEntity
  8
0
  6
Continuous
100
AcDbPolyline
 90
        2
 70
     0
 43
0.0
 10
0.125
 20
10.9810113907
 10
0.1674264073
 20
11.0234375
  0
LWPOLYLINE
  5
B174
330
AE26
100
AcDbEntity
  8
0
  6
Continuous
100
AcDbPolyline
 90
        2
 70
     0
 43
0.0
 10
0.1276224703
 20
10.9765625
 10
0.1744974703
 20
11.0234375
  0
LWPOLYLINE
  5
B175
330
AE26
100
AcDbEntity
  8
0
  6
Continuous
100
AcDbPolyline
 90
        2
 70
     0
 43
0.0
 10
0.1346935481
 20
10.9765625
 10
0.1815685481
 20
11.0234375
  0
LWPOLYLINE
  5
B176
330
AE26
100
AcDbEntity
  8
0
  6
Continuous
100
AcDbPolyline
 90
        2
 70
     0
 43
0.0
 10
0.141764611
 20
10.9765625
 10
0.188639611
 20
11.0234375
  0
LWPOLYLINE
  5
B177
330
AE26
100
AcDbEntity
  8
0
  6
Continuous
100
AcDbPolyline
 90
        2
 70
     0
 43
0.0
 10
0.1488356739
 20
10.9765625
 10
0.1957106739
 20
11.0234375
  0
LWPOLYLINE
  5
B178
330
AE26
100
AcDbEntity
  8
0
  6
Continuous
100
AcDbPolyline
 90
        2
 70
     0
 43
0.0
 10
0.1559067369
 20
10.9765625
 10
0.2027817369
 20
11.0234375
  0
LWPOLYLINE
  5
B179
330
AE26
100
AcDbEntity
  8
0
  6
Continuous
100
AcDbPolyline
 90
        2
 70
     0
 43
0.0
 10
0.1629778147
 20
10.9765625
 10
0.2098528147
 20
11.0234375
  0
LWPOLYLINE
  5
B17A
330
AE26
100
AcDbEntity
  8
0
  6
Continuous
100
AcDbPolyline
 90
        2
 70
     0
 43
0.0
 10
0.1700488776
 20
10.9765625
 10
0.2169238776
 20
11.0234375
  0
LWPOLYLINE
  5
B17B
330
AE26
100
AcDbEntity
  8
0
  6
Continuous
100
AcDbPolyline
 90
        2
 70
     0
 43
0.0
 10
0.1771199405
 20
10.9765625
 10
0.2239949405
 20
11.0234375
  0
LWPOLYLINE
  5
B17C
330
AE26
100
AcDbEntity
  8
0
  6
Continuous
100
AcDbPolyline
 90
        2
 70
     0
 43
0.0
 10
0.1841910183
 20
10.9765625
 10
0.2310660183
 20
11.0234375
  0
LWPOLYLINE
  5
B17D
330
AE26
100
AcDbEntity
  8
0
  6
Continuous
100
AcDbPolyline
 90
        2
 70
     0
 43
0.0
 10
0.1912620813
 20
10.9765625
 10
0.2381370813
 20
11.0234375
  0
LWPOLYLINE
  5
B17E
330
AE26
100
AcDbEntity
  8
0
  6
Continuous
100
AcDbPolyline
 90
        2
 70
     0
 43
0.0
 10
0.1983331442
 20
10.9765625
 10
0.2452081442
 20
11.0234375
  0
LWPOLYLINE
  5
B17F
330
AE26
100
AcDbEntity
  8
0
  6
Continuous
100
AcDbPolyline
 90
        2
 70
     0
 43
0.0
 10
0.3125
 20
11.0907297134
 10
0.3145137727
 20
11.0927429199
  0
LWPOLYLINE
  5
B180
330
AE26
100
AcDbEntity
  8
0
  6
Continuous
100
AcDbPolyline
 90
        2
 70
     0
 43
0.0
 10
0.205404222
 20
10.9765625
 10
0.2522792219999999
 20
11.0234375
  0
LWPOLYLINE
  5
B181
330
AE26
100
AcDbEntity
  8
0
  6
Continuous
100
AcDbPolyline
 90
        2
 70
     0
 43
0.0
 10
0.3125
 20
11.0836582184
 10
0.3192278147
 20
11.0903863907
  0
LWPOLYLINE
  5
B182
330
AE26
100
AcDbEntity
  8
0
  6
Continuous
100
AcDbPolyline
 90
        2
 70
     0
 43
0.0
 10
0.2124752849
 20
10.9765625
 10
0.2593502998
 20
11.0234375
  0
LWPOLYLINE
  5
B183
330
AE26
100
AcDbEntity
  8
0
  6
Continuous
100
AcDbPolyline
 90
        2
 70
     0
 43
0.0
 10
0.3125
 20
11.076587677
 10
0.3239418566
 20
11.0880289078
  0
LWPOLYLINE
  5
B184
330
AE26
100
AcDbEntity
  8
0
  6
Continuous
100
AcDbPolyline
 90
        2
 70
     0
 43
0.0
 10
0.2195463479
 20
10.9765625
 10
0.2664213479
 20
11.0234375
  0
LWPOLYLINE
  5
B185
330
AE26
100
AcDbEntity
  8
0
  6
Continuous
100
AcDbPolyline
 90
        2
 70
     0
 43
0.0
 10
0.3125
 20
11.0695161819
 10
0.3286558986
 20
11.08567237849999
  0
LWPOLYLINE
  5
B186
330
AE26
100
AcDbEntity
  8
0
  6
Continuous
100
AcDbPolyline
 90
        2
 70
     0
 43
0.0
 10
0.2266174257
 20
10.9765625
 10
0.2734924257
 20
11.0234375
  0
LWPOLYLINE
  5
B187
330
AE26
100
AcDbEntity
  8
0
  6
Continuous
100
AcDbPolyline
 90
        2
 70
     0
 43
0.0
 10
0.3125
 20
11.0624446869
 10
0.3333699405
 20
11.0833148956
  0
LWPOLYLINE
  5
B188
330
AE26
100
AcDbEntity
  8
0
  6
Continuous
100
AcDbPolyline
 90
        2
 70
     0
 43
0.0
 10
0.2336884886
 20
10.9765625
 10
0.2805634737
 20
11.0234375
  0
LWPOLYLINE
  5
B189
330
AE26
100
AcDbEntity
  8
0
  6
Continuous
100
AcDbPolyline
 90
        2
 70
     0
 43
0.0
 10
0.3125
 20
11.0553741455
 10
0.3380839825
 20
11.0809583664
  0
LWPOLYLINE
  5
B18A
330
AE26
100
AcDbEntity
  8
0
  6
Continuous
100
AcDbPolyline
 90
        2
 70
     0
 43
0.0
 10
0.2407595515
 20
10.9765625
 10
0.2876345515
 20
11.0234375
  0
LWPOLYLINE
  5
B18B
330
AE26
100
AcDbEntity
  8
0
  6
Continuous
100
AcDbPolyline
 90
        2
 70
     0
 43
0.0
 10
0.3125
 20
11.0483026505
 10
0.3427980244
 20
11.0786008835
  0
LWPOLYLINE
  5
B18C
330
AE26
100
AcDbEntity
  8
0
  6
Continuous
100
AcDbPolyline
 90
        2
 70
     0
 43
0.0
 10
0.2478306293
 20
10.9765625
 10
0.2947056293
 20
11.0234375
  0
LWPOLYLINE
  5
B18D
330
AE26
100
AcDbEntity
  8
0
  6
Continuous
100
AcDbPolyline
 90
        2
 70
     0
 43
0.0
 10
0.3125
 20
11.0412321091
 10
0.3475120962
 20
11.0762443542
  0
LWPOLYLINE
  5
B18E
330
AE26
100
AcDbEntity
  8
0
  6
Continuous
100
AcDbPolyline
 90
        2
 70
     0
 43
0.0
 10
0.2549016774
 20
10.9765625
 10
0.3017766774
 20
11.0234375
  0
LWPOLYLINE
  5
B18F
330
AE26
100
AcDbEntity
  8
0
  6
Continuous
100
AcDbPolyline
 90
        2
 70
     0
 43
0.0
 10
0.3125
 20
11.034160614
 10
0.3522261381
 20
11.0738868713
  0
LWPOLYLINE
  5
B190
330
AE26
100
AcDbEntity
  8
0
  6
Continuous
100
AcDbPolyline
 90
        2
 70
     0
 43
0.0
 10
0.2619727552
 20
10.9765625
 10
0.3088477552
 20
11.0234375
  0
LWPOLYLINE
  5
B191
330
AE26
100
AcDbEntity
  8
0
  6
Continuous
100
AcDbPolyline
 90
        2
 70
     0
 43
0.0
 10
0.3125
 20
11.0270900726
 10
0.3569401801
 20
11.0715303421
  0
LWPOLYLINE
  5
B192
330
AE26
100
AcDbEntity
  8
0
  6
Continuous
100
AcDbPolyline
 90
        2
 70
     0
 43
0.0
 10
0.269043833
 20
10.9765625
 10
0.361654222
 20
11.0691728592
  0
LWPOLYLINE
  5
B193
330
AE26
100
AcDbEntity
  8
0
  6
Continuous
100
AcDbPolyline
 90
        2
 70
     0
 43
0.0
 10
0.276114881
 20
10.9765625
 10
0.366368264
 20
11.06681633
  0
LWPOLYLINE
  5
B194
330
AE26
100
AcDbEntity
  8
0
  6
Continuous
100
AcDbPolyline
 90
        2
 70
     0
 43
0.0
 10
0.2831859589
 20
10.9765625
 10
0.3710823059
 20
11.064458847
  0
LWPOLYLINE
  5
B195
330
AE26
100
AcDbEntity
  8
0
  6
Continuous
100
AcDbPolyline
 90
        2
 70
     0
 43
0.0
 10
0.2902570367
 20
10.9765625
 10
0.3757963479
 20
11.0621013641
  0
LWPOLYLINE
  5
B196
330
AE26
100
AcDbEntity
  8
0
  6
Continuous
100
AcDbPolyline
 90
        2
 70
     0
 43
0.0
 10
0.2973280847
 20
10.9765625
 10
0.3805103898
 20
11.0597448349
  0
LWPOLYLINE
  5
B197
330
AE26
100
AcDbEntity
  8
0
  6
Continuous
100
AcDbPolyline
 90
        2
 70
     0
 43
0.0
 10
0.3043991625
 20
10.9765625
 10
0.3852244318
 20
11.057387352
  0
LWPOLYLINE
  5
B198
330
AE26
100
AcDbEntity
  8
0
  6
Continuous
100
AcDbPolyline
 90
        2
 70
     0
 43
0.0
 10
0.3114702404
 20
10.9765625
 10
0.3899384737
 20
11.0550308228
  0
LWPOLYLINE
  5
B199
330
AE26
100
AcDbEntity
  8
0
  6
Continuous
100
AcDbPolyline
 90
        2
 70
     0
 43
0.0
 10
0.3125
 20
10.9705209732
 10
0.3946525455
 20
11.0526733398
  0
LWPOLYLINE
  5
B19A
330
AE26
100
AcDbEntity
  8
0
  6
Continuous
100
AcDbPolyline
 90
        2
 70
     0
 43
0.0
 10
0.3125
 20
10.9634504318
 10
0.3993665874
 20
11.0503168106
  0
LWPOLYLINE
  5
B19B
330
AE26
100
AcDbEntity
  8
0
  6
Continuous
100
AcDbPolyline
 90
        2
 70
     0
 43
0.0
 10
0.3125
 20
10.9563789368
 10
0.4040806293000001
 20
11.0479593277
  0
LWPOLYLINE
  5
B19C
330
AE26
100
AcDbEntity
  8
0
  6
Continuous
100
AcDbPolyline
 90
        2
 70
     0
 43
0.0
 10
0.3125
 20
10.9493083954
 10
0.4087946713
 20
11.0456027985
  0
LWPOLYLINE
  5
B19D
330
AE26
100
AcDbEntity
  8
0
  6
Continuous
100
AcDbPolyline
 90
        2
 70
     0
 43
0.0
 10
0.3125
 20
10.9422369003
 10
0.4135087132
 20
11.0432453156
  0
LWPOLYLINE
  5
B19E
330
AE26
100
AcDbEntity
  8
0
  6
Continuous
100
AcDbPolyline
 90
        2
 70
     0
 43
0.0
 10
0.3125
 20
10.9351654053
 10
0.4182227552000001
 20
11.0408887863
  0
LWPOLYLINE
  5
B19F
330
AE26
100
AcDbEntity
  8
0
  6
Continuous
100
AcDbPolyline
 90
        2
 70
     0
 43
0.0
 10
0.3125
 20
10.9280948639
 10
0.4229367971000001
 20
11.0385313034
  0
LWPOLYLINE
  5
B1A0
330
AE26
100
AcDbEntity
  8
0
  6
Continuous
100
AcDbPolyline
 90
        2
 70
     0
 43
0.0
 10
0.3125
 20
10.9210233688
 10
0.4276508391
 20
11.0361747742
  0
LWPOLYLINE
  5
B1A1
330
AE26
100
AcDbEntity
  8
0
  6
Continuous
100
AcDbPolyline
 90
        2
 70
     0
 43
0.0
 10
0.3125
 20
10.9139528275
 10
0.432364881
 20
11.0338172913
  0
LWPOLYLINE
  5
B1A2
330
AE26
100
AcDbEntity
  8
0
  6
Continuous
100
AcDbPolyline
 90
        2
 70
     0
 43
0.0
 10
0.3125
 20
10.9068813324
 10
0.4370789528000001
 20
11.031460762
  0
LWPOLYLINE
  5
B1A3
330
AE26
100
AcDbEntity
  8
0
  6
Continuous
100
AcDbPolyline
 90
        2
 70
     0
 43
0.0
 10
0.3253789544
 20
10.912689209
 10
0.4417929947000001
 20
11.0291032791
  0
LWPOLYLINE
  5
B1A4
330
AE26
100
AcDbEntity
  8
0
  6
Continuous
100
AcDbPolyline
 90
        2
 70
     0
 43
0.0
 10
0.3395210803
 20
10.919760704
 10
0.4465070367
 20
11.0267467499
  0
LWPOLYLINE
  5
B1A5
330
AE26
100
AcDbEntity
  8
0
  6
Continuous
100
AcDbPolyline
 90
        2
 70
     0
 43
0.0
 10
0.3536632359
 20
10.9268312454
 10
0.4512210786
 20
11.024389267
  0
LWPOLYLINE
  5
B1A6
330
AE26
100
AcDbEntity
  8
0
  6
Continuous
100
AcDbPolyline
 90
        2
 70
     0
 43
0.0
 10
0.3678053617
 20
10.9339027405
 10
0.4559351206000001
 20
11.0220327377
  0
LWPOLYLINE
  5
B1A7
330
AE26
100
AcDbEntity
  8
0
  6
Continuous
100
AcDbPolyline
 90
        2
 70
     0
 43
0.0
 10
0.3819474876
 20
10.9409732819
 10
0.4606491625000001
 20
11.0196752548
  0
LWPOLYLINE
  5
B1A8
330
AE26
100
AcDbEntity
  8
0
  6
Continuous
100
AcDbPolyline
 90
        2
 70
     0
 43
0.0
 10
0.3960896432
 20
10.9480447769
 10
0.4653632045000001
 20
11.0173187256
  0
LWPOLYLINE
  5
B1A9
330
AE26
100
AcDbEntity
  8
0
  6
Continuous
100
AcDbPolyline
 90
        2
 70
     0
 43
0.0
 10
0.4102317691
 20
10.955116272
 10
0.4700772464
 20
11.0149612427
  0
LWPOLYLINE
  5
B1AA
330
AE26
100
AcDbEntity
  8
0
  6
Continuous
100
AcDbPolyline
 90
        2
 70
     0
 43
0.0
 10
0.4243738949000001
 20
10.9621868134
 10
0.4747912884
 20
11.0126047134
  0
LWPOLYLINE
  5
B1AB
330
AE26
100
AcDbEntity
  8
0
  6
Continuous
100
AcDbPolyline
 90
        2
 70
     0
 43
0.0
 10
0.4385160506
 20
10.9692583084
 10
0.4795053601000001
 20
11.0102472305
  0
LWPOLYLINE
  5
B1AC
330
AE26
100
AcDbEntity
  8
0
  6
Continuous
100
AcDbPolyline
 90
        2
 70
     0
 43
0.0
 10
0.4526581764000001
 20
10.9763288498
 10
0.4842194021
 20
11.0078907013
  0
LWPOLYLINE
  5
B1AD
330
AE26
100
AcDbEntity
  8
0
  6
Continuous
100
AcDbPolyline
 90
        2
 70
     0
 43
0.0
 10
0.4668003023
 20
10.9834003448
 10
0.488933444
 20
11.0055332184
  0
LWPOLYLINE
  5
B1AE
330
AE26
100
AcDbEntity
  8
0
  6
Continuous
100
AcDbPolyline
 90
        2
 70
     0
 43
0.0
 10
0.4809424281
 20
10.9904708862
 10
0.4936474860000001
 20
11.0031766891
  0
LWPOLYLINE
  5
B1AF
330
AE26
100
AcDbEntity
  8
0
  6
Continuous
100
AcDbPolyline
 90
        2
 70
     0
 43
0.0
 10
0.4950845838000001
 20
10.9975423813
 10
0.4983615279000001
 20
11.0008192062
  0
LWPOLYLINE
  5
B1B0
330
AE26
100
AcDbEntity
  8
0
  6
Continuous
100
AcDbPolyline
 90
        3
 70
     0
 43
0.0
 10
17.0234375
 20
21.875
 10
16.9765625
 20
21.875
 10
16.9765625
 20
21.6875
  0
LWPOLYLINE
  5
B1B1
330
AE26
100
AcDbEntity
  8
0
  6
Continuous
100
AcDbPolyline
 90
        2
 70
     0
 43
0.0
 10
17.0234375
 20
21.6875
 10
17.0234375
 20
21.875
  0
LWPOLYLINE
  5
B1B2
330
AE26
100
AcDbEntity
  8
0
  6
Continuous
100
AcDbPolyline
 90
        2
 70
     0
 43
0.0
 10
17.09375
 20
21.6875
 10
17.0234375
 20
21.6875
  0
LWPOLYLINE
  5
B1B3
330
AE26
100
AcDbEntity
  8
0
  6
Continuous
100
AcDbPolyline
 90
        2
 70
     0
 43
0.0
 10
17.0
 20
21.5
 10
17.09375
 20
21.6875
  0
LWPOLYLINE
  5
B1B4
330
AE26
100
AcDbEntity
  8
0
  6
Continuous
100
AcDbPolyline
 90
        2
 70
     0
 43
0.0
 10
16.90625
 20
21.6875
 10
17.0
 20
21.5
  0
LWPOLYLINE
  5
B1B5
330
AE26
100
AcDbEntity
  8
0
  6
Continuous
100
AcDbPolyline
 90
        2
 70
     0
 43
0.0
 10
16.9765625
 20
21.6875
 10
16.90625
 20
21.6875
  0
LWPOLYLINE
  5
B1B6
330
AE26
100
AcDbEntity
  8
0
  6
Continuous
100
AcDbPolyline
 90
        2
 70
     0
 43
0.0
 10
29.75
 20
0.4375
 10
29.75
 20
0.0625
  0
LWPOLYLINE
  5
B1B7
330
AE26
100
AcDbEntity
  8
0
  6
Continuous
100
AcDbPolyline
 90
        2
 70
     0
 43
0.0
 10
12.75
 20
0.4375
 10
12.75
 20
0.0625
  0
LWPOLYLINE
  5
B1B8
330
AE26
100
AcDbEntity
  8
0
  6
Continuous
100
AcDbPolyline
 90
        2
 70
     0
 43
0.0
 10
8.5
 20
0.4375
 10
8.5
 20
0.0625
  0
LWPOLYLINE
  5
B1B9
330
AE26
100
AcDbEntity
  8
0
  6
Continuous
100
AcDbPolyline
 90
        2
 70
     0
 43
0.0
 10
21.25
 20
0.4375
 10
21.25
 20
0.0625
  0
LWPOLYLINE
  5
B1BA
330
AE26
100
AcDbEntity
  8
0
  6
Continuous
100
AcDbPolyline
 90
        2
 70
     0
 43
0.0
 10
25.5
 20
0.4375
 10
25.5
 20
0.0625
  0
LWPOLYLINE
  5
B1BB
330
AE26
100
AcDbEntity
  8
0
  6
Continuous
100
AcDbPolyline
 90
        2
 70
     0
 43
0.0
 10
4.25
 20
0.4375
 10
4.25
 20
0.0625
  0
TEXT
  5
B1BC
330
AE26
100
AcDbEntity
  8
0
100
AcDbText
 10
33.625
 20
2.625
 30
0.0
 40
0.25
  1
A
  7
ROMANK
100
AcDbText
  0
LWPOLYLINE
  5
B1BD
330
AE26
100
AcDbEntity
  8
0
  6
Continuous
100
AcDbPolyline
 90
        2
 70
     0
 43
0.0
 10
33.9375
 20
5.5
 10
33.5625
 20
5.5
  0
LWPOLYLINE
  5
B1BE
330
AE26
100
AcDbEntity
  8
0
  6
Continuous
100
AcDbPolyline
 90
        2
 70
     0
 43
0.0
 10
33.9375
 20
16.5
 10
33.5625
 20
16.5
  0
LWPOLYLINE
  5
B1BF
330
AE26
100
AcDbEntity
  8
0
  6
Continuous
100
AcDbPolyline
 90
        2
 70
     0
 43
0.0
 10
23.0
 20
3.703125
 10
23.0
 20
0.5
  0
TEXT
  5
B1C0
330
AE26
100
AcDbEntity
  8
0
100
AcDbText
 10
19.03571428571428
 20
0.125
 30
0.0
 40
0.25
  1
4
  7
ROMANK
 72
     1
 11
19.125
 21
0.125
 31
0.0
100
AcDbText
  0
TEXT
  5
B1C1
330
AE26
100
AcDbEntity
  8
0
100
AcDbText
 10
23.29166666666667
 20
0.125
 30
0.0
 40
0.25
  1
3
  7
ROMANK
 72
     1
 11
23.375
 21
0.125
 31
0.0
100
AcDbText
  0
TEXT
  5
B1C2
330
AE26
100
AcDbEntity
  8
0
100
AcDbText
 10
27.54166666666667
 20
0.125
 30
0.0
 40
0.25
  1
2
  7
ROMANK
 72
     1
 11
27.625
 21
0.125
 31
0.0
100
AcDbText
  0
TEXT
  5
B1C3
330
AE26
100
AcDbEntity
  8
0
100
AcDbText
 10
31.8452380952381
 20
0.125
 30
0.0
 40
0.25
  1
1
  7
ROMANK
 72
     1
 11
31.875
 21
0.125
 31
0.0
100
AcDbText
  0
TEXT
  5
B1C4
330
AE26
100
AcDbEntity
  8
0
100
AcDbText
 10
2.041666666666666
 20
0.125
 30
0.0
 40
0.25
  1
8
  7
ROMANK
 72
     1
 11
2.125
 21
0.125
 31
0.0
100
AcDbText
  0
TEXT
  5
B1C5
330
AE26
100
AcDbEntity
  8
0
100
AcDbText
 10
6.291666666666666
 20
0.125
 30
0.0
 40
0.25
  1
7
  7
ROMANK
 72
     1
 11
6.375
 21
0.125
 31
0.0
100
AcDbText
  0
TEXT
  5
B1C6
330
AE26
100
AcDbEntity
  8
0
100
AcDbText
 10
10.54761904761905
 20
0.125
 30
0.0
 40
0.25
  1
6
  7
ROMANK
 72
     1
 11
10.625
 21
0.125
 31
0.0
100
AcDbText
  0
TEXT
  5
B1C7
330
AE26
100
AcDbEntity
  8
0
100
AcDbText
 10
14.79166666666666
 20
0.125
 30
0.0
 40
0.25
  1
5
  7
ROMANK
 72
     1
 11
14.875
 21
0.125
 31
0.0
100
AcDbText
  0
TEXT
  5
B1C8
330
AE26
100
AcDbEntity
  8
0
100
AcDbText
 10
33.625
 20
19.125
 30
0.0
 40
0.25
  1
D
  7
ROMANK
100
AcDbText
  0
TEXT
  5
B1C9
330
AE26
100
AcDbEntity
  8
0
100
AcDbText
 10
33.625
 20
13.625
 30
0.0
 40
0.25
  1
C
  7
ROMANK
100
AcDbText
  0
TEXT
  5
B1CA
330
AE26
100
AcDbEntity
  8
0
100
AcDbText
 10
33.625
 20
8.125
 30
0.0
 40
0.25
  1
B
  7
ROMANK
100
AcDbText
  0
TEXT
  5
B1CB
330
AE26
100
AcDbEntity
  8
0
100
AcDbText
 10
30.59146975032143
 20
1.8667360544
 30
0.0
 40
0.0781299993
  1
C
  7
ROMANK
 72
     1
 11
30.6193733215
 21
1.8667360544
 31
0.0
100
AcDbText
  0
TEXT
  5
B1CC
330
AE26
100
AcDbEntity
  8
0
100
AcDbText
 10
31.974615097
 20
3.3468942642
 30
0.0
 40
0.0781299993
  1
D.C.
 41
0.9200000000000001
  7
ROMANK
100
AcDbText
  0
ARC
  5
B1CD
330
AE26
100
AcDbEntity
  8
0
  6
Continuous
100
AcDbCircle
 10
30.8046875
 20
2.2742187977
 30
0.0
 40
0.0306562502
100
AcDbArc
 50
270.0000006832
 51
90.00000569219999
  0
LWPOLYLINE
  5
B1CE
330
AE26
100
AcDbEntity
  8
0
  6
Continuous
100
AcDbPolyline
 90
        2
 70
     0
 43
0.0
 10
33.5
 20
0.5
 10
0.5
 20
0.5
  0
LWPOLYLINE
  5
B1CF
330
AE26
100
AcDbEntity
  8
0
  6
Continuous
100
AcDbPolyline
 90
        2
 70
     0
 43
0.0
 10
33.5
 20
0.9312499761999999
 10
28.8671875
 20
0.9312499761999999
  0
LWPOLYLINE
  5
B1D0
330
AE26
100
AcDbEntity
  8
0
  6
Continuous
100
AcDbPolyline
 90
        2
 70
     0
 43
0.0
 10
33.5
 20
1.796875
 10
28.8671875
 20
1.796875
  0
LWPOLYLINE
  5
B1D1
330
AE26
100
AcDbEntity
  8
0
  6
Continuous
100
AcDbPolyline
 90
        2
 70
     0
 43
0.0
 10
28.8671875
 20
2.765625
 10
32.6640625
 20
2.765625
  0
LWPOLYLINE
  5
B1D2
330
AE26
100
AcDbEntity
  8
0
  6
Continuous
100
AcDbPolyline
 90
        2
 70
     0
 43
0.0
 10
28.8671875
 20
3.109375
 10
32.6640625
 20
3.109375
  0
LWPOLYLINE
  5
B1D3
330
AE26
100
AcDbEntity
  8
0
  6
Continuous
100
AcDbPolyline
 90
        2
 70
     0
 43
0.0
 10
23.0
 20
3.453125
 10
33.5
 20
3.453125
  0
LWPOLYLINE
  5
B1D4
330
AE26
100
AcDbEntity
  8
0
  6
Continuous
100
AcDbPolyline
 90
        2
 70
     0
 43
0.0
 10
23.0
 20
3.703125
 10
33.5
 20
3.703125
  0
LWPOLYLINE
  5
B1D5
330
AE26
100
AcDbEntity
  8
0
  6
Continuous
100
AcDbPolyline
 90
        2
 70
     0
 43
0.0
 10
28.8671875
 20
0.5
 10
28.8671875
 20
3.453125
  0
LWPOLYLINE
  5
B1D6
330
AE26
100
AcDbEntity
  8
0
  6
Continuous
100
AcDbPolyline
 90
        2
 70
     0
 43
0.0
 10
32.9921875
 20
1.796875
 10
32.9921875
 20
0.5
  0
LWPOLYLINE
  5
B1D7
330
AE26
100
AcDbEntity
  8
0
  6
Continuous
100
AcDbPolyline
 90
        2
 70
     0
 43
0.0
 10
33.2265625
 20
0.6875
 10
33.2265625
 20
0.5
  0
LWPOLYLINE
  5
B1D8
330
AE26
100
AcDbEntity
  8
0
  6
Continuous
100
AcDbPolyline
 90
        2
 70
     0
 43
0.0
 10
29.8984375
 20
3.109375
 10
29.8984375
 20
2.765625
  0
LWPOLYLINE
  5
B1D9
330
AE26
100
AcDbEntity
  8
0
  6
Continuous
100
AcDbPolyline
 90
        2
 70
     0
 43
0.0
 10
31.2265625
 20
3.453125
 10
31.2265625
 20
3.109375
  0
LWPOLYLINE
  5
B1DA
330
AE26
100
AcDbEntity
  8
0
  6
Continuous
100
AcDbPolyline
 90
        2
 70
     0
 43
0.0
 10
30.9609375
 20
3.109375
 10
30.9609375
 20
2.765625
  0
LWPOLYLINE
  5
B1DB
330
AE26
100
AcDbEntity
  8
0
  6
Continuous
100
AcDbPolyline
 90
        2
 70
     0
 43
0.0
 10
31.9453125
 20
3.453125
 10
31.9453125
 20
2.421875
  0
LWPOLYLINE
  5
B1DC
330
AE26
100
AcDbEntity
  8
0
  6
Continuous
100
AcDbPolyline
 90
        2
 70
     0
 43
0.0
 10
33.5
 20
2.421875
 10
28.8671875
 20
2.421875
  0
LWPOLYLINE
  5
B1DD
330
AE26
100
AcDbEntity
  8
0
  6
Continuous
100
AcDbPolyline
 90
        2
 70
     0
 43
0.0
 10
33.5
 20
2.96875
 10
32.6640625
 20
2.96875
  0
LWPOLYLINE
  5
B1DE
330
AE26
100
AcDbEntity
  8
0
  6
Continuous
100
AcDbPolyline
 90
        2
 70
     0
 43
0.0
 10
27.5078125
 20
3.703125
 10
27.5078125
 20
0.5
  0
LWPOLYLINE
  5
B1DF
330
AE26
100
AcDbEntity
  8
0
  6
Continuous
100
AcDbPolyline
 90
        2
 70
     0
 43
0.0
 10
27.5078125
 20
1.625
 10
28.8671875
 20
1.625
  0
LWPOLYLINE
  5
B1E0
330
AE26
100
AcDbEntity
  8
0
  6
Continuous
100
AcDbPolyline
 90
        2
 70
     0
 43
0.0
 10
27.5078125
 20
0.765625
 10
23.0
 20
0.765625
  0
LWPOLYLINE
  5
B1E1
330
AE26
100
AcDbEntity
  8
0
  6
Continuous
100
AcDbPolyline
 90
        2
 70
     0
 43
0.0
 10
27.5078125
 20
1.259374976199999
 10
23.0
 20
1.259374976199999
  0
LWPOLYLINE
  5
B1E2
330
AE26
100
AcDbEntity
  8
0
  6
Continuous
100
AcDbPolyline
 90
        2
 70
     0
 43
0.0
 10
27.5078125
 20
1.015625
 10
23.0
 20
1.015625
  0
LWPOLYLINE
  5
B1E3
330
AE26
100
AcDbEntity
  8
0
  6
Continuous
100
AcDbPolyline
 90
        2
 70
     0
 43
0.0
 10
27.5078125
 20
1.503124952299999
 10
23.0
 20
1.503124952299999
  0
LWPOLYLINE
  5
B1E4
330
AE26
100
AcDbEntity
  8
0
  6
Continuous
100
AcDbPolyline
 90
        2
 70
     0
 43
0.0
 10
27.5078125
 20
1.7468750477
 10
23.0
 20
1.7468750477
  0
LWPOLYLINE
  5
B1E5
330
AE26
100
AcDbEntity
  8
0
  6
Continuous
100
AcDbPolyline
 90
        2
 70
     0
 43
0.0
 10
27.5078125
 20
1.9906250238
 10
23.0
 20
1.9906250238
  0
LWPOLYLINE
  5
B1E6
330
AE26
100
AcDbEntity
  8
0
  6
Continuous
100
AcDbPolyline
 90
        2
 70
     0
 43
0.0
 10
27.5078125
 20
2.234375
 10
23.0
 20
2.234375
  0
LWPOLYLINE
  5
B1E7
330
AE26
100
AcDbEntity
  8
0
  6
Continuous
100
AcDbPolyline
 90
        2
 70
     0
 43
0.0
 10
27.5078125
 20
2.478125095399999
 10
23.0
 20
2.478125095399999
  0
LWPOLYLINE
  5
B1E8
330
AE26
100
AcDbEntity
  8
0
  6
Continuous
100
AcDbPolyline
 90
        2
 70
     0
 43
0.0
 10
27.5078125
 20
2.7218749523
 10
23.0
 20
2.7218749523
  0
LWPOLYLINE
  5
B1E9
330
AE26
100
AcDbEntity
  8
0
  6
Continuous
100
AcDbPolyline
 90
        2
 70
     0
 43
0.0
 10
27.5078125
 20
2.965625047699999
 10
23.0
 20
2.965625047699999
  0
LWPOLYLINE
  5
B1EA
330
AE26
100
AcDbEntity
  8
0
  6
Continuous
100
AcDbPolyline
 90
        2
 70
     0
 43
0.0
 10
27.5078125
 20
3.209374904599999
 10
23.0
 20
3.209374904599999
  0
LWPOLYLINE
  5
B1EB
330
AE26
100
AcDbEntity
  8
0
  6
Continuous
100
AcDbPolyline
 90
        2
 70
     0
 43
0.0
 10
23.5859375
 20
3.453125
 10
23.5859375
 20
0.765625
  0
LWPOLYLINE
  5
B1EC
330
AE26
100
AcDbEntity
  8
0
  6
Continuous
100
AcDbPolyline
 90
        2
 70
     0
 43
0.0
 10
24.2265625
 20
0.765625
 10
24.2265625
 20
3.453125
  0
LWPOLYLINE
  5
B1ED
330
AE26
100
AcDbEntity
  8
0
  6
Continuous
100
AcDbPolyline
 90
        2
 70
     0
 43
0.0
 10
24.7890625
 20
0.765625
 10
24.7890625
 20
3.453125
  0
LWPOLYLINE
  5
B1EE
330
AE26
100
AcDbEntity
  8
0
  6
Continuous
100
AcDbPolyline
 90
        2
 70
     0
 43
0.0
 10
26.8671875
 20
0.765625
 10
26.8671875
 20
3.453125
  0
LWPOLYLINE
  5
B1EF
330
AE26
100
AcDbEntity
  8
0
  6
Continuous
100
AcDbPolyline
 90
        2
 70
     0
 43
0.0
 10
31.6484375
 20
2.421875
 10
31.6484375
 20
1.796875
  0
LWPOLYLINE
  5
B1F0
330
AE26
100
AcDbEntity
  8
0
  6
Continuous
100
AcDbPolyline
 90
        2
 70
     0
 43
0.0
 10
33.5
 20
21.5
 10
0.5
 20
21.5
  0
LWPOLYLINE
  5
B1F1
330
AE26
100
AcDbEntity
  8
0
  6
Continuous
100
AcDbPolyline
 90
        2
 70
     0
 43
0.0
 10
32.6640625
 20
3.453125
 10
32.6640625
 20
2.421875
  0
LWPOLYLINE
  5
B1F2
330
AE26
100
AcDbEntity
  8
0
  6
Continuous
100
AcDbPolyline
 90
        2
 70
     0
 43
0.0
 10
32.9696884155
 20
2.578125
 10
33.0851249695
 20
2.578125
  0
LWPOLYLINE
  5
B1F3
330
AE26
100
AcDbEntity
  8
0
  6
Continuous
100
AcDbPolyline
 90
        2
 70
     0
 43
0.0
 10
32.9696884155
 20
2.8125
 10
33.078086853
 20
2.8125
  0
LWPOLYLINE
  5
B1F4
330
AE26
100
AcDbEntity
  8
0
  6
Continuous
100
AcDbPolyline
 90
        2
 70
     0
 43
0.0
 10
32.9696884155
 20
2.578125
 10
32.9696884155
 20
2.8125
  0
LWPOLYLINE
  5
B1F5
330
AE26
100
AcDbEntity
  8
0
  6
Continuous
100
AcDbPolyline
 90
        2
 70
     0
 43
0.0
 10
31.6484375
 20
2.265625
 10
33.5
 20
2.265625
  0
LWPOLYLINE
  5
B1F6
330
AE26
100
AcDbEntity
  8
0
  6
Continuous
100
AcDbPolyline
 90
        2
 70
     0
 43
0.0
 10
31.9867172241
 20
2.046875
 10
32.31441497800001
 20
2.046875
  0
LWPOLYLINE
  5
B1F7
330
AE26
100
AcDbEntity
  8
0
  6
Continuous
100
AcDbPolyline
 90
        2
 70
     0
 43
0.0
 10
32.1484375
 20
2.206065177899999
 10
32.1484375
 20
1.8852436543
  0
CIRCLE
  5
B1F8
330
AE26
100
AcDbEntity
  8
0
  6
Continuous
100
AcDbCircle
 10
32.1484375
 20
2.046875
 30
0.0
 40
0.078125
  0
CIRCLE
  5
B1F9
330
AE26
100
AcDbEntity
  8
0
  6
Continuous
100
AcDbCircle
 10
32.1484375
 20
2.046875
 30
0.0
 40
0.140625
  0
LWPOLYLINE
  5
B1FA
330
AE26
100
AcDbEntity
  8
0
  6
Continuous
100
AcDbPolyline
 90
        5
 70
     0
 43
0.0
 10
32.9921875
 20
2.1875
 10
32.6484375
 20
2.125
 10
32.6484375
 20
1.96875
 10
32.9921875
 20
1.90625
 10
32.9921875
 20
2.1875
  0
LWPOLYLINE
  5
B1FB
330
AE26
100
AcDbEntity
  8
0
  6
Continuous
100
AcDbPolyline
 90
        2
 70
     0
 43
0.0
 10
32.3648300171
 20
2.046875
 10
32.4175338745
 20
2.046875
  0
LWPOLYLINE
  5
B1FC
330
AE26
100
AcDbEntity
  8
0
  6
Continuous
100
AcDbPolyline
 90
        2
 70
     0
 43
0.0
 10
32.4702415466
 20
2.046875
 10
33.0431365967
 20
2.046875
  0
LWPOLYLINE
  5
B1FD
330
AE26
100
AcDbEntity
  8
0
  6
Continuous
100
AcDbPolyline
 90
        3
 70
     0
 43
0.0
 10
29.5546875
 20
2.078125
 10
29.5546875
 20
2.359375
 10
29.6216869354
 20
2.359375
  0
LWPOLYLINE
  5
B1FE
330
AE26
100
AcDbEntity
  8
0
  6
Continuous
100
AcDbPolyline
 90
        2
 70
     0
 43
0.0
 10
29.5546875
 20
2.078125
 10
29.6216869354
 20
2.078125
  0
LWPOLYLINE
  5
B1FF
330
AE26
100
AcDbEntity
  8
0
  6
Continuous
100
AcDbPolyline
 90
        3
 70
     0
 43
0.0
 10
29.8046875
 20
2.359375
 10
29.6796875
 20
2.234375
 10
29.8046875
 20
2.078125
  0
CIRCLE
  5
B200
330
AE26
100
AcDbEntity
  8
0
  6
Continuous
100
AcDbCircle
 10
29.9140625
 20
2.21875
 30
0.0
 40
0.0736249983
  0
LWPOLYLINE
  5
B201
330
AE26
100
AcDbEntity
  8
0
  6
Continuous
100
AcDbPolyline
 90
        2
 70
     0
 43
0.0
 10
29.7188854218
 20
2.078125
 10
29.8046875
 20
2.078125
  0
CIRCLE
  5
B202
330
AE26
100
AcDbEntity
  8
0
  6
Continuous
100
AcDbCircle
 10
29.9140625
 20
2.21875
 30
0.0
 40
0.140625
  0
LWPOLYLINE
  5
B203
330
AE26
100
AcDbEntity
  8
0
  6
Continuous
100
AcDbPolyline
 90
        2
 70
     0
 43
0.0
 10
29.6216869354
 20
2.078125
 10
29.6216869354
 20
2.1996226311
  0
LWPOLYLINE
  5
B204
330
AE26
100
AcDbEntity
  8
0
  6
Continuous
100
AcDbPolyline
 90
        2
 70
     0
 43
0.0
 10
29.709936142
 20
2.359375
 10
29.6216869354
 20
2.271127224
  0
LWPOLYLINE
  5
B205
330
AE26
100
AcDbEntity
  8
0
  6
Continuous
100
AcDbPolyline
 90
        2
 70
     0
 43
0.0
 10
29.6216869354
 20
2.1996226311
 10
29.7188854218
 20
2.078125
  0
LWPOLYLINE
  5
B206
330
AE26
100
AcDbEntity
  8
0
  6
Continuous
100
AcDbPolyline
 90
        2
 70
     0
 43
0.0
 10
29.709936142
 20
2.359375
 10
29.8046875
 20
2.359375
  0
LWPOLYLINE
  5
B207
330
AE26
100
AcDbEntity
  8
0
  6
Continuous
100
AcDbPolyline
 90
        2
 70
     0
 43
0.0
 10
29.6216869354
 20
2.359375
 10
29.6216869354
 20
2.271127224
  0
LWPOLYLINE
  5
B208
330
AE26
100
AcDbEntity
  8
0
  6
Continuous
100
AcDbPolyline
 90
        2
 70
     0
 43
0.0
 10
30.0859375
 20
2.359375
 10
30.0859375
 20
2.078125
  0
LWPOLYLINE
  5
B209
330
AE26
100
AcDbEntity
  8
0
  6
Continuous
100
AcDbPolyline
 90
        2
 70
     0
 43
0.0
 10
30.1529369354
 20
2.078125
 10
30.1529369354
 20
2.200875043899999
  0
LWPOLYLINE
  5
B20A
330
AE26
100
AcDbEntity
  8
0
  6
Continuous
100
AcDbPolyline
 90
        2
 70
     0
 43
0.0
 10
30.1529369354
 20
2.2678749561
 10
30.1529369354
 20
2.359375
  0
LWPOLYLINE
  5
B20B
330
AE26
100
AcDbEntity
  8
0
  6
Continuous
100
AcDbPolyline
 90
        2
 70
     0
 43
0.0
 10
30.2310619354
 20
2.078125
 10
30.2310619354
 20
2.200875043899999
  0
LWPOLYLINE
  5
B20C
330
AE26
100
AcDbEntity
  8
0
  6
Continuous
100
AcDbPolyline
 90
        2
 70
     0
 43
0.0
 10
30.2310619354
 20
2.2678749561
 10
30.2310619354
 20
2.359375
  0
LWPOLYLINE
  5
B20D
330
AE26
100
AcDbEntity
  8
0
  6
Continuous
100
AcDbPolyline
 90
        2
 70
     0
 43
0.0
 10
30.2980632782
 20
2.359375
 10
30.2980632782
 20
2.078125
  0
LWPOLYLINE
  5
B20E
330
AE26
100
AcDbEntity
  8
0
  6
Continuous
100
AcDbPolyline
 90
        2
 70
     0
 43
0.0
 10
30.1529369354
 20
2.2678749561
 10
30.2310619354
 20
2.2678749561
  0
LWPOLYLINE
  5
B20F
330
AE26
100
AcDbEntity
  8
0
  6
Continuous
100
AcDbPolyline
 90
        2
 70
     0
 43
0.0
 10
30.1529369354
 20
2.200875043899999
 10
30.2310619354
 20
2.200875043899999
  0
LWPOLYLINE
  5
B210
330
AE26
100
AcDbEntity
  8
0
  6
Continuous
100
AcDbPolyline
 90
        2
 70
     0
 43
0.0
 10
30.2310619354
 20
2.078125
 10
30.2980632782
 20
2.078125
  0
LWPOLYLINE
  5
B211
330
AE26
100
AcDbEntity
  8
0
  6
Continuous
100
AcDbPolyline
 90
        2
 70
     0
 43
0.0
 10
30.0859375
 20
2.078125
 10
30.1529369354
 20
2.078125
  0
LWPOLYLINE
  5
B212
330
AE26
100
AcDbEntity
  8
0
  6
Continuous
100
AcDbPolyline
 90
        2
 70
     0
 43
0.0
 10
30.2310619354
 20
2.359375
 10
30.2980632782
 20
2.359375
  0
LWPOLYLINE
  5
B213
330
AE26
100
AcDbEntity
  8
0
  6
Continuous
100
AcDbPolyline
 90
        2
 70
     0
 43
0.0
 10
30.0859375
 20
2.359375
 10
30.1529369354
 20
2.359375
  0
LWPOLYLINE
  5
B214
330
AE26
100
AcDbEntity
  8
0
  6
Continuous
100
AcDbPolyline
 90
        2
 70
     0
 43
0.0
 10
30.3293132782
 20
2.359375
 10
30.3293132782
 20
2.078125
  0
LWPOLYLINE
  5
B215
330
AE26
100
AcDbEntity
  8
0
  6
Continuous
100
AcDbPolyline
 90
        2
 70
     0
 43
0.0
 10
30.4855632782
 20
2.1451249123
 10
30.4855632782
 20
2.078125
  0
LWPOLYLINE
  5
B216
330
AE26
100
AcDbEntity
  8
0
  6
Continuous
100
AcDbPolyline
 90
        2
 70
     0
 43
0.0
 10
30.3293132782
 20
2.078125
 10
30.4855632782
 20
2.078125
  0
LWPOLYLINE
  5
B217
330
AE26
100
AcDbEntity
  8
0
  6
Continuous
100
AcDbPolyline
 90
        2
 70
     0
 43
0.0
 10
30.3963127136
 20
2.1451249123
 10
30.3963127136
 20
2.359375
  0
LWPOLYLINE
  5
B218
330
AE26
100
AcDbEntity
  8
0
  6
Continuous
100
AcDbPolyline
 90
        2
 70
     0
 43
0.0
 10
30.3963127136
 20
2.1451249123
 10
30.4855632782
 20
2.1451249123
  0
LWPOLYLINE
  5
B219
330
AE26
100
AcDbEntity
  8
0
  6
Continuous
100
AcDbPolyline
 90
        2
 70
     0
 43
0.0
 10
30.3293132782
 20
2.359375
 10
30.3963127136
 20
2.359375
  0
LWPOLYLINE
  5
B21A
330
AE26
100
AcDbEntity
  8
0
  6
Continuous
100
AcDbPolyline
 90
        2
 70
     0
 43
0.0
 10
30.5168132782
 20
2.078125
 10
30.6730632782
 20
2.078125
  0
LWPOLYLINE
  5
B21B
330
AE26
100
AcDbEntity
  8
0
  6
Continuous
100
AcDbPolyline
 90
        2
 70
     0
 43
0.0
 10
30.6730632782
 20
2.1451249123
 10
30.6730632782
 20
2.078125
  0
LWPOLYLINE
  5
B21C
330
AE26
100
AcDbEntity
  8
0
  6
Continuous
100
AcDbPolyline
 90
        2
 70
     0
 43
0.0
 10
30.5838127136
 20
2.1451249123
 10
30.6730632782
 20
2.1451249123
  0
LWPOLYLINE
  5
B21D
330
AE26
100
AcDbEntity
  8
0
  6
Continuous
100
AcDbPolyline
 90
        2
 70
     0
 43
0.0
 10
30.5838127136
 20
2.193062543899999
 10
30.5838127136
 20
2.1451249123
  0
LWPOLYLINE
  5
B21E
330
AE26
100
AcDbEntity
  8
0
  6
Continuous
100
AcDbPolyline
 90
        2
 70
     0
 43
0.0
 10
30.5838127136
 20
2.292375087699999
 10
30.6730632782
 20
2.292375087699999
  0
LWPOLYLINE
  5
B21F
330
AE26
100
AcDbEntity
  8
0
  6
Continuous
100
AcDbPolyline
 90
        2
 70
     0
 43
0.0
 10
30.5168132782
 20
2.359375
 10
30.5168132782
 20
2.078125
  0
LWPOLYLINE
  5
B220
330
AE26
100
AcDbEntity
  8
0
  6
Continuous
100
AcDbPolyline
 90
        2
 70
     0
 43
0.0
 10
30.6730632782
 20
2.292375087699999
 10
30.6730632782
 20
2.359375
  0
LWPOLYLINE
  5
B221
330
AE26
100
AcDbEntity
  8
0
  6
Continuous
100
AcDbPolyline
 90
        2
 70
     0
 43
0.0
 10
30.5168132782
 20
2.359375
 10
30.6730632782
 20
2.359375
  0
LWPOLYLINE
  5
B222
330
AE26
100
AcDbEntity
  8
0
  6
Continuous
100
AcDbPolyline
 90
        3
 70
     0
 43
0.0
 10
30.5838127136
 20
2.2444374561
 10
30.6730632782
 20
2.2444374561
 10
30.6730632782
 20
2.193062543899999
  0
LWPOLYLINE
  5
B223
330
AE26
100
AcDbEntity
  8
0
  6
Continuous
100
AcDbPolyline
 90
        2
 70
     0
 43
0.0
 10
30.5838127136
 20
2.193062543899999
 10
30.6730632782
 20
2.193062543899999
  0
LWPOLYLINE
  5
B224
330
AE26
100
AcDbEntity
  8
0
  6
Continuous
100
AcDbPolyline
 90
        2
 70
     0
 43
0.0
 10
30.5838127136
 20
2.2444374561
 10
30.5838127136
 20
2.292375087699999
  0
LWPOLYLINE
  5
B225
330
AE26
100
AcDbEntity
  8
0
  6
Continuous
100
AcDbPolyline
 90
        2
 70
     0
 43
0.0
 10
30.7043132782
 20
2.078125
 10
30.7043132782
 20
2.359375
  0
LWPOLYLINE
  5
B226
330
AE26
100
AcDbEntity
  8
0
  6
Continuous
100
AcDbPolyline
 90
        2
 70
     0
 43
0.0
 10
30.7713127136
 20
2.1875
 10
30.7713127136
 20
2.078125
  0
ARC
  5
B227
330
AE26
100
AcDbEntity
  8
0
  6
Continuous
100
AcDbCircle
 10
33.0434379578
 20
2.6875
 30
0.0
 40
0.1427271962
100
AcDbArc
 50
347.2972515203
 51
35.8105313268
  0
ARC
  5
B228
330
AE26
100
AcDbEntity
  8
0
  6
Continuous
100
AcDbCircle
 10
33.0434379578
 20
2.6875
 30
0.0
 40
0.1028104797
100
AcDbArc
 50
347.3503630713
 51
35.7305463966
  0
ARC
  5
B229
330
AE26
100
AcDbEntity
  8
0
  6
Continuous
100
AcDbCircle
 10
30.8058757782
 20
2.2734375
 30
0.0
 40
0.0859375
100
AcDbArc
 50
304.1675575534
 51
90.00000569219999
  0
ARC
  5
B22A
330
AE26
100
AcDbEntity
  8
0
  6
Continuous
100
AcDbCircle
 10
33.078086853
 20
2.7125000954
 30
0.0
 40
0.1000000015
100
AcDbArc
 50
35.8102378561
 51
89.9999956743
  0
LWPOLYLINE
  5
B22B
330
AE26
100
AcDbEntity
  8
0
  6
Continuous
100
AcDbPolyline
 90
        2
 70
     0
 43
0.0
 10
30.8058757782
 20
2.359375
 10
30.7043132782
 20
2.359375
  0
ARC
  5
B22C
330
AE26
100
AcDbEntity
  8
0
  6
Continuous
100
AcDbCircle
 10
33.0781898499
 20
2.7125000954
 30
0.0
 40
0.0599999987
100
AcDbArc
 50
35.7305397937
 51
89.9999956743
  0
LWPOLYLINE
  5
B22D
330
AE26
100
AcDbEntity
  8
0
  6
Continuous
100
AcDbPolyline
 90
        2
 70
     0
 43
0.0
 10
30.8046875
 20
2.304874896999999
 10
30.7713127136
 20
2.304874896999999
  0
LWPOLYLINE
  5
B22E
330
AE26
100
AcDbEntity
  8
0
  6
Continuous
100
AcDbPolyline
 90
        2
 70
     0
 43
0.0
 10
30.854139328
 20
2.2023332119
 10
30.9230632782
 20
2.078125
  0
LWPOLYLINE
  5
B22F
330
AE26
100
AcDbEntity
  8
0
  6
Continuous
100
AcDbPolyline
 90
        2
 70
     0
 43
0.0
 10
30.8464393616
 20
2.078125
 10
30.7857456207
 20
2.1875
  0
LWPOLYLINE
  5
B230
330
AE26
100
AcDbEntity
  8
0
  6
Continuous
100
AcDbPolyline
 90
        2
 70
     0
 43
0.0
 10
30.7043132782
 20
2.078125
 10
30.7713127136
 20
2.078125
  0
LWPOLYLINE
  5
B231
330
AE26
100
AcDbEntity
  8
0
  6
Continuous
100
AcDbPolyline
 90
        2
 70
     0
 43
0.0
 10
30.8464393616
 20
2.078125
 10
30.9230632782
 20
2.078125
  0
LWPOLYLINE
  5
B232
330
AE26
100
AcDbEntity
  8
0
  6
Continuous
100
AcDbPolyline
 90
        2
 70
     0
 43
0.0
 10
30.8046875
 20
2.2435624599
 10
30.7713127136
 20
2.2435624599
  0
LWPOLYLINE
  5
B233
330
AE26
100
AcDbEntity
  8
0
  6
Continuous
100
AcDbPolyline
 90
        2
 70
     0
 43
0.0
 10
30.7713127136
 20
2.304874896999999
 10
30.7713127136
 20
2.2435624599
  0
ARC
  5
B234
330
AE26
100
AcDbEntity
  8
0
  6
Continuous
100
AcDbCircle
 10
33.0852088928
 20
2.6781249046
 30
0.0
 40
0.0599999987
100
AcDbArc
 50
270.0000006832
 51
347.3505543166
  0
LWPOLYLINE
  5
B235
330
AE26
100
AcDbEntity
  8
0
  6
Continuous
100
AcDbPolyline
 90
        2
 70
     0
 43
0.0
 10
30.7713127136
 20
2.1875
 10
30.7857456207
 20
2.1875
  0
ARC
  5
B236
330
AE26
100
AcDbEntity
  8
0
  6
Continuous
100
AcDbCircle
 10
33.0851249695
 20
2.6781249046
 30
0.0
 40
0.1000000015
100
AcDbArc
 50
270.0000006832
 51
347.2855309157
  0
LWPOLYLINE
  5
B237
330
AE26
100
AcDbEntity
  8
0
  6
Continuous
100
AcDbPolyline
 90
        3
 70
     0
 43
0.0
 10
33.0096893311
 20
2.7725000381
 10
33.0096893311
 20
2.618124961899999
 10
33.0852088928
 20
2.618124961899999
  0
LWPOLYLINE
  5
B238
330
AE26
100
AcDbEntity
  8
0
  6
Continuous
100
AcDbPolyline
 90
        2
 70
     0
 43
0.0
 10
33.0096893311
 20
2.7725000381
 10
33.0781898499
 20
2.7725000381
  0
TEXT
  5
B239
330
AE26
100
AcDbEntity
  8
0
100
AcDbText
 10
28.9165916443
 20
1.646554589299999
 30
0.0
 40
0.078125
  1
DESCRIPTION
 41
1.05
  7
ROMANK
100
AcDbText
  0
TEXT
  5
B23A
330
AE26
100
AcDbEntity
  8
0
100
AcDbText
 10
28.9183292389
 20
0.7800929545999999
 30
0.0
 40
0.078125
  1
DWG. NO.
 41
0.99
  7
ROMANK
100
AcDbText
  0
TEXT
  5
B23B
330
AE26
100
AcDbEntity
  8
0
100
AcDbText
 10
28.8971996307
 20
2.997637987099999
 30
0.0
 40
0.078125
  1
DRAWN
 41
1.04
  7
ROMANK
100
AcDbText
  0
TEXT
  5
B23C
330
AE26
100
AcDbEntity
  8
0
100
AcDbText
 10
33.1090625
 20
0.7828124762000001
 30
0.0
 40
0.09375
  1
SHT
 41
0.9399999999999998
  7
ROMANK
 72
     1
 11
33.2265625
 21
0.7828124762000001
 31
0.0
100
AcDbText
  0
TEXT
  5
B23D
330
AE26
100
AcDbEntity
  8
0
100
AcDbText
 10
32.9390625
 20
2.84375
 30
0.0
 40
0.09375
  1
DWG
 41
0.98
  7
ROMANK
 72
     1
 11
33.0703125
 21
2.84375
 31
0.0
100
AcDbText
  0
TEXT
  5
B23E
330
AE26
100
AcDbEntity
  8
0
100
AcDbText
 10
29.35089285714285
 20
2.546875
 30
0.0
 40
0.09375
  1
DO NOT SCALE DRAWING
 41
1.199999999999999
  7
ROMANK
 72
     1
 11
30.40625
 21
2.546875
 31
0.0
100
AcDbText
  0
TEXT
  5
B23F
330
AE26
100
AcDbEntity
  8
0
100
AcDbText
 10
29.10755208333333
 20
1.8671875
 30
0.0
 40
0.078125
  1
K HLER C . K HLER, WIS  NSIN 53044
 41
0.98
  7
ROMANK
 72
     1
 11
30.2578125
 21
1.8671875
 31
0.0
100
AcDbText
  0
TEXT
  5
B240
330
AE26
100
AcDbEntity
  8
0
100
AcDbText
 10
31.72154017857143
 20
2.3046875
 30
0.0
 40
0.078125
  1
THIRD ANGLE PROJECTION
 41
1.1
  7
ROMANK
 72
     1
 11
32.5625
 21
2.3046875
 31
0.0
100
AcDbText
  0
TEXT
  5
B241
330
AE26
100
AcDbEntity
  8
0
100
AcDbText
 10
27.5546875
 20
1.5
 30
0.0
 40
0.0625
  1
THIS DRAWING IN DESIGN
 41
1.02
  7
ROMANK
100
AcDbText
  0
TEXT
  5
B242
330
AE26
100
AcDbEntity
  8
0
100
AcDbText
 10
27.5546875
 20
1.384375095399999
 30
0.0
 40
0.0625
  1
AND DETAILS IS THE PROP-
 41
0.9399999999999998
  7
ROMANK
100
AcDbText
  0
TEXT
  5
B243
330
AE26
100
AcDbEntity
  8
0
100
AcDbText
 10
32.93823660714286
 20
2.453125
 30
0.0
 40
0.09375
  1
SIZE
 41
0.9699999999999999
  7
ROMANK
 72
     1
 11
33.0703125
 21
2.453125
 31
0.0
100
AcDbText
  0
TEXT
  5
B244
330
AE26
100
AcDbEntity
  8
0
100
AcDbText
 10
27.5546875
 20
1.269375085799999
 30
0.0
 40
0.0625
  1
ERTY OF KOHLER CO. 
 41
1.02
  7
ROMANK
100
AcDbText
  0
TEXT
  5
B245
330
AE26
100
AcDbEntity
  8
0
100
AcDbText
 10
27.5546875
 20
0.8093749284999999
 30
0.0
 40
0.0625
  1
ALL RIGHTS OF DESIGN
 41
1.04
  7
ROMANK
100
AcDbText
  0
TEXT
  5
B246
330
AE26
100
AcDbEntity
  8
0
100
AcDbText
 10
27.5546875
 20
0.6943749785
 30
0.0
 40
0.0625
  1
OR INVENTION ARE
 41
1.05
  7
ROMANK
100
AcDbText
  0
TEXT
  5
B247
330
AE26
100
AcDbEntity
  8
0
100
AcDbText
 10
27.5546875
 20
0.5793750286
 30
0.0
 40
0.0625
  1
RESERVED.
 41
1.05
  7
ROMANK
100
AcDbText
  0
TEXT
  5
B248
330
AE26
100
AcDbEntity
  8
0
100
AcDbText
 10
27.5546875
 20
1.157500028599999
 30
0.0
 40
0.0625
  1
AND MAY NOT BE USED
 41
1.04
  7
ROMANK
100
AcDbText
  0
TEXT
  5
B249
330
AE26
100
AcDbEntity
  8
0
100
AcDbText
 10
27.5546875
 20
1.0425000191
 30
0.0
 40
0.0625
  1
EXCEPT IN CONNECTION
 41
1.04
  7
ROMANK
100
AcDbText
  0
TEXT
  5
B24A
330
AE26
100
AcDbEntity
  8
0
100
AcDbText
 10
27.5546875
 20
0.9243749379999998
 30
0.0
 40
0.0625
  1
WITH KOHLER CO. WORK.
 41
1.01
  7
ROMANK
100
AcDbText
  0
TEXT
  5
B24B
330
AE26
100
AcDbEntity
  8
0
100
AcDbText
 10
29.937335968
 20
2.999684810599999
 30
0.0
 40
0.078125
  1
DATE
 41
1.09
  7
ROMANK
100
AcDbText
  0
TEXT
  5
B24C
330
AE26
100
AcDbEntity
  8
0
100
AcDbText
 10
30.9860248566
 20
2.9983518124
 30
0.0
 40
0.078125
  1
CHECKED
 41
0.99
  7
ROMANK
100
AcDbText
  0
TEXT
  5
B24D
330
AE26
100
AcDbEntity
  8
0
100
AcDbText
 10
31.9835186005
 20
2.999997138999999
 30
0.0
 40
0.078125
  1
DATE
 41
1.09
  7
ROMANK
100
AcDbText
  0
TEXT
  5
B24E
330
AE26
100
AcDbEntity
  8
0
100
AcDbText
 10
28.8928394318
 20
3.344244480099999
 30
0.0
 40
0.078125
  1
APPROVED
 41
1.07
  7
ROMANK
100
AcDbText
  0
TEXT
  5
B24F
330
AE26
100
AcDbEntity
  8
0
100
AcDbText
 10
31.2543258667
 20
3.342826128
 30
0.0
 40
0.078125
  1
DATE
 41
1.09
  7
ROMANK
100
AcDbText
  0
TEXT
  5
B250
330
AE26
100
AcDbEntity
  8
0
100
AcDbText
 10
27.6658840179
 20
2.2550001144
 30
0.0
 40
0.078125
  1
.X
 41
0.8
  7
ROMANK
100
AcDbText
  0
TEXT
  5
B251
330
AE26
100
AcDbEntity
  8
0
100
AcDbText
 10
27.6658840179
 20
2.6925001144
 30
0.0
 40
0.078125
  1
.XXX
 41
0.9699999999999999
  7
ROMANK
100
AcDbText
  0
TEXT
  5
B252
330
AE26
100
AcDbEntity
  8
0
100
AcDbText
 10
27.74135044642858
 20
3.296875
 30
0.0
 40
0.078125
  1
TOLERANCES
 41
1.229999999999999
  7
ROMANK
 72
     1
 11
28.1875
 21
3.296875
 31
0.0
100
AcDbText
  0
TEXT
  5
B253
330
AE26
100
AcDbEntity
  8
0
100
AcDbText
 10
27.6658840179
 20
2.4737501144
 30
0.0
 40
0.078125
  1
.XX
 41
0.9200000000000001
  7
ROMANK
100
AcDbText
  0
TEXT
  5
B254
330
AE26
100
AcDbEntity
  8
0
100
AcDbText
 10
32.6934280396
 20
3.3441352844
 30
0.0
 40
0.0783125013
  1
SCALE
 41
1.07
  7
ROMANK
100
AcDbText
  0
TEXT
  5
B255
330
AE26
100
AcDbEntity
  8
0
100
AcDbText
 10
27.97332589285714
 20
3.15625
 30
0.0
 40
0.078125
  1
UNLESS
 41
1.01
  7
ROMANK
 72
     1
 11
28.1875
 21
3.15625
 31
0.0
100
AcDbText
  0
TEXT
  5
B256
330
AE26
100
AcDbEntity
  8
0
100
AcDbText
 10
27.86443452380952
 20
3.015625
 30
0.0
 40
0.078125
  1
OTHERWISE
 41
1.04
  7
ROMANK
 72
     1
 11
28.1875
 21
3.015625
 31
0.0
100
AcDbText
  0
TEXT
  5
B257
330
AE26
100
AcDbEntity
  8
0
100
AcDbText
 10
27.90394345238095
 20
2.875
 30
0.0
 40
0.078125
  1
SPECIFIED
 41
1.03
  7
ROMANK
 72
     1
 11
28.1875
 21
2.875
 31
0.0
100
AcDbText
  0
TEXT
  5
B258
330
AE26
100
AcDbEntity
  8
0
100
AcDbText
 10
27.6658840179
 20
2.0362501144
 30
0.0
 40
0.078125
  1
ANG
  7
ROMANK
100
AcDbText
  0
TEXT
  5
B259
330
AE26
100
AcDbEntity
  8
0
100
AcDbText
 10
27.6658840179
 20
1.817500114399999
 30
0.0
 40
0.078125
  1
FRAC
 41
1.05
  7
ROMANK
100
AcDbText
  0
TEXT
  5
B25A
330
AE26
100
AcDbEntity
  8
0
100
AcDbText
 10
28.0601902008
 20
2.272960186
 30
0.0
 40
0.0625
  1
+
  7
ROMANK
100
AcDbText
  0
TEXT
  5
B25B
330
AE26
100
AcDbEntity
  8
0
100
AcDbText
 10
28.0601902008
 20
2.710460186
 30
0.0
 40
0.0625
  1
+
  7
ROMANK
100
AcDbText
  0
TEXT
  5
B25C
330
AE26
100
AcDbEntity
  8
0
100
AcDbText
 10
28.0601902008
 20
2.054210186
 30
0.0
 40
0.0625
  1
+
  7
ROMANK
100
AcDbText
  0
TEXT
  5
B25D
330
AE26
100
AcDbEntity
  8
0
100
AcDbText
 10
28.0601902008
 20
2.491710186
 30
0.0
 40
0.0625
  1
+
  7
ROMANK
100
AcDbText
  0
TEXT
  5
B25E
330
AE26
100
AcDbEntity
  8
0
100
AcDbText
 10
28.0601902008
 20
1.835460185999999
 30
0.0
 40
0.0625
  1
+
  7
ROMANK
100
AcDbText
  0
TEXT
  5
B25F
330
AE26
100
AcDbEntity
  8
0
100
AcDbText
 10
23.20677083333333
 20
0.8515625
 30
0.0
 40
0.078125
  1
SHT
 41
0.9399999999999998
  7
ROMANK
 72
     1
 11
23.3046875
 21
0.8515625
 31
0.0
100
AcDbText
  0
TEXT
  5
B260
330
AE26
100
AcDbEntity
  8
0
100
AcDbText
 10
23.82552083333333
 20
0.8515625
 30
0.0
 40
0.078125
  1
SYM
  7
ROMANK
 72
     1
 11
23.9296875
 21
0.8515625
 31
0.0
100
AcDbText
  0
TEXT
  5
B261
330
AE26
100
AcDbEntity
  8
0
100
AcDbText
 10
24.44105282738096
 20
0.8515625
 30
0.0
 40
0.078125
  1
BY
 41
0.9699999999999999
  7
ROMANK
 72
     1
 11
24.5078125
 21
0.8515625
 31
0.0
100
AcDbText
  0
TEXT
  5
B262
330
AE26
100
AcDbEntity
  8
0
100
AcDbText
 10
25.412109375
 20
0.8515625
 30
0.0
 40
0.078125
  1
DESCRIPTION
 41
1.05
  7
ROMANK
 72
     1
 11
25.7890625
 21
0.8515625
 31
0.0
100
AcDbText
  0
TEXT
  5
B263
330
AE26
100
AcDbEntity
  8
0
100
AcDbText
 10
27.05308779761905
 20
0.8515625
 30
0.0
 40
0.078125
  1
DATE
 41
1.09
  7
ROMANK
 72
     1
 11
27.203125
 21
0.8515625
 31
0.0
100
AcDbText
  0
TEXT
  5
B264
330
AE26
100
AcDbEntity
  8
0
100
AcDbText
 10
24.39107142857143
 20
0.59375
 30
0.0
 40
0.078125
  1
DWG REVISION RECORD
 41
1.379999999999999
  7
ROMANK
 72
     1
 11
25.3203125
 21
0.59375
 31
0.0
100
AcDbText
  0
TEXT
  5
B265
330
AE26
100
AcDbEntity
  8
0
100
AcDbText
 10
24.15767857142857
 20
3.5236251354
 30
0.0
 40
0.09375
  1
ALL DIMENSIONS IN
 41
1.179999999999999
  7
ROMANK
 72
     1
 11
24.953125
 21
3.5236251354
 31
0.0
100
AcDbText
  0
TEXT
  5
B266
330
AE26
100
AcDbEntity
  8
0
100
AcDbText
 10
25.95732142857143
 20
3.5242500305
 30
0.0
 40
0.09375
  1
In.
 41
0.7800000000000001
  7
ROMANK
 72
     1
 11
26.0078125
 21
3.5242500305
 31
0.0
100
AcDbText
  0
TEXT
  5
B267
330
AE26
100
AcDbEntity
  8
0
100
AcDbText
 10
26.24401785714286
 20
3.53125
 30
0.0
 40
0.09375
  1
mm.
 41
0.89
  7
ROMANK
 72
     1
 11
26.3671875
 21
3.53125
 31
0.0
100
AcDbText
  0
LWPOLYLINE
  5
B268
330
AE26
100
AcDbEntity
  8
0
  6
Continuous
100
AcDbPolyline
 90
        2
 70
     0
 43
0.0
 10
28.0606136322
 20
2.7061216831
 10
28.1145381927
 20
2.7061216831
  0
LWPOLYLINE
  5
B269
330
AE26
100
AcDbEntity
  8
0
  6
Continuous
100
AcDbPolyline
 90
        2
 70
     0
 43
0.0
 10
28.0606136322
 20
2.4873716831
 10
28.1145381927
 20
2.4873716831
  0
LWPOLYLINE
  5
B26A
330
AE26
100
AcDbEntity
  8
0
  6
Continuous
100
AcDbPolyline
 90
        2
 70
     0
 43
0.0
 10
28.0606136322
 20
2.2686216831
 10
28.1145381927
 20
2.2686216831
  0
LWPOLYLINE
  5
B26B
330
AE26
100
AcDbEntity
  8
0
  6
Continuous
100
AcDbPolyline
 90
        2
 70
     0
 43
0.0
 10
28.0606136322
 20
2.0498716831
 10
28.1145381927
 20
2.0498716831
  0
LWPOLYLINE
  5
B26C
330
AE26
100
AcDbEntity
  8
0
  6
Continuous
100
AcDbPolyline
 90
        2
 70
     0
 43
0.0
 10
28.0606136322
 20
1.8311216831
 10
28.1145381927
 20
1.8311216831
  0
CIRCLE
  5
B26D
330
AE26
100
AcDbEntity
  8
0
  6
Continuous
100
AcDbCircle
 10
29.1319999695
 20
1.90625
 30
0.0
 40
0.0390625
  0
CIRCLE
  5
B26E
330
AE26
100
AcDbEntity
  8
0
  6
Continuous
100
AcDbCircle
 10
29.6768741608
 20
1.90625
 30
0.0
 40
0.0390625
  0
CIRCLE
  5
B26F
330
AE26
100
AcDbEntity
  8
0
  6
Continuous
100
AcDbCircle
 10
29.9210624695
 20
1.90625
 30
0.0
 40
0.0390625
  0
CIRCLE
  5
B270
330
AE26
100
AcDbEntity
  8
0
  6
Continuous
100
AcDbCircle
 10
30.6984386444
 20
1.90625
 30
0.0
 40
0.0390625
  0
ENDBLK
  5
B271
330
AE26
100
AcDbEntity
  8
0
100
AcDbBlockEnd
  0
BLOCK
  5
B273
330
B272
100
AcDbEntity
  8
0
100
AcDbBlockBegin
  2
BLOT
 70
     0
 10
0.0
 20
0.0
 30
0.0
  3
BLOT
  1

  0
LWPOLYLINE
  5
B274
330
B272
100
AcDbEntity
  8
0
  6
Continuous
100
AcDbPolyline
 90
        2
 70
     0
 43
0.0
 10
-0.0990392268
 20
0.0061707734
 10
-0.0489460416
 20
0.0562639609
  0
LWPOLYLINE
  5
B275
330
B272
100
AcDbEntity
  8
0
  6
Continuous
100
AcDbPolyline
 90
        2
 70
     0
 43
0.0
 10
-0.0990392268
 20
-0.0079713622
 10
-0.0301621202
 20
0.0609057471
  0
LWPOLYLINE
  5
B276
330
B272
100
AcDbEntity
  8
0
  6
Continuous
100
AcDbPolyline
 90
        2
 70
     0
 43
0.0
 10
-0.0954193696
 20
-0.0184936356
 10
-0.0127292378
 20
0.0641964972
  0
LWPOLYLINE
  5
B277
330
B272
100
AcDbEntity
  8
0
  6
Continuous
100
AcDbPolyline
 90
        2
 70
     0
 43
0.0
 10
-0.091067858
 20
-0.0282842629
 10
0.0014128971
 20
0.0641964972
  0
LWPOLYLINE
  5
B278
330
B272
100
AcDbEntity
  8
0
  6
Continuous
100
AcDbPolyline
 90
        2
 70
     0
 43
0.0
 10
-0.0839966908
 20
-0.0353552327
 10
0.0155550325
 20
0.0641964972
  0
LWPOLYLINE
  5
B279
330
B272
100
AcDbEntity
  8
0
  6
Continuous
100
AcDbPolyline
 90
        2
 70
     0
 43
0.0
 10
-0.0766486153
 20
-0.0421492867
 10
0.0271335039
 20
0.0616328306
  0
LWPOLYLINE
  5
B27A
330
B272
100
AcDbEntity
  8
0
  6
Continuous
100
AcDbPolyline
 90
        2
 70
     0
 43
0.0
 10
-0.0672799051
 20
-0.0469227172
 10
0.0385377966
 20
0.0588949881
  0
LWPOLYLINE
  5
B27B
330
B272
100
AcDbEntity
  8
0
  6
Continuous
100
AcDbPolyline
 90
        2
 70
     0
 43
0.0
 10
-0.0579111986
 20
-0.051696144
 10
0.049676653
 20
0.0558917075
  0
LWPOLYLINE
  5
B27C
330
B272
100
AcDbEntity
  8
0
  6
Continuous
100
AcDbPolyline
 90
        2
 70
     0
 43
0.0
 10
-0.0485424921
 20
-0.0564695708
 10
0.0590453595
 20
0.0511182807
  0
LWPOLYLINE
  5
B27D
330
B272
100
AcDbEntity
  8
0
  6
Continuous
100
AcDbPolyline
 90
        2
 70
     0
 43
0.0
 10
-0.0371572115
 20
-0.0592264272
 10
0.0684140697
 20
0.0463448539
  0
LWPOLYLINE
  5
B27E
330
B272
100
AcDbEntity
  8
0
  6
Continuous
100
AcDbPolyline
 90
        2
 70
     0
 43
0.0
 10
-0.0257529188
 20
-0.0619642697
 10
0.0777815506
 20
0.0415701978
  0
LWPOLYLINE
  5
B27F
330
B272
100
AcDbEntity
  8
0
  6
Continuous
100
AcDbPolyline
 90
        2
 70
     0
 43
0.0
 10
-0.0138430092
 20
-0.0641964972
 10
0.0848527178
 20
0.0344992317
  0
LWPOLYLINE
  5
B280
330
B272
100
AcDbEntity
  8
0
  6
Continuous
100
AcDbPolyline
 90
        2
 70
     0
 43
0.0
 10
0.0002991263
 20
-0.0641964972
 10
0.0917786211
 20
0.0272829998
  0
LWPOLYLINE
  5
B281
330
B272
100
AcDbEntity
  8
0
  6
Continuous
100
AcDbPolyline
 90
        2
 70
     0
 43
0.0
 10
0.014441262
 20
-0.0641964972
 10
0.0959208161
 20
0.0172830578
  0
LWPOLYLINE
  5
B282
330
B272
100
AcDbEntity
  8
0
  6
Continuous
100
AcDbPolyline
 90
        2
 70
     0
 43
0.0
 10
0.0324149951
 20
-0.0603648983
 10
0.0990392268
 20
0.0062593385
  0
LWPOLYLINE
  5
B283
330
B272
100
AcDbEntity
  8
0
  6
Continuous
100
AcDbPolyline
 90
        2
 70
     0
 43
0.0
 10
0.0524364598
 20
-0.0544855669
 10
0.0990392268
 20
-0.0078827972
  0
ENDBLK
  5
B284
330
B272
100
AcDbEntity
  8
0
100
AcDbBlockEnd
  0
BLOCK
  5
B286
330
B285
100
AcDbEntity
  8
0
100
AcDbBlockBegin
  2
BOM_HDR
 70
     0
 10
0.0
 20
0.0
 30
0.0
  3
BOM_HDR
  1

  0
LWPOLYLINE
  5
B287
330
B285
100
AcDbEntity
  8
255
  6
Continuous
100
AcDbPolyline
 90
        2
 70
     0
 43
0.0
 10
-10.5
 20
0.3400000036
 10
0.0
 20
0.3400000036
  0
LWPOLYLINE
  5
B288
330
B285
100
AcDbEntity
  8
255
  6
Continuous
100
AcDbPolyline
 90
        3
 70
     0
 43
0.0
 10
0.0
 20
0.3799999952
 10
-10.5
 20
0.3799999952
 10
-10.5
 20
0.0
  0
LWPOLYLINE
  5
B289
330
B285
100
AcDbEntity
  8
255
  6
Continuous
100
AcDbPolyline
 90
        2
 70
     0
 43
0.0
 10
-9.75
 20
0.3799999952
 10
-9.75
 20
0.0
  0
LWPOLYLINE
  5
B28A
330
B285
100
AcDbEntity
  8
255
  6
Continuous
100
AcDbPolyline
 90
        2
 70
     0
 43
0.0
 10
-7.0
 20
0.3799999952
 10
-7.0
 20
0.0
  0
LWPOLYLINE
  5
B28B
330
B285
100
AcDbEntity
  8
255
  6
Continuous
100
AcDbPolyline
 90
        2
 70
     0
 43
0.0
 10
-6.25
 20
0.3799999952
 10
-6.25
 20
0.0
  0
LWPOLYLINE
  5
B28C
330
B285
100
AcDbEntity
  8
255
  6
Continuous
100
AcDbPolyline
 90
        2
 70
     0
 43
0.0
 10
0.0
 20
0.3799999952
 10
0.0
 20
0.0
  0
LWPOLYLINE
  5
B28D
330
B285
100
AcDbEntity
  8
255
  6
Continuous
100
AcDbPolyline
 90
        2
 70
     0
 43
0.0
 10
-5.5
 20
0.3799999952
 10
-5.5
 20
0.0
  0
TEXT
  5
B28E
330
B285
100
AcDbEntity
  8
0
100
AcDbText
 10
-10.35157143321905
 20
0.0919998959
 30
0.0
 40
0.1560000032
  1
ITEM
  7
ROMANK
 72
     1
 11
-10.125
 21
0.0919998959
 31
0.0
100
AcDbText
  0
LWPOLYLINE
  5
B28F
330
B285
100
AcDbEntity
  8
255
  6
Continuous
100
AcDbPolyline
 90
        2
 70
     0
 43
0.0
 10
0.0
 20
0.0
 10
-10.5
 20
0.0
  0
TEXT
  5
B290
330
B285
100
AcDbEntity
  8
0
100
AcDbText
 10
-8.937380011535999
 20
0.0919998959
 30
0.0
 40
0.1560000032
  1
PART NO.
 41
1.03
  7
ROMANK
 72
     1
 11
-8.375
 21
0.0919998959
 31
0.0
100
AcDbText
  0
TEXT
  5
B291
330
B285
100
AcDbEntity
  8
0
100
AcDbText
 10
-6.87601143372038
 20
0.0919998959
 30
0.0
 40
0.1560000032
  1
QTY.
 41
1.09
  7
ROMANK
 72
     1
 11
-6.625
 21
0.0919998959
 31
0.0
100
AcDbText
  0
TEXT
  5
B292
330
B285
100
AcDbEntity
  8
0
100
AcDbText
 10
-6.084485718582857
 20
0.0919998959
 30
0.0
 40
0.1560000032
  1
U/M
 41
0.9399999999999998
  7
ROMANK
 72
     1
 11
-5.875
 21
0.0919998959
 31
0.0
100
AcDbText
  0
TEXT
  5
B293
330
B285
100
AcDbEntity
  8
0
100
AcDbText
 10
-3.549575015439999
 20
0.0919998959
 30
0.0
 40
0.1560000032
  1
DESCRIPTION
 41
1.05
  7
ROMANK
 72
     1
 11
-2.796875
 21
0.0919998959
 31
0.0
100
AcDbText
  0
ENDBLK
  5
B294
330
B285
100
AcDbEntity
  8
0
100
AcDbBlockEnd
  0
BLOCK
  5
B2E0
330
B2DF
100
AcDbEntity
  8
0
100
AcDbBlockBegin
  2
XHT2
 70
     0
 10
0.0
 20
0.0
 30
0.0
  3
XHT2
  1

  0
LWPOLYLINE
  5
B2E1
330
B2DF
100
AcDbEntity
  8
0
  6
Continuous
100
AcDbPolyline
 90
        2
 70
     0
 43
0.0
 10
-1.0026667118
 20
1.092387914699999
 10
-1.0
 20
1.092387914699999
  0
LWPOLYLINE
  5
B2E2
330
B2DF
100
AcDbEntity
  8
0
  6
Continuous
100
AcDbPolyline
 90
        2
 70
     0
 43
0.0
 10
-1.005333304399999
 20
1.0723878145
 10
-1.0
 20
1.0723878145
  0
LWPOLYLINE
  5
B2E3
330
B2DF
100
AcDbEntity
  8
0
  6
Continuous
100
AcDbPolyline
 90
        2
 70
     0
 43
0.0
 10
-1.0080000162
 20
1.0523878336
 10
-1.0
 20
1.0523878336
  0
LWPOLYLINE
  5
B2E4
330
B2DF
100
AcDbEntity
  8
0
  6
Continuous
100
AcDbPolyline
 90
        2
 70
     0
 43
0.0
 10
-1.0106666088
 20
1.032387852699999
 10
-1.0
 20
1.032387852699999
  0
LWPOLYLINE
  5
B2E5
330
B2DF
100
AcDbEntity
  8
0
  6
Continuous
100
AcDbPolyline
 90
        2
 70
     0
 43
0.0
 10
-1.013333320599999
 20
1.0123878717
 10
-1.0
 20
1.0123878717
  0
LWPOLYLINE
  5
B2E6
330
B2DF
100
AcDbEntity
  8
0
  6
Continuous
100
AcDbPolyline
 90
        2
 70
     0
 43
0.0
 10
-1.0160000324
 20
0.9923878908
 10
-1.0
 20
0.9923878908
  0
LWPOLYLINE
  5
B2E7
330
B2DF
100
AcDbEntity
  8
0
  6
Continuous
100
AcDbPolyline
 90
        2
 70
     0
 43
0.0
 10
-1.018666625
 20
0.9723878502999999
 10
-1.0
 20
0.9723878502999999
  0
LWPOLYLINE
  5
B2E8
330
B2DF
100
AcDbEntity
  8
0
  6
Continuous
100
AcDbPolyline
 90
        2
 70
     0
 43
0.0
 10
-1.0213333368
 20
0.9523878694
 10
-1.0
 20
0.9523878694
  0
LWPOLYLINE
  5
B2E9
330
B2DF
100
AcDbEntity
  8
0
  6
Continuous
100
AcDbPolyline
 90
        2
 70
     0
 43
0.0
 10
-1.0240000486
 20
0.9323878884
 10
-1.0
 20
0.9323878884
  0
LWPOLYLINE
  5
B2EA
330
B2DF
100
AcDbEntity
  8
0
  6
Continuous
100
AcDbPolyline
 90
        2
 70
     0
 43
0.0
 10
-1.0266666412
 20
0.9123878479
 10
-1.0
 20
0.9123878479
  0
LWPOLYLINE
  5
B2EB
330
B2DF
100
AcDbEntity
  8
0
  6
Continuous
100
AcDbPolyline
 90
        2
 70
     0
 43
0.0
 10
-1.029333352999999
 20
0.892387867
 10
-1.0
 20
0.892387867
  0
LWPOLYLINE
  5
B2EC
330
B2DF
100
AcDbEntity
  8
0
  6
Continuous
100
AcDbPolyline
 90
        2
 70
     0
 43
0.0
 10
-1.031999945599999
 20
0.8723878859999999
 10
-1.0
 20
0.8723878859999999
  0
LWPOLYLINE
  5
B2ED
330
B2DF
100
AcDbEntity
  8
0
  6
Continuous
100
AcDbPolyline
 90
        2
 70
     0
 43
0.0
 10
-1.034666657399999
 20
0.8523878455
 10
-1.0
 20
0.8523878455
  0
LWPOLYLINE
  5
B2EE
330
B2DF
100
AcDbEntity
  8
0
  6
Continuous
100
AcDbPolyline
 90
        2
 70
     0
 43
0.0
 10
-1.037333369299999
 20
0.8323878645999998
 10
-1.0
 20
0.8323878645999998
  0
LWPOLYLINE
  5
B2EF
330
B2DF
100
AcDbEntity
  8
0
  6
Continuous
100
AcDbPolyline
 90
        2
 70
     0
 43
0.0
 10
-1.039999961899999
 20
0.8123878836999999
 10
-1.0
 20
0.8123878836999999
  0
LWPOLYLINE
  5
B2F0
330
B2DF
100
AcDbEntity
  8
0
  6
Continuous
100
AcDbPolyline
 90
        2
 70
     0
 43
0.0
 10
-1.0426666737
 20
0.7923878431000001
 10
-1.0
 20
0.7923878431000001
  0
LWPOLYLINE
  5
B2F1
330
B2DF
100
AcDbEntity
  8
0
  6
Continuous
100
AcDbPolyline
 90
        2
 70
     0
 43
0.0
 10
-1.045333385499999
 20
0.7723878622
 10
-1.0
 20
0.7723878622
  0
LWPOLYLINE
  5
B2F2
330
B2DF
100
AcDbEntity
  8
0
  6
Continuous
100
AcDbPolyline
 90
        2
 70
     0
 43
0.0
 10
-1.0479999781
 20
0.7523878813
 10
-1.0
 20
0.7523878813
  0
LWPOLYLINE
  5
B2F3
330
B2DF
100
AcDbEntity
  8
0
  6
Continuous
100
AcDbPolyline
 90
        2
 70
     0
 43
0.0
 10
-1.050666689899999
 20
0.7323879004000001
 10
-1.0
 20
0.7323879004000001
  0
LWPOLYLINE
  5
B2F4
330
B2DF
100
AcDbEntity
  8
0
  6
Continuous
100
AcDbPolyline
 90
        2
 70
     0
 43
0.0
 10
-1.053333282499999
 20
0.7123878598000001
 10
-1.0
 20
0.7123878598000001
  0
LWPOLYLINE
  5
B2F5
330
B2DF
100
AcDbEntity
  8
0
  6
Continuous
100
AcDbPolyline
 90
        2
 70
     0
 43
0.0
 10
-1.0559999943
 20
0.6923878789
 10
-1.0
 20
0.6923878789
  0
LWPOLYLINE
  5
B2F6
330
B2DF
100
AcDbEntity
  8
0
  6
Continuous
100
AcDbPolyline
 90
        2
 70
     0
 43
0.0
 10
-1.058666706099999
 20
0.6723878980000001
 10
-1.0
 20
0.6723878980000001
  0
LWPOLYLINE
  5
B2F7
330
B2DF
100
AcDbEntity
  8
0
  6
Continuous
100
AcDbPolyline
 90
        2
 70
     0
 43
0.0
 10
-1.0613332987
 20
0.6523878574000001
 10
-1.0
 20
0.6523878574000001
  0
LWPOLYLINE
  5
B2F8
330
B2DF
100
AcDbEntity
  8
0
  6
Continuous
100
AcDbPolyline
 90
        2
 70
     0
 43
0.0
 10
-1.0640000105
 20
0.6323878765
 10
-1.0
 20
0.6323878765
  0
LWPOLYLINE
  5
B2F9
330
B2DF
100
AcDbEntity
  8
0
  6
Continuous
100
AcDbPolyline
 90
        2
 70
     0
 43
0.0
 10
-1.0666667223
 20
0.6123878956000001
 10
-1.0
 20
0.6123878956000001
  0
LWPOLYLINE
  5
B2FA
330
B2DF
100
AcDbEntity
  8
0
  6
Continuous
100
AcDbPolyline
 90
        2
 70
     0
 43
0.0
 10
-1.069333314899999
 20
0.5923878551000001
 10
-1.0
 20
0.5923878551000001
  0
LWPOLYLINE
  5
B2FB
330
B2DF
100
AcDbEntity
  8
0
  6
Continuous
100
AcDbPolyline
 90
        2
 70
     0
 43
0.0
 10
-1.0720000267
 20
0.5723878741
 10
-1.0
 20
0.5723878741
  0
LWPOLYLINE
  5
B2FC
330
B2DF
100
AcDbEntity
  8
0
  6
Continuous
100
AcDbPolyline
 90
        2
 70
     0
 43
0.0
 10
-1.0746666193
 20
0.5523878932000001
 10
-1.0
 20
0.5523878932000001
  0
LWPOLYLINE
  5
B2FD
330
B2DF
100
AcDbEntity
  8
0
  6
Continuous
100
AcDbPolyline
 90
        2
 70
     0
 43
0.0
 10
-1.077333331099999
 20
0.5323878527
 10
-1.0
 20
0.5323878527
  0
LWPOLYLINE
  5
B2FE
330
B2DF
100
AcDbEntity
  8
0
  6
Continuous
100
AcDbPolyline
 90
        2
 70
     0
 43
0.0
 10
-1.0800000429
 20
0.5123878717000001
 10
-1.0
 20
0.5123878717000001
  0
LWPOLYLINE
  5
B2FF
330
B2DF
100
AcDbEntity
  8
0
  6
Continuous
100
AcDbPolyline
 90
        2
 70
     0
 43
0.0
 10
-1.082666635499999
 20
0.4923878908
 10
-1.0
 20
0.4923878908
  0
LWPOLYLINE
  5
B300
330
B2DF
100
AcDbEntity
  8
0
  6
Continuous
100
AcDbPolyline
 90
        2
 70
     0
 43
0.0
 10
-1.085333347299999
 20
0.4723878801
 10
-1.0
 20
0.4723878801
  0
LWPOLYLINE
  5
B301
330
B2DF
100
AcDbEntity
  8
0
  6
Continuous
100
AcDbPolyline
 90
        2
 70
     0
 43
0.0
 10
-1.087999939899999
 20
0.4523878694
 10
-1.0
 20
0.4523878694
  0
LWPOLYLINE
  5
B302
330
B2DF
100
AcDbEntity
  8
0
  6
Continuous
100
AcDbPolyline
 90
        2
 70
     0
 43
0.0
 10
-1.0906666517
 20
0.4323878884
 10
-1.0
 20
0.4323878884
  0
LWPOLYLINE
  5
B303
330
B2DF
100
AcDbEntity
  8
0
  6
Continuous
100
AcDbPolyline
 90
        2
 70
     0
 43
0.0
 10
-1.093333363499999
 20
0.4123878777
 10
-1.0
 20
0.4123878777
  0
LWPOLYLINE
  5
B304
330
B2DF
100
AcDbEntity
  8
0
  6
Continuous
100
AcDbPolyline
 90
        2
 70
     0
 43
0.0
 10
-1.0959999561
 20
0.392387867
 10
-1.0
 20
0.392387867
  0
LWPOLYLINE
  5
B305
330
B2DF
100
AcDbEntity
  8
0
  6
Continuous
100
AcDbPolyline
 90
        2
 70
     0
 43
0.0
 10
-1.0986666679
 20
0.372387886
 10
-1.0
 20
0.372387886
  0
ENDBLK
  5
B306
330
B2DF
100
AcDbEntity
  8
0
100
AcDbBlockEnd
  0
BLOCK
  5
B308
330
B307
100
AcDbEntity
  8
0
100
AcDbBlockBegin
  2
XHT3
 70
     0
 10
0.0
 20
0.0
 30
0.0
  3
XHT3
  1

  0
LWPOLYLINE
  5
B309
330
B307
100
AcDbEntity
  8
0
  6
Continuous
100
AcDbPolyline
 90
        2
 70
     0
 43
0.0
 10
28.625
 20
1.092387914699999
 10
28.6276664734
 20
1.092387914699999
  0
LWPOLYLINE
  5
B30A
330
B307
100
AcDbEntity
  8
0
  6
Continuous
100
AcDbPolyline
 90
        2
 70
     0
 43
0.0
 10
28.625
 20
1.0723878145
 10
28.6303329468
 20
1.0723878145
  0
LWPOLYLINE
  5
B30B
330
B307
100
AcDbEntity
  8
0
  6
Continuous
100
AcDbPolyline
 90
        2
 70
     0
 43
0.0
 10
28.625
 20
1.0523878336
 10
28.6329994202
 20
1.0523878336
  0
LWPOLYLINE
  5
B30C
330
B307
100
AcDbEntity
  8
0
  6
Continuous
100
AcDbPolyline
 90
        2
 70
     0
 43
0.0
 10
28.625
 20
1.032387852699999
 10
28.6356658936
 20
1.032387852699999
  0
LWPOLYLINE
  5
B30D
330
B307
100
AcDbEntity
  8
0
  6
Continuous
100
AcDbPolyline
 90
        2
 70
     0
 43
0.0
 10
28.625
 20
1.0123878717
 10
28.6383342743
 20
1.0123878717
  0
LWPOLYLINE
  5
B30E
330
B307
100
AcDbEntity
  8
0
  6
Continuous
100
AcDbPolyline
 90
        2
 70
     0
 43
0.0
 10
28.625
 20
0.9923878908
 10
28.6410007477
 20
0.9923878908
  0
LWPOLYLINE
  5
B30F
330
B307
100
AcDbEntity
  8
0
  6
Continuous
100
AcDbPolyline
 90
        2
 70
     0
 43
0.0
 10
28.625
 20
0.9723878502999999
 10
28.64366722110001
 20
0.9723878502999999
  0
LWPOLYLINE
  5
B310
330
B307
100
AcDbEntity
  8
0
  6
Continuous
100
AcDbPolyline
 90
        2
 70
     0
 43
0.0
 10
28.625
 20
0.9523878694
 10
28.6463336945
 20
0.9523878694
  0
LWPOLYLINE
  5
B311
330
B307
100
AcDbEntity
  8
0
  6
Continuous
100
AcDbPolyline
 90
        2
 70
     0
 43
0.0
 10
28.625
 20
0.9323878884
 10
28.6490001678
 20
0.9323878884
  0
LWPOLYLINE
  5
B312
330
B307
100
AcDbEntity
  8
0
  6
Continuous
100
AcDbPolyline
 90
        2
 70
     0
 43
0.0
 10
28.625
 20
0.9123878479
 10
28.6516666412
 20
0.9123878479
  0
LWPOLYLINE
  5
B313
330
B307
100
AcDbEntity
  8
0
  6
Continuous
100
AcDbPolyline
 90
        2
 70
     0
 43
0.0
 10
28.625
 20
0.892387867
 10
28.6543331146
 20
0.892387867
  0
LWPOLYLINE
  5
B314
330
B307
100
AcDbEntity
  8
0
  6
Continuous
100
AcDbPolyline
 90
        2
 70
     0
 43
0.0
 10
28.625
 20
0.8723878859999999
 10
28.656999588
 20
0.8723878859999999
  0
LWPOLYLINE
  5
B315
330
B307
100
AcDbEntity
  8
0
  6
Continuous
100
AcDbPolyline
 90
        2
 70
     0
 43
0.0
 10
28.625
 20
0.8523878455
 10
28.6596660614
 20
0.8523878455
  0
LWPOLYLINE
  5
B316
330
B307
100
AcDbEntity
  8
0
  6
Continuous
100
AcDbPolyline
 90
        2
 70
     0
 43
0.0
 10
28.625
 20
0.8323878645999998
 10
28.6623325348
 20
0.8323878645999998
  0
LWPOLYLINE
  5
B317
330
B307
100
AcDbEntity
  8
0
  6
Continuous
100
AcDbPolyline
 90
        2
 70
     0
 43
0.0
 10
28.625
 20
0.8123878836999999
 10
28.6650009155
 20
0.8123878836999999
  0
LWPOLYLINE
  5
B318
330
B307
100
AcDbEntity
  8
0
  6
Continuous
100
AcDbPolyline
 90
        2
 70
     0
 43
0.0
 10
28.625
 20
0.7923878431000001
 10
28.6676673889
 20
0.7923878431000001
  0
LWPOLYLINE
  5
B319
330
B307
100
AcDbEntity
  8
0
  6
Continuous
100
AcDbPolyline
 90
        2
 70
     0
 43
0.0
 10
28.625
 20
0.7723878622
 10
28.6703338623
 20
0.7723878622
  0
LWPOLYLINE
  5
B31A
330
B307
100
AcDbEntity
  8
0
  6
Continuous
100
AcDbPolyline
 90
        2
 70
     0
 43
0.0
 10
28.625
 20
0.7523878813
 10
28.6730003357
 20
0.7523878813
  0
LWPOLYLINE
  5
B31B
330
B307
100
AcDbEntity
  8
0
  6
Continuous
100
AcDbPolyline
 90
        2
 70
     0
 43
0.0
 10
28.625
 20
0.7323879004000001
 10
28.6756668091
 20
0.7323879004000001
  0
LWPOLYLINE
  5
B31C
330
B307
100
AcDbEntity
  8
0
  6
Continuous
100
AcDbPolyline
 90
        2
 70
     0
 43
0.0
 10
28.625
 20
0.7123878598000001
 10
28.6783332825
 20
0.7123878598000001
  0
LWPOLYLINE
  5
B31D
330
B307
100
AcDbEntity
  8
0
  6
Continuous
100
AcDbPolyline
 90
        2
 70
     0
 43
0.0
 10
28.625
 20
0.6923878789
 10
28.6809997559
 20
0.6923878789
  0
LWPOLYLINE
  5
B31E
330
B307
100
AcDbEntity
  8
0
  6
Continuous
100
AcDbPolyline
 90
        2
 70
     0
 43
0.0
 10
28.625
 20
0.6723878980000001
 10
28.6836662292
 20
0.6723878980000001
  0
LWPOLYLINE
  5
B31F
330
B307
100
AcDbEntity
  8
0
  6
Continuous
100
AcDbPolyline
 90
        2
 70
     0
 43
0.0
 10
28.625
 20
0.6523878574000001
 10
28.6863327026
 20
0.6523878574000001
  0
LWPOLYLINE
  5
B320
330
B307
100
AcDbEntity
  8
0
  6
Continuous
100
AcDbPolyline
 90
        2
 70
     0
 43
0.0
 10
28.625
 20
0.6323878765
 10
28.688999176
 20
0.6323878765
  0
LWPOLYLINE
  5
B321
330
B307
100
AcDbEntity
  8
0
  6
Continuous
100
AcDbPolyline
 90
        2
 70
     0
 43
0.0
 10
28.625
 20
0.6123878956000001
 10
28.6916675568
 20
0.6123878956000001
  0
LWPOLYLINE
  5
B322
330
B307
100
AcDbEntity
  8
0
  6
Continuous
100
AcDbPolyline
 90
        2
 70
     0
 43
0.0
 10
28.625
 20
0.5923878551000001
 10
28.6943340302
 20
0.5923878551000001
  0
LWPOLYLINE
  5
B323
330
B307
100
AcDbEntity
  8
0
  6
Continuous
100
AcDbPolyline
 90
        2
 70
     0
 43
0.0
 10
28.625
 20
0.5723878741
 10
28.6970005035
 20
0.5723878741
  0
LWPOLYLINE
  5
B324
330
B307
100
AcDbEntity
  8
0
  6
Continuous
100
AcDbPolyline
 90
        2
 70
     0
 43
0.0
 10
28.625
 20
0.5523878932000001
 10
28.6996669769
 20
0.5523878932000001
  0
LWPOLYLINE
  5
B325
330
B307
100
AcDbEntity
  8
0
  6
Continuous
100
AcDbPolyline
 90
        2
 70
     0
 43
0.0
 10
28.625
 20
0.5323878527
 10
28.7023334503
 20
0.5323878527
  0
LWPOLYLINE
  5
B326
330
B307
100
AcDbEntity
  8
0
  6
Continuous
100
AcDbPolyline
 90
        2
 70
     0
 43
0.0
 10
28.625
 20
0.5123878717000001
 10
28.7049999237
 20
0.5123878717000001
  0
LWPOLYLINE
  5
B327
330
B307
100
AcDbEntity
  8
0
  6
Continuous
100
AcDbPolyline
 90
        2
 70
     0
 43
0.0
 10
28.625
 20
0.4923878908
 10
28.7076663971
 20
0.4923878908
  0
LWPOLYLINE
  5
B328
330
B307
100
AcDbEntity
  8
0
  6
Continuous
100
AcDbPolyline
 90
        2
 70
     0
 43
0.0
 10
28.625
 20
0.4723878801
 10
28.7103328705
 20
0.4723878801
  0
LWPOLYLINE
  5
B329
330
B307
100
AcDbEntity
  8
0
  6
Continuous
100
AcDbPolyline
 90
        2
 70
     0
 43
0.0
 10
28.625
 20
0.4523878694
 10
28.7129993439
 20
0.4523878694
  0
LWPOLYLINE
  5
B32A
330
B307
100
AcDbEntity
  8
0
  6
Continuous
100
AcDbPolyline
 90
        2
 70
     0
 43
0.0
 10
28.625
 20
0.4323878884
 10
28.7156658173
 20
0.4323878884
  0
LWPOLYLINE
  5
B32B
330
B307
100
AcDbEntity
  8
0
  6
Continuous
100
AcDbPolyline
 90
        2
 70
     0
 43
0.0
 10
28.625
 20
0.4123878777
 10
28.718334198
 20
0.4123878777
  0
LWPOLYLINE
  5
B32C
330
B307
100
AcDbEntity
  8
0
  6
Continuous
100
AcDbPolyline
 90
        2
 70
     0
 43
0.0
 10
28.625
 20
0.392387867
 10
28.7210006714
 20
0.392387867
  0
LWPOLYLINE
  5
B32D
330
B307
100
AcDbEntity
  8
0
  6
Continuous
100
AcDbPolyline
 90
        2
 70
     0
 43
0.0
 10
28.625
 20
0.372387886
 10
28.7236671448
 20
0.372387886
  0
ENDBLK
  5
B32E
330
B307
100
AcDbEntity
  8
0
100
AcDbBlockEnd
  0
BLOCK
  5
B330
330
B32F
100
AcDbEntity
  8
0
100
AcDbBlockBegin
  2
XHT4
 70
     0
 10
0.0
 20
0.0
 30
0.0
  3
XHT4
  1

  0
LWPOLYLINE
  5
B331
330
B32F
100
AcDbEntity
  8
0
  6
Continuous
100
AcDbPolyline
 90
        2
 70
     0
 43
0.0
 10
26.627073288
 20
-4.519999980899999
 10
27.2270736694
 20
-4.519999980899999
  0
LWPOLYLINE
  5
B332
330
B32F
100
AcDbEntity
  8
0
  6
Continuous
100
AcDbPolyline
 90
        2
 70
     0
 43
0.0
 10
26.627073288
 20
-4.539999961899999
 10
27.0770721436
 20
-4.539999961899999
  0
LWPOLYLINE
  5
B333
330
B32F
100
AcDbEntity
  8
0
  6
Continuous
100
AcDbPolyline
 90
        2
 70
     0
 43
0.0
 10
26.627073288
 20
-4.559999942799999
 10
26.927072525
 20
-4.559999942799999
  0
LWPOLYLINE
  5
B334
330
B32F
100
AcDbEntity
  8
0
  6
Continuous
100
AcDbPolyline
 90
        2
 70
     0
 43
0.0
 10
26.627073288
 20
-4.579999923699999
 10
26.7770729065
 20
-4.579999923699999
  0
ENDBLK
  5
B335
330
B32F
100
AcDbEntity
  8
0
100
AcDbBlockEnd
  0
BLOCK
  5
B337
330
B336
100
AcDbEntity
  8
0
100
AcDbBlockBegin
  2
XHT5
 70
     0
 10
0.0
 20
0.0
 30
0.0
  3
XHT5
  1

  0
LWPOLYLINE
  5
B338
330
B336
100
AcDbEntity
  8
0
  6
Continuous
100
AcDbPolyline
 90
        2
 70
     0
 43
0.0
 10
26.627073288
 20
4.579999923699999
 10
26.7770729065
 20
4.579999923699999
  0
LWPOLYLINE
  5
B339
330
B336
100
AcDbEntity
  8
0
  6
Continuous
100
AcDbPolyline
 90
        2
 70
     0
 43
0.0
 10
26.627073288
 20
4.559999942799999
 10
26.927072525
 20
4.559999942799999
  0
LWPOLYLINE
  5
B33A
330
B336
100
AcDbEntity
  8
0
  6
Continuous
100
AcDbPolyline
 90
        2
 70
     0
 43
0.0
 10
26.627073288
 20
4.539999961899999
 10
27.0770721436
 20
4.539999961899999
  0
LWPOLYLINE
  5
B33B
330
B336
100
AcDbEntity
  8
0
  6
Continuous
100
AcDbPolyline
 90
        2
 70
     0
 43
0.0
 10
26.627073288
 20
4.519999980899999
 10
27.2270736694
 20
4.519999980899999
  0
LWPOLYLINE
  5
B33C
330
B336
100
AcDbEntity
  8
0
  6
Continuous
100
AcDbPolyline
 90
        2
 70
     0
 43
0.0
 10
26.627073288
 20
4.5
 10
27.377073288
 20
4.5
  0
ENDBLK
  5
B33D
330
B336
100
AcDbEntity
  8
0
100
AcDbBlockEnd
  0
BLOCK
  5
B33F
330
B33E
100
AcDbEntity
  8
0
100
AcDbBlockBegin
  2
ARROW
 70
     0
 10
0.0
 20
0.0
 30
0.0
  3
ARROW
  1

  0
LWPOLYLINE
  5
B340
330
B33E
100
AcDbEntity
  8
0
  6
Continuous
100
AcDbPolyline
 90
        3
 70
     0
 43
0.0
 10
0.1875007153
 20
-0.0312500298
 10
0.0
 20
0.0
 10
0.1875002384
 20
0.0
  0
LWPOLYLINE
  5
B341
330
B33E
100
AcDbEntity
  8
0
  6
Continuous
100
AcDbPolyline
 90
        2
 70
     0
 43
0.0
 10
0.1874997616
 20
0.0312500298
 10
0.1875007153
 20
-0.0312500298
  0
LWPOLYLINE
  5
B342
330
B33E
100
AcDbEntity
  8
0
  6
Continuous
100
AcDbPolyline
 90
        2
 70
     0
 43
0.0
 10
0.0
 20
0.0
 10
0.1874997616
 20
0.0312500298
  0
LWPOLYLINE
  5
B343
330
B33E
100
AcDbEntity
  8
0
  6
Continuous
100
AcDbPolyline
 90
        2
 70
     0
 43
0.0
 10
0.0
 20
0.0
 10
0.1875004768
 20
-0.0212379992
  0
LWPOLYLINE
  5
B344
330
B33E
100
AcDbEntity
  8
0
  6
Continuous
100
AcDbPolyline
 90
        2
 70
     0
 43
0.0
 10
0.0
 20
0.0
 10
0.1875
 20
0.0212380886
  0
LWPOLYLINE
  5
B345
330
B33E
100
AcDbEntity
  8
0
  6
Continuous
100
AcDbPolyline
 90
        2
 70
     0
 43
0.0
 10
0.0
 20
0.0
 10
0.1875004768
 20
-0.0113441646
  0
LWPOLYLINE
  5
B346
330
B33E
100
AcDbEntity
  8
0
  6
Continuous
100
AcDbPolyline
 90
        2
 70
     0
 43
0.0
 10
0.0
 20
0.0
 10
0.1875
 20
0.0113443136
  0
ENDBLK
  5
B347
330
B33E
100
AcDbEntity
  8
0
100
AcDbBlockEnd
  0
BLOCK
  5
DC34
330
DC32
100
AcDbEntity
  8
0
100
AcDbBlockBegin
  2
GENAXEH
 70
     0
 10
0.0
 20
0.0
 30
0.0
  3
GENAXEH
  1

  0
LINE
  5
DC33
330
DC32
100
AcDbEntity
  8
0
100
AcDbLine
 10
-1.0
 20
0.0
 30
0.0
 11
1.0
 21
0.0
 31
0.0
  0
ENDBLK
  5
DC35
330
DC32
100
AcDbEntity
  8
0
100
AcDbBlockEnd
  0
ENDSEC
  0
SECTION
  2
ENTITIES
  0
TEXT
  5
C291
330
20
100
AcDbEntity
  8
LAYER_1
100
AcDbText
 10
8418.016236152892
 20
939.6717572264231
 30
0.0
 40
0.114644
  1
 
 41
0.5473989044448261
  7
SN0
 72
     5
 11
8418.078992152894
 21
939.6717572264231
 31
0.0
100
AcDbText
  0
TEXT
  5
C29E
330
20
100
AcDbEntity
  8
LAYER_1
100
AcDbText
 10
8417.698247152895
 20
947.119072226423
 30
0.0
 40
0.229288
  1
 
 41
0.5454363071733425
  7
SN0
 72
     5
 11
8417.823309152892
 21
947.119072226423
 31
0.0
100
AcDbText
  0
TEXT
  5
C339
330
20
100
AcDbEntity
  8
LAYER_1
 62
    39
100
AcDbText
 10
8414.544767152893
 20
945.7087652264231
 30
0.0
 40
0.114644
  1
 
 41
0.5474076271022574
  7
SN0
 72
     5
 11
8414.607524152895
 21
945.7087652264231
 31
0.0
100
AcDbText
  0
TEXT
  5
C33B
330
20
100
AcDbEntity
  8
LAYER_1
 62
    39
100
AcDbText
 10
8414.776267152893
 20
945.7087652264231
 30
0.0
 40
0.114644
  1
 
 41
0.5474076271022574
  7
SN0
 72
     5
 11
8414.839024152895
 21
945.7087652264231
 31
0.0
100
AcDbText
  0
TEXT
  5
C33F
330
20
100
AcDbEntity
  8
LAYER_1
 62
    39
100
AcDbText
 10
8415.133767152893
 20
945.7087652264231
 30
0.0
 40
0.114644
  1
 
 41
0.5474076271022574
  7
SN0
 72
     5
 11
8415.196524152895
 21
945.7087652264231
 31
0.0
100
AcDbText
  0
TEXT
  5
C341
330
20
100
AcDbEntity
  8
LAYER_1
 62
    39
100
AcDbText
 10
8415.731889152894
 20
945.7087652264231
 30
0.0
 40
0.114644
  1
 
 41
0.547407627086391
  7
SN0
 72
     5
 11
8415.794646152894
 21
945.7087652264231
 31
0.0
100
AcDbText
  0
TEXT
  5
C344
330
20
100
AcDbEntity
  8
LAYER_1
 62
    39
100
AcDbText
 10
8414.497889152894
 20
945.5803912264231
 30
0.0
 40
0.114644
  1
 
 41
0.547407627086391
  7
SN0
 72
     5
 11
8414.560646152892
 21
945.5803912264231
 31
0.0
100
AcDbText
  0
TEXT
  5
C348
330
20
100
AcDbEntity
  8
LAYER_1
 62
    39
100
AcDbText
 10
8414.342015152895
 20
945.4505172264232
 30
0.0
 40
0.114644
  1
 
 41
0.547407627086391
  7
SN0
 72
     5
 11
8414.404772152893
 21
945.4505172264232
 31
0.0
100
AcDbText
  0
TEXT
  5
C34A
330
20
100
AcDbEntity
  8
LAYER_1
 62
    39
100
AcDbText
 10
8414.490641152893
 20
945.4505172264232
 30
0.0
 40
0.114644
  1
 
 41
0.547407627086391
  7
SN0
 72
     5
 11
8414.553398152895
 21
945.4505172264232
 31
0.0
100
AcDbText
  0
TEXT
  5
C34E
330
20
100
AcDbEntity
  8
LAYER_1
 62
    39
100
AcDbText
 10
8415.125141152895
 20
945.4505172264232
 30
0.0
 40
0.114644
  1
 
 41
0.547407627086391
  7
SN0
 72
     5
 11
8415.187898152893
 21
945.4505172264232
 31
0.0
100
AcDbText
  0
TEXT
  5
C351
330
20
100
AcDbEntity
  8
LAYER_1
 62
    39
100
AcDbText
 10
8415.560141152893
 20
945.4505172264232
 30
0.0
 40
0.114644
  1
 
 41
0.547407627086391
  7
SN0
 72
     5
 11
8415.622898152893
 21
945.4505172264232
 31
0.0
100
AcDbText
  0
TEXT
  5
C353
330
20
100
AcDbEntity
  8
LAYER_1
 62
    39
100
AcDbText
 10
8415.776641152893
 20
945.4505172264232
 30
0.0
 40
0.114644
  1
 
 41
0.547407627086391
  7
SN0
 72
     5
 11
8415.839398152893
 21
945.4505172264232
 31
0.0
100
AcDbText
  0
TEXT
  5
C357
330
20
100
AcDbEntity
  8
LAYER_1
 62
    39
100
AcDbText
 10
8414.507015152892
 20
945.322143226423
 30
0.0
 40
0.114644
  1
 
 41
0.5474076271022574
  7
SN0
 72
     5
 11
8414.569772152894
 21
945.322143226423
 31
0.0
100
AcDbText
  0
TEXT
  5
C359
330
20
100
AcDbEntity
  8
LAYER_1
 62
    39
100
AcDbText
 10
8414.768015152892
 20
945.322143226423
 30
0.0
 40
0.114644
  1
 
 41
0.547407627086391
  7
SN0
 72
     5
 11
8414.830772152892
 21
945.322143226423
 31
0.0
100
AcDbText
  0
TEXT
  5
C35D
330
20
100
AcDbEntity
  8
LAYER_1
 62
    39
100
AcDbText
 10
8415.204767152893
 20
945.322143226423
 30
0.0
 40
0.114644
  1
 
 41
0.5474076271022574
  7
SN0
 72
     5
 11
8415.267524152893
 21
945.322143226423
 31
0.0
100
AcDbText
  0
TEXT
  5
C35F
330
20
100
AcDbEntity
  8
LAYER_1
 62
    39
100
AcDbText
 10
8415.323015152893
 20
945.322143226423
 30
0.0
 40
0.114644
  1
 
 41
0.547407627086391
  7
SN0
 72
     5
 11
8415.385772152893
 21
945.322143226423
 31
0.0
100
AcDbText
  0
TEXT
  5
C361
330
20
100
AcDbEntity
  8
LAYER_1
 62
    39
100
AcDbText
 10
8415.522015152893
 20
945.322143226423
 30
0.0
 40
0.114644
  1
 
 41
0.547407627086391
  7
SN0
 72
     5
 11
8415.584772152895
 21
945.322143226423
 31
0.0
100
AcDbText
  0
TEXT
  5
C364
330
20
100
AcDbEntity
  8
LAYER_1
 62
    39
100
AcDbText
 10
8414.450267152894
 20
945.1937652264231
 30
0.0
 40
0.114644
  1
 
 41
0.547407627086391
  7
SN0
 72
     5
 11
8414.513024152894
 21
945.1937652264231
 31
0.0
100
AcDbText
  0
TEXT
  5
C366
330
20
100
AcDbEntity
  8
LAYER_1
 62
    39
100
AcDbText
 10
8414.673889152892
 20
945.1937652264231
 30
0.0
 40
0.114644
  1
 
 41
0.547407627086391
  7
SN0
 72
     5
 11
8414.736646152894
 21
945.1937652264231
 31
0.0
100
AcDbText
  0
TEXT
  5
C368
330
20
100
AcDbEntity
  8
LAYER_1
 62
    39
100
AcDbText
 10
8415.145767152893
 20
945.1937652264231
 30
0.0
 40
0.114644
  1
 
 41
0.547407627086391
  7
SN0
 72
     5
 11
8415.208524152893
 21
945.1937652264231
 31
0.0
100
AcDbText
  0
TEXT
  5
C36A
330
20
100
AcDbEntity
  8
LAYER_1
 62
    39
100
AcDbText
 10
8415.303015152892
 20
945.1937652264231
 30
0.0
 40
0.114644
  1
 
 41
0.5474076271022574
  7
SN0
 72
     5
 11
8415.365772152894
 21
945.1937652264231
 31
0.0
100
AcDbText
  0
TEXT
  5
C36C
330
20
100
AcDbEntity
  8
LAYER_1
 62
    39
100
AcDbText
 10
8415.477889152894
 20
945.1937652264231
 30
0.0
 40
0.114644
  1
 
 41
0.547407627086391
  7
SN0
 72
     5
 11
8415.540646152892
 21
945.1937652264231
 31
0.0
100
AcDbText
  0
TEXT
  5
C371
330
20
100
AcDbEntity
  8
LAYER_1
 62
    39
100
AcDbText
 10
8414.422389152893
 20
945.0653912264231
 30
0.0
 40
0.114644
  1
 
 41
0.5474076271022574
  7
SN0
 72
     5
 11
8414.485146152895
 21
945.0653912264231
 31
0.0
100
AcDbText
  0
TEXT
  5
C373
330
20
100
AcDbEntity
  8
LAYER_1
 62
    39
100
AcDbText
 10
8414.673015152894
 20
945.0653912264231
 30
0.0
 40
0.114644
  1
 
 41
0.547407627086391
  7
SN0
 72
     5
 11
8414.735772152893
 21
945.0653912264231
 31
0.0
100
AcDbText
  0
TEXT
  5
C375
330
20
100
AcDbEntity
  8
LAYER_1
 62
    39
100
AcDbText
 10
8414.903015152892
 20
945.0653912264231
 30
0.0
 40
0.114644
  1
 
 41
0.547407627086391
  7
SN0
 72
     5
 11
8414.965772152893
 21
945.0653912264231
 31
0.0
100
AcDbText
  0
TEXT
  5
C377
330
20
100
AcDbEntity
  8
LAYER_1
 62
    39
100
AcDbText
 10
8415.111515152894
 20
945.0653912264231
 30
0.0
 40
0.114644
  1
 
 41
0.547407627086391
  7
SN0
 72
     5
 11
8415.174272152894
 21
945.0653912264231
 31
0.0
100
AcDbText
  0
TEXT
  5
C379
330
20
100
AcDbEntity
  8
LAYER_1
 62
    39
100
AcDbText
 10
8415.445515152894
 20
945.0653912264231
 30
0.0
 40
0.114644
  1
 
 41
0.5474076271022574
  7
SN0
 72
     5
 11
8415.508272152894
 21
945.0653912264231
 31
0.0
100
AcDbText
  0
TEXT
  5
C37B
330
20
100
AcDbEntity
  8
LAYER_1
 62
    39
100
AcDbText
 10
8415.581515152892
 20
945.0653912264231
 30
0.0
 40
0.114644
  1
 
 41
0.547407627086391
  7
SN0
 72
     5
 11
8415.644272152894
 21
945.0653912264231
 31
0.0
100
AcDbText
  0
TEXT
  5
C37F
330
20
100
AcDbEntity
  8
LAYER_1
 62
    39
100
AcDbText
 10
8415.916515152893
 20
945.0653912264231
 30
0.0
 40
0.114644
  1
 
 41
0.547407627086391
  7
SN0
 72
     5
 11
8415.979272152894
 21
945.0653912264231
 31
0.0
100
AcDbText
  0
TEXT
  5
C387
330
20
100
AcDbEntity
  8
LAYER_1
 62
    39
100
AcDbText
 10
8416.927350152894
 20
945.7087652264231
 30
0.0
 40
0.114644
  1
 
 41
0.5473989044289597
  7
SN0
 72
     5
 11
8416.990106152892
 21
945.7087652264231
 31
0.0
100
AcDbText
  0
TEXT
  5
C38D
330
20
100
AcDbEntity
  8
LAYER_1
 62
    39
100
AcDbText
 10
8417.588976152895
 20
945.7087652264231
 30
0.0
 40
0.114644
  1
 
 41
0.5473989044289598
  7
SN0
 72
     5
 11
8417.651732152894
 21
945.7087652264231
 31
0.0
100
AcDbText
  0
TEXT
  5
C38F
330
20
100
AcDbEntity
  8
LAYER_1
 62
    39
100
AcDbText
 10
8417.825846152892
 20
945.7087652264231
 30
0.0
 40
0.114644
  1
 
 41
0.5473989044448262
  7
SN0
 72
     5
 11
8417.888602152894
 21
945.7087652264231
 31
0.0
100
AcDbText
  0
TEXT
  5
C391
330
20
100
AcDbEntity
  8
LAYER_1
 62
    39
100
AcDbText
 10
8418.028720152895
 20
945.7087652264231
 30
0.0
 40
0.114644
  1
 
 41
0.5473989044289598
  7
SN0
 72
     5
 11
8418.091476152893
 21
945.7087652264231
 31
0.0
100
AcDbText
  0
TEXT
  5
C396
330
20
100
AcDbEntity
  8
LAYER_1
 62
    39
100
AcDbText
 10
8416.759598152895
 20
945.5803912264231
 30
0.0
 40
0.114644
  1
 
 41
0.5473989044289597
  7
SN0
 72
     5
 11
8416.822354152893
 21
945.5803912264231
 31
0.0
100
AcDbText
  0
TEXT
  5
C398
330
20
100
AcDbEntity
  8
LAYER_1
 62
    39
100
AcDbText
 10
8417.343724152894
 20
945.5803912264231
 30
0.0
 40
0.114644
  1
 
 41
0.5473989044289598
  7
SN0
 72
     5
 11
8417.406480152893
 21
945.5803912264231
 31
0.0
100
AcDbText
  0
TEXT
  5
C39A
330
20
100
AcDbEntity
  8
LAYER_1
 62
    39
100
AcDbText
 10
8417.613976152894
 20
945.5803912264231
 30
0.0
 40
0.114644
  1
 
 41
0.5473989044289598
  7
SN0
 72
     5
 11
8417.676732152893
 21
945.5803912264231
 31
0.0
100
AcDbText
  0
TEXT
  5
C39C
330
20
100
AcDbEntity
  8
LAYER_1
 62
    39
100
AcDbText
 10
8418.072220152893
 20
945.5803912264231
 30
0.0
 40
0.114644
  1
 
 41
0.5473989044289598
  7
SN0
 72
     5
 11
8418.134976152893
 21
945.5803912264231
 31
0.0
100
AcDbText
  0
TEXT
  5
C3A2
330
20
100
AcDbEntity
  8
LAYER_1
 62
    39
100
AcDbText
 10
8417.262850152894
 20
945.4520172264231
 30
0.0
 40
0.114644
  1
 
 41
0.5473989044289597
  7
SN0
 72
     5
 11
8417.325606152893
 21
945.4520172264231
 31
0.0
100
AcDbText
  0
TEXT
  5
C3A4
330
20
100
AcDbEntity
  8
LAYER_1
 62
    39
100
AcDbText
 10
8417.505724152894
 20
945.4520172264231
 30
0.0
 40
0.114644
  1
 
 41
0.5473989044289597
  7
SN0
 72
     5
 11
8417.568480152892
 21
945.4520172264231
 31
0.0
100
AcDbText
  0
TEXT
  5
C3A6
330
20
100
AcDbEntity
  8
LAYER_1
 62
    39
100
AcDbText
 10
8417.839220152893
 20
945.4520172264231
 30
0.0
 40
0.114644
  1
 
 41
0.5473989044448262
  7
SN0
 72
     5
 11
8417.901976152895
 21
945.4520172264231
 31
0.0
100
AcDbText
  0
TEXT
  5
C3AD
330
20
100
AcDbEntity
  8
LAYER_1
 62
    39
100
AcDbText
 10
8416.938724152894
 20
945.3236432264231
 30
0.0
 40
0.114644
  1
 
 41
0.5473989044448261
  7
SN0
 72
     5
 11
8417.001480152896
 21
945.3236432264231
 31
0.0
100
AcDbText
  0
TEXT
  5
C3AF
330
20
100
AcDbEntity
  8
LAYER_1
 62
    39
100
AcDbText
 10
8417.379476152893
 20
945.3236432264231
 30
0.0
 40
0.114644
  1
 
 41
0.5473989044289598
  7
SN0
 72
     5
 11
8417.442232152891
 21
945.3236432264231
 31
0.0
100
AcDbText
  0
TEXT
  5
C3B2
330
20
100
AcDbEntity
  8
LAYER_1
 62
    39
100
AcDbText
 10
8417.802472152892
 20
945.3236432264231
 30
0.0
 40
0.114644
  1
 
 41
0.5473989044448261
  7
SN0
 72
     5
 11
8417.865228152894
 21
945.3236432264231
 31
0.0
100
AcDbText
  0
TEXT
  5
C3B4
330
20
100
AcDbEntity
  8
LAYER_1
 62
    39
100
AcDbText
 10
8418.036472152893
 20
945.3236432264231
 30
0.0
 40
0.114644
  1
 
 41
0.5473989044448261
  7
SN0
 72
     5
 11
8418.099228152895
 21
945.3236432264231
 31
0.0
100
AcDbText
  0
TEXT
  5
C3BB
330
20
100
AcDbEntity
  8
LAYER_1
 62
    39
100
AcDbText
 10
8416.998598152893
 20
945.195265226423
 30
0.0
 40
0.114644
  1
 
 41
0.5473989044289598
  7
SN0
 72
     5
 11
8417.061354152894
 21
945.195265226423
 31
0.0
100
AcDbText
  0
TEXT
  5
C3BD
330
20
100
AcDbEntity
  8
LAYER_1
 62
    39
100
AcDbText
 10
8417.121976152895
 20
945.195265226423
 30
0.0
 40
0.114644
  1
 
 41
0.5473989044289597
  7
SN0
 72
     5
 11
8417.184732152893
 21
945.195265226423
 31
0.0
100
AcDbText
  0
TEXT
  5
C3C2
330
20
100
AcDbEntity
  8
LAYER_1
 62
    39
100
AcDbText
 10
8417.607476152893
 20
945.195265226423
 30
0.0
 40
0.114644
  1
 
 41
0.5473989044448261
  7
SN0
 72
     5
 11
8417.670232152893
 21
945.195265226423
 31
0.0
100
AcDbText
  0
TEXT
  5
C3C5
330
20
100
AcDbEntity
  8
LAYER_1
 62
    39
100
AcDbText
 10
8417.842972152895
 20
945.195265226423
 30
0.0
 40
0.114644
  1
 
 41
0.5473989044289597
  7
SN0
 72
     5
 11
8417.905728152893
 21
945.195265226423
 31
0.0
100
AcDbText
  0
TEXT
  5
C3C7
330
20
100
AcDbEntity
  8
LAYER_1
 62
    39
100
AcDbText
 10
8418.067346152893
 20
945.195265226423
 30
0.0
 40
0.114644
  1
 
 41
0.5473989044448261
  7
SN0
 72
     5
 11
8418.130102152893
 21
945.195265226423
 31
0.0
100
AcDbText
  0
TEXT
  5
C3CA
330
20
100
AcDbEntity
  8
LAYER_1
 62
    39
100
AcDbText
 10
8416.801224152894
 20
945.0653912264231
 30
0.0
 40
0.114644
  1
 
 41
0.5473989044289598
  7
SN0
 72
     5
 11
8416.863980152895
 21
945.0653912264231
 31
0.0
100
AcDbText
  0
TEXT
  5
C3CC
330
20
100
AcDbEntity
  8
LAYER_1
 62
    39
100
AcDbText
 10
8417.108598152895
 20
945.0653912264231
 30
0.0
 40
0.114644
  1
 
 41
0.5473989044289598
  7
SN0
 72
     5
 11
8417.171354152893
 21
945.0653912264231
 31
0.0
100
AcDbText
  0
TEXT
  5
C3CE
330
20
100
AcDbEntity
  8
LAYER_1
 62
    39
100
AcDbText
 10
8417.353224152895
 20
945.0653912264231
 30
0.0
 40
0.114644
  1
 
 41
0.5473989044289598
  7
SN0
 72
     5
 11
8417.415980152894
 21
945.0653912264231
 31
0.0
100
AcDbText
  0
TEXT
  5
C3D0
330
20
100
AcDbEntity
  8
LAYER_1
 62
    39
100
AcDbText
 10
8417.625976152892
 20
945.0653912264231
 30
0.0
 40
0.114644
  1
 
 41
0.5473989044448262
  7
SN0
 72
     5
 11
8417.688732152894
 21
945.0653912264231
 31
0.0
100
AcDbText
  0
TEXT
  5
C3D3
330
20
100
AcDbEntity
  8
LAYER_1
 62
    39
100
AcDbText
 10
8417.930346152894
 20
945.0653912264231
 30
0.0
 40
0.114644
  1
 
 41
0.5473989044289598
  7
SN0
 72
     5
 11
8417.993102152895
 21
945.0653912264231
 31
0.0
100
AcDbText
  0
TEXT
  5
C3D5
330
20
100
AcDbEntity
  8
LAYER_1
 62
    39
100
AcDbText
 10
8418.108720152893
 20
945.0653912264231
 30
0.0
 40
0.114644
  1
 
 41
0.5473989044289597
  7
SN0
 72
     5
 11
8418.171476152894
 21
945.0653912264231
 31
0.0
100
AcDbText
  0
TEXT
  5
C3D8
330
20
100
AcDbEntity
  8
LAYER_1
 62
    39
100
AcDbText
 10
8416.950724152894
 20
944.9370212264231
 30
0.0
 40
0.114644
  1
 
 41
0.5473989044289598
  7
SN0
 72
     5
 11
8417.013480152894
 21
944.9370212264231
 31
0.0
100
AcDbText
  0
TEXT
  5
C3DA
330
20
100
AcDbEntity
  8
LAYER_1
 62
    39
100
AcDbText
 10
8417.186850152893
 20
944.9370212264231
 30
0.0
 40
0.114644
  1
 
 41
0.5473989044289597
  7
SN0
 72
     5
 11
8417.249606152893
 21
944.9370212264231
 31
0.0
100
AcDbText
  0
TEXT
  5
C3E3
330
20
100
AcDbEntity
  8
LAYER_1
 62
    39
100
AcDbText
 10
8414.019003152892
 20
944.3701862264232
 30
0.0
 40
0.114644
  1
 
 41
0.5474076271022574
  7
SN0
 72
     5
 11
8414.081760152894
 21
944.3701862264232
 31
0.0
100
AcDbText
  0
TEXT
  5
C3E5
330
20
100
AcDbEntity
  8
LAYER_1
 62
    39
100
AcDbText
 10
8414.431625152893
 20
944.3701862264232
 30
0.0
 40
0.114644
  1
 
 41
0.5474076271022574
  7
SN0
 72
     5
 11
8414.494382152893
 21
944.3701862264232
 31
0.0
100
AcDbText
  0
TEXT
  5
C3E7
330
20
100
AcDbEntity
  8
LAYER_1
 62
    39
100
AcDbText
 10
8414.658251152895
 20
944.3701862264232
 30
0.0
 40
0.114644
  1
 
 41
0.547407627086391
  7
SN0
 72
     5
 11
8414.721008152893
 21
944.3701862264232
 31
0.0
100
AcDbText
  0
TEXT
  5
C3E8
330
20
100
AcDbEntity
  8
LAYER_1
 62
    39
100
AcDbText
 10
8414.705003152894
 20
944.3701862264232
 30
0.0
 40
0.114644
  1
 
 41
0.547407627086391
  7
SN0
 72
     5
 11
8414.767760152894
 21
944.3701862264232
 31
0.0
100
AcDbText
  0
TEXT
  5
C3EB
330
20
100
AcDbEntity
  8
LAYER_1
 62
    39
100
AcDbText
 10
8415.222751152894
 20
944.3701862264232
 30
0.0
 40
0.114644
  1
 
 41
0.5474076271022574
  7
SN0
 72
     5
 11
8415.285508152894
 21
944.3701862264232
 31
0.0
100
AcDbText
  0
TEXT
  5
C3EE
330
20
100
AcDbEntity
  8
LAYER_1
 62
    39
100
AcDbText
 10
8415.649877152892
 20
944.3701862264232
 30
0.0
 40
0.114644
  1
 
 41
0.5474076270863908
  7
SN0
 72
     5
 11
8415.712634152894
 21
944.3701862264232
 31
0.0
100
AcDbText
  0
TEXT
  5
C3F0
330
20
100
AcDbEntity
  8
LAYER_1
 62
    39
100
AcDbText
 10
8415.832377152893
 20
944.3701862264232
 30
0.0
 40
0.114644
  1
 
 41
0.547407627086391
  7
SN0
 72
     5
 11
8415.895134152894
 21
944.3701862264232
 31
0.0
100
AcDbText
  0
TEXT
  5
C3F3
330
20
100
AcDbEntity
  8
LAYER_1
 62
    39
100
AcDbText
 10
8414.169125152893
 20
944.2370602264231
 30
0.0
 40
0.114644
  1
 
 41
0.547407627086391
  7
SN0
 72
     5
 11
8414.231882152893
 21
944.2370602264231
 31
0.0
100
AcDbText
  0
TEXT
  5
C3F7
330
20
100
AcDbEntity
  8
LAYER_1
 62
    39
100
AcDbText
 10
8414.434377152893
 20
944.2370602264231
 30
0.0
 40
0.114644
  1
 
 41
0.547407627086391
  7
SN0
 72
     5
 11
8414.497134152894
 21
944.2370602264231
 31
0.0
100
AcDbText
  0
TEXT
  5
C3FA
330
20
100
AcDbEntity
  8
LAYER_1
 62
    39
100
AcDbText
 10
8414.776251152892
 20
944.2370602264231
 30
0.0
 40
0.114644
  1
 
 41
0.5474076271022574
  7
SN0
 72
     5
 11
8414.839008152894
 21
944.2370602264231
 31
0.0
100
AcDbText
  0
TEXT
  5
C3FC
330
20
100
AcDbEntity
  8
LAYER_1
 62
    39
100
AcDbText
 10
8415.040625152894
 20
944.2370602264231
 30
0.0
 40
0.114644
  1
 
 41
0.547407627086391
  7
SN0
 72
     5
 11
8415.103382152892
 21
944.2370602264231
 31
0.0
100
AcDbText
  0
TEXT
  5
C3FE
330
20
100
AcDbEntity
  8
LAYER_1
 62
    39
100
AcDbText
 10
8415.444877152893
 20
944.2370602264231
 30
0.0
 40
0.114644
  1
 
 41
0.547407627086391
  7
SN0
 72
     5
 11
8415.507634152893
 21
944.2370602264231
 31
0.0
100
AcDbText
  0
TEXT
  5
C401
330
20
100
AcDbEntity
  8
LAYER_1
 62
    39
100
AcDbText
 10
8414.011877152894
 20
944.0346862264231
 30
0.0
 40
0.114644
  1
 
 41
0.547407627086391
  7
SN0
 72
     5
 11
8414.074634152894
 21
944.0346862264231
 31
0.0
100
AcDbText
  0
TEXT
  5
C403
330
20
100
AcDbEntity
  8
LAYER_1
 62
    39
100
AcDbText
 10
8414.433377152894
 20
944.0346862264231
 30
0.0
 40
0.114644
  1
 
 41
0.5474076271022574
  7
SN0
 72
     5
 11
8414.496134152894
 21
944.0346862264231
 31
0.0
100
AcDbText
  0
TEXT
  5
C405
330
20
100
AcDbEntity
  8
LAYER_1
 62
    39
100
AcDbText
 10
8414.733003152893
 20
944.0346862264231
 30
0.0
 40
0.114644
  1
 
 41
0.5474076271022574
  7
SN0
 72
     5
 11
8414.795760152895
 21
944.0346862264231
 31
0.0
100
AcDbText
  0
TEXT
  5
C409
330
20
100
AcDbEntity
  8
LAYER_1
 62
    39
100
AcDbText
 10
8415.187503152894
 20
944.0346862264231
 30
0.0
 40
0.114644
  1
 
 41
0.547407627086391
  7
SN0
 72
     5
 11
8415.250260152893
 21
944.0346862264231
 31
0.0
100
AcDbText
  0
TEXT
  5
C40B
330
20
100
AcDbEntity
  8
LAYER_1
 62
    39
100
AcDbText
 10
8415.402125152894
 20
944.0346862264231
 30
0.0
 40
0.114644
  1
 
 41
0.547407627086391
  7
SN0
 72
     5
 11
8415.464882152894
 21
944.0346862264231
 31
0.0
100
AcDbText
  0
TEXT
  5
C415
330
20
100
AcDbEntity
  8
LAYER_1
 62
    39
100
AcDbText
 10
8416.723196152894
 20
944.3701862264232
 30
0.0
 40
0.114644
  1
 
 41
0.5474076270863908
  7
SN0
 72
     5
 11
8416.785953152894
 21
944.3701862264232
 31
0.0
100
AcDbText
  0
TEXT
  5
C418
330
20
100
AcDbEntity
  8
LAYER_1
 62
    39
100
AcDbText
 10
8417.433822152894
 20
944.3701862264232
 30
0.0
 40
0.114644
  1
 
 41
0.547407627086391
  7
SN0
 72
     5
 11
8417.496579152894
 21
944.3701862264232
 31
0.0
100
AcDbText
  0
TEXT
  5
C41A
330
20
100
AcDbEntity
  8
LAYER_1
 62
    39
100
AcDbText
 10
8417.715066152894
 20
944.3701862264232
 30
0.0
 40
0.114644
  1
 
 41
0.547407627086391
  7
SN0
 72
     5
 11
8417.777823152894
 21
944.3701862264232
 31
0.0
100
AcDbText
  0
TEXT
  5
C41C
330
20
100
AcDbEntity
  8
LAYER_1
 62
    39
100
AcDbText
 10
8418.240318152895
 20
944.3701862264232
 30
0.0
 40
0.114644
  1
 
 41
0.547407627086391
  7
SN0
 72
     5
 11
8418.303075152893
 21
944.3701862264232
 31
0.0
100
AcDbText
  0
TEXT
  5
C420
330
20
100
AcDbEntity
  8
LAYER_1
 62
    39
100
AcDbText
 10
8416.792696152894
 20
944.2370602264231
 30
0.0
 40
0.114644
  1
 
 41
0.5474076270863908
  7
SN0
 72
     5
 11
8416.855453152894
 21
944.2370602264231
 31
0.0
100
AcDbText
  0
TEXT
  5
C422
330
20
100
AcDbEntity
  8
LAYER_1
 62
    39
100
AcDbText
 10
8416.930444152894
 20
944.2370602264231
 30
0.0
 40
0.114644
  1
 
 41
0.5474076270863908
  7
SN0
 72
     5
 11
8416.993201152893
 21
944.2370602264231
 31
0.0
100
AcDbText
  0
TEXT
  5
C425
330
20
100
AcDbEntity
  8
LAYER_1
 62
    39
100
AcDbText
 10
8417.515196152894
 20
944.2370602264231
 30
0.0
 40
0.114644
  1
 
 41
0.547407627086391
  7
SN0
 72
     5
 11
8417.577953152893
 21
944.2370602264231
 31
0.0
100
AcDbText
  0
TEXT
  5
C427
330
20
100
AcDbEntity
  8
LAYER_1
 62
    39
100
AcDbText
 10
8417.645944152893
 20
944.2370602264231
 30
0.0
 40
0.114644
  1
 
 41
0.547407627086391
  7
SN0
 72
     5
 11
8417.708701152893
 21
944.2370602264231
 31
0.0
100
AcDbText
  0
TEXT
  5
C429
330
20
100
AcDbEntity
  8
LAYER_1
 62
    39
100
AcDbText
 10
8418.027318152892
 20
944.2370602264231
 30
0.0
 40
0.114644
  1
 
 41
0.547407627086391
  7
SN0
 72
     5
 11
8418.090075152894
 21
944.2370602264231
 31
0.0
100
AcDbText
  0
TEXT
  5
C5BA
330
20
100
AcDbEntity
  8
LAYER_1
 62
    39
100
AcDbText
 10
8415.236944152892
 20
943.3764782264232
 30
0.0
 40
0.114644
  1
 
 41
0.547407627086391
  7
SN0
 72
     5
 11
8415.299701152894
 21
943.3764782264232
 31
0.0
100
AcDbText
  0
TEXT
  5
C5C1
330
20
100
AcDbEntity
  8
LAYER_1
 62
    39
100
AcDbText
 10
8415.934696152893
 20
941.2378522264232
 30
0.0
 40
0.114644
  1
 
 41
0.547407627086391
  7
SN0
 72
     5
 11
8415.997453152893
 21
941.2378522264232
 31
0.0
100
AcDbText
  0
TEXT
  5
C5C4
330
20
100
AcDbEntity
  8
LAYER_1
 62
    39
100
AcDbText
 10
8415.860570152894
 20
940.9709782264231
 30
0.0
 40
0.114644
  1
 
 41
0.547407627086391
  7
SN0
 72
     5
 11
8415.923327152894
 21
940.9709782264231
 31
0.0
100
AcDbText
  0
TEXT
  5
C5C7
330
20
100
AcDbEntity
  8
LAYER_1
 62
    39
100
AcDbText
 10
8414.679570152895
 20
941.1977302264231
 30
0.0
 40
0.114644
  1
 
 41
0.547407627086391
  7
SN0
 72
     5
 11
8414.742327152893
 21
941.1977302264231
 31
0.0
100
AcDbText
  0
TEXT
  5
C5CB
330
20
100
AcDbEntity
  8
LAYER_1
 62
    39
100
AcDbText
 10
8414.094196152893
 20
942.0654782264231
 30
0.0
 40
0.114644
  1
 
 41
0.547407627086391
  7
SN0
 72
     5
 11
8414.156953152893
 21
942.0654782264231
 31
0.0
100
AcDbText
  0
TEXT
  5
C5CC
330
20
100
AcDbEntity
  8
LAYER_1
 62
    39
100
AcDbText
 10
8414.128944152894
 20
942.0654782264231
 30
0.0
 40
0.114644
  1
 
 41
0.547407627086391
  7
SN0
 72
     5
 11
8414.191701152892
 21
942.0654782264231
 31
0.0
100
AcDbText
  0
TEXT
  5
C5CD
330
20
100
AcDbEntity
  8
LAYER_1
 62
    39
100
AcDbText
 10
8414.163696152893
 20
942.0654782264231
 30
0.0
 40
0.114644
  1
 
 41
0.547407627086391
  7
SN0
 72
     5
 11
8414.226453152892
 21
942.0654782264231
 31
0.0
100
AcDbText
  0
TEXT
  5
C5CF
330
20
100
AcDbEntity
  8
LAYER_1
 62
    39
100
AcDbText
 10
8414.514444152894
 20
942.0654782264231
 30
0.0
 40
0.114644
  1
 
 41
0.547407627086391
  7
SN0
 72
     5
 11
8414.577201152892
 21
942.0654782264231
 31
0.0
100
AcDbText
  0
TEXT
  5
C5D6
330
20
100
AcDbEntity
  8
LAYER_1
 62
    39
100
AcDbText
 10
8415.281944152892
 20
943.519104226423
 30
0.0
 40
0.114644
  1
 
 41
0.547407627086391
  7
SN0
 72
     5
 11
8415.344701152895
 21
943.519104226423
 31
0.0
100
AcDbText
  0
TEXT
  5
C5DA
330
20
100
AcDbEntity
  8
LAYER_1
 62
    39
100
AcDbText
 10
8415.373322152893
 20
942.126978226423
 30
0.0
 40
0.114644
  1
 
 41
0.5474076271022574
  7
SN0
 72
     5
 11
8415.436079152895
 21
942.126978226423
 31
0.0
100
AcDbText
  0
TEXT
  5
C5DE
330
20
100
AcDbEntity
  8
LAYER_1
 62
    39
100
AcDbText
 10
8414.392696152894
 20
943.4348522264231
 30
0.0
 40
0.114644
  1
 
 41
0.547407627086391
  7
SN0
 72
     5
 11
8414.455453152895
 21
943.4348522264231
 31
0.0
100
AcDbText
  0
TEXT
  5
C5E3
330
20
100
AcDbEntity
  8
LAYER_1
 62
    39
100
AcDbText
 10
8413.952444152894
 20
942.3364782264231
 30
0.0
 40
0.114644
  1
 
 41
0.547407627086391
  7
SN0
 72
     5
 11
8414.015201152894
 21
942.3364782264231
 31
0.0
100
AcDbText
  0
TEXT
  5
C5E5
330
20
100
AcDbEntity
  8
LAYER_1
 62
    39
100
AcDbText
 10
8414.109070152894
 20
942.3364782264231
 30
0.0
 40
0.114644
  1
 
 41
0.547407627086391
  7
SN0
 72
     5
 11
8414.171827152893
 21
942.3364782264231
 31
0.0
100
AcDbText
  0
TEXT
  5
C5E8
330
20
100
AcDbEntity
  8
LAYER_1
 62
    39
100
AcDbText
 10
8414.072070152894
 20
942.2049782264231
 30
0.0
 40
0.114644
  1
 
 41
0.547407627086391
  7
SN0
 72
     5
 11
8414.134827152894
 21
942.2049782264231
 31
0.0
100
AcDbText
  0
TEXT
  5
C5EA
330
20
100
AcDbEntity
  8
LAYER_1
 62
    39
100
AcDbText
 10
8414.228822152894
 20
942.2049782264231
 30
0.0
 40
0.114644
  1
 
 41
0.547407627086391
  7
SN0
 72
     5
 11
8414.291579152893
 21
942.2049782264231
 31
0.0
100
AcDbText
  0
TEXT
  5
C5EE
330
20
100
AcDbEntity
  8
LAYER_1
 62
    39
100
AcDbText
 10
8415.989696152895
 20
942.252230226423
 30
0.0
 40
0.114644
  1
 
 41
0.547407627086391
  7
SN0
 72
     5
 11
8416.052453152893
 21
942.252230226423
 31
0.0
100
AcDbText
  0
TEXT
  5
C5F0
330
20
100
AcDbEntity
  8
LAYER_1
 62
    39
100
AcDbText
 10
8416.195070152893
 20
942.252230226423
 30
0.0
 40
0.114644
  1
 
 41
0.547407627086391
  7
SN0
 72
     5
 11
8416.257827152893
 21
942.252230226423
 31
0.0
100
AcDbText
  0
TEXT
  5
C5FA
330
20
100
AcDbEntity
  8
LAYER_1
 62
    39
100
AcDbText
 10
8415.270196152894
 20
942.2916042264231
 30
0.0
 40
0.114644
  1
 
 41
0.5474076271022574
  7
SN0
 72
     5
 11
8415.332953152894
 21
942.2916042264231
 31
0.0
100
AcDbText
  0
TEXT
  5
C603
330
20
100
AcDbEntity
  8
LAYER_1
 62
    39
100
AcDbText
 10
8416.041822152893
 20
941.6916042264231
 30
0.0
 40
0.114644
  1
 
 41
0.5474076271022574
  7
SN0
 72
     5
 11
8416.104579152895
 21
941.6916042264231
 31
0.0
100
AcDbText
  0
TEXT
  5
C60A
330
20
100
AcDbEntity
  8
LAYER_1
 62
    39
100
AcDbText
 10
8416.299169152893
 20
941.8780602264231
 30
0.0
 40
0.114644
  1
 
 41
0.5473989044289598
  7
SN0
 72
     5
 11
8416.361925152893
 21
941.8780602264231
 31
0.0
100
AcDbText
  0
TEXT
  5
C60F
330
20
100
AcDbEntity
  8
LAYER_1
 62
    39
100
AcDbText
 10
8416.288169152892
 20
943.256812226423
 30
0.0
 40
0.114644
  1
 
 41
0.5473989044448261
  7
SN0
 72
     5
 11
8416.350925152894
 21
943.256812226423
 31
0.0
100
AcDbText
  0
LINE
  5
CCF0
330
20
100
AcDbEntity
  8
0
100
AcDbLine
 10
12962.68024317183
 20
1381.427179367447
 30
0.0
 11
12948.41895744033
 21
2033.427179367448
 31
0.0
  0
LINE
  5
CD05
330
20
100
AcDbEntity
  8
0
100
AcDbLine
 10
13112.18517179491
 20
1381.427179367447
 30
0.0
 11
13126.03730744049
 21
2033.427179367448
 31
0.0
  0
LINE
  5
CD20
330
20
100
AcDbEntity
  8
0
100
AcDbLine
 10
12941.1234674399
 20
2033.427179367448
 30
0.0
 11
13134.14752744038
 21
2033.427179367448
 31
0.0
  0
LINE
  5
D37D
330
20
100
AcDbEntity
  8
0
100
AcDbLine
 10
13283.22813244041
 20
2223.427179367448
 30
0.0
 11
12791.22813244041
 21
2223.427179367448
 31
0.0
  0
ARC
  5
D37E
330
20
100
AcDbEntity
  8
0
100
AcDbCircle
 10
13227.97516546816
 20
2432.283703475806
 30
0.0
 40
491.2946401961869
100
AcDbArc
 50
206.0929164056859
 51
234.2768715885277
  0
ARC
  5
D380
330
20
100
AcDbEntity
  8
0
100
AcDbCircle
 10
12791.22813244041
 20
2218.427179367448
 30
0.0
 40
5.0
100
AcDbArc
 50
90.0
 51
206.4704940677707
  0
ARC
  5
D384
330
20
100
AcDbEntity
  8
0
100
AcDbCircle
 10
12846.48109941266
 20
2432.283703475806
 30
0.0
 40
491.2946401961869
100
AcDbArc
 50
305.7231284114724
 51
333.9070835943141
  0
ARC
  5
D385
330
20
100
AcDbEntity
  8
0
100
AcDbCircle
 10
13283.22813244041
 20
2218.427179367448
 30
0.0
 40
5.0
100
AcDbArc
 50
333.5295059322294
 51
90.0
  0
LINE
  5
DC56
330
20
100
AcDbEntity
  8
0
100
AcDbLine
 10
13112.18517179491
 20
1381.427179367447
 30
0.0
 11
12962.68024317183
 21
1381.427179367447
 31
0.0
  0
VIEWPORT
  5
9FB7
330
1C
100
AcDbEntity
 67
     1
  8
0
  6
CENTER
100
AcDbViewport
 10
5.333333052988126
 20
3.999999883606677
 30
0.0
 40
18.50301864068077
 41
8.992999745766947
 68
     1
 69
     1
 12
5.333333052988126
 22
3.999999883606677
 13
0.0
 23
0.0
 14
10.0
 24
10.0
 15
10.0
 25
10.0
 16
0.0
 26
0.0
 36
1.0
 17
0.0
 27
0.0
 37
0.0
 42
50.0
 43
0.0
 44
0.0
 45
8.992999745766947
 50
0.0
 51
0.0
 72
   100
 90
    32800
  1

281
     0
 71
     1
 74
     0
110
0.0
120
0.0
130
0.0
111
1.0
121
0.0
131
0.0
112
0.0
122
1.0
132
0.0
 79
     0
146
0.0
170
     0
1001
GENIUS_GENSCREG_15
1000
PF
1040
1.0
1000
DF
1040
1.0
1000
MIN
1011
-3.918176267352261
1021
-0.4964999892767957
1031
0.0
1000
MAX
1011
14.58484237332851
1021
8.496499756490152
1031
0.0
1000
FLAGS
1070
     4
1001
GENIUS_GENOBJ-N-SDF_13
1002
{
1000
OWNER
1000
GEN
1002
}
1001
GENIUS_GENODEF_13
1002
{
1000
HIER
1070
     0
1002
}
1002
{
1000
MANEDIT
1070
     0
1002
}
1002
{
1000
NOSEL
1070
     0
1002
}
1002
{
1000
BEHIND
1070
     0
1002
}
1002
{
1000
OTHER
1070
     0
1002
}
1002
{
1000
REACTOR
1002
}
  0
VIEWPORT
  5
9FB9
330
1C
100
AcDbEntity
 67
     1
  8
cen
  6
CENTER
100
AcDbViewport
 10
5.333332968509102
 20
4.000000061951284
 30
0.0
 40
8.533332749614565
 41
6.400000099122054
 68
     2
 69
     2
 12
1538.380777416714
 22
296.6729087874345
 13
0.0
 23
0.0
 14
1.0
 24
1.0
 15
0.0
 25
0.0
 16
0.0
 26
0.0
 36
1.0
 17
0.0
 27
0.0
 37
0.0
 42
50.0
 43
0.0
 44
0.0
 45
2376.715200016612
 50
0.0
 51
0.0
 72
   100
 90
    32800
  1

281
     0
 71
     1
 74
     0
110
0.0
120
0.0
130
0.0
111
1.0
121
0.0
131
0.0
112
0.0
122
1.0
132
0.0
 79
     0
146
0.0
170
     0
1001
GENIUS_GENSCREG_15
1000
PF
1040
0.0
1000
DF
1040
0.0
1000
MIN
1011
1.066666593701819
1021
0.8000000123902566
1031
0.0
1000
MAX
1011
9.599999343316385
1021
7.200000111512311
1031
0.0
1000
FLAGS
1070
     4
1001
GENIUS_GENODEF_13
1002
{
1000
HIER
1070
     0
1002
}
1002
{
1000
MANEDIT
1070
     0
1002
}
1002
{
1000
NOSEL
1070
     0
1002
}
1002
{
1000
BEHIND
1070
     0
1002
}
1002
{
1000
OTHER
1070
     0
1002
}
1002
{
1000
REACTOR
1002
}
1001
GENIUS_GENOBJ-N-SDF_13
1002
{
1000
OWNER
1000
GEN
1002
}
  0
ENDSEC
  0
SECTION
  2
OBJECTS
  0
DICTIONARY
  5
C
330
0
100
AcDbDictionary
281
     1
  3
ACAD_COLOR
350
1B
  3
ACAD_GROUP
350
D
  3
ACAD_LAYOUT
350
19
  3
ACAD_MATERIAL
350
1A
  3
ACAD_MLINESTYLE
350
16
  3
ACAD_PLOTSETTINGS
350
18
  3
ACAD_PLOTSTYLENAME
350
E
  3
ACAD_TABLESTYLE
350
DB86
  3
AcDbVariableDictionary
350
DC46
  3
AcmDictionary
350
DBEC
  3
AMG
350
DB94
  3
AMGSNAPSETTINGS
350
DC4C
  3
ASE_INDEX_DICTIONARY
350
DC42
  0
DICTIONARY
  5
DC54
330
20
100
AcDbDictionary
280
     1
281
     1
  3
ACAD_SORTENTS
360
DC55
  0
DICTIONARY
  5
1B
102
{ACAD_REACTORS
330
C
102
}
330
C
100
AcDbDictionary
281
     1
  0
DICTIONARY
  5
D
102
{ACAD_REACTORS
330
C
102
}
330
C
100
AcDbDictionary
281
     1
  0
DICTIONARY
  5
19
102
{ACAD_REACTORS
330
C
102
}
330
C
100
AcDbDictionary
281
     1
  3
Model
350
23
  3
布局1
350
1F
  0
DICTIONARY
  5
1A
102
{ACAD_REACTORS
330
C
102
}
330
C
100
AcDbDictionary
281
     1
  0
DICTIONARY
  5
16
102
{ACAD_REACTORS
330
C
102
}
330
C
100
AcDbDictionary
281
     1
  3
Standard
350
17
  0
DICTIONARY
  5
18
102
{ACAD_REACTORS
330
C
102
}
330
C
100
AcDbDictionary
281
     1
  0
ACDBDICTIONARYWDFLT
  5
E
102
{ACAD_REACTORS
330
C
102
}
330
C
100
AcDbDictionary
281
     1
  3
Normal
350
F
100
AcDbDictionaryWithDefault
340
F
  0
DICTIONARY
  5
DB86
102
{ACAD_REACTORS
330
C
102
}
330
C
100
AcDbDictionary
281
     1
  3
Standard
350
DB87
  0
DICTIONARY
  5
DC46
102
{ACAD_REACTORS
330
C
102
}
330
C
100
AcDbDictionary
281
     1
  3
CTABLESTYLE
350
DC47
  0
DICTIONARY
  5
DBEC
102
{ACAD_REACTORS
330
C
102
}
330
C
100
AcDbDictionary
281
     1
  3
AcmStdDictionary
350
DBF7
  3
AMDTSECTSYM_ARROWCOLOR
350
DC14
  0
DICTIONARY
  5
DB94
102
{ACAD_REACTORS
330
C
102
}
330
C
100
AcDbDictionary
281
     1
  0
DICTIONARY
  5
DC4C
102
{ACAD_REACTORS
330
C
102
}
330
C
100
AcDbDictionary
281
     1
  0
DICTIONARY
  5
DC42
102
{ACAD_REACTORS
330
C
102
}
330
C
100
AcDbDictionary
281
     1
  3
ASEBlockHierarchyIndexRecord
350
DC44
1001
DCO15
1040
1629624917.658
  0
SORTENTSTABLE
  5
DC55
102
{ACAD_REACTORS
330
DC54
102
}
330
DC54
100
AcDbSortentsTable
330
20
331
C33B
  5
C33B
331
C353
  5
C353
331
C429
  5
C429
331
C5F0
  5
C5F0
331
C3FA
  5
C3FA
331
C3BB
  5
C3BB
331
C5C1
  5
C5C1
331
C39A
  5
C39A
331
C3A2
  5
C3A2
331
C373
  5
C373
331
CCF0
  5
CCF0
331
C3D3
  5
C3D3
331
C41A
  5
C41A
331
D37E
  5
D384
331
CD20
  5
CD20
331
C3E3
  5
C3E3
331
C422
  5
C422
331
C3EB
  5
C3EB
331
C37B
  5
C37B
331
C344
  5
C344
331
C3B4
  5
C3B4
331
C3F3
  5
C3F3
331
C5BA
  5
C5BA
331
C403
  5
C403
331
C3CC
  5
C3CC
331
C40B
  5
C40B
331
C364
  5
C364
331
C36C
  5
C36C
331
C5DA
  5
C5DA
331
C5EA
  5
C5EA
331
C5FA
  5
C5FA
331
C3FC
  5
C3FC
331
C3BD
  5
C3BD
331
C3C5
  5
C3C5
331
C5CB
  5
C5CB
331
C60A
  5
C60A
331
C35D
  5
C35D
331
C39C
  5
C39C
331
C3A4
  5
C3A4
331
C29E
  5
C29E
331
C375
  5
C375
331
C3D5
  5
C3D5
331
C41C
  5
C41C
331
C5E3
  5
C5E3
331
C3E5
  5
C3E5
331
D380
  5
D385
331
C34E
  5
C34E
331
C38D
  5
C38D
331
C405
  5
C405
331
C5C4
  5
C5C4
331
C603
  5
C603
331
C3CE
  5
C3CE
331
C5CC
  5
C5CC
331
C366
  5
C366
331
C3AD
  5
C3AD
331
C415
  5
C415
331
C425
  5
C425
331
C3EE
  5
C3EE
331
C33F
  5
C33F
331
DC56
  5
CE11
331
C396
  5
C396
331
C357
  5
C357
331
C3FE
  5
C3FE
331
C3C7
  5
C3C7
331
C5CD
  5
C5CD
331
C35F
  5
C35F
331
C3A6
  5
C3A6
331
C377
  5
C377
331
C5E5
  5
C5E5
331
C3E7
  5
C3E7
331
C37F
  5
C37F
331
C387
  5
C387
331
C348
  5
C348
331
C38F
  5
C38F
331
C3F7
  5
C3F7
331
C291
  5
C291
331
C368
  5
C368
331
C3AF
  5
C3AF
331
C3D0
  5
C3D0
331
C5D6
  5
C5D6
331
C3D8
  5
C3D8
331
C5DE
  5
C5DE
331
CD05
  5
CD05
331
C427
  5
C427
331
C3E8
  5
C3E8
331
C5EE
  5
C5EE
331
C339
  5
C339
331
C341
  5
C341
331
C351
  5
C351
331
C3F0
  5
C3F0
331
C5C7
  5
C5C7
331
C5CF
  5
C5CF
331
C398
  5
C398
331
C359
  5
C359
331
C361
  5
C361
331
C371
  5
C371
331
C418
  5
C418
331
C420
  5
C420
331
D384
  5
D389
331
C379
  5
C379
331
C34A
  5
C34A
331
C391
  5
C391
331
C3B2
  5
C3B2
331
C401
  5
C401
331
C3C2
  5
C3C2
331
C3CA
  5
C3CA
331
C409
  5
C409
331
C60F
  5
C60F
331
C36A
  5
C36A
331
C3DA
  5
C3DA
331
D37D
  5
D380
331
D385
  5
D38A
331
C5E8
  5
C5E8
  0
LAYOUT
  5
23
102
{ACAD_REACTORS
330
19
102
}
330
19
100
AcDbPlotSettings
  1

  2
\\D2W8y11x\HP LaserJet 6L Pro (PCL)
  4

  6

 40
0.0
 41
0.0
 42
0.0
 43
0.0
 44
0.0
 45
0.0
 46
0.0
 47
0.0
 48
0.0
 49
0.0
140
0.0
141
0.0
142
1.0
143
1.0
 70
  1712
 72
     0
 73
     0
 74
     0
  7

 75
     0
147
1.0
 76
     0
 77
     2
 78
   300
148
0.0
149
0.0
100
AcDbLayout
  1
Model
 70
     1
 71
     0
 10
0.0
 20
0.0
 11
12.0
 21
9.0
 12
0.0
 22
0.0
 32
0.0
 14
0.0
 24
0.0
 34
0.0
 15
0.0
 25
0.0
 35
0.0
146
0.0
 13
0.0
 23
0.0
 33
0.0
 16
1.0
 26
0.0
 36
0.0
 17
0.0
 27
1.0
 37
0.0
 76
     0
330
20
  0
LAYOUT
  5
1F
102
{ACAD_REACTORS
330
19
102
}
330
19
100
AcDbPlotSettings
  1

  2
\\D2W8y11x\HP LaserJet 6L Pro (PCL)
  4
Letter
  6

 40
6.349999904632568
 41
4.233341693878173
 42
6.349990844726562
 43
4.23333740234375
 44
215.8999938964844
 45
279.3999938964844
 46
0.0
 47
0.0
 48
0.0
 49
0.0
140
0.0
141
0.0
142
1.0
143
1.0
 70
   688
 72
     0
 73
     1
 74
     5
  7

 75
    16
147
1.0
 76
     0
 77
     2
 78
   300
148
0.0
149
0.0
100
AcDbLayout
  1
布局1
 70
     1
 71
     1
 10
-0.1666668268639272
 20
-0.2499999962453767
 11
10.83333293284018
 21
8.249999763458731
 12
0.0
 22
0.0
 32
0.0
 14
1.066666593701819
 24
0.8000000123902566
 34
0.0
 15
9.599999343316385
 25
7.200000111512311
 35
0.0
146
0.0
 13
0.0
 23
0.0
 33
0.0
 16
1.0
 26
0.0
 36
0.0
 17
0.0
 27
1.0
 37
0.0
 76
     0
330
1C
331
9FB7
  0
MLINESTYLE
  5
17
102
{ACAD_REACTORS
330
16
102
}
330
16
100
AcDbMlineStyle
  2
STANDARD
 70
     0
  3

 62
   256
 51
90.0
 52
90.0
 71
     2
 49
0.5
 62
   256
  6
BYLAYER
 49
-0.5
 62
   256
  6
BYLAYER
  0
ACDBPLACEHOLDER
  5
F
102
{ACAD_REACTORS
330
E
102
}
330
E
  0
TABLESTYLE
  5
DB87
102
{ACAD_REACTORS
330
DB86
102
}
330
DB86
100
AcDbTableStyle
  3
Standard
 70
     0
 71
     0
 40
0.06
 41
0.06
280
     0
281
     0
  7
Standard
140
0.18
170
     2
 62
     0
 63
     7
283
     0
274
    -2
284
     1
 64
     0
275
    -2
285
     1
 65
     0
276
    -2
286
     1
 66
     0
277
    -2
287
     1
 67
     0
278
    -2
288
     1
 68
     0
279
    -2
289
     1
 69
     0
  7
Standard
140
0.25
170
     5
 62
     0
 63
     7
283
     0
274
    -2
284
     1
 64
     0
275
    -2
285
     1
 65
     0
276
    -2
286
     1
 66
     0
277
    -2
287
     1
 67
     0
278
    -2
288
     1
 68
     0
279
    -2
289
     1
 69
     0
  7
Standard
140
0.18
170
     5
 62
     0
 63
     7
283
     0
274
    -2
284
     1
 64
     0
275
    -2
285
     1
 65
     0
276
    -2
286
     1
 66
     0
277
    -2
287
     1
 67
     0
278
    -2
288
     1
 68
     0
279
    -2
289
     1
 69
     0
  0
DICTIONARYVAR
  5
DC47
102
{ACAD_REACTORS
330
DC46
102
}
330
DC46
100
DictionaryVariables
280
     0
  1
STANDARD
  0
DICTIONARY
  5
DBF7
102
{ACAD_REACTORS
330
DBEC
102
}
330
DBEC
100
AcDbDictionary
281
     1
  0
XRECORD
  5
DC14
102
{ACAD_REACTORS
330
DBEC
102
}
330
DBEC
100
AcDbXrecord
280
     1
 90
-1023410169
  0
XRECORD
  5
DC44
102
{ACAD_REACTORS
330
DC42
102
}
330
DC42
100
AcDbXrecord
280
     1
330
DB7C
330
DB7D
330
D3A9
330
D3AA
330
D3B7
330
D3B8
330
D3C5
330
D3C6
330
D3D3
330
D3D4
330
D3E2
330
D3E3
330
D464
330
D465
330
D40A
330
D40B
330
D416
330
D417
330
D424
330
D425
330
D490
330
D491
330
D440
330
D441
330
D46E
330
D46F
330
D4B1
330
D4A9
330
D4FD
330
D4FE
330
D50C
330
DB4A
  0
ENDSEC
  0
EOF
