  0
SECTION
  2
HEADER
  9
$ACADVER
  1
AC1009
  9
$INSBASE
 10
4804.8667736947372759
 20
277.6101464378131141
 30
0.0
  9
$EXTMIN
 10
4788.3667737165351355
 20
268.3501464378131232
 30
0.0
  9
$EXTMAX
 10
4821.3667736729366879
 20
278.1701464378131732
 30
0.0
  9
$LIMMIN
 10
0.0
 20
0.0
  9
$LIMMAX
 10
11.6929133858000007
 20
8.2677165353999982
  9
$ORTHOMODE
 70
     1
  9
$REGENMODE
 70
     1
  9
$FILLMODE
 70
     1
  9
$QTEXTMODE
 70
     0
  9
$MIRRTEXT
 70
     0
  9
$DRAGMODE
 70
     2
  9
$LTSCALE
 40
0.6431102362
  9
$OSMODE
 70
  4095
  9
$ATTMODE
 70
     1
  9
$TEXTSIZE
 40
0.2
  9
$TRACEWID
 40
0.05
  9
$TEXTSTYLE
  7
STANDARD
  9
$CLAYER
  8
0
  9
$CELTYPE
  6
BYLAYER
  9
$CECOLOR
 62
   256
  9
$DIMSCALE
 40
1.0
  9
$DIMASZ
 40
0.1875
  9
$DIMEXO
 40
0.0625
  9
$DIMDLI
 40
0.4443307087
  9
$DIMRND
 40
0.0
  9
$DIMDLE
 40
0.0
  9
$DIMEXE
 40
0.125
  9
$DIMTP
 40
0.01
  9
$DIMTM
 40
0.01
  9
$DIMTXT
 40
2.0
  9
$DIMCEN
 40
0.1052362205
  9
$DIMTSZ
 40
0.0
  9
$DIMTOL
 70
     1
  9
$DIMLIM
 70
     0
  9
$DIMTIH
 70
     1
  9
$DIMTOH
 70
     1
  9
$DIMSE1
 70
     0
  9
$DIMSE2
 70
     0
  9
$DIMTAD
 70
     0
  9
$DIMZIN
 70
     0
  9
$DIMBLK
  1

  9
$DIMASO
 70
     1
  9
$DIMSHO
 70
     1
  9
$DIMPOST
  1
\X
  9
$DIMAPOST
  1

  9
$DIMALT
 70
     1
  9
$DIMALTD
 70
     2
  9
$DIMALTF
 40
25.3999999999999986
  9
$DIMLFAC
 40
1.0
  9
$DIMTOFL
 70
     0
  9
$DIMTVP
 40
0.0
  9
$DIMTIX
 70
     0
  9
$DIMSOXD
 70
     0
  9
$DIMSAH
 70
     0
  9
$DIMBLK1
  1

  9
$DIMBLK2
  1

  9
$DIMSTYLE
  2
STANDARD
  9
$DIMCLRD
 70
     0
  9
$DIMCLRE
 70
     0
  9
$DIMCLRT
 70
     0
  9
$DIMTFAC
 40
1.0
  9
$DIMGAP
 40
0.09
  9
$LUNITS
 70
     2
  9
$LUPREC
 70
     4
  9
$SKETCHINC
 40
0.1
  9
$FILLETRAD
 40
0.0
  9
$AUNITS
 70
     0
  9
$AUPREC
 70
     0
  9
$MENU
  1
.
  9
$ELEVATION
 40
0.0
  9
$PELEVATION
 40
0.0
  9
$THICKNESS
 40
0.0
  9
$LIMCHECK
 70
     0
  9
$BLIPMODE
 70
     0
  9
$CHAMFERA
 40
0.0
  9
$CHAMFERB
 40
0.0
  9
$SKPOLY
 70
     0
  9
$TDCREATE
 40
2458060.468368056230247
  9
$TDUPDATE
 40
2459310.6579166669398546
  9
$TDINDWG
 40
0.3553542824
  9
$TDUSRTIMER
 40
0.3553542824
  9
$USRTIMER
 70
     1
  9
$ANGBASE
 50
0.0
  9
$ANGDIR
 70
     0
  9
$PDMODE
 70
     0
  9
$PDSIZE
 40
0.3125
  9
$PLINEWID
 40
0.0
  9
$COORDS
 70
     1
  9
$SPLFRAME
 70
     0
  9
$SPLINETYPE
 70
     6
  9
$SPLINESEGS
 70
     8
  9
$ATTDIA
 70
     1
  9
$ATTREQ
 70
     1
  9
$HANDLING
 70
     1
  9
$HANDSEED
  5
CB28
  9
$SURFTAB1
 70
     6
  9
$SURFTAB2
 70
     6
  9
$SURFTYPE
 70
     6
  9
$SURFU
 70
     6
  9
$SURFV
 70
     6
  9
$UCSNAME
  2

  9
$UCSORG
 10
0.0
 20
0.0
 30
0.0
  9
$UCSXDIR
 10
1.0
 20
0.0
 30
0.0
  9
$UCSYDIR
 10
0.0
 20
1.0
 30
0.0
  9
$PUCSNAME
  2

  9
$PUCSORG
 10
0.0
 20
0.0
 30
0.0
  9
$PUCSXDIR
 10
1.0
 20
0.0
 30
0.0
  9
$PUCSYDIR
 10
0.0
 20
1.0
 30
0.0
  9
$USERI1
 70
     0
  9
$USERI2
 70
     0
  9
$USERI3
 70
     0
  9
$USERI4
 70
     0
  9
$USERI5
 70
     0
  9
$USERR1
 40
0.0
  9
$USERR2
 40
0.0
  9
$USERR3
 40
0.0
  9
$USERR4
 40
0.0
  9
$USERR5
 40
0.0
  9
$WORLDVIEW
 70
     1
  9
$SHADEDGE
 70
     3
  9
$SHADEDIF
 70
    70
  9
$TILEMODE
 70
     1
  9
$MAXACTVP
 70
    64
  9
$PLIMCHECK
 70
     0
  9
$PEXTMIN
 10
1.0000000000000000E+20
 20
1.0000000000000000E+20
 30
1.0000000000000000E+20
  9
$PEXTMAX
 10
-1.0000000000000000E+20
 20
-1.0000000000000000E+20
 30
-1.0000000000000000E+20
  9
$PLIMMIN
 10
0.0
 20
0.0
  9
$PLIMMAX
 10
12.0
 20
9.0
  9
$UNITMODE
 70
     0
  9
$VISRETAIN
 70
     1
  9
$PLINEGEN
 70
     0
  9
$PSLTSCALE
 70
     1
  0
ENDSEC
  0
SECTION
  2
TABLES
  0
TABLE
  2
VPORT
 70
     1
  0
VPORT
  2
*ACTIVE
 70
     0
 10
0.0
 20
0.0
 11
1.0
 21
1.0
 12
0.0
 22
0.0
 13
0.0
 23
0.0
 14
1.0
 24
1.0
 15
0.0
 25
0.0
 16
0.0
 26
0.0
 36
98.2492341309016126
 17
4804.86669921875
 27
273.2601470947265057
 37
0.0
 40
34.4408752854314031
 41
2.1375838926174491
 42
50.0
 43
0.0
 44
0.0
 50
0.0
 51
0.0
 71
     0
 72
   100
 73
     1
 74
     1
 75
     0
 76
     0
 77
     0
 78
     0
  0
ENDTAB
  0
TABLE
  2
LTYPE
 70
     2
  0
LTYPE
  2
CONTINUOUS
 70
     0
  3
Solid line
 72
    65
 73
     0
 40
0.0
  0
LTYPE
  2
PHANTOM2
 70
     0
  3
___ _ _ ___ _ _ ___ _ _ ___ _ _
 72
    65
 73
     6
 40
1.25
 49
0.625
 49
-0.125
 49
0.125
 49
-0.125
 49
0.125
 49
-0.125
  0
ENDTAB
  0
TABLE
  2
LAYER
 70
     2
  0
LAYER
  2
0
 70
     0
 62
   255
  6
CONTINUOUS
  0
LAYER
  2
DEFPOINTS
 70
     0
 62
     7
  6
CONTINUOUS
  0
ENDTAB
  0
TABLE
  2
STYLE
 70
     1
  0
STYLE
  2
STANDARD
 70
     0
 40
0.0
 41
0.8
 50
0.0
 71
     0
 42
0.2
  3
txt
  4

  0
ENDTAB
  0
TABLE
  2
VIEW
 70
     0
  0
ENDTAB
  0
TABLE
  2
UCS
 70
     0
  0
ENDTAB
  0
TABLE
  2
APPID
 70
     9
  0
APPID
  2
ACAD
 70
     0
  0
APPID
  2
ACAD_MLEADERVER
 70
     0
  0
APPID
  2
ACAD_EXEMPT_FROM_CAD_STANDARDS
 70
     0
  0
APPID
  2
ACAD_NAV_VCDISPLAY
 70
     0
  0
APPID
  2
ACAECLAYERSTANDARD
 70
     0
  0
APPID
  2
ACCMTRANSPARENCY
 70
     0
  0
APPID
  2
ACAD_DSTYLE_DIMJAG
 70
     0
  0
APPID
  2
ACAD_DSTYLE_DIMTALN
 70
     0
  0
APPID
  2
ACDBATTR
 70
     0
  0
ENDTAB
  0
TABLE
  2
DIMSTYLE
 70
     1
  0
DIMSTYLE
  2
STANDARD
 70
     0
  3

  4

  5

  6

  7

 40
1.0
 41
0.1875
 42
0.0625
 43
0.38
 44
0.125
 45
0.0
 46
0.0
 47
0.01
 48
0.01
140
0.15625
141
0.09
142
0.0
143
25.3999999999999986
144
1.0
145
0.0
146
1.0
147
0.09
 71
     1
 72
     0
 73
     1
 74
     1
 75
     0
 76
     0
 77
     0
 78
     4
170
     0
171
     2
172
     0
173
     0
174
     0
175
     0
176
     0
177
     0
178
     0
  0
ENDTAB
  0
ENDSEC
  0
SECTION
  2
BLOCKS
  0
BLOCK
  8
0
  2
$MODEL_SPACE
 70
     0
 10
0.0
 20
0.0
 30
0.0
  3
$MODEL_SPACE
  1

  0
ENDBLK
  5
21
  8
0
  0
BLOCK
 67
     1
  8
0
  2
$PAPER_SPACE
 70
     0
 10
0.0
 20
0.0
 30
0.0
  3
$PAPER_SPACE
  1

  0
ENDBLK
  5
1D
 67
     1
  8
0
  0
ENDSEC
  0
SECTION
  2
ENTITIES
  0
ATTDEF
  5
3930
  8
DEFPOINTS
 10
4804.8614155794039107
 20
277.6083005934348762
 30
0.0
 40
0.001
  1
K-8669-1A2
  3

  2
MODELNUMBER
 70
     0
1001
ACDBATTR
1070
     0
1070
     1
  0
ATTDEF
  5
3931
  8
DEFPOINTS
 10
4804.8614155794039107
 20
277.606633926768211
 30
0.0
 40
0.001
  1
RIVERBY
  3

  2
TRADENAME
 70
     0
1001
ACDBATTR
1070
     0
1070
     1
  0
ATTDEF
  5
3932
  8
DEFPOINTS
 10
4804.8614155794039107
 20
277.604967260101489
 30
0.0
 40
0.001
  1
KITCHEN SINK
  3

  2
PRODUCT
 70
     0
1001
ACDBATTR
1070
     0
1070
     1
  0
LINE
  5
C9DC
  8
0
 10
4788.3671535009361833
 20
277.6394876423132132
 30
0.0
 11
4788.3878697391246533
 21
277.7569703793122926
 31
0.0
  0
LINE
  5
C9DD
  8
0
 10
4790.1248893433357807
 20
270.1071498187130828
 30
0.0
 11
4789.4865619614347452
 21
277.4032651797131166
 31
0.0
  0
LINE
  5
C9DE
  8
0
 10
4790.8814580443358864
 20
269.1104715570132271
 30
0.0
 11
4790.9307222181359975
 21
268.4059610494131221
 31
0.0
  0
LINE
  5
C9DF
  8
0
 10
4791.6067737907360424
 20
268.9528999974132262
 30
0.0
 11
4791.5685280937359494
 21
268.4059610494131221
 31
0.0
  0
LINE
  5
C9E0
  8
0
 10
4805.5958205585357064
 20
268.8169536551130818
 30
0.0
 11
4805.6245599611356738
 21
268.4059610494131221
 31
0.0
  0
LINE
  5
C9E1
  8
0
 10
4806.2978964606299996
 20
268.9140726420307033
 30
0.0
 11
4806.2623658368356701
 21
268.4059610494131221
 31
0.0
  0
LINE
  5
C9E2
  8
0
 10
4807.0802907661372956
 20
269.8791716667130913
 30
0.0
 11
4807.6105870389355914
 21
275.9404858005132155
 31
0.0
  0
LINE
  5
C9E3
  8
0
 10
4808.6229603506362764
 20
275.9404858005132155
 30
0.0
 11
4809.1532566234363912
 21
269.8791716667130913
 31
0.0
  0
LINE
  5
C9E4
  8
0
 10
4809.9356583968874475
 20
268.9141112339503934
 30
0.0
 11
4809.9711917192362307
 21
268.4059610494131221
 31
0.0
  0
LINE
  5
C9E5
  8
0
 10
4810.6377278181362271
 20
268.8169536418233179
 30
0.0
 11
4810.608997594936227
 21
268.4059610494131221
 31
0.0
  0
LINE
  5
C9E6
  8
0
 10
4818.1052263871160903
 20
268.8523686429668942
 30
0.0
 11
4817.7013177252347305
 21
268.8382638416131272
 31
0.0
  0
LINE
  5
C9E7
  8
0
 10
4790.990271956736251
 20
268.3501464378131232
 30
0.0
 11
4791.5089788859359032
 21
268.3501464378131232
 31
0.0
  0
LINE
  5
C9E8
  8
0
 10
4805.6841047467360113
 20
268.3501464378131232
 30
0.0
 11
4806.2025119938361968
 21
268.3501464378131232
 31
0.0
  0
LINE
  5
C9E9
  8
0
 10
4810.0307365047347048
 20
268.3501464378131232
 30
0.0
 11
4810.5494532811371755
 21
268.3501464378131232
 31
0.0
  0
LINE
  5
C9EA
  8
0
 10
4818.1985144054360717
 20
268.3501464378131232
 30
0.0
 11
4818.7172306302372817
 21
268.3501464378131232
 31
0.0
  0
LINE
  5
C9EB
  8
0
 10
4799.3371535009346189
 20
268.5301464378130731
 30
0.0
 11
4804.3971535009359286
 21
268.5301464378130731
 31
0.0
  0
LINE
  5
C9EC
  8
0
 10
4811.8363938885358948
 20
268.5301464378130731
 30
0.0
 11
4816.896393888536295
 21
268.5301464378130731
 31
0.0
  0
LINE
  5
C9ED
  8
0
 10
4791.6514382836348886
 20
269.0785463714130969
 30
0.0
 11
4798.5322296642361835
 21
268.8382638416131272
 31
0.0
  0
LINE
  5
C9EE
  8
0
 10
4805.5908665562510578
 20
268.8519388790767266
 30
0.0
 11
4805.2020773376361831
 21
268.8382638416131272
 31
0.0
  0
LINE
  5
C9EF
  8
0
 10
4798.5322296642361835
 20
268.8382638416131272
 30
0.0
 11
4805.2020773376361831
 21
268.8382638416131272
 31
0.0
  0
LINE
  5
C9F0
  8
0
 10
4811.0314700519356848
 20
268.8382638416131272
 30
0.0
 11
4817.7013177252347305
 21
268.8382638416131272
 31
0.0
  0
LINE
  5
C9F1
  8
0
 10
4810.6426779905013973
 20
268.851840759574884
 30
0.0
 11
4811.0314700519356848
 21
268.8382638416131272
 31
0.0
  0
LINE
  5
C9F2
  8
0
 10
4818.110202411336104
 20
268.8173460420131278
 30
0.0
 11
4818.13896925233621
 21
268.4059610494131221
 31
0.0
  0
LINE
  5
C9F3
  8
0
 10
4818.812460861137879
 20
268.916290808759527
 30
0.0
 11
4818.7767751280362063
 21
268.4059610494131221
 31
0.0
  0
LINE
  5
C9F4
  8
0
 10
4819.6051771414358882
 20
270.0673628952130798
 30
0.0
 11
4820.2469854280361687
 21
277.4032651801131237
 31
0.0
  0
LINE
  5
C9F5
  8
0
 10
4808.2304596395360932
 20
276.3001464378131118
 30
0.0
 11
4808.0030877499357302
 21
276.3001464378131118
 31
0.0
  0
LINE
  5
C9F6
  8
0
 10
4820.8532746097362178
 20
278.1701464378131163
 30
0.0
 11
4788.8802727797346961
 21
278.1701464378131163
 31
0.0
  0
ARC
  5
C9F7
  8
0
 10
4798.4886052934361942
 20
267.5890253079131185
 30
0.0
 40
1.25
 50
49.9961149615824496
 51
87.9999999999963336
  0
ARC
  5
C9F8
  8
0
 10
4791.2306573619580377
 20
270.2038834393669049
 30
0.0
 40
1.10999112806018
 50
184.9995605767209099
 51
251.2431071557649886
  0
ARC
  5
C9F9
  8
0
 10
4788.9120860233497297
 20
277.6322339954654126
 30
0.0
 40
0.5388523713428003
 50
93.3846471775094358
 51
166.6154687298476063
  0
ARC
  5
C9FA
  8
0
 10
4789.1080079376342837
 20
277.3701464378115134
 30
0.0
 40
0.3800000000031194
 50
4.9999333522243026
 51
39.166710716046822
  0
ARC
  5
C9FB
  8
0
 10
4804.3971535009359286
 20
268.6001464378131232
 30
0.0
 40
0.07
 50
270.0
 51
310.0038850382150031
  0
ARC
  5
C9FC
  8
0
 10
4799.3371535009346189
 20
268.6001464378131232
 30
0.0
 40
0.07
 50
229.9961149617849117
 51
270.0
  0
ARC
  5
C9FD
  8
0
 10
4790.993809937342121
 20
268.4135958973296283
 30
0.0
 40
0.063548022940895
 50
186.9003536055089967
 51
266.8084573735833942
  0
ARC
  5
C9FE
  8
0
 10
4791.5020052580648553
 20
268.4172608262854851
 30
0.0
 40
0.0674757187860672
 50
275.9321218453516167
 51
350.3595768175808871
  0
ARC
  5
C9FF
  8
0
 10
4788.3917738301406644
 20
277.6351465514186998
 30
0.0
 40
0.025000113605919
 50
170.0003101534842074
 51
269.9996896763644258
  0
ARC
  5
CA00
  8
0
 10
4805.2457017084361723
 20
267.5890253079131185
 30
0.0
 40
1.25
 50
92.0000000000036664
 51
130.0038850384175078
  0
ARC
  5
CA01
  8
0
 10
4810.9878456810356511
 20
267.5890253079131185
 30
0.0
 40
1.25
 50
49.9961149615824496
 51
87.9999999999963336
  0
ARC
  5
CA02
  8
0
 10
4805.9739825212436699
 20
269.9763542150047897
 30
0.0
 40
1.110568494245056
 50
286.9576623613370998
 51
354.9797956446216745
  0
ARC
  5
CA03
  8
0
 10
4810.2594653430469407
 20
269.9763185125017912
 30
0.0
 40
1.110466226856643
 50
185.0188186694660999
 51
253.0465000102103943
  0
ARC
  5
CA04
  8
0
 10
4810.8871241654360347
 20
268.7993612653132232
 30
0.0
 40
0.250016059
 50
167.8832446123535931
 51
175.9650489268018134
  0
ARC
  5
CA05
  8
0
 10
4811.8416525319216817
 20
268.6145929178163101
 30
0.0
 40
0.0846100544568771
 50
233.5594312619159041
 51
266.4366836998713097
  0
ARC
  5
CA06
  8
0
 10
4810.0356415872247453
 20
268.415048766364805
 30
0.0
 40
0.0650874187969943
 50
188.0260459690248069
 51
265.6780091552163867
  0
ARC
  5
CA07
  8
0
 10
4810.5437509895273251
 20
268.4158987027494732
 30
0.0
 40
0.0659990641892646
 50
274.9565111713657188
 51
351.3398866420907893
  0
ARC
  5
CA08
  8
0
 10
4805.6872880995942978
 20
268.4132119710810116
 30
0.0
 40
0.0631458250542362
 50
186.5937162320182949
 51
267.1103389882056831
  0
ARC
  5
CA09
  8
0
 10
4806.1990720222902382
 20
268.4138353556617744
 30
0.0
 40
0.0637817502187429
 50
273.0916606793570054
 51
352.9083393203629839
  0
ARC
  5
CA0A
  8
0
 10
4808.2304596395360932
 20
275.9061464378131063
 30
0.0
 40
0.3939999999999999
 50
4.999999999998324
 51
90.0
  0
ARC
  5
CA0B
  8
0
 10
4808.0224226385898874
 20
275.8850461094581874
 30
0.0
 40
0.4155503826489156
 50
92.6668429800352556
 51
172.3331570199675014
  0
ARC
  5
CA0C
  8
0
 10
4817.7449420961356736
 20
267.5890253079131185
 30
0.0
 40
1.25
 50
92.0000000000036664
 51
130.0038850384175078
  0
ARC
  5
CA0D
  8
0
 10
4818.3668525218854484
 20
270.0716693688382861
 30
0.0
 40
1.2383321077569971
 50
291.0907130522779767
 51
359.8007454873286974
  0
ARC
  5
CA0E
  8
0
 10
4816.896393888536295
 20
268.6001464378131232
 30
0.0
 40
0.07
 50
270.0
 51
310.0038850382150031
  0
ARC
  5
CA0F
  8
0
 10
4818.2022907371292604
 20
268.4138449963922994
 30
0.0
 40
0.0638103992004456
 50
187.0971836165379898
 51
266.6072243873358047
  0
ARC
  5
CA10
  8
0
 10
4818.7134282580818763
 20
268.4138720337231234
 30
0.0
 40
0.0638389348914844
 50
273.4146700172390183
 51
352.8815511145187997
  0
ARC
  5
CA11
  8
0
 10
4820.6255394521831477
 20
277.3701464376081844
 30
0.0
 40
0.3800000003976014
 50
140.8332892928646061
 51
175.0000665616632887
  0
LINE
  5
CA12
  8
0
 10
4821.3663938885356401
 20
277.6394876423132132
 30
0.0
 11
4821.3456776503462606
 21
277.7569703793122926
 31
0.0
  0
ARC
  5
CA13
  8
0
 10
4820.8214613661211843
 20
277.6322339954654126
 30
0.0
 40
0.5388523713428003
 50
13.3845312701523795
 51
86.61535282249055
  0
ARC
  5
CA14
  8
0
 10
4821.341773559331159
 20
277.6351465514186998
 30
0.0
 40
0.025000113605919
 50
270.0003103236355742
 51
9.9996898465158388
  0
LINE
  5
CA15
  8
0
 10
4788.3917736947096273
 20
277.6101464378131141
 30
0.0
 11
4821.3417736947612866
 21
277.6101464378131141
 31
0.0
  0
ARC
  5
CA16
  8
0
 10
4805.2047015271382406
 20
268.7794135050323234
 30
0.0
 40
0.3929164791531693
 50
5.4825341652693336
 51
10.6367726376040608
  0
ARC
  5
CA17
  8
0
 10
4791.8581422181923699
 20
268.9343059134267264
 30
0.0
 40
0.2520552048289953
 50
145.0922078864782918
 51
175.7694537820310074
  0
ARC
  5
CA18
  8
0
 10
4790.6820432054028061
 20
269.0960172171169233
 30
0.0
 40
0.199938005212925
 50
4.145763941431829
 51
16.5118505360263512
  0
ARC
  5
CA19
  8
0
 10
4817.8612766770229427
 20
268.799843378904086
 30
0.0
 40
0.2495403062016536
 50
4.0220067629715643
 51
12.1509574743069404
  0
ENDSEC
  0
EOF
