  0
SECTION
  2
HEADER
  9
$ACADVER
  1
AC1009
  9
$INSBASE
 10
5.4126371669999989
 20
-8.4866936160000002
 30
0.0
  9
$EXTMIN
 10
-27.087501375999999
 20
-8.4997439934570558
 30
0.0
  9
$EXTMAX
 10
37.912775710000012
 20
14.576305227400001
 30
0.0
  9
$LIMMIN
 10
0.0
 20
0.0
  9
$LIMMAX
 10
11.692913385800001
 20
8.2677165353999982
  9
$ORTHOMODE
 70
     0
  9
$REGENMODE
 70
     1
  9
$FILLMODE
 70
     1
  9
$QTEXTMODE
 70
     0
  9
$MIRRTEXT
 70
     0
  9
$DRAGMODE
 70
     2
  9
$LTSCALE
 40
0.6431102362
  9
$OSMODE
 70
  3071
  9
$ATTMODE
 70
     1
  9
$TEXTSIZE
 40
0.2
  9
$TRACEWID
 40
0.05
  9
$TEXTSTYLE
  7
STANDARD
  9
$CLAYER
  8
0
  9
$CELTYPE
  6
BYLAYER
  9
$CECOLOR
 62
   256
  9
$DIMSCALE
 40
1.0
  9
$DIMASZ
 40
0.1875
  9
$DIMEXO
 40
0.0625
  9
$DIMDLI
 40
0.4443307087
  9
$DIMRND
 40
0.0
  9
$DIMDLE
 40
0.0
  9
$DIMEXE
 40
0.125
  9
$DIMTP
 40
0.0
  9
$DIMTM
 40
0.0
  9
$DIMTXT
 40
1.0
  9
$DIMCEN
 40
0.1052362205
  9
$DIMTSZ
 40
0.0
  9
$DIMTOL
 70
     0
  9
$DIMLIM
 70
     0
  9
$DIMTIH
 70
     1
  9
$DIMTOH
 70
     1
  9
$DIMSE1
 70
     0
  9
$DIMSE2
 70
     0
  9
$DIMTAD
 70
     0
  9
$DIMZIN
 70
     0
  9
$DIMBLK
  1

  9
$DIMASO
 70
     1
  9
$DIMSHO
 70
     1
  9
$DIMPOST
  1
\X
  9
$DIMAPOST
  1

  9
$DIMALT
 70
     1
  9
$DIMALTD
 70
     2
  9
$DIMALTF
 40
25.399999999999999
  9
$DIMLFAC
 40
1.0
  9
$DIMTOFL
 70
     0
  9
$DIMTVP
 40
0.0
  9
$DIMTIX
 70
     0
  9
$DIMSOXD
 70
     0
  9
$DIMSAH
 70
     0
  9
$DIMBLK1
  1

  9
$DIMBLK2
  1

  9
$DIMSTYLE
  2
STANDARD
  9
$DIMCLRD
 70
     0
  9
$DIMCLRE
 70
     0
  9
$DIMCLRT
 70
     0
  9
$DIMTFAC
 40
1.0
  9
$DIMGAP
 40
0.09
  9
$LUNITS
 70
     2
  9
$LUPREC
 70
     4
  9
$SKETCHINC
 40
0.1
  9
$FILLETRAD
 40
0.0
  9
$AUNITS
 70
     0
  9
$AUPREC
 70
     0
  9
$MENU
  1
.
  9
$ELEVATION
 40
0.0
  9
$PELEVATION
 40
0.0
  9
$THICKNESS
 40
0.0
  9
$LIMCHECK
 70
     0
  9
$BLIPMODE
 70
     0
  9
$CHAMFERA
 40
0.0
  9
$CHAMFERB
 40
0.0
  9
$SKPOLY
 70
     0
  9
$TDCREATE
 40
2457918.5028376742
  9
$TDUPDATE
 40
2457918.6152933571
  9
$TDINDWG
 40
0.0360294444
  9
$TDUSRTIMER
 40
0.0360294444
  9
$USRTIMER
 70
     1
  9
$ANGBASE
 50
0.0
  9
$ANGDIR
 70
     0
  9
$PDMODE
 70
     0
  9
$PDSIZE
 40
0.3125
  9
$PLINEWID
 40
0.0
  9
$COORDS
 70
     1
  9
$SPLFRAME
 70
     0
  9
$SPLINETYPE
 70
     6
  9
$SPLINESEGS
 70
     8
  9
$ATTDIA
 70
     1
  9
$ATTREQ
 70
     1
  9
$HANDLING
 70
     1
  9
$HANDSEED
  5
A19
  9
$SURFTAB1
 70
     6
  9
$SURFTAB2
 70
     6
  9
$SURFTYPE
 70
     6
  9
$SURFU
 70
     6
  9
$SURFV
 70
     6
  9
$UCSNAME
  2

  9
$UCSORG
 10
0.0
 20
0.0
 30
0.0
  9
$UCSXDIR
 10
1.0
 20
0.0
 30
0.0
  9
$UCSYDIR
 10
0.0
 20
1.0
 30
0.0
  9
$PUCSNAME
  2

  9
$PUCSORG
 10
0.0
 20
0.0
 30
0.0
  9
$PUCSXDIR
 10
1.0
 20
0.0
 30
0.0
  9
$PUCSYDIR
 10
0.0
 20
1.0
 30
0.0
  9
$USERI1
 70
     0
  9
$USERI2
 70
     0
  9
$USERI3
 70
     0
  9
$USERI4
 70
     0
  9
$USERI5
 70
     0
  9
$USERR1
 40
0.0
  9
$USERR2
 40
0.0
  9
$USERR3
 40
0.0
  9
$USERR4
 40
0.0
  9
$USERR5
 40
0.0
  9
$WORLDVIEW
 70
     1
  9
$SHADEDGE
 70
     3
  9
$SHADEDIF
 70
    70
  9
$TILEMODE
 70
     1
  9
$MAXACTVP
 70
    48
  9
$PLIMCHECK
 70
     0
  9
$PEXTMIN
 10
1.0000000000000000E+020
 20
1.0000000000000000E+020
 30
1.0000000000000000E+020
  9
$PEXTMAX
 10
-1.0000000000000000E+020
 20
-1.0000000000000000E+020
 30
-1.0000000000000000E+020
  9
$PLIMMIN
 10
0.0
 20
0.0
  9
$PLIMMAX
 10
12.0
 20
9.0
  9
$UNITMODE
 70
     0
  9
$VISRETAIN
 70
     1
  9
$PLINEGEN
 70
     0
  9
$PSLTSCALE
 70
     1
  0
ENDSEC
  0
SECTION
  2
TABLES
  0
TABLE
  2
VPORT
 70
     1
  0
VPORT
  2
*ACTIVE
 70
     0
 10
0.0
 20
0.0
 11
1.0
 21
1.0
 12
0.0
 22
0.0
 13
0.0
 23
0.0
 14
1.0
 24
1.0
 15
0.0
 25
0.0
 16
-0.0000000000000382
 26
0.0
 36
172.4433649286548
 17
5.4126371669999278
 27
3.0382806169714738
 37
0.0
 40
68.974923478755755
 41
1.798307475317348
 42
50.0
 43
0.0
 44
0.0
 50
0.0
 51
0.0
 71
     0
 72
   100
 73
     1
 74
     1
 75
     0
 76
     0
 77
     0
 78
     0
  0
ENDTAB
  0
TABLE
  2
LTYPE
 70
     2
  0
LTYPE
  2
CONTINUOUS
 70
     0
  3
Solid line
 72
    65
 73
     0
 40
0.0
  0
LTYPE
  2
PHANTOM2
 70
     0
  3
___ _ _ ___ _ _ ___ _ _ ___ _ _
 72
    65
 73
     6
 40
1.25
 49
0.625
 49
-0.125
 49
0.125
 49
-0.125
 49
0.125
 49
-0.125
  0
ENDTAB
  0
TABLE
  2
LAYER
 70
     2
  0
LAYER
  2
0
 70
     0
 62
     7
  6
CONTINUOUS
  0
LAYER
  2
DEFPOINTS
 70
     0
 62
     7
  6
CONTINUOUS
  0
ENDTAB
  0
TABLE
  2
STYLE
 70
     1
  0
STYLE
  2
STANDARD
 70
     0
 40
0.0
 41
0.8
 50
0.0
 71
     0
 42
0.2
  3
txt
  4

  0
ENDTAB
  0
TABLE
  2
VIEW
 70
     0
  0
ENDTAB
  0
TABLE
  2
UCS
 70
     0
  0
ENDTAB
  0
TABLE
  2
APPID
 70
     7
  0
APPID
  2
ACAD
 70
     0
  0
APPID
  2
ACAD_MLEADERVER
 70
     0
  0
APPID
  2
ACAD_DSTYLE_DIMJAG
 70
     0
  0
APPID
  2
ACAD_DSTYLE_DIMTALN
 70
     0
  0
APPID
  2
ACAD_NAV_VCDISPLAY
 70
     0
  0
APPID
  2
ACAD_EXEMPT_FROM_CAD_STANDARDS
 70
     0
  0
APPID
  2
AcDbAttr
 70
     0
  0
ENDTAB
  0
TABLE
  2
DIMSTYLE
 70
     1
  0
DIMSTYLE
  2
STANDARD
 70
     0
  3

  4

  5

  6

  7

 40
1.0
 41
0.1875
 42
0.0625
 43
0.38
 44
0.125
 45
0.0
 46
0.0
 47
1.5
 48
1.5
140
0.15625
141
0.09
142
0.0
143
25.399999999999999
144
1.0
145
0.0
146
1.0
147
0.09
 71
     0
 72
     0
 73
     1
 74
     1
 75
     0
 76
     0
 77
     0
 78
     4
170
     0
171
     2
172
     0
173
     0
174
     0
175
     0
176
     0
177
     0
178
     0
  0
ENDTAB
  0
ENDSEC
  0
SECTION
  2
BLOCKS
  0
BLOCK
  8
0
  2
$MODEL_SPACE
 70
     0
 10
0.0
 20
0.0
 30
0.0
  3
$MODEL_SPACE
  1

  0
ENDBLK
  5
21
  8
0
  0
BLOCK
 67
     1
  8
0
  2
$PAPER_SPACE
 70
     0
 10
0.0
 20
0.0
 30
0.0
  3
$PAPER_SPACE
  1

  0
ENDBLK
  5
1D
 67
     1
  8
0
  0
ENDSEC
  0
SECTION
  2
ENTITIES
  0
LINE
  5
27E
  8
0
 10
-27.087501375999999
 20
-2.173688869799999
 30
0.0
 11
37.912775709999998
 21
-2.173688869799999
 31
0.0
  0
LINE
  5
78E
  8
0
 10
-25.630012738200001
 20
14.576305227400001
 30
0.0
 11
36.455287072200001
 21
14.576305227400001
 31
0.0
  0
ARC
  5
78F
  8
0
 10
36.427938406379091
 20
14.001303965829649
 30
0.0
 40
0.5756512836168012
 50
33.514352433500562
 51
87.276904890433755
  0
ARC
  5
790
  8
0
 10
-261.92165290022501
 20
-12.165222707460821
 30
0.0
 40
300.00085887951923
 50
1.9085898893476021
 51
5.0647208887987967
  0
ARC
  5
791
  8
0
 10
29.29147218311644
 20
0.1247842689197596
 30
0.0
 40
8.9224353890667665
 50
297.34678762572639
 51
345.07194041196641
  0
ARC
  5
792
  8
0
 10
33.62407243565243
 20
-8.2439973683507475
 30
0.0
 40
0.5013756411378207
 50
117.8027383715945
 51
176.22511539242001
  0
LINE
  5
793
  8
0
 10
33.123784567399987
 20
-8.2109885451999993
 30
0.0
 11
33.122570160648223
 21
-8.2341608073000003
 31
0.0
  0
ARC
  5
794
  8
0
 10
32.922844253699999
 20
-8.223693616000002
 30
0.0
 40
0.1999999999999957
 50
270.0
 51
356.99999998525197
  0
LINE
  5
795
  8
0
 10
32.922844253699999
 20
-8.4236936159999996
 30
0.0
 11
-22.097569919600001
 21
-8.4236936159999996
 31
0.0
  0
ARC
  5
796
  8
0
 10
32.250384932662513
 20
-8.2895095089881767
 30
0.0
 40
0.1971849859452087
 50
269.82892803218579
 51
317.1173822439298
  0
LINE
  5
797
  8
0
 10
32.249796184700003
 20
-8.4866936160000002
 30
0.0
 11
22.602430080400001
 21
-8.4866936160000002
 31
0.0
  0
ARC
  5
798
  8
0
 10
22.602396847852539
 20
-8.2868411253322325
 30
0.0
 40
0.199852493430811
 50
223.2173244446557
 51
270.0095274504128
  0
ARC
  5
799
  8
0
 10
-25.602664072379088
 20
14.001303965829649
 30
0.0
 40
0.5756512836168012
 50
92.723095109566287
 51
146.48564756649941
  0
ARC
  5
79A
  8
0
 10
272.74692723422498
 20
-12.165222707460821
 30
0.0
 40
300.00085887951923
 50
174.9352791112012
 51
178.09141011065239
  0
ARC
  5
79B
  8
0
 10
-18.46619784911644
 20
0.1247842689197596
 30
0.0
 40
8.9224353890667665
 50
194.92805958803359
 51
242.65321237427361
  0
ARC
  5
79C
  8
0
 10
-22.79879810165243
 20
-8.2439973683507475
 30
0.0
 40
0.5013756411378207
 50
3.7748846075800389
 51
62.197261628405528
  0
LINE
  5
79D
  8
0
 10
-22.298510233399998
 20
-8.2109885451999993
 30
0.0
 11
-22.29729582664822
 21
-8.2341608073000003
 31
0.0
  0
ARC
  5
79E
  8
0
 10
-22.0975699197
 20
-8.223693616000002
 30
0.0
 40
0.1999999999999957
 50
183.000000014748
 51
270.0
  0
ARC
  5
79F
  8
0
 10
-21.42511059866251
 20
-8.2895095089881767
 30
0.0
 40
0.1971849859452087
 50
222.88261775607029
 51
270.17107196781421
  0
LINE
  5
7A0
  8
0
 10
-21.4245218507
 20
-8.4866936160000002
 30
0.0
 11
-11.7771557464
 21
-8.4866936160000002
 31
0.0
  0
ARC
  5
7A1
  8
0
 10
-11.777122513852531
 20
-8.2868411253322325
 30
0.0
 40
0.199852493430811
 50
269.99047254958731
 51
316.78267555534433
  0
ATTDEF
  5
98E
  8
DEFPOINTS
 10
5.4085889718143561
 20
-8.4997439934570522
 30
0.0
 40
0.001
  1
LITHOCAST
  3

  2
MATERIAL
 70
     0
1001
AcDbAttr
1070
     0
1070
     1
  0
ATTDEF
  5
98F
  8
DEFPOINTS
 10
5.4085889718143561
 20
-8.4980773267903871
 30
0.0
 40
0.001
  1
BATH
  3

  2
PRODUCT
 70
     0
1001
AcDbAttr
1070
     0
1070
     1
  0
ATTDEF
  5
990
  8
DEFPOINTS
 10
5.4085889718143561
 20
-8.4964106601237201
 30
0.0
 40
0.001
  1
CERIC
  3

  2
TRADENAME
 70
     0
1001
AcDbAttr
1070
     0
1070
     1
  0
ATTDEF
  5
991
  8
DEFPOINTS
 10
5.4085889718143561
 20
-8.4947439934570568
 30
0.0
 40
0.001
  1
K-8336
  3

  2
MODELNUMBER
 70
     0
1001
AcDbAttr
1070
     0
1070
     1
  0
ENDSEC
  0
EOF
