  0
SECTION
  2
HEADER
  9
$ACADVER
  1
AC1021
  9
$ACADMAINTVER
 70
    50
  9
$DWGCODEPAGE
  3
ANSI_936
  9
$LASTSAVEDBY
  1
ko69185
  9
$CUSTOMPROPERTYTAG
  1
AmdtFileType
  9
$CUSTOMPROPERTY
  1
84
  9
$INSBASE
 10
0.0
 20
0.0
 30
0.0
  9
$EXTMIN
 10
70.76685227983246
 20
78.43070357093878
 30
0.0
  9
$EXTMAX
 10
257.2918522798431
 20
264.9557035709494
 30
0.0
  9
$LIMMIN
 10
0.0
 20
0.0
  9
$LIMMAX
 10
17.0
 20
11.0
  9
$ORTHOMODE
 70
     0
  9
$REGENMODE
 70
     1
  9
$FILLMODE
 70
     1
  9
$QTEXTMODE
 70
     0
  9
$MIRRTEXT
 70
     1
  9
$LTSCALE
 40
1.0
  9
$ATTMODE
 70
     1
  9
$TEXTSIZE
 40
0.2
  9
$TRACEWID
 40
0.05
  9
$TEXTSTYLE
  7
STANDARD
  9
$CLAYER
  8
0
  9
$CELTYPE
  6
ByLayer
  9
$CECOLOR
 62
   256
  9
$CELTSCALE
 40
1.0
  9
$DISPSILH
 70
     0
  9
$DIMSCALE
 40
1.0
  9
$DIMASZ
 40
0.12
  9
$DIMEXO
 40
0.05
  9
$DIMDLI
 40
0.5
  9
$DIMRND
 40
0.0
  9
$DIMDLE
 40
0.0
  9
$DIMEXE
 40
0.1
  9
$DIMTP
 40
0.1
  9
$DIMTM
 40
0.1
  9
$DIMTXT
 40
0.12
  9
$DIMCEN
 40
0.0
  9
$DIMTSZ
 40
0.0
  9
$DIMTOL
 70
     0
  9
$DIMLIM
 70
     0
  9
$DIMTIH
 70
     1
  9
$DIMTOH
 70
     1
  9
$DIMSE1
 70
     0
  9
$DIMSE2
 70
     0
  9
$DIMTAD
 70
     0
  9
$DIMZIN
 70
     7
  9
$DIMBLK
  1

  9
$DIMASO
 70
     1
  9
$DIMSHO
 70
     1
  9
$DIMPOST
  1

  9
$DIMAPOST
  1
mm
  9
$DIMALT
 70
     0
  9
$DIMALTD
 70
     2
  9
$DIMALTF
 40
25.4
  9
$DIMLFAC
 40
1.0
  9
$DIMTOFL
 70
     0
  9
$DIMTVP
 40
0.0
  9
$DIMTIX
 70
     0
  9
$DIMSOXD
 70
     0
  9
$DIMSAH
 70
     0
  9
$DIMBLK1
  1

  9
$DIMBLK2
  1

  9
$DIMSTYLE
  2
AM_ANSI
  9
$DIMCLRD
 70
   256
  9
$DIMCLRE
 70
   256
  9
$DIMCLRT
 70
   140
  9
$DIMTFAC
 40
0.71
  9
$DIMGAP
 40
0.06
  9
$DIMJUST
 70
     0
  9
$DIMSD1
 70
     0
  9
$DIMSD2
 70
     0
  9
$DIMTOLJ
 70
     1
  9
$DIMTZIN
 70
     7
  9
$DIMALTZ
 70
     0
  9
$DIMALTTZ
 70
     0
  9
$DIMUPT
 70
     0
  9
$DIMDEC
 70
     4
  9
$DIMTDEC
 70
     4
  9
$DIMALTU
 70
     2
  9
$DIMALTTD
 70
     4
  9
$DIMTXSTY
  7
STANDARD
  9
$DIMAUNIT
 70
     0
  9
$DIMADEC
 70
     0
  9
$DIMALTRND
 40
0.0
  9
$DIMAZIN
 70
     2
  9
$DIMDSEP
 70
    46
  9
$DIMATFIT
 70
     3
  9
$DIMFRAC
 70
     0
  9
$DIMLDRBLK
  1

  9
$DIMLUNIT
 70
     2
  9
$DIMLWD
 70
    -1
  9
$DIMLWE
 70
    -1
  9
$DIMTMOVE
 70
     0
  9
$DIMFXL
 40
1.0
  9
$DIMFXLON
 70
     0
  9
$DIMJOGANG
 40
0.7853981633974483
  9
$DIMTFILL
 70
     0
  9
$DIMTFILLCLR
 70
     0
  9
$DIMARCSYM
 70
     1
  9
$DIMLTYPE
  6
ByBlock
  9
$DIMLTEX1
  6
ByBlock
  9
$DIMLTEX2
  6
ByBlock
  9
$LUNITS
 70
     2
  9
$LUPREC
 70
     4
  9
$SKETCHINC
 40
0.1
  9
$FILLETRAD
 40
0.125
  9
$AUNITS
 70
     0
  9
$AUPREC
 70
     0
  9
$MENU
  1
.
  9
$ELEVATION
 40
0.0
  9
$PELEVATION
 40
0.0
  9
$THICKNESS
 40
0.0
  9
$LIMCHECK
 70
     0
  9
$CHAMFERA
 40
0.125
  9
$CHAMFERB
 40
0.125
  9
$CHAMFERC
 40
1.0
  9
$CHAMFERD
 40
0.0
  9
$SKPOLY
 70
     0
  9
$TDCREATE
 40
2455352.607335926
  9
$TDUCREATE
 40
2455352.274002593
  9
$TDUPDATE
 40
2455352.607934259
  9
$TDUUPDATE
 40
2455352.274600926
  9
$TDINDWG
 40
0.0005990509
  9
$TDUSRTIMER
 40
0.0005990509
  9
$USRTIMER
 70
     1
  9
$ANGBASE
 50
0.0
  9
$ANGDIR
 70
     0
  9
$PDMODE
 70
     0
  9
$PDSIZE
 40
0.0
  9
$PLINEWID
 40
0.0
  9
$SPLFRAME
 70
     0
  9
$SPLINETYPE
 70
     6
  9
$SPLINESEGS
 70
     8
  9
$HANDSEED
  5
624
  9
$SURFTAB1
 70
     6
  9
$SURFTAB2
 70
     6
  9
$SURFTYPE
 70
     6
  9
$SURFU
 70
     6
  9
$SURFV
 70
     6
  9
$UCSBASE
  2

  9
$UCSNAME
  2

  9
$UCSORG
 10
0.0
 20
0.0
 30
0.0
  9
$UCSXDIR
 10
1.0
 20
0.0
 30
0.0
  9
$UCSYDIR
 10
0.0
 20
1.0
 30
0.0
  9
$UCSORTHOREF
  2

  9
$UCSORTHOVIEW
 70
     0
  9
$UCSORGTOP
 10
0.0
 20
0.0
 30
0.0
  9
$UCSORGBOTTOM
 10
0.0
 20
0.0
 30
0.0
  9
$UCSORGLEFT
 10
0.0
 20
0.0
 30
0.0
  9
$UCSORGRIGHT
 10
0.0
 20
0.0
 30
0.0
  9
$UCSORGFRONT
 10
0.0
 20
0.0
 30
0.0
  9
$UCSORGBACK
 10
0.0
 20
0.0
 30
0.0
  9
$PUCSBASE
  2

  9
$PUCSNAME
  2

  9
$PUCSORG
 10
0.0
 20
0.0
 30
0.0
  9
$PUCSXDIR
 10
1.0
 20
0.0
 30
0.0
  9
$PUCSYDIR
 10
0.0
 20
1.0
 30
0.0
  9
$PUCSORTHOREF
  2

  9
$PUCSORTHOVIEW
 70
     0
  9
$PUCSORGTOP
 10
0.0
 20
0.0
 30
0.0
  9
$PUCSORGBOTTOM
 10
0.0
 20
0.0
 30
0.0
  9
$PUCSORGLEFT
 10
0.0
 20
0.0
 30
0.0
  9
$PUCSORGRIGHT
 10
0.0
 20
0.0
 30
0.0
  9
$PUCSORGFRONT
 10
0.0
 20
0.0
 30
0.0
  9
$PUCSORGBACK
 10
0.0
 20
0.0
 30
0.0
  9
$USERI1
 70
     0
  9
$USERI2
 70
     0
  9
$USERI3
 70
     0
  9
$USERI4
 70
     0
  9
$USERI5
 70
     0
  9
$USERR1
 40
0.0
  9
$USERR2
 40
0.0
  9
$USERR3
 40
0.0
  9
$USERR4
 40
0.0
  9
$USERR5
 40
0.0
  9
$WORLDVIEW
 70
     1
  9
$SHADEDGE
 70
     3
  9
$SHADEDIF
 70
    70
  9
$TILEMODE
 70
     1
  9
$MAXACTVP
 70
    64
  9
$PINSBASE
 10
0.0
 20
0.0
 30
0.0
  9
$PLIMCHECK
 70
     0
  9
$PEXTMIN
 10
1.000000000000000E+20
 20
1.000000000000000E+20
 30
1.000000000000000E+20
  9
$PEXTMAX
 10
-1.000000000000000E+20
 20
-1.000000000000000E+20
 30
-1.000000000000000E+20
  9
$PLIMMIN
 10
0.0
 20
0.0
  9
$PLIMMAX
 10
12.0
 20
9.0
  9
$UNITMODE
 70
     0
  9
$VISRETAIN
 70
     1
  9
$PLINEGEN
 70
     0
  9
$PSLTSCALE
 70
     1
  9
$TREEDEPTH
 70
  3020
  9
$CMLSTYLE
  2
Standard
  9
$CMLJUST
 70
     0
  9
$CMLSCALE
 40
1.0
  9
$PROXYGRAPHICS
 70
     1
  9
$MEASUREMENT
 70
     0
  9
$CELWEIGHT
370
    -1
  9
$ENDCAPS
280
     0
  9
$JOINSTYLE
280
     0
  9
$LWDISPLAY
290
     0
  9
$INSUNITS
 70
     1
  9
$HYPERLINKBASE
  1

  9
$STYLESHEET
  1

  9
$XEDIT
290
     1
  9
$CEPSNTYPE
380
     0
  9
$PSTYLEMODE
290
     1
  9
$FINGERPRINTGUID
  2
{80D426CE-80DA-4D35-9D11-77C2A84F5091}
  9
$VERSIONGUID
  2
{889665F7-A32C-49DC-BE35-F4BC0AD4EB9A}
  9
$EXTNAMES
290
     1
  9
$PSVPSCALE
 40
0.0
  9
$OLESTARTUP
290
     0
  9
$SORTENTS
280
   127
  9
$INDEXCTL
280
     0
  9
$HIDETEXT
280
     0
  9
$XCLIPFRAME
290
     0
  9
$HALOGAP
280
     0
  9
$OBSCOLOR
 70
   257
  9
$OBSLTYPE
280
     0
  9
$INTERSECTIONDISPLAY
280
     0
  9
$INTERSECTIONCOLOR
 70
   257
  9
$DIMASSOC
280
     2
  9
$PROJECTNAME
  1

  9
$CAMERADISPLAY
290
     0
  9
$LENSLENGTH
 40
50.0
  9
$CAMERAHEIGHT
 40
0.0
  9
$STEPSPERSEC
 40
2.0
  9
$STEPSIZE
 40
6.0
  9
$3DDWFPREC
 40
2.0
  9
$PSOLWIDTH
 40
0.25
  9
$PSOLHEIGHT
 40
4.0
  9
$LOFTANG1
 40
1.570796326794896
  9
$LOFTANG2
 40
1.570796326794896
  9
$LOFTMAG1
 40
0.0
  9
$LOFTMAG2
 40
0.0
  9
$LOFTPARAM
 70
     7
  9
$LOFTNORMALS
280
     1
  9
$LATITUDE
 40
37.795
  9
$LONGITUDE
 40
-122.394
  9
$NORTHDIRECTION
 40
0.0
  9
$TIMEZONE
 70
 -8000
  9
$LIGHTGLYPHDISPLAY
280
     1
  9
$TILEMODELIGHTSYNCH
280
     1
  9
$CMATERIAL
347
293
  9
$SOLIDHIST
280
     1
  9
$SHOWHIST
280
     1
  9
$DWFFRAME
280
     2
  9
$DGNFRAME
280
     0
  9
$REALWORLDSCALE
290
     1
  9
$INTERFERECOLOR
 62
     1
  9
$INTERFEREOBJVS
345
2A0
  9
$INTERFEREVPVS
346
29D
  9
$CSHADOW
280
     0
  9
$SHADOWPLANELOCATION
 40
0.0
  0
ENDSEC
  0
SECTION
  2
CLASSES
  0
CLASS
  1
ACDBDICTIONARYWDFLT
  2
AcDbDictionaryWithDefault
  3
ObjectDBX Classes
 90
        0
 91
        1
280
     0
281
     0
  0
CLASS
  1
ACME_DOCUMENT
  2
AcMeDbDoc
  3
AcMeServices
 90
     1024
 91
        2
280
     0
281
     0
  0
CLASS
  1
AMGSETTINGSOBJ
  2
AmgSettingsObj
  3
"AcadM|Product Description: AutoCAD Mechanical|Company: Autodesk, Inc."
 90
     1024
 91
        4
280
     0
281
     0
  0
CLASS
  1
ACMESCOPE
  2
AcMeScope
  3
AcMeServices
 90
     1024
 91
        1
280
     0
281
     0
  0
CLASS
  1
ACMECOMMANDHISTORY
  2
AcMeCommandHistory
  3
AcMeServices
 90
     1024
 91
        1
280
     0
281
     0
  0
CLASS
  1
ACIMSYSVARMAN
  2
AcImSysVarManager
  3
AcMeServices
 90
     1024
 91
        5
280
     0
281
     0
  0
CLASS
  1
ACIMREALSYSVAR
  2
AcImRealSysVar
  3
AcMeServices
 90
     1024
 91
        3
280
     0
281
     0
  0
CLASS
  1
ACIMINTSYSVAR
  2
AcImIntSysVar
  3
AcMeServices
 90
     1024
 91
       27
280
     0
281
     0
  0
CLASS
  1
ACMEDRAWINGMAN
  2
AcMeDrawingMan
  3
AcMeServices
 90
     1024
 91
        1
280
     0
281
     0
  0
CLASS
  1
ACMEVIEW
  2
AcMeView
  3
AcMeServices
 90
     1024
 91
        1
280
     0
281
     0
  0
CLASS
  1
ACDBENTITYCACHE
  2
AcMeEntityCache
  3
AcMeServices
 90
     1024
 91
        1
280
     0
281
     0
  0
CLASS
  1
GSMANAGER
  2
AcMeGSManager
  3
AcMeServices
 90
     1024
 91
        1
280
     0
281
     0
  0
CLASS
  1
AMDTINTERNALREACTOR
  2
AmdtInternalReactor
  3
AcMeServices
 90
     1024
 91
        2
280
     0
281
     0
  0
CLASS
  1
ACMESTATEMGR
  2
AcMeStateMgr
  3
AcMeServices
 90
     1024
 91
        1
280
     0
281
     0
  0
CLASS
  1
ACGREFMASTER
  2
AcGrefMaster
  3
AcAttribServices
 90
     1024
 91
        1
280
     0
281
     0
  0
CLASS
  1
ACME_DATABASE
  2
AcMeDbDatabase
  3
AcMeServices
 90
     1024
 91
        2
280
     0
281
     0
  0
CLASS
  1
ACRFINSADJUSTERMGR
  2
AcRfInsAdjusterMgr
  3
AcMeServices
 90
     1024
 91
        1
280
     0
281
     0
  0
CLASS
  1
ACGREFACADMASTER
  2
AcGrefacadMaster
  3
AcGrefServices
 90
     1024
 91
        1
280
     0
281
     0
  0
CLASS
  1
AMIMASTER
  2
AmiMaster
  3
AmiServices
 90
     1024
 91
        1
280
     0
281
     0
  0
CLASS
  1
ACMDATADICTIONARY
  2
AcmDataDictionary
  3
"AcmSymBB|Product Description: AutoCAD Mechanical|Company: Autodesk, Inc."
 90
     1024
 91
        1
280
     0
281
     0
  0
CLASS
  1
ACMDATAENTRYBLOCK
  2
AcmDataEntryBlock
  3
AcmSymBB|Product Description: AutoCAD Mechanical|Company: Autodesk, Inc.
 90
     1024
 91
        1
280
     0
281
     0
  0
CLASS
  1
ACIMSTRSYSVAR
  2
AcImStrSysVar
  3
AcMeServices
 90
     1024
 91
        5
280
     0
281
     0
  0
CLASS
  1
ACMSTANDARDANSI
  2
AcmStandardANSI
  3
"Amdt_StdImp|Product Description: AutoCAD Mechanical|Company: Autodesk, Inc."
 90
     1024
 91
        1
280
     0
281
     0
  0
CLASS
  1
AMGOBJPROPCFG
  2
AmgObjPropCfg
  3
"AmgLay|Product Description: AutoCAD Mechanical|Company: Autodesk, Inc."
 90
     1025
 91
        1
280
     0
281
     0
  0
CLASS
  1
ACMSURFSTANDARDANSI
  2
AcmSurfTextStdANSI
  3
"Amdt_StdImp|Product Description: AutoCAD Mechanical|Company: Autodesk, Inc."
 90
     1024
 91
        1
280
     0
281
     0
  0
CLASS
  1
ACMFCFSTANDARDANSI
  2
AcmFCFStdANSI
  3
"Amdt_StdImp|Product Description: AutoCAD Mechanical|Company: Autodesk, Inc."
 90
     1024
 91
        1
280
     0
281
     0
  0
CLASS
  1
ACMWELDSTANDARDANSI
  2
AcmWeldingStdANSI
  3
"Amdt_StdImp|Product Description: AutoCAD Mechanical|Company: Autodesk, Inc."
 90
     1024
 91
        1
280
     0
281
     0
  0
CLASS
  1
ACMIDSTANDARDANSI
  2
AcmIdStdANSI
  3
"Amdt_StdImp|Product Description: AutoCAD Mechanical|Company: Autodesk, Inc."
 90
     1024
 91
        1
280
     0
281
     0
  0
CLASS
  1
ACMDATUMSTANDARDANSI
  2
AcmDatumStdANSI
  3
"Amdt_StdImp|Product Description: AutoCAD Mechanical|Company: Autodesk, Inc."
 90
     1024
 91
        1
280
     0
281
     0
  0
CLASS
  1
ACMBOMSTANDARDANSI
  2
AcmBOMStdANSI
  3
"Amdt_StdImp|Product Description: AutoCAD Mechanical|Company: Autodesk, Inc."
 90
     1024
 91
        1
280
     0
281
     0
  0
CLASS
  1
ACMDETAILSTANDARDANSI
  2
AmdtDetailSymStdANSI
  3
"Amdt_StdImp|Product Description: AutoCAD Mechanical|Company: Autodesk, Inc."
 90
     1024
 91
        1
280
     0
281
     0
  0
CLASS
  1
ACMSECTIONSTANDARDANSI
  2
AmdtSectionSymStdANSI
  3
"Amdt_StdImp|Product Description: AutoCAD Mechanical|Company: Autodesk, Inc."
 90
     1024
 91
        1
280
     0
281
     0
  0
CLASS
  1
ACMCENTERLINESTANDARDANSI
  2
AmdtCenterLineStdANSI
  3
"Amdt_StdImp|Product Description: AutoCAD Mechanical|Company: Autodesk, Inc."
 90
     1024
 91
        1
280
     0
281
     0
  0
CLASS
  1
ACMNOTESTANDARDANSI
  2
AmdtNoteStdANSI
  3
"Amdt_StdImp|Product Description: AutoCAD Mechanical|Company: Autodesk, Inc."
 90
     1024
 91
        1
280
     0
281
     0
  0
CLASS
  1
ACAMGLAYSTD
  2
AcAmgLayStd
  3
"AmgLay|Product Description: AutoCAD Mechanical|Company: Autodesk, Inc."
 90
     1024
 91
        2
280
     0
281
     0
  0
CLASS
  1
ACAMGDIMSTD
  2
AcAmgDimStd
  3
"AmgDim|Product Description: AutoCAD Mechanical|Company: Autodesk, Inc."
 90
     1024
 91
        2
280
     0
281
     0
  0
CLASS
  1
ACAMGHOLECHARTSTDANSI
  2
AcAmgHoleChartStdANSI
  3
AmgDim|Product Description: AutoCAD Mechanical|Company: Autodesk, Inc.
 90
     1024
 91
        1
280
     0
281
     0
  0
CLASS
  1
ACAMGTITLESTD
  2
AcAmgTitleStd
  3
"AmgTitle|Product Description: AutoCAD Mechanical|Company: Autodesk, Inc."
 90
     4095
 91
        2
280
     0
281
     0
  0
CLASS
  1
LAYER_INDEX
  2
AcDbLayerIndex
  3
ObjectDBX Classes
 90
        0
 91
        0
280
     0
281
     0
  0
CLASS
  1
IDBUFFER
  2
AcDbIdBuffer
  3
ObjectDBX Classes
 90
        0
 91
        0
280
     0
281
     0
  0
CLASS
  1
DICTIONARYVAR
  2
AcDbDictionaryVar
  3
ObjectDBX Classes
 90
        0
 91
        9
280
     0
281
     0
  0
CLASS
  1
AM_DRAWING_MGR
  2
AcDmDwgMgr
  3
AcMechDwgViewMgmt
 90
     1024
 91
        1
280
     0
281
     0
  0
CLASS
  1
AM_DWG_DOCUMENT
  2
AcDmDwgDocument
  3
AcMechDwgViewMgmt
 90
     1024
 91
        1
280
     0
281
     0
  0
CLASS
  1
AM_DWG_SHEET
  2
AcDmSheet
  3
AcMechDwgViewMgmt
 90
     1024
 91
        2
280
     0
281
     0
  0
CLASS
  1
AM_VIEWDIMPARMAP
  2
AcDmViewDimParMap
  3
AcMechDwgViewMgmt
 90
     1024
 91
        2
280
     0
281
     0
  0
CLASS
  1
AM_DWGMGR_NAME
  2
AcDmDwgMgrName
  3
AcMechDwgViewMgmt
 90
     1024
 91
        1
280
     0
281
     0
  0
CLASS
  1
AMDTMENUSTATEMGR
  2
AmdtMenuStateMgr
  3
McadcomServices
 90
     1024
 91
        1
280
     0
281
     0
  0
CLASS
  1
AMDTMCOMMENUSTATE
  2
AmdtMcomMenuState
  3
McadcomServices
 90
     1024
 91
        1
280
     0
281
     0
  0
CLASS
  1
MAPIAMMOUDLE
  2
MApiAmModule
  3
MApiAmServices
 90
     1024
 91
        1
280
     0
281
     0
  0
CLASS
  1
AMDTADMENUSTATE
  2
AmdtAdMenuState
  3
DesignerServices
 90
     1024
 91
        1
280
     0
281
     0
  0
CLASS
  1
ADAPPL
  2
AcAdAppl
  3
DesignerServices
 90
     1024
 91
        1
280
     0
281
     0
  0
CLASS
  1
DEPMGR
  2
AcAdDepMgr
  3
DesignerServices
 90
     1024
 91
        1
280
     0
281
     0
  0
CLASS
  1
PARAMMGR
  2
AcAdParamMgr
  3
DesignerServices
 90
     1024
 91
        1
280
     0
281
     0
  0
CLASS
  1
PARAMSCOPE
  2
AcAdParamScope
  3
DesignerServices
 90
     1024
 91
        1
280
     0
281
     0
  0
CLASS
  1
NAMEDAPPL
  2
AcAdNamedAppl
  3
DesignerServices
 90
     1024
 91
        1
280
     0
281
     0
  0
CLASS
  1
AMDTDMMENUSTATE
  2
AmdtDmMenuState
  3
AcMechDwgViewMgmt
 90
     1024
 91
        1
280
     0
281
     0
  0
CLASS
  1
AMDTAMMENUSTATE
  2
AmdtAmMenuState
  3
DesignerAssemblies
 90
     1024
 91
        1
280
     0
281
     0
  0
CLASS
  1
ACAMPROJECT
  2
AcAmProject
  3
DesignerAssemblies
 90
     1024
 91
        1
280
     0
281
     0
  0
CLASS
  1
ACAMGRCOMPDEF
  2
AcAmGrCompDef
  3
DesignerAssemblies
 90
     1024
 91
        1
280
     0
281
     0
  0
CLASS
  1
ACCMCONTEXT
  2
AcCmContext
  3
DesignerAssemblies
 90
     1024
 91
        1
280
     0
281
     0
  0
CLASS
  1
ACAMCOMPDEF
  2
AcAmCompDef
  3
DesignerAssemblies
 90
     1024
 91
        1
280
     0
281
     0
  0
CLASS
  1
ACAMCOMPDEFMGR
  2
AcAmCompDefMgr
  3
DesignerAssemblies
 90
     1024
 91
        1
280
     0
281
     0
  0
CLASS
  1
AMCONTEXTMGR
  2
AcAmContextMgr
  3
DesignerAssemblies
 90
     1024
 91
        1
280
     0
281
     0
  0
CLASS
  1
ACAMCONTEXTMODELER
  2
AcAmContextModeler
  3
DesignerAssemblies
 90
     1024
 91
        1
280
     0
281
     0
  0
CLASS
  1
ACMTHREADLINESTANDARDANSI
  2
AmdtThreadLineStdANSI
  3
"Amdt_StdImp|Product Description: AutoCAD Mechanical|Company: Autodesk, Inc."
 90
     1024
 91
        1
280
     0
281
     0
  0
CLASS
  1
CATALOGSTATE
  2
AcAmCatalogState
  3
DesignerAssemblies
 90
     1024
 91
        1
280
     0
281
     0
  0
CLASS
  1
ACAMGRCOMPDEFSET
  2
AcAmGrCompDefSet
  3
DesignerAssemblies
 90
     1024
 91
        1
280
     0
281
     0
  0
CLASS
  1
AMDTBROWSERDBTAB
  2
AmdtBrowserDbTab
  3
McadcomServices
 90
     1024
 91
        1
280
     0
281
     0
  0
CLASS
  1
CBROWSERAPPOBJECT
  2
CBrowserAppObject
  3
McadcomServices
 90
     1024
 91
        3
280
     0
281
     0
  0
CLASS
  1
DM_PLACEHOLDER
  2
AcDmSelsetPlaceholder
  3
AcMechDwgViewMgmt
 90
     1024
 91
        1
280
     0
281
     0
  0
CLASS
  1
TABLESTYLE
  2
AcDbTableStyle
  3
ObjectDBX Classes
 90
     4095
 91
        1
280
     0
281
     0
  0
CLASS
  1
AMDTNOTETEMPLATEDB
  2
AmdtNoteTemplateDB
  3
AcmSymBB|Product Description: AutoCAD Mechanical|Company: Autodesk, Inc.
 90
     1024
 91
       12
280
     0
281
     0
  0
CLASS
  1
MATERIAL
  2
AcDbMaterial
  3
ObjectDBX Classes
 90
     1153
 91
        3
280
     0
281
     0
  0
CLASS
  1
VISUALSTYLE
  2
AcDbVisualStyle
  3
ObjectDBX Classes
 90
     4095
 91
       16
280
     0
281
     0
  0
CLASS
  1
ACRFATTGENMGR
  2
AcRfAttGeneralMgr
  3
AcAttribServices
 90
     1024
 91
        1
280
     0
281
     0
  0
CLASS
  1
ACRFOBJATTMGR
  2
AcRfObjAttGroupMgr
  3
AcAttribServices
 90
     1024
 91
        1
280
     0
281
     0
  0
CLASS
  1
ACRFMCADAPIATTHOLDER
  2
AcRfMCADAPIAttHolder
  3
AcAttribServices
 90
     1024
 91
        1
280
     0
281
     0
  0
CLASS
  1
AMDTSYSATTR
  2
AmdtSystemAttribute
  3
AcAttribServices
 90
     1024
 91
        1
280
     0
281
     0
  0
CLASS
  1
ACMTAPERSTANDARDANSI
  2
AcmTaperStdANSI
  3
"Amdt_StdImp|Product Description: AutoCAD Mechanical|Company: Autodesk, Inc."
 90
     1024
 91
        1
280
     0
281
     0
  0
CLASS
  1
CAMSSTRUCTBTNSTATE
  2
StructBtnState
  3
DesignerAssemblies
 90
     1024
 91
        1
280
     0
281
     0
  0
CLASS
  1
SCALE
  2
AcDbScale
  3
ObjectDBX Classes
 90
     1153
 91
       33
280
     0
281
     0
  0
CLASS
  1
MLEADERSTYLE
  2
AcDbMLeaderStyle
  3
ACDB_MLEADERSTYLE_CLASS
 90
     4095
 91
        1
280
     0
281
     0
  0
CLASS
  1
ACMANOOTATIONVIEWSTANDARDANSI
  2
AmdtAnViewStdANSI
  3
"Amdt_StdImp|Product Description: AutoCAD Mechanical|Company: Autodesk, Inc."
 90
     1024
 91
        1
280
     0
281
     0
  0
CLASS
  1
CELLSTYLEMAP
  2
AcDbCellStyleMap
  3
ObjectDBX Classes
 90
     1152
 91
        2
280
     0
281
     0
  0
CLASS
  1
EXACXREFPANELOBJECT
  2
ExAcXREFPanelObject
  3
EXAC_ESW
 90
     1025
 91
        1
280
     0
281
     0
  0
CLASS
  1
NPOCOLLECTION
  2
AcDbImpNonPersistentObjectsCollection
  3
ObjectDBX Classes
 90
     1153
 91
        1
280
     0
281
     0
  0
CLASS
  1
ACMSTANDARDISO
  2
AcmStandardISO
  3
"Amdt_StdImp|Product Description: AutoCAD Mechanical|Company: Autodesk, Inc."
 90
     1024
 91
        1
280
     0
281
     0
  0
CLASS
  1
AMDTEDGESTANDARDISO13715
  2
AmdtEdgeStdISO13715
  3
"Amdt_StdImp|Product Description: AutoCAD Mechanical|Company: Autodesk, Inc."
 90
     1024
 91
        1
280
     0
281
     0
  0
CLASS
  1
ACMSURFSTANDARDISO2002
  2
AcmSurfTextStdISO2002
  3
"Amdt_StdImp|Product Description: AutoCAD Mechanical|Company: Autodesk, Inc."
 90
     1024
 91
        1
280
     0
281
     0
  0
CLASS
  1
ACMFCFSTANDARDISO
  2
AcmFCFStdISO
  3
"Amdt_StdImp|Product Description: AutoCAD Mechanical|Company: Autodesk, Inc."
 90
     1024
 91
        1
280
     0
281
     0
  0
CLASS
  1
ACMWELDSTANDARDISO
  2
AcmWeldingStdISO
  3
"Amdt_StdImp|Product Description: AutoCAD Mechanical|Company: Autodesk, Inc."
 90
     1024
 91
        1
280
     0
281
     0
  0
CLASS
  1
ACMIDSTANDARDISO
  2
AcmIdStdISO
  3
"Amdt_StdImp|Product Description: AutoCAD Mechanical|Company: Autodesk, Inc."
 90
     1024
 91
        1
280
     0
281
     0
  0
CLASS
  1
ACMDATUMSTANDARDISO
  2
AcmDatumStdISO
  3
"Amdt_StdImp|Product Description: AutoCAD Mechanical|Company: Autodesk, Inc."
 90
     1024
 91
        1
280
     0
281
     0
  0
CLASS
  1
ACMBOMSTANDARDISO
  2
AcmBOMStdISO
  3
"Amdt_StdImp|Product Description: AutoCAD Mechanical|Company: Autodesk, Inc."
 90
     1024
 91
        1
280
     0
281
     0
  0
CLASS
  1
ACMDETAILSTANDARDISO
  2
AmdtDetailSymStdISO
  3
"Amdt_StdImp|Product Description: AutoCAD Mechanical|Company: Autodesk, Inc."
 90
     1024
 91
        1
280
     0
281
     0
  0
CLASS
  1
ACMSECTIONSTANDARDISO2001
  2
AmdtSectionSymStdISO2001
  3
"Amdt_StdImp|Product Description: AutoCAD Mechanical|Company: Autodesk, Inc."
 90
     1024
 91
        1
280
     0
281
     0
  0
CLASS
  1
ACMCENTERLINESTANDARDISO
  2
AmdtCenterLineStdISO
  3
"Amdt_StdImp|Product Description: AutoCAD Mechanical|Company: Autodesk, Inc."
 90
     1024
 91
        1
280
     0
281
     0
  0
CLASS
  1
ACMTHREADLINESTANDARDISO
  2
AmdtThreadLineStdISO
  3
"Amdt_StdImp|Product Description: AutoCAD Mechanical|Company: Autodesk, Inc."
 90
     1024
 91
        1
280
     0
281
     0
  0
CLASS
  1
ACMNOTESTANDARDISO
  2
AmdtNoteStdISO
  3
"Amdt_StdImp|Product Description: AutoCAD Mechanical|Company: Autodesk, Inc."
 90
     1024
 91
        1
280
     0
281
     0
  0
CLASS
  1
ACMTAPERSTANDARDISO
  2
AcmTaperStdISO
  3
"Amdt_StdImp|Product Description: AutoCAD Mechanical|Company: Autodesk, Inc."
 90
     1024
 91
        1
280
     0
281
     0
  0
CLASS
  1
ACMANOOTATIONVIEWSTANDARDISO
  2
AmdtAnViewStdISO
  3
"Amdt_StdImp|Product Description: AutoCAD Mechanical|Company: Autodesk, Inc."
 90
     1024
 91
        1
280
     0
281
     0
  0
CLASS
  1
ACAMGHOLECHARTSTDISO
  2
AcAmgHoleChartStdISO
  3
AmgDim|Product Description: AutoCAD Mechanical|Company: Autodesk, Inc.
 90
     1024
 91
        1
280
     0
281
     0
  0
CLASS
  1
ACAMGFILTERDAT
  2
AcAmgFilterDat
  3
"AcadM|Product Description: AutoCAD Mechanical|Company: Autodesk, Inc."
 90
     1024
 91
        6
280
     0
281
     0
  0
ENDSEC
  0
SECTION
  2
TABLES
  0
TABLE
  2
VPORT
  5
8
330
0
100
AcDbSymbolTable
 70
     1
  0
VPORT
  5
291
330
8
100
AcDbSymbolTableRecord
100
AcDbViewportTableRecord
  2
*Active
 70
     0
 10
0.0
 20
0.0
 11
1.0
 21
1.0
 12
167.4334988571052
 22
183.9405439977668
 13
0.0
 23
0.0
 14
0.125
 24
0.125
 15
1.0
 25
1.0
 16
0.0
 26
0.0
 36
1.0
 17
0.0
 27
0.0
 37
0.0
 40
208.3050217596615
 41
1.442643391521196
 42
50.0
 43
0.0
 44
0.0
 50
0.0
 51
0.0
 71
     0
 72
   100
 73
     1
 74
     3
 75
     0
 76
     0
 77
     0
 78
     0
281
     0
 65
     1
110
0.0
120
0.0
130
0.0
111
1.0
121
0.0
131
0.0
112
0.0
122
1.0
132
0.0
 79
     0
146
0.0
348
29C
 60
     3
 61
     5
292
     1
282
     0
141
0.0
142
0.0
 63
   250
421
  3355443
  0
ENDTAB
  0
TABLE
  2
LTYPE
  5
5
330
0
100
AcDbSymbolTable
 70
    19
  0
LTYPE
  5
14
330
5
100
AcDbSymbolTableRecord
100
AcDbLinetypeTableRecord
  2
ByBlock
 70
     0
  3

 72
    65
 73
     0
 40
0.0
  0
LTYPE
  5
15
330
5
100
AcDbSymbolTableRecord
100
AcDbLinetypeTableRecord
  2
ByLayer
 70
     0
  3

 72
    65
 73
     0
 40
0.0
  0
LTYPE
  5
16
330
5
100
AcDbSymbolTableRecord
100
AcDbLinetypeTableRecord
  2
Continuous
 70
     0
  3
Solid line
 72
    65
 73
     0
 40
0.0
  0
LTYPE
  5
6C
330
5
100
AcDbSymbolTableRecord
100
AcDbLinetypeTableRecord
  2
AM_ISO02W050
 70
     0
  3
__ __ __ __ __ __ __ __ __ __ __ __ __ __ __
 72
    65
 73
     2
 40
7.5
 49
6.0
 74
     0
 49
-1.5
 74
     0
  0
LTYPE
  5
6D
330
5
100
AcDbSymbolTableRecord
100
AcDbLinetypeTableRecord
  2
AM_ISO08W050
 70
     0
  3
____ . ____ . ____ . ____ . ____ . ____ . ____
 72
    65
 73
     4
 40
18.0
 49
12.0
 74
     0
 49
-1.5
 74
     0
 49
3.0
 74
     0
 49
-1.5
 74
     0
  0
LTYPE
  5
6E
330
5
100
AcDbSymbolTableRecord
100
AcDbLinetypeTableRecord
  2
AM_ISO09W050
 70
     0
  3
_____ . . _____ . . _____ . . ____ .. ____
 72
    65
 73
     6
 40
22.5
 49
12.0
 74
     0
 49
-1.5
 74
     0
 49
3.0
 74
     0
 49
-1.5
 74
     0
 49
3.0
 74
     0
 49
-1.5
 74
     0
  0
LTYPE
  5
6F
330
5
100
AcDbSymbolTableRecord
100
AcDbLinetypeTableRecord
  2
Amconstr
 70
     0
  3
_______________________
 72
    65
 73
     2
 40
9999.0
 49
9999.0
 74
     0
 49
0.0
 74
     0
  0
LTYPE
  5
70
330
5
100
AcDbSymbolTableRecord
100
AcDbLinetypeTableRecord
  2
AM_ISO08W050x2
 70
     0
  3
__ . __ . __ . __ . __ . __
 72
    65
 73
     4
 40
9.0
 49
6.0
 74
     0
 49
-0.75
 74
     0
 49
1.5
 74
     0
 49
-0.75
 74
     0
  0
LTYPE
  5
71
330
5
100
AcDbSymbolTableRecord
100
AcDbLinetypeTableRecord
  2
AM_ISO02W050x2
 70
     0
  3
 _ _ _ _ _ _ _ _ _ _ _ _
 72
    65
 73
     2
 40
3.75
 49
3.0
 74
     0
 49
-0.75
 74
     0
  0
LTYPE
  5
74
330
5
100
AcDbSymbolTableRecord
100
AcDbLinetypeTableRecord
  2
Amzigzag
 70
     0
  3
/\/-/\/-/\/-/\/-/\/-/\/
 72
    65
 73
     2
 40
11.0001
 49
0.0001
 74
     4
 75
   136
340
254
 46
0.04
 50
0.0
 44
0.0
 45
0.0
 49
-11.0
 74
     0
  0
LTYPE
  5
75
330
5
100
AcDbSymbolTableRecord
100
AcDbLinetypeTableRecord
  2
HIDDEN
 70
     0
  3
Hidden __ __ __ __ __ __ __ __ __ __ __ __ __ _
 72
    65
 73
     2
 40
0.375
 49
0.25
 74
     0
 49
-0.125
 74
     0
  0
LTYPE
  5
76
330
5
100
AcDbSymbolTableRecord
100
AcDbLinetypeTableRecord
  2
CENTER
 70
     0
  3
Center ____ _ ____ _ ____ _ ____ _ ____ _ ____
 72
    65
 73
     4
 40
2.0
 49
1.25
 74
     0
 49
-0.25
 74
     0
 49
0.25
 74
     0
 49
-0.25
 74
     0
  0
LTYPE
  5
77
330
5
100
AcDbSymbolTableRecord
100
AcDbLinetypeTableRecord
  2
PHANTOM2
 70
     0
  3
Phantom (.5x) ___ _ _ ___ _ _ ___ _ _ ___ _ _
 72
    65
 73
     6
 40
1.25
 49
0.625
 74
     0
 49
-0.125
 74
     0
 49
0.125
 74
     0
 49
-0.125
 74
     0
 49
0.125
 74
     0
 49
-0.125
 74
     0
  0
LTYPE
  5
78
330
5
100
AcDbSymbolTableRecord
100
AcDbLinetypeTableRecord
  2
CENTER2
 70
     0
  3
Center (.5x) ___ _ ___ _ ___ _ ___ _ ___ _ ___
 72
    65
 73
     4
 40
1.125
 49
0.75
 74
     0
 49
-0.125
 74
     0
 49
0.125
 74
     0
 49
-0.125
 74
     0
  0
LTYPE
  5
79
330
5
100
AcDbSymbolTableRecord
100
AcDbLinetypeTableRecord
  2
HIDDEN2
 70
     0
  3
Hidden (.5x) _ _ _ _ _ _ _ _ _ _ _ _ _ _ _ _ _
 72
    65
 73
     2
 40
0.1875
 49
0.125
 74
     0
 49
-0.0625
 74
     0
  0
LTYPE
  5
7A
330
5
100
AcDbSymbolTableRecord
100
AcDbLinetypeTableRecord
  2
Amzigzag2
 70
     0
  3
/\/-/\/-/\/-/\/-/\/-/\/
 72
    65
 73
     2
 40
0.4401
 49
0.0001
 74
     4
 75
   136
340
254
 46
0.0016
 50
0.0
 44
0.0
 45
0.0
 49
-0.4400000000000001
 74
     0
  0
LTYPE
  5
87
330
5
100
AcDbSymbolTableRecord
100
AcDbLinetypeTableRecord
  2
ACANSTGB
 70
     0
  3
__ . . __ . .
 72
    65
 73
     6
 40
0.35433070866
 49
0.15748031496
 74
     0
 49
-0.03937007874
 74
     0
 49
0.03937007874
 74
     0
 49
-0.03937007874
 74
     0
 49
0.03937007874
 74
     0
 49
-0.03937007874
 74
     0
  0
LTYPE
  5
88
330
5
100
AcDbSymbolTableRecord
100
AcDbLinetypeTableRecord
  2
ACANSTGL
 70
     0
  3
_ _ _ _ _
 72
    65
 73
     2
 40
0.11811023622
 49
0.07874015748
 74
     0
 49
-0.03937007874
 74
     0
  0
LTYPE
  5
38C
330
5
100
AcDbSymbolTableRecord
100
AcDbLinetypeTableRecord
  2
ACISOWELD
 70
     0
  3
_ _ _ _ _
 72
    65
 73
     2
 40
2.0
 49
2.0
 74
     0
 49
-1.0
 74
     0
  0
LTYPE
  5
38D
330
5
100
AcDbSymbolTableRecord
100
AcDbLinetypeTableRecord
  2
ACISOTGB
 70
     0
  3
__ . . __ . .
 72
    65
 73
     6
 40
9.0
 49
4.0
 74
     0
 49
-1.0
 74
     0
 49
1.0
 74
     0
 49
-1.0
 74
     0
 49
1.0
 74
     0
 49
-1.0
 74
     0
  0
LTYPE
  5
38E
330
5
100
AcDbSymbolTableRecord
100
AcDbLinetypeTableRecord
  2
ACISOTGL
 70
     0
  3
_ _ _ _ _
 72
    65
 73
     2
 40
3.0
 49
2.0
 74
     0
 49
-1.0
 74
     0
  0
ENDTAB
  0
TABLE
  2
LAYER
  5
2
330
0
100
AcDbSymbolTable
 70
     1
  0
LAYER
  5
10
102
{ACAD_XDICTIONARY
360
621
102
}
330
2
100
AcDbSymbolTableRecord
100
AcDbLayerTableRecord
  2
0
 70
     0
 62
     7
  6
Continuous
370
    -3
390
F
347
295
  0
ENDTAB
  0
TABLE
  2
STYLE
  5
3
330
0
100
AcDbSymbolTable
 70
     9
  0
STYLE
  5
11
330
3
100
AcDbSymbolTableRecord
100
AcDbTextStyleTableRecord
  2
STANDARD
 70
     0
 40
0.0
 41
1.0
 50
0.0
 71
     0
 42
0.2
  3
ROMANS.SHX
  4

  0
STYLE
  5
73
330
3
100
AcDbSymbolTableRecord
100
AcDbTextStyleTableRecord
  2

 70
     1
 40
0.0
 41
1.0
 50
0.0
 71
     0
 42
0.2
  3
ltypeshp.shx
  4

  0
STYLE
  5
7B
330
3
100
AcDbSymbolTableRecord
100
AcDbTextStyleTableRecord
  2
ACANSTS
 70
     0
 40
1.0
 41
1.0
 50
0.0
 71
     0
 42
0.2
  3
romans.shx
  4

  0
STYLE
  5
86
330
3
100
AcDbSymbolTableRecord
100
AcDbTextStyleTableRecord
  2
ACANSGDT
 70
     0
 40
0.0
 41
1.0
 50
0.0
 71
     0
 42
0.2
  3
amgdt.shx
  4

  0
STYLE
  5
13F
330
3
100
AcDbSymbolTableRecord
100
AcDbTextStyleTableRecord
  2
USER1
 70
     0
 40
0.0
 41
1.0
 50
0.0
 71
     0
 42
0.2
  3
TXT.SHX
  4

  0
STYLE
  5
140
330
3
100
AcDbSymbolTableRecord
100
AcDbTextStyleTableRecord
  2
USER2
 70
     0
 40
0.0
 41
1.0
 50
0.0
 71
     0
 42
0.2
  3
SIMPLEX.SHX
  4

  0
STYLE
  5
141
330
3
100
AcDbSymbolTableRecord
100
AcDbTextStyleTableRecord
  2
USER3
 70
     0
 40
0.0
 41
1.0
 50
0.0
 71
     0
 42
0.2
  3
ITALIC.SHX
  4

  0
STYLE
  5
254
330
3
100
AcDbSymbolTableRecord
100
AcDbTextStyleTableRecord
  2

 70
     1
 40
0.0
 41
1.0
 50
0.0
 71
     0
 42
0.2
  3
genltshp.shx
  4

  0
STYLE
  5
38F
330
3
100
AcDbSymbolTableRecord
100
AcDbTextStyleTableRecord
  2
ACISOGDT
 70
     0
 40
0.0
 41
1.0
 50
0.0
 71
     0
 42
0.2
  3
amgdt.shx
  4

  0
ENDTAB
  0
TABLE
  2
VIEW
  5
6
330
0
100
AcDbSymbolTable
 70
     0
  0
ENDTAB
  0
TABLE
  2
UCS
  5
7
330
0
100
AcDbSymbolTable
 70
     0
  0
ENDTAB
  0
TABLE
  2
APPID
  5
9
330
0
100
AcDbSymbolTable
 70
    11
  0
APPID
  5
12
330
9
100
AcDbSymbolTableRecord
100
AcDbRegAppTableRecord
  2
ACAD
 70
     0
  0
APPID
  5
4E
330
9
100
AcDbSymbolTableRecord
100
AcDbRegAppTableRecord
  2
MCAD_NO_VIS
 70
     0
  0
APPID
  5
4F
330
9
100
AcDbSymbolTableRecord
100
AcDbRegAppTableRecord
  2
ACAD_TEMP_GRAPHIC
 70
     0
  0
APPID
  5
60
330
9
100
AcDbSymbolTableRecord
100
AcDbRegAppTableRecord
  2
ACATTRIBSERVICES
 70
     0
  0
APPID
  5
F7
330
9
100
AcDbSymbolTableRecord
100
AcDbRegAppTableRecord
  2
AD_DRAW
 70
     0
  0
APPID
  5
115
330
9
100
AcDbSymbolTableRecord
100
AcDbRegAppTableRecord
  2
DESIGNERASSEMBLIES
 70
     0
  0
APPID
  5
11A
330
9
100
AcDbSymbolTableRecord
100
AcDbRegAppTableRecord
  2
ACADM_DIM_EDIT
 70
     0
  0
APPID
  5
11B
330
9
100
AcDbSymbolTableRecord
100
AcDbRegAppTableRecord
  2
AMDT_DM_ADJ
 70
     0
  0
APPID
  5
1D3
330
9
100
AcDbSymbolTableRecord
100
AcDbRegAppTableRecord
  2
ACAD_DSTYLE_DIMARC_LENGTH_SYMBOL
 70
     0
  0
APPID
  5
1D4
330
9
100
AcDbSymbolTableRecord
100
AcDbRegAppTableRecord
  2
ACAD_DSTYLE_DIMJOGGED_JOGANGLE_SYMBOL
 70
     0
  0
APPID
  5
2EE
330
9
100
AcDbSymbolTableRecord
100
AcDbRegAppTableRecord
  2
ACAD_MLEADERVER
 70
     0
  0
ENDTAB
  0
TABLE
  2
DIMSTYLE
  5
A
330
0
100
AcDbSymbolTable
 70
    14
100
AcDbDimStyleTable
 71
     1
340
8C
  0
DIMSTYLE
105
27
330
A
100
AcDbSymbolTableRecord
100
AcDbDimStyleTableRecord
  2
Standard
 70
     0
340
11
  0
DIMSTYLE
105
8C
102
{ACAD_REACTORS
330
6A
102
}
330
A
100
AcDbSymbolTableRecord
100
AcDbDimStyleTableRecord
  2
AM_ANSI
 70
     0
  4
mm
 41
0.12
 42
0.05
 43
0.5
 44
0.1
 47
0.1
 48
0.1
 78
     7
 79
     2
 90
     1
140
0.12
141
0.0
146
0.71
147
0.06
176
   256
177
   256
178
   140
274
     4
284
     7
340
11
345
14
346
14
347
14
371
    -1
372
    -1
1001
ACAD_DSTYLE_DIMJOGGED_JOGANGLE_SYMBOL
1070
   384
1040
0.7853981633974483
  0
DIMSTYLE
105
8D
330
A
100
AcDbSymbolTableRecord
100
AcDbDimStyleTableRecord
  2
AM_ANSI$3
 70
     0
  4
mm
 41
0.12
 42
0.05
 43
0.5
 44
0.1
 47
0.1
 48
0.1
 78
     7
 79
     2
 90
     1
140
0.12
141
0.0
146
0.71
147
0.06
176
   256
177
   256
178
   140
274
     4
284
     7
288
     1
289
     0
340
11
345
14
346
14
347
14
371
    -1
372
    -1
1001
ACAD_DSTYLE_DIMJOGGED_JOGANGLE_SYMBOL
1070
   384
1040
0.7853981633974483
  0
DIMSTYLE
105
8E
330
A
100
AcDbSymbolTableRecord
100
AcDbDimStyleTableRecord
  2
AM_ANSI$4
 70
     0
  4
mm
 41
0.12
 42
0.05
 43
0.5
 44
0.1
 47
0.1
 48
0.1
 78
     7
 79
     2
 90
     1
140
0.12
141
0.0
146
0.71
147
0.06
176
   256
177
   256
178
   140
274
     4
284
     7
340
11
345
14
346
14
347
14
371
    -1
372
    -1
1001
ACAD_DSTYLE_DIMJOGGED_JOGANGLE_SYMBOL
1070
   384
1040
0.7853981633974483
  0
DIMSTYLE
105
8F
330
A
100
AcDbSymbolTableRecord
100
AcDbDimStyleTableRecord
  2
AM_ANSI$7
 70
     0
  4
mm
 41
0.12
 42
0.05
 43
0.5
 44
0.1
 47
0.1
 48
0.1
 78
     7
 79
     2
 90
     1
140
0.12
141
0.0
146
0.71
147
0.06
176
   256
177
   256
178
   140
274
     4
284
     7
340
11
345
14
346
14
347
14
371
    -1
372
    -1
1001
ACAD_DSTYLE_DIMJOGGED_JOGANGLE_SYMBOL
1070
   384
1040
0.7853981633974483
  0
DIMSTYLE
105
90
330
A
100
AcDbSymbolTableRecord
100
AcDbDimStyleTableRecord
  2
AM_ANSI$SF
 70
     0
  4
mm
 41
0.12
 42
0.05
 43
0.5
 44
0.1
 47
0.1
 48
0.1
 75
     1
 76
     1
 78
     7
 79
     2
 90
     1
140
0.12
141
0.0
146
0.71
147
0.06
176
   256
177
   256
178
   140
274
     4
284
     7
340
11
345
14
346
14
347
14
371
    -1
372
    -1
1001
ACAD_DSTYLE_DIMJOGGED_JOGANGLE_SYMBOL
1070
   384
1040
0.7853981633974483
  0
DIMSTYLE
105
95
330
A
100
AcDbSymbolTableRecord
100
AcDbDimStyleTableRecord
  2
AM_ANSI$SH
 70
     0
  4
mm
 41
0.12
 42
0.05
 43
0.5
 44
0.1
 47
0.1
 48
0.1
 75
     1
 76
     1
 78
     7
 79
     2
 90
     1
140
0.12
141
0.0
146
0.71
147
0.06
173
     1
176
   256
177
   256
178
   140
274
     4
284
     7
340
11
343
91
345
14
346
14
347
14
371
    -1
372
    -1
1001
ACAD_DSTYLE_DIMJOGGED_JOGANGLE_SYMBOL
1070
   384
1040
0.7853981633974483
  0
DIMSTYLE
105
390
102
{ACAD_REACTORS
330
4CD
102
}
330
A
100
AcDbSymbolTableRecord
100
AcDbDimStyleTableRecord
  2
AM_ISO
 70
     0
  4
"
 41
3.5
 42
1.0
 43
10.0
 44
1.0
 47
0.1
 48
0.1
 73
     0
 74
     0
 77
     1
 78
     8
 79
     2
 90
     1
140
3.5
141
0.0
143
0.0393701
146
0.71
147
1.5
172
     1
176
   256
177
   256
178
     2
271
     2
272
     3
274
     4
283
     0
284
     8
340
11
345
14
346
14
347
14
371
    -1
372
    -1
  0
DIMSTYLE
105
391
330
A
100
AcDbSymbolTableRecord
100
AcDbDimStyleTableRecord
  2
AM_ISO$3
 70
     0
  4
"
 41
3.5
 42
1.0
 43
10.0
 44
1.0
 47
0.1
 48
0.1
 73
     0
 77
     1
 78
     8
 79
     2
 90
     1
140
3.5
141
0.0
143
0.0393701
146
0.71
147
1.5
176
   256
177
   256
178
     2
271
     2
272
     3
274
     4
283
     0
284
     8
288
     1
289
     0
340
11
345
14
346
14
347
14
371
    -1
372
    -1
  0
DIMSTYLE
105
392
330
A
100
AcDbSymbolTableRecord
100
AcDbDimStyleTableRecord
  2
AM_ISO$4
 70
     0
  4
"
 41
3.5
 42
1.0
 43
10.0
 44
1.0
 47
0.1
 48
0.1
 73
     0
 74
     0
 77
     1
 78
     8
 79
     2
 90
     1
140
3.5
141
0.0
143
0.0393701
146
0.71
147
1.5
172
     1
176
   256
177
   256
178
     2
271
     2
272
     3
274
     4
283
     0
284
     8
340
11
345
14
346
14
347
14
371
    -1
372
    -1
  0
DIMSTYLE
105
393
330
A
100
AcDbSymbolTableRecord
100
AcDbDimStyleTableRecord
  2
AM_ISO$6
 70
     0
  4
"
 41
3.5
 42
1.0
 43
10.0
 44
1.0
 47
0.1
 48
0.1
 73
     0
 74
     0
 78
     8
 79
     2
 90
     1
140
3.5
141
0.0
143
0.0393701
146
0.71
147
1.5
172
     1
176
   256
177
   256
178
     2
271
     2
272
     3
274
     4
283
     0
284
     8
340
11
345
14
346
14
347
14
371
    -1
372
    -1
  0
DIMSTYLE
105
394
330
A
100
AcDbSymbolTableRecord
100
AcDbDimStyleTableRecord
  2
AM_ISO$7
 70
     0
  4
"
 41
3.5
 42
1.0
 43
10.0
 44
1.0
 47
0.1
 48
0.1
 73
     0
 74
     0
 77
     1
 78
     8
 79
     2
 90
     1
140
3.5
141
0.0
143
0.0393701
146
0.71
147
1.5
172
     1
176
   256
177
   256
178
     2
271
     2
272
     3
274
     4
283
     0
284
     8
340
11
345
14
346
14
347
14
371
    -1
372
    -1
  0
DIMSTYLE
105
395
330
A
100
AcDbSymbolTableRecord
100
AcDbDimStyleTableRecord
  2
AM_ISO$SF
 70
     0
  4
"
 41
3.5
 42
1.0
 43
10.0
 44
1.0
 47
0.1
 48
0.1
 73
     0
 74
     0
 75
     1
 76
     1
 77
     1
 78
     8
 79
     2
 90
     1
140
3.5
141
0.0
143
0.0393701
146
0.71
147
1.5
172
     1
176
   256
177
   256
178
     2
271
     2
272
     3
274
     4
283
     0
284
     8
340
11
345
14
346
14
347
14
371
    -1
372
    -1
  0
DIMSTYLE
105
396
330
A
100
AcDbSymbolTableRecord
100
AcDbDimStyleTableRecord
  2
AM_ISO$SH
 70
     0
  4
"
 41
3.5
 42
1.0
 43
10.0
 44
1.0
 47
0.1
 48
0.1
 73
     0
 74
     0
 75
     1
 76
     1
 77
     1
 78
     8
 79
     2
 90
     1
140
3.5
141
0.0
143
0.0393701
144
2.0
146
0.71
147
1.5
172
     1
173
     1
176
   256
177
   256
178
     2
271
     2
272
     3
274
     4
283
     0
284
     8
340
11
343
91
345
14
346
14
347
14
371
    -1
372
    -1
  0
ENDTAB
  0
TABLE
  2
BLOCK_RECORD
  5
1
330
0
100
AcDbSymbolTable
 70
     4
  0
BLOCK_RECORD
  5
1F
102
{ACAD_XDICTIONARY
360
99
102
}
330
1
100
AcDbSymbolTableRecord
100
AcDbBlockTableRecord
  2
*Model_Space
340
22
 70
     0
280
     1
281
     0
  0
BLOCK_RECORD
  5
1B
330
1
100
AcDbSymbolTableRecord
100
AcDbBlockTableRecord
  2
*Paper_Space
340
1E
 70
     0
280
     1
281
     0
  0
BLOCK_RECORD
  5
23
330
1
100
AcDbSymbolTableRecord
100
AcDbBlockTableRecord
  2
*Paper_Space0
340
26
 70
     0
280
     1
281
     0
  0
BLOCK_RECORD
  5
91
330
1
100
AcDbSymbolTableRecord
100
AcDbBlockTableRecord
  2
GENAXEH
340
0
 70
     0
280
     1
281
     0
  0
ENDTAB
  0
ENDSEC
  0
SECTION
  2
BLOCKS
  0
BLOCK
  5
20
330
1F
100
AcDbEntity
  8
0
100
AcDbBlockBegin
  2
*Model_Space
 70
     0
 10
0.0
 20
0.0
 30
0.0
  3
*Model_Space
  1

  0
ENDBLK
  5
21
330
1F
100
AcDbEntity
  8
0
100
AcDbBlockEnd
  0
BLOCK
  5
1C
330
1B
100
AcDbEntity
 67
     1
  8
0
100
AcDbBlockBegin
  2
*Paper_Space
 70
     0
 10
0.0
 20
0.0
 30
0.0
  3
*Paper_Space
  1

  0
ENDBLK
  5
1D
330
1B
100
AcDbEntity
 67
     1
  8
0
100
AcDbBlockEnd
  0
BLOCK
  5
24
330
23
100
AcDbEntity
 67
     1
  8
0
100
AcDbBlockBegin
  2
*Paper_Space0
 70
     0
 10
0.0
 20
0.0
 30
0.0
  3
*Paper_Space0
  1

  0
ENDBLK
  5
25
330
23
100
AcDbEntity
 67
     1
  8
0
100
AcDbBlockEnd
  0
BLOCK
  5
93
330
91
100
AcDbEntity
  8
0
100
AcDbBlockBegin
  2
GENAXEH
 70
     0
 10
0.0
 20
0.0
 30
0.0
  3
GENAXEH
  1

  0
LINE
  5
92
330
91
100
AcDbEntity
  8
0
100
AcDbLine
 10
-1.0
 20
0.0
 30
0.0
 11
1.0
 21
0.0
 31
0.0
  0
ENDBLK
  5
94
330
91
100
AcDbEntity
  8
0
100
AcDbBlockEnd
  0
ENDSEC
  0
SECTION
  2
ENTITIES
  0
LINE
  5
4EE
330
1F
100
AcDbEntity
  8
0
  6
Continuous
 62
     7
100
AcDbLine
 10
77.73045227984306
 20
231.3345019426109
 30
0.0
 11
77.73045227984306
 21
227.2309519426109
 31
0.0
  0
LWPOLYLINE
  5
4EF
330
1F
100
AcDbEntity
  8
0
  6
Continuous
 62
     7
100
AcDbPolyline
 90
        3
 70
     0
 43
0.0
 10
83.0033210179431
 20
231.3361263181109
 10
83.00266322424306
 20
231.3360545317109
 10
83.0012356330431
 20
231.3358909204108
  0
LINE
  5
4F0
330
1F
100
AcDbEntity
  8
0
  6
Continuous
 62
     7
100
AcDbLine
 10
83.00455569424309
 20
231.3362555614109
 30
0.0
 11
83.0039492952431
 21
231.3361929427109
 31
0.0
  0
LINE
  5
4F1
330
1F
100
AcDbEntity
  8
0
  6
Continuous
 62
     7
100
AcDbLine
 10
83.0067706725431
 20
231.3364718536109
 30
0.0
 11
83.00513916894312
 21
231.3363143469108
 31
0.0
  0
LINE
  5
4F2
330
1F
100
AcDbEntity
  8
0
  6
Continuous
 62
     7
100
AcDbLine
 10
83.00812590234306
 20
231.3365960471109
 30
0.0
 11
83.0067706725431
 21
231.3364718536109
 31
0.0
  0
LINE
  5
4F3
330
1F
100
AcDbEntity
  8
0
  6
Continuous
 62
     7
100
AcDbLine
 10
83.04128331904308
 20
231.3394860008109
 30
0.0
 11
83.03367740734307
 21
231.3388307416109
 31
0.0
  0
LINE
  5
4F4
330
1F
100
AcDbEntity
  8
0
  6
Continuous
 62
     7
100
AcDbLine
 10
83.01128924524306
 20
231.3368689670109
 30
0.0
 11
83.0087553568431
 21
231.336652007411
 31
0.0
  0
LWPOLYLINE
  5
4F5
330
1F
100
AcDbEntity
  8
0
  6
Continuous
 62
     7
100
AcDbPolyline
 90
        3
 70
     0
 43
0.0
 10
83.05965021234305
 20
231.3409247294109
 10
83.05183356094307
 20
231.3403358693108
 10
83.04128331904308
 20
231.3394860008109
  0
LINE
  5
4F6
330
1F
100
AcDbEntity
  8
0
  6
Continuous
 62
     7
100
AcDbLine
 10
245.003523433743
 20
231.3405920717109
 30
0.0
 11
244.9953113094431
 21
231.3411954788109
 31
0.0
  0
LINE
  5
4F7
330
1F
100
AcDbEntity
  8
0
  6
Continuous
 62
     7
100
AcDbLine
 10
245.0677499771431
 20
231.3346225377108
 30
0.0
 11
245.0676317703431
 21
231.3346316821108
 31
0.0
  0
LINE
  5
4F8
330
1F
100
AcDbEntity
  8
0
  6
Continuous
 62
     7
100
AcDbLine
 10
245.0121025857431
 20
231.3399227675108
 30
0.0
 11
245.004073893343
 21
231.3405503648109
 31
0.0
  0
LINE
  5
4F9
330
1F
100
AcDbEntity
  8
0
  6
Continuous
 62
     7
100
AcDbLine
 10
245.019548613343
 20
231.3393063242109
 30
0.0
 11
245.0121025857431
 21
231.3399227675108
 31
0.0
  0
LINE
  5
4FA
330
1F
100
AcDbEntity
  8
0
  6
Continuous
 62
     7
100
AcDbLine
 10
245.0497805838431
 20
231.3366668337108
 30
0.0
 11
245.0473343592431
 21
231.3368757358108
 31
0.0
  0
LINE
  5
4FB
330
1F
100
AcDbEntity
  8
0
  6
Continuous
 62
     7
100
AcDbLine
 10
245.0288479862431
 20
231.3384909522109
 30
0.0
 11
245.0196373603431
 21
231.3392987651109
 31
0.0
  0
LINE
  5
4FC
330
1F
100
AcDbEntity
  8
0
  6
Continuous
 62
     7
100
AcDbLine
 10
245.0284897281431
 20
231.3385229932108
 30
0.0
 11
245.0281792188431
 21
231.3385507400108
 31
0.0
  0
LINE
  5
4FD
330
1F
100
AcDbEntity
  8
0
  6
Continuous
 62
     7
100
AcDbLine
 10
245.051243538343
 20
231.3365357935108
 30
0.0
 11
245.0500195309431
 21
231.3366458037108
 31
0.0
  0
LWPOLYLINE
  5
4FE
330
1F
100
AcDbEntity
  8
0
  6
Continuous
 62
     7
100
AcDbPolyline
 90
        5
 70
     0
 43
0.0
 10
245.0672961716431
 20
231.3346576438109
 10
245.0664133182431
 20
231.3347412436108
 10
245.065397681643
 20
231.3348528325108
 10
245.0643806939431
 20
231.3349772966108
 10
245.0634184862431
 20
231.3351033111108
  0
LWPOLYLINE
  5
4FF
330
1F
100
AcDbEntity
  8
0
  6
Continuous
 62
     7
100
AcDbPolyline
 90
        7
 70
     0
 43
0.0
 10
245.0587450989431
 20
231.3357346160108
 10
245.0578667579431
 20
231.3358432667109
 10
245.056914370143
 20
231.3359558095108
 10
245.0559458720431
 20
231.3360650839108
 10
245.0549446714431
 20
231.3361730496108
 10
245.0539311733431
 20
231.3362776570108
 10
245.052317718743
 20
231.3364356441109
  0
LINE
  5
500
330
1F
100
AcDbEntity
  8
0
  6
Continuous
 62
     7
100
AcDbLine
 10
245.060197684843
 20
231.3355444219108
 30
0.0
 11
245.0587450989431
 21
231.3357346160108
 31
0.0
  0
LINE
  5
501
330
1F
100
AcDbEntity
  8
0
  6
Continuous
 62
     7
100
AcDbLine
 10
245.0634184862431
 20
231.3351033111108
 30
0.0
 11
245.060197684843
 21
231.3355444219108
 31
0.0
  0
LWPOLYLINE
  5
502
330
1F
100
AcDbEntity
  8
0
  6
Continuous
 62
     7
100
AcDbPolyline
 90
       44
 70
     0
 43
0.0
 10
98.82454884014309
 20
127.4976135668108
 10
98.85484743024306
 20
127.3149965071108
 10
98.88897982324305
 20
127.1284116521109
 10
98.92618367504308
 20
126.9424403279108
 10
98.96645097234305
 20
126.7571217551109
 10
99.00978178824304
 20
126.5724651532108
 10
99.0561671514431
 20
126.3885176175109
 10
99.10559491914305
 20
126.2053339625109
 10
99.15806303024304
 20
126.0229339259109
 10
99.21357068754309
 20
125.8413403192108
 10
99.2721001885431
 20
125.6606326628109
 10
99.33361985094308
 20
125.4809147301108
 10
99.39810501514307
 20
125.3022489806108
 10
99.46554056464309
 20
125.1246699499108
 10
99.5359020961431
 20
124.9482374881109
 10
99.60916736234302
 20
124.7730043459108
 10
99.68531781714311
 20
124.5990142189109
 10
99.7643341560431
 20
124.4263131938108
 10
99.84619632534309
 20
124.2549492613107
 10
99.93088396584305
 20
124.0849710712109
 10
100.018377384343
 20
123.9164259713107
 10
100.108656499243
 20
123.7493602105108
 10
100.201693816143
 20
123.5838208378108
 10
100.2974580314431
 20
123.4198561834109
 10
100.395920457943
 20
123.2575096653109
 10
100.4970520610431
 20
123.0968252796108
 10
100.600820640943
 20
122.9378517379109
 10
100.707196843743
 20
122.7806329103109
 10
100.8161518926431
 20
122.6252118024108
 10
100.927653969343
 20
122.4716355961108
 10
101.041671553643
 20
122.3199505748109
 10
101.158177355343
 20
122.1701972251108
 10
101.277143511143
 20
122.0224124312109
 10
101.398535792743
 20
121.8766327528109
 10
101.522316480843
 20
121.7328980524108
 10
101.6484486829431
 20
121.5912470159108
 10
101.7768969122431
 20
121.4517167062108
 10
101.907624397643
 20
121.3143455965108
 10
102.040592236943
 20
121.1791741914109
 10
102.175760415843
 20
121.0462436997109
 10
102.3130962966431
 20
120.9155879421108
 10
102.4525721173431
 20
120.7872367777108
 10
102.594150768643
 20
120.6612285564109
 10
102.6191286974431
 20
120.6397301228109
  0
LINE
  5
503
330
1F
100
AcDbEntity
  8
0
  6
Continuous
 62
     7
100
AcDbLine
 10
98.79584876644308
 20
127.6897449066108
 30
0.0
 11
98.82454884014309
 21
127.4976135668108
 31
0.0
  0
LINE
  5
504
330
1F
100
AcDbEntity
  8
0
  6
Continuous
 62
     7
100
AcDbLine
 10
98.79585090094309
 20
127.6897297184109
 30
0.0
 11
84.85272857584311
 21
226.9002001451109
 31
0.0
  0
LWPOLYLINE
  5
505
330
1F
100
AcDbEntity
  8
0
  6
Continuous
 62
     7
100
AcDbPolyline
 90
        8
 70
     0
 43
0.0
 10
82.9985627340431
 20
231.3355519448109
 10
82.99518862134306
 20
231.3350902765109
 10
82.99444926454311
 20
231.3349933359109
 10
82.99366891944311
 20
231.3348958835109
 10
82.9928602932431
 20
231.3348019695109
 10
82.99205171774309
 20
231.3347172066109
 10
82.99128268824308
 20
231.3346469222109
 10
82.99109431474306
 20
231.3346326203109
  0
LINE
  5
506
330
1F
100
AcDbEntity
  8
0
  6
Continuous
 62
     7
100
AcDbLine
 10
82.99986105754305
 20
231.3357221387109
 30
0.0
 11
82.9985627340431
 21
231.3355519448109
 31
0.0
  0
LINE
  5
507
330
1F
100
AcDbEntity
  8
0
  6
Continuous
 62
     7
100
AcDbLine
 10
83.0012356330431
 20
231.3358909204108
 30
0.0
 11
82.99986105754305
 21
231.3357221387109
 31
0.0
  0
LINE
  5
508
330
1F
100
AcDbEntity
  8
0
  6
Continuous
 62
     7
100
AcDbLine
 10
83.07676094784312
 20
231.342109066311
 30
0.0
 11
83.05965021234305
 21
231.3409247294109
 31
0.0
  0
LINE
  5
509
330
1F
100
AcDbEntity
  8
0
  6
Continuous
 62
     7
100
AcDbLine
 10
83.09503337444311
 20
231.3432432498109
 30
0.0
 11
83.07676094784312
 21
231.342109066311
 31
0.0
  0
LINE
  5
50A
330
1F
100
AcDbEntity
  8
0
  6
Continuous
 62
     7
100
AcDbLine
 10
83.11164815354311
 20
231.344183378811
 30
0.0
 11
83.09503337444311
 21
231.3432432498109
 31
0.0
  0
LINE
  5
50B
330
1F
100
AcDbEntity
  8
0
  6
Continuous
 62
     7
100
AcDbLine
 10
83.1303326418431
 20
231.3451482367109
 30
0.0
 11
83.11164815354311
 21
231.344183378811
 31
0.0
  0
LINE
  5
50C
330
1F
100
AcDbEntity
  8
0
  6
Continuous
 62
     7
100
AcDbLine
 10
83.15021849754305
 20
231.3460771739109
 30
0.0
 11
83.1303326418431
 21
231.3451482367109
 31
0.0
  0
LINE
  5
50D
330
1F
100
AcDbEntity
  8
0
  6
Continuous
 62
     7
100
AcDbLine
 10
82.99097018714309
 20
231.334623196211
 30
0.0
 11
82.98810855174309
 21
231.334502699511
 31
0.0
  0
LINE
  5
50E
330
1F
100
AcDbEntity
  8
0
  6
Continuous
 62
     7
100
AcDbLine
 10
83.16588684534309
 20
231.3467325994109
 30
0.0
 11
83.15021849754305
 21
231.3460771739109
 31
0.0
  0
LINE
  5
50F
330
1F
100
AcDbEntity
  8
0
  6
Continuous
 62
     7
100
AcDbLine
 10
83.18188028714308
 20
231.3473246041109
 30
0.0
 11
83.16588684534309
 21
231.3467325994109
 31
0.0
  0
LINE
  5
510
330
1F
100
AcDbEntity
  8
0
  6
Continuous
 62
     7
100
AcDbLine
 10
83.19820850444306
 20
231.347851584211
 30
0.0
 11
83.18188028714308
 21
231.3473246041109
 31
0.0
  0
LINE
  5
511
330
1F
100
AcDbEntity
  8
0
  6
Continuous
 62
     7
100
AcDbLine
 10
83.22561748524305
 20
231.3485703698109
 30
0.0
 11
83.19820850444306
 21
231.347851584211
 31
0.0
  0
LINE
  5
512
330
1F
100
AcDbEntity
  8
0
  6
Continuous
 62
     7
100
AcDbLine
 10
83.25463787164308
 20
231.3490129723109
 30
0.0
 11
83.22561748524305
 21
231.3485703698109
 31
0.0
  0
LINE
  5
513
330
1F
100
AcDbEntity
  8
0
  6
Continuous
 62
     7
100
AcDbLine
 10
83.27420324364306
 20
231.349306114911
 30
0.0
 11
83.24729059514311
 21
231.349000322011
 31
0.0
  0
LINE
  5
514
330
1F
100
AcDbEntity
  8
0
  6
Continuous
 62
     7
100
AcDbLine
 10
83.27219939394309
 20
231.3493502419109
 30
0.0
 11
83.2640668920431
 21
231.3492525820109
 31
0.0
  0
LINE
  5
515
330
1F
100
AcDbEntity
  8
0
  6
Continuous
 62
     7
100
AcDbLine
 10
83.29485878984309
 20
231.3495222388109
 30
0.0
 11
83.27420324364306
 21
231.349306114911
 31
0.0
  0
LINE
  5
516
330
1F
100
AcDbEntity
  8
0
  6
Continuous
 62
     7
100
AcDbLine
 10
83.31237826064308
 20
231.349635322211
 30
0.0
 11
83.27219939394309
 21
231.3493502419109
 31
0.0
  0
LINE
  5
517
330
1F
100
AcDbEntity
  8
0
  6
Continuous
 62
     7
100
AcDbLine
 10
83.31706134154307
 20
231.3496555473109
 30
0.0
 11
83.31237826064308
 21
231.349635322211
 31
0.0
  0
LINE
  5
518
330
1F
100
AcDbEntity
  8
0
  6
Continuous
 62
     7
100
AcDbLine
 10
83.31917741954304
 20
231.349663406611
 30
0.0
 11
83.31706134154307
 21
231.3496555473109
 31
0.0
  0
LINE
  5
519
330
1F
100
AcDbEntity
  8
0
  6
Continuous
 62
     7
100
AcDbLine
 10
83.32116275674309
 20
231.3496700825109
 30
0.0
 11
83.31917741954304
 21
231.349663406611
 31
0.0
  0
LINE
  5
51A
330
1F
100
AcDbEntity
  8
0
  6
Continuous
 62
     7
100
AcDbLine
 10
83.32482752274307
 20
231.3496806975109
 30
0.0
 11
83.32116275674309
 21
231.3496700825109
 31
0.0
  0
LINE
  5
51B
330
1F
100
AcDbEntity
  8
0
  6
Continuous
 62
     7
100
AcDbLine
 10
241.7401306270431
 20
231.3434290134108
 30
0.0
 11
238.7504585861431
 21
231.3354428025109
 31
0.0
  0
LINE
  5
51C
330
1F
100
AcDbEntity
  8
0
  6
Continuous
 62
     7
100
AcDbLine
 10
244.7003667442431
 20
231.3496990277108
 30
0.0
 11
241.7401306270431
 21
231.3434290134108
 31
0.0
  0
LINE
  5
51D
330
1F
100
AcDbEntity
  8
0
  6
Continuous
 62
     7
100
AcDbLine
 10
238.7504585861431
 20
231.3354428025109
 30
0.0
 11
236.238269955843
 21
231.3345019905109
 31
0.0
  0
LINE
  5
51E
330
1F
100
AcDbEntity
  8
0
  6
Continuous
 62
     7
100
AcDbLine
 10
82.98814632934307
 20
231.3345041268109
 30
0.0
 11
82.96764118304309
 21
231.3345019426109
 31
0.0
  0
LINE
  5
51F
330
1F
100
AcDbEntity
  8
0
  6
Continuous
 62
     7
100
AcDbLine
 10
252.8152522798431
 20
231.3345019426109
 30
0.0
 11
75.24345227984304
 21
231.3345019426109
 31
0.0
  0
LINE
  5
520
330
1F
100
AcDbEntity
  8
0
  6
Continuous
 62
     7
100
AcDbLine
 10
90.06241194354311
 20
231.3345019426109
 30
0.0
 11
90.03642505694307
 21
231.3345026976109
 31
0.0
  0
LINE
  5
521
330
1F
100
AcDbEntity
  8
0
  6
Continuous
 62
     7
100
AcDbLine
 10
255.8999917637431
 20
229.9978855202109
 30
0.0
 11
72.15871279584309
 21
229.9978855202109
 31
0.0
  0
LINE
  5
522
330
1F
100
AcDbEntity
  8
0
  6
Continuous
 62
     7
100
AcDbLine
 10
83.41959988474309
 20
231.3495851421109
 30
0.0
 11
83.32540472654306
 21
231.3496821740109
 31
0.0
  0
LINE
  5
523
330
1F
100
AcDbEntity
  8
0
  6
Continuous
 62
     7
100
AcDbLine
 10
89.52828347574309
 20
231.3350230213109
 30
0.0
 11
89.19626759964307
 21
231.3356838003109
 31
0.0
  0
LINE
  5
524
330
1F
100
AcDbEntity
  8
0
  6
Continuous
 62
     7
100
AcDbLine
 10
85.80615138554311
 20
231.3446777255109
 30
0.0
 11
83.41959988474309
 21
231.3495851421109
 31
0.0
  0
LWPOLYLINE
  5
525
330
1F
100
AcDbEntity
  8
0
  6
Continuous
 62
     7
100
AcDbPolyline
 90
        3
 70
     0
 43
0.0
 10
89.19626759964307
 20
231.3356838003109
 10
88.85580333434308
 20
231.3365044092109
 10
88.73900207384309
 20
231.3368076470109
  0
LINE
  5
526
330
1F
100
AcDbEntity
  8
0
  6
Continuous
 62
     7
100
AcDbLine
 10
88.73900207384309
 20
231.3368076470109
 30
0.0
 11
88.5000803103431
 21
231.3374474130108
 31
0.0
  0
LINE
  5
527
330
1F
100
AcDbEntity
  8
0
  6
Continuous
 62
     7
100
AcDbLine
 10
88.5000803103431
 20
231.3374474130108
 30
0.0
 11
86.89626173634309
 21
231.3418312394109
 31
0.0
  0
LWPOLYLINE
  5
528
330
1F
100
AcDbEntity
  8
0
  6
Continuous
 62
     7
100
AcDbPolyline
 90
        3
 70
     0
 43
0.0
 10
86.89626173634309
 20
231.3418312394109
 10
86.59803366844306
 20
231.3426720003108
 10
85.80615138554311
 20
231.3446777255109
  0
LINE
  5
529
330
1F
100
AcDbEntity
  8
0
  6
Continuous
 62
     7
100
AcDbLine
 10
86.49894077594309
 20
231.3429602854109
 30
0.0
 11
86.49882000314306
 21
231.3429606411109
 31
0.0
  0
LINE
  5
52A
330
1F
100
AcDbEntity
  8
0
  6
Continuous
 62
     7
100
AcDbLine
 10
244.738978106243
 20
231.3496653195108
 30
0.0
 11
244.7011586103431
 21
231.3496997536108
 31
0.0
  0
LINE
  5
52B
330
1F
100
AcDbEntity
  8
0
  6
Continuous
 62
     7
100
AcDbLine
 10
244.7859876441431
 20
231.3493559210108
 30
0.0
 11
244.738978106243
 21
231.3496653195108
 31
0.0
  0
LINE
  5
52C
330
1F
100
AcDbEntity
  8
0
  6
Continuous
 62
     7
100
AcDbLine
 10
244.7823477943432
 20
231.3493330406108
 30
0.0
 11
244.7614521454431
 21
231.3495413481109
 31
0.0
  0
LINE
  5
52D
330
1F
100
AcDbEntity
  8
0
  6
Continuous
 62
     7
100
AcDbLine
 10
244.8101856116431
 20
231.3490211470109
 30
0.0
 11
244.7823477943432
 21
231.3493330406108
 31
0.0
  0
LINE
  5
52E
330
1F
100
AcDbEntity
  8
0
  6
Continuous
 62
     7
100
AcDbLine
 10
244.8337095210431
 20
231.3485562520108
 30
0.0
 11
244.8022123226431
 21
231.3490445569109
 31
0.0
  0
LINE
  5
52F
330
1F
100
AcDbEntity
  8
0
  6
Continuous
 62
     7
100
AcDbLine
 10
244.8515214281431
 20
231.3481092329109
 30
0.0
 11
244.8337095210431
 21
231.3485562520108
 31
0.0
  0
LINE
  5
530
330
1F
100
AcDbEntity
  8
0
  6
Continuous
 62
     7
100
AcDbLine
 10
244.869572979843
 20
231.3475680756108
 30
0.0
 11
244.8515214281431
 21
231.3481092329109
 31
0.0
  0
LINE
  5
531
330
1F
100
AcDbEntity
  8
0
  6
Continuous
 62
     7
100
AcDbLine
 10
244.8851605377431
 20
231.3470256158109
 30
0.0
 11
244.869572979843
 21
231.3475680756108
 31
0.0
  0
LINE
  5
532
330
1F
100
AcDbEntity
  8
0
  6
Continuous
 62
     7
100
AcDbLine
 10
244.9006605114431
 20
231.3464138820108
 30
0.0
 11
244.8851605377431
 21
231.3470256158109
 31
0.0
  0
LINE
  5
533
330
1F
100
AcDbEntity
  8
0
  6
Continuous
 62
     7
100
AcDbLine
 10
244.9182167784431
 20
231.3456342949109
 30
0.0
 11
244.9006605114431
 21
231.3464138820108
 31
0.0
  0
LINE
  5
534
330
1F
100
AcDbEntity
  8
0
  6
Continuous
 62
     7
100
AcDbLine
 10
244.9360601180431
 20
231.3447626971107
 30
0.0
 11
244.9188075061432
 21
231.3456067048108
 31
0.0
  0
LINE
  5
535
330
1F
100
AcDbEntity
  8
0
  6
Continuous
 62
     7
100
AcDbLine
 10
244.9525693053431
 20
231.3438802102109
 30
0.0
 11
244.9360601180431
 21
231.3447626971107
 31
0.0
  0
LINE
  5
536
330
1F
100
AcDbEntity
  8
0
  6
Continuous
 62
     7
100
AcDbLine
 10
244.9675027589431
 20
231.3430149302108
 30
0.0
 11
244.9525693053431
 21
231.3438802102109
 31
0.0
  0
LINE
  5
537
330
1F
100
AcDbEntity
  8
0
  6
Continuous
 62
     7
100
AcDbLine
 10
244.9799858797431
 20
231.3422364459108
 30
0.0
 11
244.9675027589431
 21
231.3430149302108
 31
0.0
  0
LINE
  5
538
330
1F
100
AcDbEntity
  8
0
  6
Continuous
 62
     7
100
AcDbLine
 10
244.9909376892431
 20
231.3415032328108
 30
0.0
 11
244.9799858797431
 21
231.3422364459108
 31
0.0
  0
LINE
  5
539
330
1F
100
AcDbEntity
  8
0
  6
Continuous
 62
     7
100
AcDbLine
 10
244.9953113094431
 20
231.3411954788109
 30
0.0
 11
244.9909376892431
 21
231.3415032328108
 31
0.0
  0
LINE
  5
53A
330
1F
100
AcDbEntity
  8
0
  6
Continuous
 62
     7
100
AcDbLine
 10
104.0926522798431
 20
110.8393519426108
 30
0.0
 11
102.7841035579431
 21
124.4291500183108
 31
0.0
  0
LINE
  5
53B
330
1F
100
AcDbEntity
  8
0
  6
Continuous
 62
     7
100
AcDbLine
 10
257.2918522798431
 20
227.2309519426108
 30
0.0
 11
70.76685227984308
 21
227.2309519426109
 31
0.0
  0
LINE
  5
53C
330
1F
100
AcDbEntity
  8
0
  6
Continuous
 62
     7
100
AcDbLine
 10
239.262895893743
 20
227.2199483023108
 30
0.0
 11
233.976823568343
 21
227.2199483220109
 31
0.0
  0
LINE
  5
53D
330
1F
100
AcDbEntity
  8
0
  6
Continuous
 62
     7
100
AcDbLine
 10
94.08188099124311
 20
227.219948322011
 30
0.0
 11
88.79580866604312
 21
227.2199483023109
 31
0.0
  0
LINE
  5
53E
330
1F
100
AcDbEntity
  8
0
  6
Continuous
 62
     7
100
AcDbLine
 10
106.6410638667431
 20
121.8085286735108
 30
0.0
 11
105.584852279843
 21
110.8393519426108
 31
0.0
  0
LWPOLYLINE
  5
53F
330
1F
100
AcDbEntity
  8
0
  6
Continuous
 62
     7
100
AcDbPolyline
 90
        6
 70
     0
 43
0.0
 10
243.8295707710431
 20
227.2167478059109
 10
243.8334139979431
 20
227.2170407569109
 10
243.8662769122431
 20
227.2201009263109
 10
243.8990721880431
 20
227.2241517710108
 10
243.9317563405431
 20
227.2291897094108
 10
243.9412808299431
 20
227.2309519426108
  0
LWPOLYLINE
  5
540
330
1F
100
AcDbEntity
  8
0
  6
Continuous
 62
     7
100
AcDbPolyline
 90
       64
 70
     0
 43
0.0
 10
84.22918275054309
 20
227.2167439505109
 10
84.45256161854308
 20
227.1976911363109
 10
84.68906689794307
 20
227.1722005039109
 10
84.92503203904306
 20
227.1412863585108
 10
85.16052745624307
 20
227.1049434800109
 10
85.3955278669431
 20
227.0631794112109
 10
85.6299142276431
 20
227.0160238729109
 10
85.86371904164309
 20
226.9634828147109
 10
86.09696880284309
 20
226.9055613384109
 10
86.32954300374308
 20
226.8423035898109
 10
86.56147667594309
 20
226.7737186457109
 10
86.7927966038431
 20
226.6998152707108
 10
87.02337467684305
 20
226.6206548433108
 10
87.25324386824309
 20
226.5362511340109
 10
87.48242880294311
 20
226.4466178772109
 10
87.71079054884308
 20
226.3518367769109
 10
87.93835783824306
 20
226.2519280050109
 10
88.1651504298431
 20
226.1469126861109
 10
88.39101583724305
 20
226.0368967119109
 10
88.61597696764311
 20
225.9219089456109
 10
88.8400474813431
 20
225.8019804513109
 10
89.06306002864306
 20
225.6772450824109
 10
89.28500691004307
 20
225.5477571528108
 10
89.50592005424311
 20
225.4135465854109
 10
89.7256900483431
 20
225.2747316104108
 10
89.94425379454311
 20
225.1314090056109
 10
90.16168666024304
 20
224.9835853817109
 10
90.37808414694309
 20
224.8312456602109
 10
90.59343660364305
 20
224.6744420366109
 10
90.80775309714312
 20
224.5132129856109
 10
91.02115361514307
 20
224.3475082220109
 10
91.23364895264307
 20
224.1773530961109
 10
91.4452169062431
 20
224.0027992170109
 10
91.65592510344305
 20
223.8238221732108
 10
91.86576964274308
 20
223.6404527428109
 10
92.07473490864305
 20
223.4527324182109
 10
92.28286900694309
 20
223.2606435502109
 10
92.49015939714309
 20
223.0642203226109
 10
92.69659285604308
 20
222.8634984527109
 10
92.90221500584312
 20
222.6584542438108
 10
93.10701318724307
 20
222.4491180687108
 10
93.31096936124311
 20
222.2355268207109
 10
93.51411993954309
 20
222.0176586245109
 10
93.71645190794305
 20
221.7955410836108
 10
93.91794381424308
 20
221.5692121837109
 10
94.11861859764309
 20
221.3386588864108
 10
94.31845799604309
 20
221.1039129542109
 10
94.51744311474305
 20
220.8650082048109
 10
94.71559533064311
 20
220.6219287404109
 10
94.91289494574306
 20
220.3747066085109
 10
95.10932241214311
 20
220.1233750717109
 10
95.30489874514307
 20
219.8679140996108
 10
95.49960314784312
 20
219.6083558118108
 10
95.69341561404309
 20
219.3447327187109
 10
95.8863577051431
 20
219.0770193367109
 10
96.07840775984307
 20
218.8052476051109
 10
96.2695450694431
 20
218.5294496729109
 10
96.45979187404311
 20
218.2495942007108
 10
96.64912619034311
 20
217.9657121239108
 10
96.83752714354307
 20
217.6778341399109
 10
97.02501773584311
 20
217.3859223471108
 10
97.21159051954311
 20
217.0899827965108
 10
97.39720633374311
 20
216.7900731903108
 10
97.66903695534308
 20
216.3431364439109
  0
LWPOLYLINE
  5
541
330
1F
100
AcDbEntity
  8
0
  6
Continuous
 62
     7
100
AcDbPolyline
 90
        6
 70
     0
 43
0.0
 10
84.11733161154307
 20
227.2309519426109
 10
84.12466202094305
 20
227.2295797887109
 10
84.15731727004304
 20
227.2244756132109
 10
84.19008344734306
 20
227.2203573225108
 10
84.2229171887431
 20
227.2172284428109
 10
84.22913626204309
 20
227.2167476216109
  0
LINE
  5
542
330
1F
100
AcDbEntity
  8
0
  6
Continuous
 62
     7
100
AcDbLine
 10
137.7744649885431
 20
116.2869151039109
 30
0.0
 11
137.705074361543
 21
117.0075643194107
 31
0.0
  0
LINE
  5
543
330
1F
100
AcDbEntity
  8
0
  6
Continuous
 62
     7
100
AcDbLine
 10
138.022020023143
 20
116.2869151039109
 30
0.0
 11
137.953338884543
 21
117.0001960004108
 31
0.0
  0
LINE
  5
544
330
1F
100
AcDbEntity
  8
0
  6
Continuous
 62
     7
100
AcDbLine
 10
138.022020023143
 20
116.0620519426108
 30
0.0
 11
138.022020023143
 21
116.2869151039109
 31
0.0
  0
LINE
  5
545
330
1F
100
AcDbEntity
  8
0
  6
Continuous
 62
     7
100
AcDbLine
 10
139.053184536443
 20
116.0620519426108
 30
0.0
 11
139.053184536443
 21
116.2869151039109
 31
0.0
  0
LINE
  5
546
330
1F
100
AcDbEntity
  8
0
  6
Continuous
 62
     7
100
AcDbLine
 10
139.053184536443
 20
116.2869151039109
 30
0.0
 11
139.118535784443
 21
116.9656137637108
 31
0.0
  0
LINE
  5
547
330
1F
100
AcDbEntity
  8
0
  6
Continuous
 62
     7
100
AcDbLine
 10
139.300739571043
 20
116.2869151039109
 30
0.0
 11
139.365385374143
 21
116.9582874389109
 31
0.0
  0
LWPOLYLINE
  5
54B
330
1F
100
AcDbEntity
  8
0
  6
Continuous
 62
     7
100
AcDbPolyline
 90
       29
 70
     0
 43
0.0
 10
227.0921107287431
 20
212.4475729690109
 10
227.2128635033431
 20
212.5450121169109
 10
227.3456752004431
 20
212.6557258792108
 10
227.477725776543
 20
212.7695291006109
 10
227.6089811620431
 20
212.8863730367108
 10
227.739441593743
 20
213.0062371632107
 10
227.8691083550431
 20
213.1291021607108
 10
227.9979479146431
 20
213.2549155248109
 10
228.1259589342431
 20
213.3836539398108
 10
228.2531404880431
 20
213.5152945862108
 10
228.3794586124431
 20
213.6497801174109
 10
228.5049078663431
 20
213.7870811522109
 10
228.6294881481431
 20
213.9271739404108
 10
228.7531725223431
 20
214.0700046132108
 10
228.8759472947431
 20
214.2155324059109
 10
228.9978178977431
 20
214.3637385998108
 10
229.1187847843431
 20
214.5146001761109
 10
229.2388404280431
 20
214.6680844973109
 10
229.3579810811431
 20
214.8241631755108
 10
229.4762112577431
 20
214.9828199246108
 10
229.5935241082431
 20
215.1440240381109
 10
229.7099125454431
 20
215.3077437281109
 10
229.8253792205431
 20
215.4739618677109
 10
229.9399159414431
 20
215.6426466049109
 10
230.0535156419431
 20
215.8137669548109
 10
230.1661813564432
 20
215.9873080374108
 10
230.2779079264431
 20
216.1632434124109
 10
230.3886815935431
 20
216.3415320016108
 10
230.6605219701431
 20
216.7884811720109
  0
LINE
  5
54C
330
1F
100
AcDbEntity
  8
0
  6
Continuous
 62
     7
100
AcDbLine
 10
188.7579649885431
 20
116.2869151039109
 30
0.0
 11
188.693319185443
 21
116.9582874389109
 31
0.0
  0
LINE
  5
54D
330
1F
100
AcDbEntity
  8
0
  6
Continuous
 62
     7
100
AcDbLine
 10
189.005520023143
 20
116.2869151039109
 30
0.0
 11
188.940168775143
 21
116.9656137637108
 31
0.0
  0
LINE
  5
54E
330
1F
100
AcDbEntity
  8
0
  6
Continuous
 62
     7
100
AcDbLine
 10
189.005520023143
 20
116.0620519426108
 30
0.0
 11
189.005520023143
 21
116.2869151039109
 31
0.0
  0
LINE
  5
54F
330
1F
100
AcDbEntity
  8
0
  6
Continuous
 62
     7
100
AcDbLine
 10
190.036684536443
 20
116.0620519426108
 30
0.0
 11
190.036684536443
 21
116.2869151039109
 31
0.0
  0
LWPOLYLINE
  5
550
330
1F
100
AcDbEntity
  8
0
  6
Continuous
 62
     7
100
AcDbPolyline
 90
       28
 70
     0
 43
0.0
 10
97.66903695534308
 20
216.3431364439109
 10
97.77980257504305
 20
216.1648261533108
 10
97.8915211853431
 20
215.9888687987109
 10
98.00417901254309
 20
215.8153054874109
 10
98.11777088974309
 20
215.6441626790108
 10
98.23229986194309
 20
215.4754552288109
 10
98.34775886674311
 20
215.3092141187109
 10
98.46413971124309
 20
215.1454712083109
 10
98.58144504704307
 20
214.9842436163109
 10
98.69966778374312
 20
214.8255631359109
 10
98.8188010696431
 20
214.6694604851109
 10
98.93884941834308
 20
214.5159519427109
 10
99.05980907594306
 20
214.3650659031109
 10
99.1816725163431
 20
214.2168350120109
 10
99.30444019904308
 20
214.0712822741109
 10
99.4281175428431
 20
213.9284264195109
 10
99.55269085904308
 20
213.7883082175109
 10
99.67813324394308
 20
213.6509815045109
 10
99.80444458774309
 20
213.5164700384109
 10
99.9316194483431
 20
213.3848032128109
 10
100.059623902143
 20
213.2560383413109
 10
100.1884570165431
 20
213.1301982517109
 10
100.3181174499431
 20
213.0073062764108
 10
100.448571714143
 20
212.8874148903109
 10
100.579821085143
 20
212.7705434235108
 10
100.711865798743
 20
212.6567124180108
 10
100.844671834843
 20
212.5459705906108
 10
100.9665939038431
 20
212.4475729639108
  0
LINE
  5
551
330
1F
100
AcDbEntity
  8
0
  6
Continuous
 62
     7
100
AcDbLine
 10
190.036684536443
 20
116.2869151039109
 30
0.0
 11
190.105365675143
 21
117.0001960004108
 31
0.0
  0
LINE
  5
552
330
1F
100
AcDbEntity
  8
0
  6
Continuous
 62
     7
100
AcDbLine
 10
190.284239571043
 20
116.2869151039109
 30
0.0
 11
190.353630198043
 21
117.0075643194107
 31
0.0
  0
LWPOLYLINE
  5
553
330
1F
100
AcDbEntity
  8
0
  6
Continuous
 62
     7
100
AcDbPolyline
 90
       63
 70
     0
 43
0.0
 10
230.6605219701431
 20
216.7884811720109
 10
230.8461336618431
 20
217.0884132031109
 10
231.0327024530431
 20
217.3843753095109
 10
231.2201891776431
 20
217.6763097716109
 10
231.4085863742431
 20
217.9642105137109
 10
231.5979170295431
 20
218.2481154221108
 10
231.7881602714431
 20
218.5279938000109
 10
231.9792941190431
 20
218.8038147121107
 10
232.1713407959431
 20
219.0756094837108
 10
232.3642795936431
 20
219.3433459633108
 10
232.5580888479431
 20
219.6069922048109
 10
232.752790098743
 20
219.8665736729109
 10
232.9483633393431
 20
220.1220578556109
 10
233.1447877715431
 20
220.3734126313108
 10
233.3420843890431
 20
220.6206580140109
 10
233.5402336420431
 20
220.8637607396108
 10
233.7392158309431
 20
221.1026887597108
 10
233.9390523112431
 20
221.3374579596108
 10
234.1397241859431
 20
221.5680345207108
 10
234.3412131908431
 20
221.7943866816109
 10
234.5435422447431
 20
222.0165274720109
 10
234.7466898873431
 20
222.2344189008108
 10
234.9506431064431
 20
222.4480333721108
 10
235.1554383089431
 20
222.6573927733109
 10
235.3610574492431
 20
222.8624602079108
 10
235.5674878670431
 20
223.0632053083108
 10
235.774775188743
 20
223.2596517938109
 10
235.9829061873431
 20
223.4517639459109
 10
236.191868316943
 20
223.6395075829108
 10
236.4017096859431
 20
223.8229003743108
 10
236.6124146807431
 20
224.0019008308108
 10
236.8239793865431
 20
224.1764781714108
 10
237.0364714114431
 20
224.3466568122108
 10
237.2498685645431
 20
224.5123851558108
 10
237.4641816138431
 20
224.6736378427109
 10
237.6795304676431
 20
224.8304651290109
 10
237.8959241086431
 20
224.9828284927109
 10
238.1133529505431
 20
225.1306758043108
 10
238.331912641243
 20
225.2740222657108
 10
238.5516784821431
 20
225.4128612348108
 10
238.772587420143
 20
225.5470959658108
 10
238.994530358443
 20
225.6766084020109
 10
239.2175393157431
 20
225.8013686523108
 10
239.4416064830431
 20
225.9213223253108
 10
239.6665645318431
 20
226.0363355383109
 10
239.8924271146431
 20
226.1463772056109
 10
240.1192171266431
 20
226.2514184470108
 10
240.346782099043
 20
226.3513533374109
 10
240.5751417809431
 20
226.4461607331108
 10
240.8043248982431
 20
226.5358204462109
 10
241.0341925446431
 20
226.6202507413108
 10
241.2647693421431
 20
226.6994378687108
 10
241.4960882589431
 20
226.7733680387109
 10
241.7280212104431
 20
226.8419798411108
 10
241.9605949819431
 20
226.9052644963108
 10
242.1938446096431
 20
226.9632129059109
 10
242.427649621543
 20
227.0157808948108
 10
242.6620365176431
 20
227.0629633437108
 10
242.8970378061431
 20
227.1047542772108
 10
243.1325344898431
 20
227.1411239446108
 10
243.3685013212431
 20
227.1720647763108
 10
243.6050087406431
 20
227.1975819680108
 10
243.8295220863431
 20
227.2167439711108
  0
LINE
  5
554
330
1F
100
AcDbEntity
  8
0
  6
Continuous
 62
     7
100
AcDbLine
 10
222.4738522798431
 20
110.8393519426108
 30
0.0
 11
221.4176406928431
 21
121.8085286735108
 31
0.0
  0
LINE
  5
555
330
1F
100
AcDbEntity
  8
0
  6
Continuous
 62
     7
100
AcDbLine
 10
218.2790642372431
 20
117.8363718530108
 30
0.0
 11
176.561829992643
 21
116.5982332452108
 31
0.0
  0
LINE
  5
556
330
1F
100
AcDbEntity
  8
0
  6
Continuous
 62
     7
100
AcDbLine
 10
176.561829992643
 20
116.5982332452108
 30
0.0
 11
151.496874566943
 21
116.5982332452108
 31
0.0
  0
LINE
  5
557
330
1F
100
AcDbEntity
  8
0
  6
Continuous
 62
     7
100
AcDbLine
 10
190.036684536443
 20
116.2869151039109
 30
0.0
 11
189.005520023143
 21
116.2869151039109
 31
0.0
  0
LINE
  5
558
330
1F
100
AcDbEntity
  8
0
  6
Continuous
 62
     7
100
AcDbLine
 10
139.053184536443
 20
116.2869151039109
 30
0.0
 11
138.022020023143
 21
116.2869151039109
 31
0.0
  0
LINE
  5
559
330
1F
100
AcDbEntity
  8
0
  6
Continuous
 62
     7
100
AcDbLine
 10
190.036684536443
 20
116.0620519426108
 30
0.0
 11
189.005520023143
 21
116.0620519426108
 31
0.0
  0
LINE
  5
55A
330
1F
100
AcDbEntity
  8
0
  6
Continuous
 62
     7
100
AcDbLine
 10
139.053184536443
 20
116.0620519426108
 30
0.0
 11
138.022020023143
 21
116.0620519426108
 31
0.0
  0
LINE
  5
55B
330
1F
100
AcDbEntity
  8
0
  6
Continuous
 62
     7
100
AcDbLine
 10
173.491722764043
 20
114.8185519426108
 30
0.0
 11
154.566981795543
 21
114.8185519426108
 31
0.0
  0
LINE
  5
55C
330
1F
100
AcDbEntity
  8
0
  6
Continuous
 62
     7
100
AcDbLine
 10
109.779640322343
 20
117.8363718530108
 30
0.0
 11
151.496874566943
 21
116.5982332452108
 31
0.0
  0
LINE
  5
55D
330
1F
100
AcDbEntity
  8
0
  6
Continuous
 62
     7
100
AcDbLine
 10
108.8173725429431
 20
118.0124566961109
 30
0.0
 11
108.789456210843
 21
118.0158575878109
 31
0.0
  0
LINE
  5
55E
330
1F
100
AcDbEntity
  8
0
  6
Continuous
 62
     7
100
AcDbLine
 10
219.269250839143
 20
118.0158579470108
 30
0.0
 11
219.241332009043
 21
118.0124567722109
 31
0.0
  0
LINE
  5
55F
330
1F
100
AcDbEntity
  8
0
  6
Continuous
 62
     7
100
AcDbLine
 10
223.966052279843
 20
110.8393519426108
 30
0.0
 11
222.4738522798431
 21
110.8393519426108
 31
0.0
  0
LINE
  5
560
330
1F
100
AcDbEntity
  8
0
  6
Continuous
 62
     7
100
AcDbLine
 10
105.584852279843
 20
110.8393519426108
 30
0.0
 11
104.0926522798431
 21
110.8393519426108
 31
0.0
  0
LINE
  5
561
330
1F
100
AcDbEntity
  8
0
  6
Continuous
 62
     7
100
AcDbLine
 10
225.2746010017431
 20
124.4291500183108
 30
0.0
 11
223.966052279843
 21
110.8393519426108
 31
0.0
  0
LINE
  5
562
330
1F
100
AcDbEntity
  8
0
  6
Continuous
 62
     7
100
AcDbLine
 10
101.678662350843
 20
126.2975698451108
 30
0.0
 11
101.634398043343
 21
126.3367784135108
 31
0.0
  0
LINE
  5
563
330
1F
100
AcDbEntity
  8
0
  6
Continuous
 62
     7
100
AcDbLine
 10
229.2628669018431
 20
127.6898239476108
 30
0.0
 11
243.2059759837431
 21
226.9002001451109
 31
0.0
  0
LINE
  5
564
330
1F
100
AcDbEntity
  8
0
  6
Continuous
 62
     7
100
AcDbLine
 10
229.2341557001431
 20
127.4976134374107
 30
0.0
 11
229.2628557932431
 21
127.6897449066108
 31
0.0
  0
LINE
  5
565
330
1F
100
AcDbEntity
  8
0
  6
Continuous
 62
     7
100
AcDbLine
 10
226.4243065179432
 20
126.3367783775109
 30
0.0
 11
226.3800430339431
 21
126.2975705821108
 31
0.0
  0
LINE
  5
566
330
1F
100
AcDbEntity
  8
0
  6
Continuous
 62
     7
100
AcDbLine
 10
102.2110476152431
 20
121.1006514522109
 30
0.0
 11
102.196022400943
 21
121.1148993541107
 31
0.0
  0
LINE
  5
567
330
1F
100
AcDbEntity
  8
0
  6
Continuous
 62
     7
100
AcDbLine
 10
225.862682150143
 20
121.1148995773108
 30
0.0
 11
225.847635734943
 21
121.1006311021107
 31
0.0
  0
LWPOLYLINE
  5
568
330
1F
100
AcDbEntity
  8
0
  6
Continuous
 62
     7
100
AcDbPolyline
 90
       44
 70
     0
 43
0.0
 10
225.439467324843
 20
120.6396367006109
 10
225.4645533257431
 20
120.6612281491107
 10
225.6061319560431
 20
120.7872363377108
 10
225.745607756543
 20
120.9155874682108
 10
225.8829436178431
 20
121.0462431910108
 10
226.018111778343
 20
121.1791736472109
 10
226.1510796004431
 20
121.3143450162109
 10
226.281807069843
 20
121.4517160893107
 10
226.4102552846431
 20
121.5912463620108
 10
226.5363874737431
 20
121.7328973615108
 10
226.6601681504431
 20
121.8766320249107
 10
226.7815604222431
 20
122.0224116664108
 10
226.9005265703431
 20
122.1701964241107
 10
227.0170323660431
 20
122.3199497380107
 10
227.131049945543
 20
122.4716347234109
 10
227.2425520188431
 20
122.6252108939108
 10
227.3515070654431
 20
122.7806319660108
 10
227.4578832661431
 20
122.9378507561109
 10
227.561651844143
 20
123.0968242588107
 10
227.6627834457431
 20
123.2575086038107
 10
227.7612458702431
 20
123.4198550781108
 10
227.8570100827431
 20
123.5838196848108
 10
227.9500473968431
 20
123.7493590066107
 10
228.0403265086431
 20
123.9164247127108
 10
228.1278199232431
 20
124.0849697527108
 10
228.2125075598431
 20
124.2549478791107
 10
228.2943697281431
 20
124.4263117494108
 10
228.3733860686431
 20
124.5990127133108
 10
228.4495365275431
 20
124.7730027806108
 10
228.5228018031431
 20
124.9482358714109
 10
228.5931633486431
 20
125.1246682894107
 10
228.6605989165431
 20
125.3022472849108
 10
228.7250841062431
 20
125.4809130165108
 10
228.7866037998431
 20
125.6606309479108
 10
228.8451333375431
 20
125.8413386209109
 10
228.9006410393431
 20
126.0229322738108
 10
228.9531092026431
 20
126.2053323918108
 10
229.0025370274431
 20
126.3885161585107
 10
229.0489224498431
 20
126.5724638321108
 10
229.0922533259431
 20
126.7571205987108
 10
229.1325206832431
 20
126.9424393629108
 10
229.1697245921431
 20
127.1284108990108
 10
229.2038570382431
 20
127.3149959845108
 10
229.2341557001431
 20
127.4976134374107
  0
LINE
  5
569
330
1F
100
AcDbEntity
  8
0
  6
Continuous
 62
     7
100
AcDbLine
 10
250.3282522798431
 20
231.3345019426109
 30
0.0
 11
250.3282522798431
 21
227.2309519426108
 31
0.0
  0
ARC
  5
56A
330
1F
100
AcDbEntity
  8
0
  6
Continuous
 62
     7
100
AcDbCircle
 10
84.46727315284311
 20
209.2284476121108
 30
0.0
 40
18.5048727958
100
AcDbArc
 50
76.47242676509998
 51
76.62273549319916
  0
ARC
  5
56B
330
1F
100
AcDbEntity
  8
0
  6
Continuous
 62
     7
100
AcDbCircle
 10
76.15072859864307
 20
226.2562244198109
 30
0.0
 40
5.4714
100
AcDbArc
 50
136.8541323193999
 51
169.7380043595974
  0
ARC
  5
56C
330
1F
100
AcDbEntity
  8
0
  6
Continuous
 62
     7
100
AcDbCircle
 10
79.9939100642431
 20
226.2201768814109
 30
0.0
 40
4.906174575799999
100
AcDbArc
 50
7.967166279597989
 51
11.00084211249825
  0
ARC
  5
56D
330
1F
100
AcDbEntity
  8
0
  6
Continuous
 62
     7
100
AcDbCircle
 10
75.24345227984304
 20
227.1066019426108
 30
0.0
 40
4.227899999999999
100
AcDbArc
 50
90.0
 51
136.8541323193999
  0
ARC
  5
56E
330
1F
100
AcDbEntity
  8
0
  6
Continuous
 62
     7
100
AcDbCircle
 10
98.68845339904311
 20
210.7524385997109
 30
0.0
 40
4.2157141754
100
AcDbArc
 50
91.28027300629939
 51
94.0757973414011
  0
ARC
  5
56F
330
1F
100
AcDbEntity
  8
0
  6
Continuous
 62
     7
100
AcDbCircle
 10
91.65927566094309
 20
226.9829017338109
 30
0.0
 40
2.873261915299999
100
AcDbArc
 50
175.047312655299
 51
175.2676703878977
  0
ARC
  5
570
330
1F
100
AcDbEntity
  8
0
  6
Continuous
 62
     7
100
AcDbCircle
 10
96.94534714404307
 20
226.982902444511
 30
0.0
 40
2.873261066399999
100
AcDbArc
 50
175.0473254161016
 51
175.2676828154984
  0
ARC
  5
571
330
1F
100
AcDbEntity
  8
0
  6
Continuous
 62
     7
100
AcDbCircle
 10
97.38035698884306
 20
226.6905627523109
 30
0.0
 40
2.8688875394
100
AcDbArc
 50
169.1422784131033
 51
170.8164492249014
  0
ARC
  5
572
330
1F
100
AcDbEntity
  8
0
  6
Continuous
 62
     7
100
AcDbCircle
 10
84.27014842564307
 20
227.7680063534109
 30
0.0
 40
0.5527825875
100
AcDbArc
 50
265.7500204593996
 51
283.6773515938008
  0
ARC
  5
573
330
1F
100
AcDbEntity
  8
0
  6
Continuous
 62
     7
100
AcDbCircle
 10
243.5914345211431
 20
209.2284344626108
 30
0.0
 40
18.504886309
100
AcDbArc
 50
103.3772644158996
 51
103.5275730868016
  0
ARC
  5
574
330
1F
100
AcDbEntity
  8
0
  6
Continuous
 62
     7
100
AcDbCircle
 10
251.9079759609431
 20
226.2562244198108
 30
0.0
 40
5.4714
100
AcDbArc
 50
10.2619956404026
 51
43.14586768060005
  0
ARC
  5
575
330
1F
100
AcDbEntity
  8
0
  6
Continuous
 62
     7
100
AcDbCircle
 10
248.0647948525431
 20
226.2201768249109
 30
0.0
 40
4.9061749373
100
AcDbArc
 50
168.9991613813032
 51
172.0328336455001
  0
ARC
  5
576
330
1F
100
AcDbEntity
  8
0
  6
Continuous
 62
     7
100
AcDbCircle
 10
252.8152522798431
 20
227.1066019426108
 30
0.0
 40
4.227899999999999
100
AcDbArc
 50
43.14586768060005
 51
90.0
  0
ARC
  5
577
330
1F
100
AcDbEntity
  8
0
  6
Continuous
 62
     7
100
AcDbCircle
 10
229.370264984043
 20
210.7523783322108
 30
0.0
 40
4.2157709985
100
AcDbArc
 50
85.9244141401014
 51
88.71983012949998
  0
ARC
  5
578
330
1F
100
AcDbEntity
  8
0
  6
Continuous
 62
     7
100
AcDbCircle
 10
231.1133574445431
 20
226.9829024487108
 30
0.0
 40
2.8732610373
100
AcDbArc
 50
4.732317148997704
 51
4.952674550697473
  0
ARC
  5
579
330
1F
100
AcDbEntity
  8
0
  6
Continuous
 62
     7
100
AcDbCircle
 10
236.3994297267431
 20
226.9829024466108
 30
0.0
 40
2.8732610312
100
AcDbArc
 50
4.732316807599824
 51
4.952674603297194
  0
ARC
  5
57A
330
1F
100
AcDbEntity
  8
0
  6
Continuous
 62
     7
100
AcDbCircle
 10
230.6784136676431
 20
226.6905594045109
 30
0.0
 40
2.8688228232
100
AcDbArc
 50
9.183827462900676
 51
10.85803757799796
  0
ARC
  5
57B
330
1F
100
AcDbEntity
  8
0
  6
Continuous
 62
     7
100
AcDbCircle
 10
243.7885565151431
 20
227.7680087294108
 30
0.0
 40
0.5527847169
100
AcDbArc
 50
256.3228018817983
 51
274.2499507089002
  0
ARC
  5
57C
330
1F
100
AcDbEntity
  8
0
  6
Continuous
 62
     7
100
AcDbCircle
 10
-250.3134671369569
 20
156.626209636411
 30
0.0
 40
359.2972051559
100
AcDbArc
 50
9.323555843100617
 51
9.504767475702903
  0
ARC
  5
57D
330
1F
100
AcDbEntity
  8
0
  6
Continuous
 62
     7
100
AcDbCircle
 10
-180.8571622710569
 20
166.8016554781109
 30
0.0
 40
285.9606728698
100
AcDbArc
 50
9.492016701300366
 51
9.717013681698015
  0
ARC
  5
57E
330
1F
100
AcDbEntity
  8
0
  6
Continuous
 62
     7
100
AcDbCircle
 10
109.274603228743
 20
135.7456480915109
 30
0.0
 40
15.0899418064
100
AcDbArc
 50
245.4987635082001
 51
259.6127068898987
  0
ARC
  5
57F
330
1F
100
AcDbEntity
  8
0
  6
Continuous
 62
     7
100
AcDbCircle
 10
109.3512269535431
 20
134.8379999566108
 30
0.0
 40
11.4849981791
100
AcDbArc
 50
267.0853895039015
 51
267.4214369136988
  0
ARC
  5
580
330
1F
100
AcDbEntity
  8
0
  6
Continuous
 62
     7
100
AcDbCircle
 10
109.3511389829431
 20
134.8360345767109
 30
0.0
 40
11.4830308315
100
AcDbArc
 50
267.4214342225009
 51
267.7992686877003
  0
ARC
  5
581
330
1F
100
AcDbEntity
  8
0
  6
Continuous
 62
     7
100
AcDbCircle
 10
110.154489044143
 20
129.2862035544108
 30
0.0
 40
11.4702828721
100
AcDbArc
 50
188.0001250791024
 51
188.9709098684001
  0
ARC
  5
582
330
1F
100
AcDbEntity
  8
0
  6
Continuous
 62
     7
100
AcDbCircle
 10
110.1433693184431
 20
129.2811834189109
 30
0.0
 40
11.4584225918
100
AcDbArc
 50
188.9547849918975
 51
228.94953572
  0
ARC
  5
583
330
1F
100
AcDbEntity
  8
0
  6
Continuous
 62
     7
100
AcDbCircle
 10
110.0956504957431
 20
129.6468902887108
 30
0.0
 40
11.455906472
100
AcDbArc
 50
226.2092157610995
 51
232.7374824376971
  0
ARC
  5
584
330
1F
100
AcDbEntity
  8
0
  6
Continuous
 62
     7
100
AcDbCircle
 10
110.110658074843
 20
129.3926657696108
 30
0.0
 40
11.4534643934
100
AcDbArc
 50
263.3758470348005
 51
263.5165288855993
  0
ARC
  5
585
330
1F
100
AcDbEntity
  8
0
  6
Continuous
 62
     7
100
AcDbCircle
 10
109.2724670589431
 20
135.3456910632108
 30
0.0
 40
11.444752429
100
AcDbArc
 50
268.3421410833992
 51
269.6465393886007
  0
ARC
  5
586
330
1F
100
AcDbEntity
  8
0
  6
Continuous
 62
     7
100
AcDbCircle
 10
110.126201763043
 20
129.2713236615109
 30
0.0
 40
11.4402
100
AcDbArc
 50
259.9935246269994
 51
268.2999999997012
  0
ARC
  5
587
330
1F
100
AcDbEntity
  8
0
  6
Continuous
 62
     7
100
AcDbCircle
 10
109.2659972021431
 20
135.3355933407108
 30
0.0
 40
11.4323718369
100
AcDbArc
 50
188.0018423330982
 51
227.7310890458986
  0
ARC
  5
588
330
1F
100
AcDbEntity
  8
0
  6
Continuous
 62
     7
100
AcDbCircle
 10
109.3208846275431
 20
134.7769028362108
 30
0.0
 40
11.4156759733
100
AcDbArc
 50
227.9724142294996
 51
228.1694364380989
  0
ARC
  5
589
330
1F
100
AcDbEntity
  8
0
  6
Continuous
 62
     7
100
AcDbCircle
 10
110.076398099443
 20
129.6103590424108
 30
0.0
 40
11.4142934164
100
AcDbArc
 50
250.9628470016995
 51
263.7349465869996
  0
ARC
  5
58A
330
1F
100
AcDbEntity
  8
0
  6
Continuous
 62
     7
100
AcDbCircle
 10
109.3193932971431
 20
134.7752492607108
 30
0.0
 40
11.4134492318
100
AcDbArc
 50
227.6755777504995
 51
227.9724179660003
  0
ARC
  5
58B
330
1F
100
AcDbEntity
  8
0
  6
Continuous
 62
     7
100
AcDbCircle
 10
98.85264959604306
 20
124.046496545811
 30
0.0
 40
3.950119510899999
100
AcDbArc
 50
5.55916139220276
 51
30.03988284600212
  0
ARC
  5
58C
330
1F
100
AcDbEntity
  8
0
  6
Continuous
 62
     7
100
AcDbCircle
 10
99.45450946984305
 20
118.6151497584108
 30
0.0
 40
3.8716860042
100
AcDbArc
 50
5.569692150699379
 51
45.50962329729763
  0
ARC
  5
58D
330
1F
100
AcDbEntity
  8
0
  6
Continuous
 62
     7
100
AcDbCircle
 10
151.386204652743
 20
112.8693751877108
 30
0.0
 40
3.730499992799999
100
AcDbArc
 50
31.49992547829831
 51
88.29999986130079
  0
ARC
  5
58E
330
1F
100
AcDbEntity
  8
0
  6
Continuous
 62
     7
100
AcDbCircle
 10
99.06815368524307
 20
124.1164547258109
 30
0.0
 40
3.7289104517
100
AcDbArc
 50
30.76699904380047
 51
47.72727932499722
  0
ARC
  5
58F
330
1F
100
AcDbEntity
  8
0
  6
Continuous
 62
     7
100
AcDbCircle
 10
106.098329829043
 20
118.0988051008109
 30
0.0
 40
3.6978149618
100
AcDbArc
 50
356.2409184273016
 51
356.4897321576012
  0
ARC
  5
590
330
1F
100
AcDbEntity
  8
0
  6
Continuous
 62
     7
100
AcDbCircle
 10
99.69603780944311
 20
118.4611730649108
 30
0.0
 40
3.645795093199999
100
AcDbArc
 50
8.344377853996757
 51
46.38328743649881
  0
ARC
  5
591
330
1F
100
AcDbEntity
  8
0
  6
Continuous
 62
     7
100
AcDbCircle
 10
99.28660925294309
 20
123.6819323036109
 30
0.0
 40
3.5530101898
100
AcDbArc
 50
5.494930913096855
 51
12.06208856170027
  0
ARC
  5
592
330
1F
100
AcDbEntity
  8
0
  6
Continuous
 62
     7
100
AcDbCircle
 10
99.33659252564307
 20
123.6946950988108
 30
0.0
 40
3.5014305573
100
AcDbArc
 50
12.0287738126973
 51
48.01908113850159
  0
ARC
  5
593
330
1F
100
AcDbEntity
  8
0
  6
Continuous
 62
     7
100
AcDbCircle
 10
109.7099125118431
 20
127.2060625435108
 30
0.0
 40
3.322850644299999
100
AcDbArc
 50
236.9619688801996
 51
239.405074966599
  0
ARC
  5
594
330
1F
100
AcDbEntity
  8
0
  6
Continuous
 62
     7
100
AcDbCircle
 10
109.0267616418431
 20
121.3979042961109
 30
0.0
 40
2.5362111324
100
AcDbArc
 50
91.88832894440009
 51
104.2945703289008
  0
ARC
  5
595
330
1F
100
AcDbEntity
  8
0
  6
Continuous
 62
     7
100
AcDbCircle
 10
108.8761300699431
 20
121.6675469696108
 30
0.0
 40
2.2391333602
100
AcDbArc
 50
88.33068176430009
 51
102.2626528533012
  0
ARC
  5
596
330
1F
100
AcDbEntity
  8
0
  6
Continuous
 62
     7
100
AcDbCircle
 10
108.734357677343
 20
121.1401163110108
 30
0.0
 40
2.2283031805
100
AcDbArc
 50
85.47431719530079
 51
87.4217366175004
  0
ARC
  5
597
330
1F
100
AcDbEntity
  8
0
  6
Continuous
 62
     7
100
AcDbCircle
 10
108.7672939171431
 20
121.2300936228109
 30
0.0
 40
2.171882238499999
100
AcDbArc
 50
165.1330978621023
 51
174.5068653806014
  0
ARC
  5
598
330
1F
100
AcDbEntity
  8
0
  6
Continuous
 62
     7
100
AcDbCircle
 10
139.053184536443
 20
116.3107519426108
 30
0.0
 40
0.2487
100
AcDbArc
 50
270.0
 51
354.5000000000027
  0
ARC
  5
599
330
1F
100
AcDbEntity
  8
0
  6
Continuous
 62
     7
100
AcDbCircle
 10
138.022020023143
 20
116.3107519426108
 30
0.0
 40
0.2487
100
AcDbArc
 50
185.4999999999972
 51
270.0
  0
ARC
  5
59A
330
1F
100
AcDbEntity
  8
0
  6
Continuous
 62
     7
100
AcDbCircle
 10
578.370506122643
 20
156.6264857928108
 30
0.0
 40
359.2955168455
100
AcDbArc
 50
170.4952320985021
 51
170.6764445897982
  0
ARC
  5
59B
330
1F
100
AcDbEntity
  8
0
  6
Continuous
 62
     7
100
AcDbCircle
 10
508.910883056443
 20
166.8024988238108
 30
0.0
 40
285.9556182542
100
AcDbArc
 50
170.2829843295998
 51
170.5079852960993
  0
ARC
  5
59C
330
1F
100
AcDbEntity
  8
0
  6
Continuous
 62
     7
100
AcDbCircle
 10
218.7841008253431
 20
135.7456476528109
 30
0.0
 40
15.08994154109999
100
AcDbArc
 50
280.3872952983992
 51
294.501238929201
  0
ARC
  5
59D
330
1F
100
AcDbEntity
  8
0
  6
Continuous
 62
     7
100
AcDbCircle
 10
218.7074777886431
 20
134.8379937055108
 30
0.0
 40
11.4849919326
100
AcDbArc
 50
272.578571819099
 51
272.9159901376992
  0
ARC
  5
59E
330
1F
100
AcDbEntity
  8
0
  6
Continuous
 62
     7
100
AcDbCircle
 10
218.7075660729431
 20
134.8360214857108
 30
0.0
 40
11.4830177378
100
AcDbArc
 50
272.2007313455999
 51
272.5785744838015
  0
ARC
  5
59F
330
1F
100
AcDbEntity
  8
0
  6
Continuous
 62
     7
100
AcDbCircle
 10
217.9042155090431
 20
129.2862035553109
 30
0.0
 40
11.4702828786
100
AcDbArc
 50
351.0290894788029
 51
351.9998749207002
  0
ARC
  5
5A0
330
1F
100
AcDbEntity
  8
0
  6
Continuous
 62
     7
100
AcDbCircle
 10
217.9153354976431
 20
129.2811833127108
 30
0.0
 40
11.4584222565
100
AcDbArc
 50
311.0498190115014
 51
351.0452146791995
  0
ARC
  5
5A1
330
1F
100
AcDbEntity
  8
0
  6
Continuous
 62
     7
100
AcDbCircle
 10
217.9620008134431
 20
129.6481209641108
 30
0.0
 40
11.4575247851
100
AcDbArc
 50
307.2629832017014
 51
313.7903272006986
  0
ARC
  5
5A2
330
1F
100
AcDbEntity
  8
0
  6
Continuous
 62
     7
100
AcDbCircle
 10
217.9480484006431
 20
129.3926507788108
 30
0.0
 40
11.4534492837
100
AcDbArc
 50
276.4834700648
 51
276.6241646803007
  0
ARC
  5
5A3
330
1F
100
AcDbEntity
  8
0
  6
Continuous
 62
     7
100
AcDbCircle
 10
218.7862375006431
 20
135.3456910636109
 30
0.0
 40
11.4447524294
100
AcDbArc
 50
270.3534606115002
 51
271.6578589166007
  0
ARC
  5
5A4
330
1F
100
AcDbEntity
  8
0
  6
Continuous
 62
     7
100
AcDbCircle
 10
217.9325027965431
 20
129.2713236615109
 30
0.0
 40
11.4402
100
AcDbArc
 50
271.7000000002987
 51
280.0062578067
  0
ARC
  5
5A5
330
1F
100
AcDbEntity
  8
0
  6
Continuous
 62
     7
100
AcDbCircle
 10
218.7927073574431
 20
135.3355933408109
 30
0.0
 40
11.4323718369
100
AcDbArc
 50
312.2689109535983
 51
351.9981576663032
  0
ARC
  5
5A6
330
1F
100
AcDbEntity
  8
0
  6
Continuous
 62
     7
100
AcDbCircle
 10
218.7378328809431
 20
134.7768881856109
 30
0.0
 40
11.4156564218
100
AcDbArc
 50
311.8308213127985
 51
312.0275922764999
  0
ARC
  5
5A7
330
1F
100
AcDbEntity
  8
0
  6
Continuous
 62
     7
100
AcDbCircle
 10
217.9823064946431
 20
129.6103591021108
 30
0.0
 40
11.4142934361
100
AcDbArc
 50
276.2650532098013
 51
289.0371527359009
  0
ARC
  5
5A8
330
1F
100
AcDbEntity
  8
0
  6
Continuous
 62
     7
100
AcDbCircle
 10
218.7393253646431
 20
134.7752333339109
 30
0.0
 40
11.4134279601
100
AcDbArc
 50
312.027588529003
 51
312.3244236273005
  0
ARC
  5
5A9
330
1F
100
AcDbEntity
  8
0
  6
Continuous
 62
     7
100
AcDbCircle
 10
229.2072317866431
 20
124.0461203458109
 30
0.0
 40
3.951343031499999
100
AcDbArc
 50
149.9639373012974
 51
174.4370618907001
  0
ARC
  5
5AA
330
1F
100
AcDbEntity
  8
0
  6
Continuous
 62
     7
100
AcDbCircle
 10
228.6042517229431
 20
118.6151227992108
 30
0.0
 40
3.871747257699999
100
AcDbArc
 50
134.4906956574014
 51
174.4299921062986
  0
ARC
  5
5AB
330
1F
100
AcDbEntity
  8
0
  6
Continuous
 62
     7
100
AcDbCircle
 10
176.672499906943
 20
112.8693751877108
 30
0.0
 40
3.730499992799999
100
AcDbArc
 50
91.70000013869922
 51
148.5000745217017
  0
ARC
  5
5AC
330
1F
100
AcDbEntity
  8
0
  6
Continuous
 62
     7
100
AcDbCircle
 10
228.990611859843
 20
124.1164049018107
 30
0.0
 40
3.7289887848
100
AcDbArc
 50
132.2728990882981
 51
149.2328225450034
  0
ARC
  5
5AD
330
1F
100
AcDbEntity
  8
0
  6
Continuous
 62
     7
100
AcDbCircle
 10
221.960374775243
 20
118.0988051036109
 30
0.0
 40
3.6978150066
100
AcDbArc
 50
183.5102678438998
 51
183.759081571197
  0
ARC
  5
5AE
330
1F
100
AcDbEntity
  8
0
  6
Continuous
 62
     7
100
AcDbCircle
 10
228.3769492763431
 20
118.4583728613108
 30
0.0
 40
3.660337898099999
100
AcDbArc
 50
171.6452136317978
 51
172.055858539699
  0
ARC
  5
5AF
330
1F
100
AcDbEntity
  8
0
  6
Continuous
 62
     7
100
AcDbCircle
 10
228.3626486651431
 20
118.4611728959108
 30
0.0
 40
3.645778222599999
100
AcDbArc
 50
133.6169668964995
 51
171.6560952408996
  0
ARC
  5
5B0
330
1F
100
AcDbEntity
  8
0
  6
Continuous
 62
     7
100
AcDbCircle
 10
228.7720919343431
 20
123.6819327843108
 30
0.0
 40
3.5530067869
100
AcDbArc
 50
167.9379321463977
 51
174.5050715955
  0
ARC
  5
5B1
330
1F
100
AcDbEntity
  8
0
  6
Continuous
 62
     7
100
AcDbCircle
 10
228.7221104614431
 20
123.6946960362108
 30
0.0
 40
3.501428760799999
100
AcDbArc
 50
131.9808918880996
 51
167.9712606793026
  0
ARC
  5
5B2
330
1F
100
AcDbEntity
  8
0
  6
Continuous
 62
     7
100
AcDbCircle
 10
218.3487920539431
 20
127.2060625473109
 30
0.0
 40
3.3228506442
100
AcDbArc
 50
300.5949249086
 51
303.0380309950999
  0
ARC
  5
5B3
330
1F
100
AcDbEntity
  8
0
  6
Continuous
 62
     7
100
AcDbCircle
 10
219.0319505392431
 20
121.3979575583109
 30
0.0
 40
2.5361576364
100
AcDbArc
 50
75.7052993327002
 51
88.11180346699858
  0
ARC
  5
5B4
330
1F
100
AcDbEntity
  8
0
  6
Continuous
 62
     7
100
AcDbCircle
 10
219.1825744896431
 20
121.6675469699108
 30
0.0
 40
2.2391333602
100
AcDbArc
 50
77.73734704020094
 51
91.66931823520142
  0
ARC
  5
5B5
330
1F
100
AcDbEntity
  8
0
  6
Continuous
 62
     7
100
AcDbCircle
 10
219.3243434401431
 20
121.1401563174108
 30
0.0
 40
2.228263030299999
100
AcDbArc
 50
92.57817877050062
 51
94.5256757452992
  0
ARC
  5
5B6
330
1F
100
AcDbEntity
  8
0
  6
Continuous
 62
     7
100
AcDbCircle
 10
219.294400654843
 20
121.2306285931109
 30
0.0
 40
2.1688506183
100
AcDbArc
 50
5.486628240800296
 51
14.87704391309727
  0
ARC
  5
5B7
330
1F
100
AcDbEntity
  8
0
  6
Continuous
 62
     7
100
AcDbCircle
 10
189.005520023143
 20
116.3107519426108
 30
0.0
 40
0.2487
100
AcDbArc
 50
185.4999999999972
 51
270.0
  0
ARC
  5
5B8
330
1F
100
AcDbEntity
  8
0
  6
Continuous
 62
     7
100
AcDbCircle
 10
190.036684536443
 20
116.3107519426108
 30
0.0
 40
0.2487
100
AcDbArc
 50
270.0
 51
354.5000000000027
  0
SPLINE
  5
5B9
330
1F
100
AcDbEntity
  8
0
  6
Continuous
 62
     7
100
AcDbSpline
210
0.0
220
0.0
230
1.0
 70
     8
 71
     3
 72
    12
 73
     8
 74
     6
 42
0.0000000001
 43
0.0000000001
 44
0.0000000001
 12
-0.9989702711610528
 22
-0.045369563987463
 32
0.0
 13
-1.0
 23
0.0000000000000002
 33
0.0
 40
0.0
 40
0.0
 40
0.0
 40
0.0
 40
0.0403938503973168
 40
0.0991545914356633
 40
0.1287446536485883
 40
0.14359347320466
 40
0.158478795063413
 40
0.158478795063413
 40
0.158478795063413
 40
0.158478795063413
 10
83.14615401234306
 20
231.3458951921109
 30
0.0
 10
83.13270326044818
 20
231.3452843083175
 30
0.0
 10
83.09969462670137
 20
231.3435850897713
 30
0.0
 10
83.05686876475332
 20
231.3407945432258
 30
0.0
 10
83.02260069436377
 20
231.3376881977505
 30
0.0
 10
83.00289267383249
 20
231.3362130332983
 30
0.0
 10
82.99306698369599
 20
231.3345023345109
 30
0.0
 10
82.98810520974308
 20
231.3345023345109
 30
0.0
 11
83.14615401234306
 21
231.3458951921109
 31
0.0
 11
83.1058132370431
 21
231.343825168411
 31
0.0
 11
83.04718826564306
 21
231.3398329991108
 31
0.0
 11
83.01770276714307
 21
231.3373476098109
 31
0.0
 11
83.00291783124311
 21
231.3359717055109
 31
0.0
 11
82.98810520974308
 21
231.3345023345109
 31
0.0
  0
SPLINE
  5
5BA
330
1F
100
AcDbEntity
  8
0
  6
Continuous
 62
     7
100
AcDbSpline
210
0.0
220
0.0
230
1.0
 70
     8
 71
     3
 72
    14
 73
    10
 74
     8
 42
0.0000000001
 43
0.0000000001
 44
0.0000000001
 12
-0.9997622048679073
 22
-0.0218067356030298
 32
0.0
 13
-1.0
 23
0.0000000000000002
 33
0.0
 40
0.0
 40
0.0
 40
0.0
 40
0.0
 40
0.0014996737015125
 40
0.0622285285590178
 40
0.1235193675642965
 40
0.1853820599486095
 40
0.216534519526634
 40
0.2321673178319453
 40
0.24783844072329
 40
0.24783844072329
 40
0.24783844072329
 40
0.24783844072329
 10
83.23548288114308
 20
231.3486390838109
 30
0.0
 10
83.23498310878093
 20
231.3486281828149
 30
0.0
 10
83.21424528711338
 20
231.348172070941
 30
0.0
 10
83.17308798958523
 20
231.3469550012576
 30
0.0
 10
83.11185848069213
 20
231.3440816404979
 30
0.0
 10
83.06052143176229
 20
231.340872195822
 30
0.0
 10
83.0244336204211
 20
231.3377286915631
 30
0.0
 10
83.00367976198698
 20
231.3362352594421
 30
0.0
 10
82.99332863197353
 20
231.3345022850109
 30
0.0
 10
82.98810492434308
 20
231.3345022850109
 30
0.0
 11
83.23548288114308
 21
231.3486390838109
 31
0.0
 11
83.23398357004306
 21
231.3486061075108
 31
0.0
 11
83.17328199484308
 21
231.3467860579109
 31
0.0
 11
83.11205760634306
 21
231.3439327793109
 31
0.0
 11
83.05032657944309
 21
231.3398987953109
 31
0.0
 11
83.01927580424308
 21
231.3373838207109
 31
0.0
 11
83.00370520684305
 21
231.3359906662109
 31
0.0
 11
82.98810492434308
 21
231.3345022850109
 31
0.0
  0
SPLINE
  5
5BB
330
1F
100
AcDbEntity
  8
0
  6
Continuous
 62
     7
100
AcDbSpline
210
0.0
220
0.0
230
1.0
 70
     8
 71
     3
 72
    12
 73
     8
 74
     6
 42
0.0000000001
 43
0.0000000001
 44
0.0000000001
 12
0.9989707141400925
 22
-0.045359809197497
 32
0.0
 13
1.0
 23
-0.0000000000000002
 33
0.0
 40
0.0
 40
0.0
 40
0.0
 40
0.0
 40
0.0404264601022146
 40
0.0991872011405044
 40
0.1287772633534294
 40
0.143626082909501
 40
0.1585114047682541
 40
0.1585114047682541
 40
0.1585114047682541
 40
0.1585114047682541
 10
244.9125179705431
 20
231.3458966714108
 30
0.0
 10
244.9259795871159
 20
231.3452854259052
 30
0.0
 10
244.9589990858336
 20
231.3435857966111
 30
0.0
 10
245.0018357947874
 20
231.3407945432223
 30
0.0
 10
245.0361038652263
 20
231.3376881977507
 30
0.0
 10
245.0558118857528
 20
231.3362130332982
 30
0.0
 10
245.0656375758902
 20
231.3345023345109
 30
0.0
 10
245.0705993498431
 20
231.3345023345109
 30
0.0
 11
244.9125179705431
 21
231.3458966714108
 31
0.0
 11
244.9528913225431
 21
231.3438251684109
 31
0.0
 11
245.0115162939431
 21
231.3398329991108
 31
0.0
 11
245.0410017924431
 21
231.3373476098108
 31
0.0
 11
245.055786728343
 21
231.3359717055109
 31
0.0
 11
245.0705993498431
 21
231.3345023345109
 31
0.0
  0
SPLINE
  5
5BC
330
1F
100
AcDbEntity
  8
0
  6
Continuous
 62
     7
100
AcDbSpline
210
0.0
220
0.0
230
1.0
 70
     8
 71
     3
 72
    26
 73
    22
 74
    20
 42
0.0000000001
 43
0.0000000001
 44
0.0000000001
 12
-0.2568233382049363
 22
0.9664583658664625
 32
0.0
 13
-0.9989881142039383
 23
-0.044974967251341
 33
0.0
 40
0.0
 40
0.0
 40
0.0
 40
0.0
 40
0.0449509495359548
 40
0.1803377856569658
 40
0.3170700228335989
 40
0.4560427355084686
 40
0.5975270666124627
 40
0.7416321321820635
 40
0.8890244696722565
 40
1.039914384693923
 40
1.193795562995759
 40
1.351402558404946
 40
1.513656071975944
 40
1.681281403646895
 40
1.853992717320802
 40
2.030841197063171
 40
2.212495450875466
 40
2.399063017378964
 40
2.58901827103382
 40
2.7813265127629
 40
2.899305932587771
 40
2.899305932587771
 40
2.899305932587771
 40
2.899305932587771
 10
221.3905504032431
 20
121.7874717110108
 30
0.0
 10
221.3867022522713
 20
121.801952784755
 30
0.0
 10
221.3706593342898
 20
121.8598882217542
 30
0.0
 10
221.3381951872341
 20
121.9605506778665
 30
0.0
 10
221.2879260057519
 20
122.0881246200286
 30
0.0
 10
221.2286738878096
 20
122.2140424112284
 30
0.0
 10
221.1600751112063
 20
122.3379448984091
 30
0.0
 10
221.0817802913684
 20
122.4593218984824
 30
0.0
 10
220.99344034646
 20
122.5775439713728
 30
0.0
 10
220.8948443377575
 20
122.6917125365121
 30
0.0
 10
220.7858514774353
 20
122.8008803209712
 30
0.0
 10
220.6662202990729
 20
122.904184278369
 30
0.0
 10
220.5354071455126
 20
123.0008526517294
 30
0.0
 10
220.3931624596245
 20
123.0896880777234
 30
0.0
 10
220.2399072806235
 20
123.169053060621
 30
0.0
 10
220.0763211530452
 20
123.2373610904113
 30
0.0
 10
219.9031747423772
 20
123.2931350390122
 30
0.0
 10
219.7216197811597
 20
123.3348783655309
 30
0.0
 10
219.5336066560143
 20
123.3612080505625
 30
0.0
 10
219.3668584892782
 20
123.3698464963938
 30
0.0
 10
219.2633972229183
 20
123.3679325486584
 30
0.0
 10
219.2241105435431
 20
123.3661638418108
 30
0.0
 11
221.3905504032431
 21
121.7874717110108
 31
0.0
 11
221.378554096543
 21
121.8307923353108
 31
0.0
 11
221.3369928924431
 21
121.9596420994108
 31
0.0
 11
221.2868610696431
 21
122.0868525747109
 31
0.0
 11
221.2276844214431
 21
122.2125965176108
 31
0.0
 11
221.1591491472431
 21
122.3363734627108
 31
0.0
 11
221.0810309855431
 21
122.4574677348108
 31
0.0
 11
220.992801230843
 21
122.5755355608109
 31
0.0
 11
220.8941766818431
 21
122.6897326045109
 31
0.0
 11
220.7854524663431
 21
122.7986291701108
 31
0.0
 11
220.6661652197431
 21
122.9016365378109
 31
0.0
 11
220.5356770250431
 21
122.9980680353108
 31
0.0
 11
220.3935036661431
 21
123.0868654893108
 31
0.0
 11
220.2401414734431
 21
123.1662961869108
 31
0.0
 11
220.0769538862431
 21
123.2344518629108
 31
0.0
 11
219.9040539551431
 21
123.2901643548109
 31
0.0
 11
219.7222352938431
 21
123.3319905580108
 31
0.0
 11
219.534119231243
 21
123.3583599604108
 31
0.0
 11
219.3420699532431
 21
123.3683366661109
 31
0.0
 11
219.2241105435431
 21
123.3661638418108
 31
0.0
  0
SPLINE
  5
5BD
330
1F
100
AcDbEntity
  8
0
  6
Continuous
 62
     7
100
AcDbSpline
210
0.0
220
0.0
230
1.0
 70
     8
 71
     3
 72
    29
 73
    25
 74
    23
 42
0.0000000001
 43
0.0000000001
 44
0.0000000001
 12
-0.1536844508112637
 22
0.9881199773199812
 32
0.0
 13
-0.9933313479481867
 23
-0.1152945496692646
 33
0.0
 40
0.0
 40
0.0
 40
0.0
 40
0.0
 40
0.1447859267507355
 40
0.2903054748682929
 40
0.4362441678290266
 40
0.582529964997513
 40
0.7300608581819525
 40
0.8794101155600035
 40
1.031161274923752
 40
1.185460552185412
 40
1.342699314955184
 40
1.503640848708323
 40
1.668677944028905
 40
1.837964484414864
 40
2.010943807795057
 40
2.188342491994781
 40
2.371120946440012
 40
2.559946410431846
 40
2.753801081207476
 40
2.952499524835637
 40
3.156162805387369
 40
3.363744845039275
 40
3.573691449626544
 40
3.756387327498662
 40
3.756387327498662
 40
3.756387327498662
 40
3.756387327498662
 10
221.9764661042431
 20
115.9611430420109
 30
0.0
 10
221.9690489890305
 20
116.0088316642299
 30
0.0
 10
221.9513657695882
 20
116.1040376340462
 30
0.0
 10
221.9164163985218
 20
116.2452731198968
 30
0.0
 10
221.8730135080448
 20
116.3846741760668
 30
0.0
 10
221.8211597899293
 20
116.521873899141
 30
0.0
 10
221.7607168830524
 20
116.656762188477
 30
0.0
 10
221.6913655215815
 20
116.7893574555428
 30
0.0
 10
221.6128170260609
 20
116.9193689568307
 30
0.0
 10
221.5247800434243
 20
117.0463721720494
 30
0.0
 10
221.4269125552035
 20
117.1699053363049
 30
0.0
 10
221.3187905563593
 20
117.2894533101751
 30
0.0
 10
221.2000249634504
 20
117.4043038096422
 30
0.0
 10
221.0705860636782
 20
117.5133305479716
 30
0.0
 10
220.9304752561401
 20
117.6154339003271
 30
0.0
 10
220.7795673906867
 20
117.7095963910252
 30
0.0
 10
220.6174365551778
 20
117.794834591316
 30
0.0
 10
220.4442456826165
 20
117.8696862752144
 30
0.0
 10
220.2607016459928
 20
117.9325015603873
 30
0.0
 10
220.0679160544962
 20
117.9816660643579
 30
0.0
 10
219.8672312136318
 20
118.0156769788415
 30
0.0
 10
219.6606622512111
 20
118.0331754854231
 30
0.0
 10
219.4603510741796
 20
118.0332058196897
 30
0.0
 10
219.3297434435535
 20
118.022878449766
 30
0.0
 10
219.2692509293431
 20
118.0158571701108
 30
0.0
 11
221.9764661042431
 21
115.9611430420109
 31
0.0
 11
221.950023894843
 21
116.1034939259109
 31
0.0
 11
221.9150668379431
 21
116.2447523524108
 31
0.0
 11
221.871680381543
 21
116.3840926463108
 31
0.0
 11
221.819961092043
 21
116.5209306876108
 31
0.0
 11
221.759630914443
 21
116.6555621628109
 31
0.0
 11
221.6904109360431
 21
116.7879018593108
 31
0.0
 11
221.6119364960431
 21
116.9177871034108
 31
0.0
 11
221.524031051543
 21
117.0445975911109
 31
0.0
 11
221.426388204543
 21
117.1678449154109
 31
0.0
 11
221.3184318125431
 21
117.2872082042109
 31
0.0
 11
221.1997935063431
 21
117.4019348146108
 31
0.0
 11
221.070316983343
 21
117.5109933436109
 31
0.0
 11
220.9305200322431
 21
117.6128690462109
 31
0.0
 11
220.780017786943
 21
117.7067805328109
 31
0.0
 11
220.6182365718431
 21
117.7918381712108
 31
0.0
 11
220.444908281243
 21
117.8667538540108
 31
0.0
 11
220.2614991254431
 21
117.9295289681109
 31
0.0
 11
220.068964721843
 21
117.9786367570109
 31
0.0
 11
219.8681660857431
 21
118.0126755523109
 31
0.0
 11
219.6613256792431
 21
118.0302069363108
 31
0.0
 11
219.4513790788431
 21
118.0302488674108
 31
0.0
 11
219.2692509293431
 21
118.0158571701108
 31
0.0
  0
SPLINE
  5
5BE
330
1F
100
AcDbEntity
  8
0
  6
Continuous
 62
     7
100
AcDbSpline
210
0.0
220
0.0
230
1.0
 70
     8
 71
     3
 72
    14
 73
    10
 74
     8
 42
0.0000000001
 43
0.0000000001
 44
0.0000000001
 12
0.9997622046370141
 22
-0.0218067461886675
 32
0.0
 13
0.9999999999999984
 23
0.0000000576988945
 33
0.0
 40
0.0
 40
0.0
 40
0.0
 40
0.0
 40
0.0014996285904051
 40
0.0622284834479672
 40
0.1235193224531891
 40
0.1853820148375021
 40
0.2165344745152445
 40
0.2321672727209095
 40
0.24783839839959
 40
0.24783839839959
 40
0.24783839839959
 40
0.24783839839959
 10
244.8232217235431
 20
231.3486390828109
 30
0.0
 10
244.8237214808717
 20
231.3486281821375
 30
0.0
 10
244.8444592875111
 20
231.348172070821
 30
0.0
 10
244.8856165699971
 20
231.3469550011067
 30
0.0
 10
244.946846078897
 20
231.344081640544
 30
0.0
 10
244.9981831278509
 20
231.3408721958013
 30
0.0
 10
245.0342709392066
 20
231.337728691579
 30
0.0
 10
245.0550247985457
 20
231.3362352593639
 30
0.0
 10
245.0653759294835
 20
231.3345022847094
 30
0.0
 10
245.0705996380431
 20
231.3345022850108
 30
0.0
 11
244.8232217235431
 21
231.3486390828109
 31
0.0
 11
244.8247209895431
 21
231.3486061075108
 31
0.0
 11
244.8854225647431
 21
231.3467860579109
 31
0.0
 11
244.9466469532431
 21
231.3439327793108
 31
0.0
 11
245.0083779801431
 21
231.3398987953108
 31
0.0
 11
245.0394287554431
 21
231.3373838207108
 31
0.0
 11
245.0549993527431
 21
231.3359906662109
 31
0.0
 11
245.0705996380431
 21
231.3345022850108
 31
0.0
  0
SPLINE
  5
5BF
330
1F
100
AcDbEntity
  8
0
  6
Continuous
 62
     7
100
AcDbSpline
210
0.0
220
0.0
230
1.0
 70
     8
 71
     3
 72
    29
 73
    25
 74
    23
 42
0.0000000001
 43
0.0000000001
 44
0.0000000001
 12
-0.9933312259141317
 22
0.1152956010606153
 32
0.0
 13
-0.1536948976225232
 23
-0.9881183524481278
 33
0.0
 40
0.0
 40
0.0
 40
0.0
 40
0.0
 40
0.1822217429825158
 40
0.3924122930209715
 40
0.6001515211773133
 40
0.8032977468308011
 40
1.001756898670329
 40
1.195819754249703
 40
1.384722219553018
 40
1.567547164581394
 40
1.744997360155321
 40
1.918024453703918
 40
2.087350650362602
 40
2.252425754832571
 40
2.413403868760029
 40
2.570677232196589
 40
2.725008279169395
 40
2.876790217624359
 40
3.026168706864233
 40
3.173727759334207
 40
3.320040478779606
 40
3.46600564181962
 40
3.611551619964686
 40
3.756363822180917
 40
3.756363822180917
 40
3.756363822180917
 40
3.756363822180917
 10
108.7894561199431
 20
118.0158568045109
 30
0.0
 10
108.7291206041614
 20
118.0228599263054
 30
0.0
 10
108.5985913577909
 20
118.0331937278416
 30
0.0
 10
108.3983038118833
 20
118.0331920845675
 30
0.0
 10
108.1917718603007
 20
118.0157096496677
 30
0.0
 10
107.9912808680875
 20
117.9817595143921
 30
0.0
 10
107.7986587970301
 20
117.9326962465806
 30
0.0
 10
107.6150811116601
 20
117.8699304119923
 30
0.0
 10
107.4417706132372
 20
117.7950762785223
 30
0.0
 10
107.2795697228109
 20
117.7098456709144
 30
0.0
 10
107.1286021832494
 20
117.6156867813004
 30
0.0
 10
106.9884360336106
 20
117.5135805361883
 30
0.0
 10
106.8589480084113
 20
117.4045470710977
 30
0.0
 10
106.7401388261285
 20
117.2896867415315
 30
0.0
 10
106.6319773857935
 20
117.1701252587707
 30
0.0
 10
106.5340748841566
 20
117.0465759613265
 30
0.0
 10
106.4460071152222
 20
116.9195546070873
 30
0.0
 10
106.3674318549594
 20
116.7895234633042
 30
0.0
 10
106.2980573582757
 20
116.6569070678441
 30
0.0
 10
106.2375948796752
 20
116.5219966953756
 30
0.0
 10
106.1857248912906
 20
116.3847740097204
 30
0.0
 10
106.1423088538064
 20
116.2453491298953
 30
0.0
 10
106.1073493679386
 20
116.1040889136995
 30
0.0
 10
106.0896614186744
 20
116.0088659169336
 30
0.0
 10
106.082242453143
 20
115.9611687187109
 30
0.0
 11
108.7894561199431
 21
118.0158568045109
 31
0.0
 11
108.6078020159431
 21
118.0302286560108
 31
0.0
 11
108.397611466243
 21
118.0302167284108
 31
0.0
 11
108.190613340543
 21
118.0126849609108
 31
0.0
 11
107.990319881943
 21
117.9787597573108
 31
0.0
 11
107.798003123143
 21
117.9297669085108
 31
0.0
 11
107.614378330743
 21
117.8669789516108
 31
0.0
 11
107.440961415243
 21
117.7920742467109
 31
0.0
 11
107.2791207993431
 21
117.7070296962109
 31
0.0
 11
107.128556565543
 21
117.6131202536109
 31
0.0
 11
106.988703232343
 21
117.5112408136109
 31
0.0
 11
106.859179302743
 21
117.4021770133109
 31
0.0
 11
106.7404975406431
 21
117.2874406657108
 31
0.0
 11
106.632501660943
 21
117.1680637704108
 31
0.0
 11
106.534823700643
 21
117.0448001224108
 31
0.0
 11
106.446887874043
 21
116.9179720401108
 31
0.0
 11
106.3683866142431
 21
116.7880670400109
 31
0.0
 11
106.2991436167431
 21
116.6557063950109
 31
0.0
 11
106.2387938804431
 21
116.5210528273108
 31
0.0
 11
106.187058446643
 21
116.3841921070108
 31
0.0
 11
106.143658899243
 21
116.2448281658109
 31
0.0
 11
106.108691727343
 21
116.1035450152107
 31
0.0
 11
106.082242453143
 21
115.9611687187109
 31
0.0
  0
SPLINE
  5
5C0
330
1F
100
AcDbEntity
  8
0
  6
Continuous
 62
     7
100
AcDbSpline
210
0.0
220
0.0
230
1.0
 70
     8
 71
     3
 72
    26
 73
    22
 74
    20
 42
0.0000000001
 43
0.0000000001
 44
0.0000000001
 12
-0.9989880541691029
 22
0.0449763007308249
 32
0.0
 13
-0.2567634432840601
 23
-0.9664742801507516
 33
0.0
 40
0.0
 40
0.0
 40
0.0
 40
0.0
 40
0.1161073343483045
 40
0.3089659267061217
 40
0.4993073817114756
 40
0.6846462160673909
 40
0.8653618782280439
 40
1.042181298958428
 40
1.214995420006182
 40
1.382586121843706
 40
1.545448356150016
 40
1.704337840703777
 40
1.859191717638231
 40
2.010100850984279
 40
2.157424403710403
 40
2.301753173613115
 40
2.443429590633276
 40
2.582549629109124
 40
2.719269010919694
 40
2.85452256645989
 40
2.899440928882902
 40
2.899440928882902
 40
2.899440928882902
 40
2.899440928882902
 10
108.834595667343
 20
123.3661637969107
 30
0.0
 10
108.7959323873379
 20
123.3679044897063
 30
0.0
 10
108.6929145661795
 20
123.3698536370062
 30
0.0
 10
108.5264702307723
 20
123.3613524809243
 30
0.0
 10
108.3385389531065
 20
123.3351336671921
 30
0.0
 10
108.1575368203724
 20
123.2936541418679
 30
0.0
 10
107.9850221491667
 20
123.2383177634309
 30
0.0
 10
107.8216026009185
 20
123.1703603022947
 30
0.0
 10
107.6682203372946
 20
123.0912122092909
 30
0.0
 10
107.5256560165646
 20
123.0024628942862
 30
0.0
 10
107.3942166855624
 20
122.9055977583921
 30
0.0
 10
107.2737708637305
 20
122.8017714205479
 30
0.0
 10
107.1642048257478
 20
122.6921010718188
 30
0.0
 10
107.0653972007935
 20
122.5777084322957
 30
0.0
 10
106.9770104507695
 20
122.4594489824081
 30
0.0
 10
106.8986447224778
 20
122.3379795107975
 30
0.0
 10
106.8299588700708
 20
122.2139102105628
 30
0.0
 10
106.7706743907743
 20
122.0878870173667
 30
0.0
 10
106.7204233023179
 20
121.9603055404304
 30
0.0
 10
106.6879883965286
 20
121.8596964704572
 30
0.0
 10
106.6719642612105
 20
121.801813208207
 30
0.0
 10
106.6681197967431
 20
121.7873423942108
 30
0.0
 11
108.834595667343
 21
123.3661637969107
 31
0.0
 11
108.718508941543
 21
123.3683513029109
 31
0.0
 11
108.5259028321431
 21
123.3584860473108
 31
0.0
 11
108.3373906254431
 21
123.3321608233109
 31
0.0
 11
108.1567395906431
 21
123.2907399693108
 31
0.0
 11
107.9846649636431
 21
123.2355269881109
 31
0.0
 11
107.8214045527431
 21
123.1676215702108
 31
0.0
 11
107.6678356593431
 21
123.0883668201108
 31
0.0
 11
107.5255637271431
 21
122.9997928925109
 31
0.0
 11
107.394459347743
 21
122.9031712124108
 31
0.0
 11
107.274111998743
 21
122.7994293024108
 31
0.0
 11
107.164664776643
 21
122.6898800953109
 31
0.0
 11
107.0660172993431
 21
122.5756774607108
 31
0.0
 11
106.9778166460431
 21
122.4576737576108
 31
0.0
 11
106.8995692686431
 21
122.3363966297109
 31
0.0
 11
106.830944970543
 21
122.2124494117109
 31
0.0
 11
106.7717196729431
 21
122.0865655397109
 31
0.0
 11
106.7216107375431
 21
121.9593598639108
 31
0.0
 11
106.6801043949431
 21
121.8306324472109
 31
0.0
 11
106.6681197967431
 21
121.7873423942108
 31
0.0
  0
LINE
  5
5C1
330
1F
100
AcDbEntity
  8
0
  6
Continuous
 62
     7
100
AcDbLine
 10
225.890852204043
 20
121.3771965528108
 30
0.0
 11
225.8626844399431
 21
121.1148971881109
 31
0.0
  0
LINE
  5
5C2
330
1F
100
AcDbEntity
  8
0
  6
Continuous
 62
     7
100
AcDbLine
 10
219.2413325303431
 20
118.0124521919108
 30
0.0
 11
219.227925551643
 21
118.2642387513108
 31
0.0
  0
LINE
  5
5C3
330
1F
100
AcDbEntity
  8
0
  6
Continuous
 62
     7
100
AcDbLine
 10
226.4822604495431
 20
126.8756678062108
 30
0.0
 11
226.424302984443
 21
126.3367822427107
 31
0.0
  0
LINE
  5
5C4
330
1F
100
AcDbEntity
  8
0
  6
Continuous
 62
     7
100
AcDbLine
 10
219.1485204349431
 20
123.3614732237108
 30
0.0
 11
219.1173463502431
 21
123.9057299691107
 31
0.0
  0
LINE
  5
5C5
330
1F
100
AcDbEntity
  8
0
  6
Continuous
 62
     7
100
AcDbLine
 10
101.576443993443
 20
126.8756675122109
 30
0.0
 11
101.5700651613431
 21
126.9362401647109
 31
0.0
  0
SPLINE
  5
5C6
330
1F
100
AcDbEntity
  8
0
  6
Continuous
 62
     7
100
AcDbSpline
210
0.0
220
0.0
230
1.0
 70
     8
 71
     3
 72
    19
 73
    15
 74
    13
 42
0.0000000001
 43
0.0000000001
 44
0.0000000001
 12
1.0
 22
-0.0000000000000002
 32
0.0
 13
0.998592273921602
 23
0.0530421574229802
 33
0.0
 40
0.0
 40
0.0
 40
0.0
 40
0.0
 40
9.181080474980104
 40
13.75134681697013
 40
18.31905448409914
 40
20.6042365420141
 40
22.89138364821287
 40
27.46737978839615
 40
32.02930440657719
 40
36.5537572870911
 40
45.41008332340633
 40
53.88645521180494
 40
61.83867786353127
 40
64.95944811070557
 40
64.95944811070557
 40
64.95944811070557
 40
64.95944811070557
 10
164.029352279843
 20
158.9591854774108
 30
0.0
 10
167.0897124381698
 20
158.9591854774108
 30
0.0
 10
171.6735111427446
 20
158.9751055644069
 30
0.0
 10
177.7796641424241
 20
159.0249534441725
 30
0.0
 10
181.5871563624499
 20
159.0670184565693
 30
0.0
 10
184.633577875348
 20
159.1066660646229
 30
0.0
 10
187.6827103208198
 20
159.1501515311094
 30
0.0
 10
191.4905749763123
 20
159.2115689081378
 30
0.0
 10
196.0439205973669
 20
159.2960721225692
 30
0.0
 10
202.0234876661297
 20
159.4226160406125
 30
0.0
 10
209.3069049602913
 20
159.6077588594259
 30
0.0
 10
217.7308498628518
 20
159.8812946330619
 30
0.0
 10
224.2418362696482
 20
160.1515424161736
 30
0.0
 10
227.9282116240388
 20
160.3365847237669
 30
0.0
 10
228.967003976543
 20
160.3917621860108
 30
0.0
 11
164.029352279843
 21
158.9591854774108
 31
0.0
 11
173.2103809535431
 21
158.9900266959109
 31
0.0
 11
177.7804964572431
 21
159.0271578091108
 31
0.0
 11
182.3479275893431
 21
159.0774189857108
 31
0.0
 11
184.6329164654431
 21
159.1071321800109
 31
0.0
 11
186.9198310287431
 21
159.1397460660108
 31
0.0
 11
191.495232773043
 21
159.2134993929108
 31
0.0
 11
196.056369321943
 21
159.2982909270109
 31
0.0
 11
200.5798048301431
 21
159.3942339890108
 31
0.0
 11
209.433211819443
 21
159.6216005286109
 31
0.0
 11
217.9050069508431
 21
159.9001102089109
 31
0.0
 11
225.8501824560431
 21
160.2348209709109
 31
0.0
 11
228.967003976543
 21
160.3917621860108
 31
0.0
  0
SPLINE
  5
5C7
330
1F
100
AcDbEntity
  8
0
  6
Continuous
 62
     7
100
AcDbSpline
210
0.0
220
0.0
230
1.0
 70
     8
 71
     3
 72
    10
 73
     6
 74
     4
 42
0.0000000001
 43
0.0000000001
 44
0.0000000001
 12
0.1302421289793981
 22
0.991482217611044
 32
0.0
 13
0.1305829613853106
 23
0.9914373859179624
 33
0.0
 40
0.0
 40
0.0
 40
0.0
 40
0.0
 40
8.017646246055296
 40
15.94870759202921
 40
23.80117370681676
 40
23.80117370681676
 40
23.80117370681676
 40
23.80117370681676
 10
225.8566770506431
 20
136.7946918661109
 30
0.0
 10
226.2047554894731
 20
139.4444764261308
 30
0.0
 10
226.8989452074637
 20
144.7151943278508
 30
0.0
 10
227.9370859476003
 20
152.5807043732701
 30
0.0
 10
228.6252045500608
 20
157.7966860264259
 30
0.0
 10
228.967003976543
 20
160.3917621857108
 30
0.0
 11
225.8566770506431
 21
136.7946918661109
 31
0.0
 11
226.9030799720431
 21
144.7437605067109
 31
0.0
 11
227.9404345676431
 21
152.6066880478109
 31
0.0
 11
228.967003976543
 21
160.3917621857108
 31
0.0
  0
SPLINE
  5
5C8
330
1F
100
AcDbEntity
  8
0
  6
Continuous
 62
     7
100
AcDbSpline
210
0.0
220
0.0
230
1.0
 70
     8
 71
     3
 72
    31
 73
    27
 74
    25
 42
0.0000000001
 43
0.0000000001
 44
0.0000000001
 12
-0.9999843530869977
 22
-0.005594066604769
 32
0.0
 13
-0.9999999997391711
 23
0.0000228398255097
 33
0.0
 40
0.0
 40
0.0
 40
0.0
 40
0.0
 40
2.030971770916624
 40
4.127667477201764
 40
6.285549607332184
 40
8.495892816129739
 40
10.75327705624786
 40
13.05420197005014
 40
15.39121490854018
 40
17.75529776231694
 40
20.14251939744717
 40
22.54856485644112
 40
24.96481350528374
 40
27.38230362904564
 40
29.79312986205993
 40
32.19768488602215
 40
34.60398979617461
 40
37.05351625610609
 40
39.61132809508257
 40
42.30515865933607
 40
45.14157974799371
 40
48.14782124315034
 40
51.3742954387628
 40
54.87581568804305
 40
58.48887165275483
 40
61.82835326009252
 40
61.82835326009252
 40
61.82835326009252
 40
61.82835326009252
 10
225.8566770506431
 20
136.7946918661109
 30
0.0
 10
225.1796970531504
 20
136.7909047356579
 30
0.0
 10
223.8038122604386
 20
136.786110936047
 30
0.0
 10
221.7086257449815
 20
136.7860626564733
 30
0.0
 10
219.5536589261193
 20
136.7924826141846
 30
0.0
 10
217.3451523447176
 20
136.8042594222504
 30
0.0
 10
215.0889907350036
 20
136.8202628762903
 30
0.0
 10
212.7906321789577
 20
136.8397556418903
 30
0.0
 10
210.4567284318431
 20
136.8617170724445
 30
0.0
 10
208.0940710442708
 20
136.8850388062085
 30
0.0
 10
205.7084048339053
 20
136.9086764236163
 30
0.0
 10
203.3053463087655
 20
136.93202568067
 30
0.0
 10
200.8921866565331
 20
136.9542068842287
 30
0.0
 10
198.4774163687525
 20
136.9744719412269
 30
0.0
 10
196.0665237526325
 20
136.9921930585342
 30
0.0
 10
193.6593380128251
 20
137.0066845334434
 30
0.0
 10
191.2392356259418
 20
137.0181828777482
 30
0.0
 10
188.7680326651802
 20
137.0259550265591
 30
0.0
 10
186.2009811800692
 20
137.031212849695
 30
0.0
 10
183.5049590487531
 20
137.032655807216
 30
0.0
 10
180.65946220313
 20
137.0292137391808
 30
0.0
 10
177.6364257474461
 20
137.0215811484093
 30
0.0
 10
174.3916975881981
 20
137.0110144967083
 30
0.0
 10
170.9446999324538
 20
136.9995171297582
 30
0.0
 10
167.4600255347568
 20
136.990345222906
 30
0.0
 10
165.1425128153319
 20
136.9877198805184
 30
0.0
 10
164.029352279843
 20
136.9877453049108
 30
0.0
 11
225.8566770506431
 21
136.7946918661109
 31
0.0
 11
223.8257185855431
 21
136.7873401793108
 31
0.0
 11
221.729022893343
 21
136.7870971479109
 31
0.0
 11
219.5711495828431
 21
136.7932666996108
 31
0.0
 11
217.3608365557431
 21
136.8048175831108
 31
0.0
 11
215.1035080276431
 21
136.8206770837108
 31
0.0
 11
212.8026643091431
 21
136.8400069051108
 31
0.0
 11
210.4657530856431
 21
136.8618107614109
 31
0.0
 11
208.1017837430431
 21
136.8849772624108
 31
0.0
 11
205.7146783802431
 21
136.908538292211
 31
0.0
 11
203.3087452040431
 21
136.9317826981109
 31
0.0
 11
200.892597611243
 21
136.9538811786109
 31
0.0
 11
198.475191791643
 21
136.9740703304108
 31
0.0
 11
196.064429824143
 21
136.9916732235108
 31
0.0
 11
193.659918516543
 21
137.0061727023108
 31
0.0
 11
191.2536401546431
 21
137.0174760503109
 31
0.0
 11
188.8041265222431
 21
137.0254033822109
 31
0.0
 11
186.246319744443
 21
137.0304917069107
 31
0.0
 11
183.5524895313431
 21
137.0318671691107
 31
0.0
 11
180.7160702349431
 21
137.0286785657108
 31
0.0
 11
177.7098375200431
 21
137.0214128196108
 31
0.0
 11
174.4833792596431
 21
137.0112723635108
 31
0.0
 11
170.9818770096431
 21
137.0000451927107
 31
0.0
 11
167.3688322584431
 21
136.9910435281109
 31
0.0
 11
164.029352279843
 21
136.9877453049108
 31
0.0
  0
LINE
  5
5C9
330
1F
100
AcDbEntity
  8
0
  6
Continuous
 62
     7
100
AcDbLine
 10
98.24427811244312
 20
215.4582147326109
 30
0.0
 11
98.38881620564308
 21
214.9574901102108
 31
0.0
  0
SPLINE
  5
5CA
330
1F
100
AcDbEntity
  8
0
  6
Continuous
 62
     7
100
AcDbSpline
210
0.0
220
0.0
230
1.0
 70
     8
 71
     3
 72
    60
 73
    56
 74
    54
 42
0.0000000001
 43
0.0000000001
 44
0.0000000001
 12
0.2771303263023535
 22
-0.9608323382586323
 32
0.0
 13
-0.1620402687981876
 23
0.9867841462487179
 33
0.0
 40
0.0
 40
0.0
 40
0.0
 40
0.0
 40
0.4168293575257253
 40
0.8069214749262261
 40
1.174629281576475
 40
1.524470335672191
 40
1.856818514594497
 40
2.171299273799139
 40
2.469818773873123
 40
2.753808301423872
 40
3.023875873748224
 40
3.280602181075029
 40
3.524653716871293
 40
3.75689710835219
 40
3.978325589742229
 40
4.189479971911159
 40
4.390918681378182
 40
4.58353319061982
 40
4.768603243187604
 40
4.946707032972034
 40
5.115391050652133
 40
5.271782525034082
 40
5.415793172793968
 40
5.548746996851902
 40
5.672096409854483
 40
5.787423261446026
 40
5.896407181000576
 40
6.000763713433713
 40
6.102188297688004
 40
6.20233976905957
 40
6.302844921207924
 40
6.405270200047139
 40
6.511167279598434
 40
6.622724197185231
 40
6.742609773805892
 40
6.870864572299452
 40
7.005454665389741
 40
7.145168181167005
 40
7.289395635352061
 40
7.438336752645488
 40
7.592966479606276
 40
7.754210899910162
 40
7.923021137385537
 40
8.100634067384392
 40
8.288362105947937
 40
8.487488852331615
 40
8.699502830137781
 40
8.925946063756722
 40
9.168452015187163
 40
9.429202333543573
 40
9.710627792382677
 40
10.0145260890239
 40
10.34275156815945
 40
10.69972206505143
 40
11.09219120913609
 40
11.09219120913609
 40
11.09219120913609
 40
11.09219120913609
 10
98.38881620564308
 20
214.9574901102108
 30
0.0
 10
98.42732155759758
 20
214.8239890681288
 30
0.0
 10
98.50737231278978
 20
214.5670958734925
 30
0.0
 10
98.64020879497244
 20
214.1986476175551
 30
0.0
 10
98.78062273680255
 20
213.8570458876073
 30
0.0
 10
98.9279218872365
 20
213.5394616500311
 30
0.0
 10
99.08111330051342
 20
213.244538890021
 30
0.0
 10
99.23890388972584
 20
212.9716500320556
 30
0.0
 10
99.400264819183
 20
212.7198085856427
 30
0.0
 10
99.56450159087932
 20
212.4877538024854
 30
0.0
 10
99.73082125027303
 20
212.2746043217662
 30
0.0
 10
99.8983654343354
 20
212.0796645222191
 30
0.0
 10
100.0664095065106
 20
211.9021537848996
 30
0.0
 10
100.2344168929537
 20
211.7411939297801
 30
0.0
 10
100.401925826511
 20
211.5959616616907
 30
0.0
 10
100.5684864597641
 20
211.4657257976414
 30
0.0
 10
100.7336937976714
 20
211.3497907862364
 30
0.0
 10
100.897423743798
 20
211.2473561508171
 30
0.0
 10
101.0596556744451
 20
211.1577032907644
 30
0.0
 10
101.2194472534724
 20
211.0806932050988
 30
0.0
 10
101.3745252790384
 20
211.0165543863795
 30
0.0
 10
101.5222621780888
 20
210.9650861118573
 30
0.0
 10
101.6611862969386
 20
210.9252407067611
 30
0.0
 10
101.7913290921343
 20
210.8954801116893
 30
0.0
 10
101.9134396513601
 20
210.8743030102176
 30
0.0
 10
102.02854413769
 20
210.8604321291145
 30
0.0
 10
102.1378839282838
 20
210.8528564047916
 30
0.0
 10
102.242830077338
 20
210.8508568589084
 30
0.0
 10
102.3448012924007
 20
210.8540153715171
 30
0.0
 10
102.4452043232908
 20
210.8622133784198
 30
0.0
 10
102.545383435092
 20
210.8756294160707
 30
0.0
 10
102.6465885785341
 20
210.8947395803317
 30
0.0
 10
102.7501469797893
 20
210.9203789336555
 30
0.0
 10
102.85756461482
 20
210.9538687900029
 30
0.0
 10
102.9695907420715
 20
210.9968487534092
 30
0.0
 10
103.0853572586784
 20
211.0507173268995
 30
0.0
 10
103.2026609734338
 20
211.1161336311127
 30
0.0
 10
103.3191393000679
 20
211.1931649744825
 30
0.0
 10
103.4331553157514
 20
211.2818337917879
 30
0.0
 10
103.543713016534
 20
211.3823374443992
 30
0.0
 10
103.6501737322327
 20
211.4951129740456
 30
0.0
 10
103.7519825248221
 20
211.6207558159457
 30
0.0
 10
103.8485318484089
 20
211.7599190008456
 30
0.0
 10
103.9391649822841
 20
211.9133550830553
 30
0.0
 10
104.0231379544929
 20
212.0819069119953
 30
0.0
 10
104.0995943980229
 20
212.2664767328045
 30
0.0
 10
104.167553929482
 20
212.4680110904711
 30
0.0
 10
104.2259121022273
 20
212.6875306376091
 30
0.0
 10
104.273444821852
 20
212.9262338238573
 30
0.0
 10
104.308784454692
 20
213.1855544946686
 30
0.0
 10
104.3303241782534
 20
213.4669140570714
 30
0.0
 10
104.3362542335262
 20
213.7715307266387
 30
0.0
 10
104.3246074640497
 20
214.1011829411617
 30
0.0
 10
104.2930010160429
 20
214.4591654580838
 30
0.0
 10
104.2583306990106
 20
214.7066870382527
 30
0.0
 10
104.2371320971431
 20
214.8357811480109
 30
0.0
 11
98.38881620564308
 21
214.9574901102108
 31
0.0
 11
98.51301405014311
 21
214.5595936303108
 31
0.0
 11
98.64548732924312
 21
214.1926839815108
 31
0.0
 11
98.78543719794306
 21
213.8526500636109
 31
0.0
 11
98.9327809754431
 21
213.5353511913109
 31
0.0
 11
99.08611527164305
 21
213.2404886714108
 31
0.0
 11
99.24366198334309
 21
212.9683174357109
 31
0.0
 11
99.40482828234308
 21
212.7170420569109
 31
0.0
 11
99.56900280494307
 21
212.4853164047108
 31
0.0
 11
99.73524944954306
 21
212.2724818521109
 31
0.0
 11
99.90268614754308
 21
212.0778710892109
 31
0.0
 11
100.0705602336431
 21
211.9007286512109
 31
0.0
 11
100.238348494143
 21
211.7401543926108
 31
0.0
 11
100.405732473543
 21
211.5951951714108
 31
0.0
 11
100.572148767943
 21
211.4652267519109
 31
0.0
 11
100.7371059880431
 21
211.3496124396108
 31
0.0
 11
100.9004579646431
 21
211.2475512770108
 31
0.0
 11
101.0624949926431
 21
211.1581369274109
 31
0.0
 11
101.2229867793431
 21
211.0809142213109
 31
0.0
 11
101.378904618743
 21
211.0165408947108
 31
0.0
 11
101.5266199553431
 21
210.9651748301109
 31
0.0
 11
101.6650696575431
 21
210.9255421841109
 31
0.0
 11
101.794691447343
 21
210.8959632906109
 31
0.0
 11
101.9162352336431
 21
210.8749350786108
 31
0.0
 11
102.0307386253431
 21
210.8611780445109
 31
0.0
 11
102.1394642630431
 21
210.8536793494109
 31
0.0
 11
102.243802414843
 21
210.8517207937109
 31
0.0
 11
102.3451775796431
 21
210.8548865879108
 31
0.0
 11
102.4449949827431
 21
210.8630599138109
 31
0.0
 11
102.5446080407431
 21
210.8764212118109
 31
0.0
 11
102.6452511421431
 21
210.8954449834109
 31
0.0
 11
102.748040487643
 21
210.9209114694108
 31
0.0
 11
102.8545372171431
 21
210.9541288213109
 31
0.0
 11
102.9664646182431
 21
210.9970800537108
 31
0.0
 11
103.082747595643
 21
211.0511870080108
 31
0.0
 11
103.2003034064431
 21
211.1167242074109
 31
0.0
 11
103.316857740243
 21
211.1937628585108
 31
0.0
 11
103.430743301543
 21
211.2822593978108
 31
0.0
 11
103.5410039389431
 21
211.3823895544109
 31
0.0
 11
103.6472214714431
 21
211.4947647663109
 31
0.0
 11
103.7488281050431
 21
211.6199680214108
 31
0.0
 11
103.8451709642431
 21
211.7585860208108
 31
0.0
 11
103.935642974843
 21
211.9114296278108
 31
0.0
 11
104.019520347043
 21
212.0793772473109
 31
0.0
 11
104.0959162006431
 21
212.2632661667108
 31
0.0
 11
104.1638743497431
 21
212.4640934974109
 31
0.0
 11
104.2222875075431
 21
212.6828729321108
 31
0.0
 11
104.269907173743
 21
212.9206575066109
 31
0.0
 11
104.305398103043
 21
213.1789811843108
 31
0.0
 11
104.327185597443
 21
213.4595619997109
 31
0.0
 11
104.333427571543
 21
213.7633961855109
 31
0.0
 11
104.322186048943
 21
214.0914291005109
 31
0.0
 11
104.291163005843
 21
214.4470489909109
 31
0.0
 11
104.2371320971431
 21
214.8357811480109
 31
0.0
  0
SPLINE
  5
5CB
330
1F
100
AcDbEntity
  8
0
  6
Continuous
 62
     7
100
AcDbSpline
210
0.0
220
0.0
230
1.0
 70
     8
 71
     3
 72
    29
 73
    25
 74
    23
 42
0.0000000001
 43
0.0000000001
 44
0.0000000001
 12
-0.9972220232869474
 22
0.0744864838174487
 32
0.0
 13
-0.9979883509353738
 23
0.0633975661779963
 33
0.0
 40
0.0
 40
0.0
 40
0.0
 40
0.0
 40
2.771724247345683
 40
5.632389689329841
 40
8.533671892077361
 40
11.46609284619348
 40
14.4580834970158
 40
17.55530950982194
 40
20.78624349614455
 40
24.0684982544091
 40
27.25751359903979
 40
30.29465157342237
 40
33.20420816993234
 40
36.02128922709058
 40
38.76423291699623
 40
41.43678550874434
 40
44.03796404362279
 40
46.56717221931322
 40
49.02354416865349
 40
51.40341592960376
 40
53.70281763762761
 40
55.92128350538896
 40
58.06147901624508
 40
60.12753574162728
 40
60.12753574162728
 40
60.12753574162728
 40
60.12753574162728
 10
164.029352279843
 20
211.7300048842108
 30
0.0
 10
163.1080107925325
 20
211.7988235486429
 30
0.0
 10
161.2358467149678
 20
211.9397931954015
 30
0.0
 10
158.3996019197197
 20
212.1571024097399
 30
0.0
 10
155.5099644847693
 20
212.3787128681406
 30
0.0
 10
152.5766656758623
 20
212.603483241669
 30
0.0
 10
149.5781841911767
 20
212.8324732927083
 30
0.0
 10
146.4803580813182
 20
213.0673449135059
 30
0.0
 10
143.2858447630014
 20
213.3067581059742
 30
0.0
 10
140.0605194956188
 20
213.5444132841898
 30
0.0
 10
136.8992836495995
 20
213.7727343005761
 30
0.0
 10
133.8616784599156
 20
213.9881999977229
 30
0.0
 10
130.9474994695973
 20
214.1914628733532
 30
0.0
 10
128.1309451635776
 20
214.3849764060786
 30
0.0
 10
125.3930338974325
 20
214.5705457350883
 30
0.0
 10
122.7267788353568
 20
214.7490715316527
 30
0.0
 10
120.1314855816045
 20
214.9209717838554
 30
0.0
 10
117.6079904168236
 20
215.0865223444443
 30
0.0
 10
115.1580189524076
 20
215.2459116223723
 30
0.0
 10
112.7844165207642
 20
215.3992239555708
 30
0.0
 10
110.4898949035667
 20
215.5465500019506
 30
0.0
 10
108.2750594830318
 20
215.6881054621702
 30
0.0
 10
106.137818182729
 20
215.8242425419202
 30
0.0
 10
104.7385575972774
 20
215.9131783879859
 30
0.0
 10
104.051257415843
 20
215.9568393773108
 30
0.0
 11
164.029352279843
 21
211.7300048842108
 31
0.0
 11
161.2654554492431
 21
211.9381625483108
 31
0.0
 11
158.413103954443
 21
212.1561022672108
 31
0.0
 11
155.5203113118431
 21
212.3778885312109
 31
0.0
 11
152.596454710843
 21
212.6018421624109
 31
0.0
 11
149.6131404229431
 21
212.8295347495109
 31
0.0
 11
146.5247668285431
 21
213.0635379884108
 31
0.0
 11
143.3028541147431
 21
213.3048114611108
 31
0.0
 11
140.029465123843
 21
213.5458940453109
 31
0.0
 11
136.8487394293431
 21
213.7756829150109
 31
0.0
 11
133.8192152161431
 21
213.9906017766109
 31
0.0
 11
130.9167136630431
 21
214.1930970174108
 31
0.0
 11
128.1062609179431
 21
214.3862318153109
 31
0.0
 11
125.3695985021431
 21
214.5717551506109
 31
0.0
 11
122.703019076943
 21
214.7503371339109
 31
0.0
 11
120.1075297318431
 21
214.9222813975109
 31
0.0
 11
117.5837485966431
 21
215.0878796390109
 31
0.0
 11
115.1325601757431
 21
215.2473740864109
 31
0.0
 11
112.7576390662431
 21
215.4007993849109
 31
0.0
 11
110.4629643978431
 21
215.5481641740109
 31
0.0
 11
108.2490173616431
 21
215.6896891800109
 31
0.0
 11
106.1131520609431
 21
215.8257635786109
 31
0.0
 11
104.051257415843
 21
215.9568393773108
 31
0.0
  0
SPLINE
  5
5CC
330
1F
100
AcDbEntity
  8
0
  6
Continuous
 62
     7
100
AcDbSpline
210
0.0
220
0.0
230
1.0
 70
     8
 71
     3
 72
    12
 73
     8
 74
     6
 42
0.0000000001
 43
0.0000000001
 44
0.0000000001
 12
-0.1307160911462989
 22
0.9914198422038126
 32
0.0
 13
-0.1555351490298363
 23
0.9878303586225049
 33
0.0
 40
0.0
 40
0.0
 40
0.0
 40
0.0
 40
14.3001604967939
 40
26.93161078720177
 40
38.16054165780331
 40
48.10777976480143
 40
56.87349764138837
 40
56.87349764138837
 40
56.87349764138837
 40
56.87349764138837
 10
99.09170058574307
 20
160.3917621856109
 30
0.0
 10
98.46861355810787
 20
165.1175831400177
 30
0.0
 10
97.32204694750393
 20
174.0212946262196
 30
0.0
 10
95.70529351790355
 20
186.6382825901327
 30
0.0
 10
94.23328359920036
 20
197.8110567255289
 30
0.0
 10
92.85556329589324
 20
207.6960791533352
 30
0.0
 10
91.96595550680596
 20
213.8702694777067
 30
0.0
 10
91.51149642804313
 20
216.7566168889109
 30
0.0
 11
99.09170058574307
 21
160.3917621856109
 31
0.0
 11
97.25256955314307
 21
174.5731650527109
 31
0.0
 11
95.63802478794309
 21
187.1010053151109
 31
0.0
 11
94.1627565260431
 21
198.2326032261108
 31
0.0
 11
92.79312608444309
 21
208.0850982609108
 31
0.0
 11
91.51149642804313
 21
216.7566168889109
 31
0.0
  0
SPLINE
  5
5CD
330
1F
100
AcDbEntity
  8
0
  6
Continuous
 62
     7
100
AcDbSpline
210
0.0
220
0.0
230
1.0
 70
     8
 71
     3
 72
     9
 73
     5
 74
     3
 42
0.0000000001
 43
0.0000000001
 44
0.0000000001
 12
-0.9979798244255231
 22
0.0635316459695632
 32
0.0
 13
-0.9979234410946952
 23
0.0644112235074153
 33
0.0
 40
0.0
 40
0.0
 40
0.0
 40
0.0
 40
2.167626619943874
 40
6.15797980744875
 40
6.15797980744875
 40
6.15797980744875
 40
6.15797980744875
 10
97.65688923414309
 20
216.3630930123108
 30
0.0
 10
96.93580668961253
 20
216.4089973079816
 30
0.0
 10
94.88730468575694
 20
216.5395818569691
 30
0.0
 10
92.83885208939581
 20
216.6709423785663
 30
0.0
 10
91.51149642804313
 20
216.7566168889109
 30
0.0
 11
97.65688923414309
 21
216.3630930123108
 31
0.0
 11
95.49365560624313
 21
216.5010257300108
 31
0.0
 11
91.51149642804313
 21
216.7566168889109
 31
0.0
  0
SPLINE
  5
5CE
330
1F
100
AcDbEntity
  8
0
  6
Continuous
 62
     7
100
AcDbSpline
210
0.0
220
0.0
230
1.0
 70
     8
 71
     3
 72
    13
 73
     9
 74
     7
 42
0.0000000001
 43
0.0000000001
 44
0.0000000001
 12
-0.1432225288584359
 22
0.9896905108302265
 32
0.0
 13
-0.0677810234380568
 23
0.9977002219412851
 33
0.0
 40
0.0
 40
0.0
 40
0.0
 40
0.0
 40
1.192658525590366
 40
2.235000447390119
 40
3.152222519488093
 40
3.967316075277076
 40
4.69655227858122
 40
5.353233098221873
 40
5.353233098221873
 40
5.353233098221873
 40
5.353233098221873
 10
91.5114966231431
 20
216.7566168763109
 30
0.0
 10
91.45455809977656
 20
217.1500711514567
 30
0.0
 10
91.35035628656188
 20
217.8877572994319
 30
0.0
 10
91.21246523091546
 20
218.9294263125756
 30
0.0
 10
91.10059027755843
 20
219.8475405654558
 30
0.0
 10
91.01140177445477
 20
220.6632212563563
 30
0.0
 10
90.94215561187517
 20
221.3936430605154
 30
0.0
 10
90.90619922891889
 20
221.8542437820776
 30
0.0
 10
90.89136239624309
 20
222.0726339819109
 30
0.0
 11
91.5114966231431
 21
216.7566168763109
 31
0.0
 11
91.34518019384307
 21
217.9376220431108
 31
0.0
 11
91.20889029854311
 21
218.9710153595109
 31
0.0
 11
91.09845758444311
 21
219.8815651633109
 31
0.0
 11
91.01034368104308
 21
220.6918820425109
 31
0.0
 11
90.94198983784309
 21
221.4179076566108
 31
0.0
 11
90.89136239624309
 21
222.0726339819109
 31
0.0
  0
SPLINE
  5
5CF
330
1F
100
AcDbEntity
  8
0
  6
Continuous
 62
     7
100
AcDbSpline
210
0.0
220
0.0
230
1.0
 70
     8
 71
     3
 72
    15
 73
    11
 74
     9
 42
0.0000000001
 43
0.0000000001
 44
0.0000000001
 12
-0.0677230328923156
 22
0.9977041599672052
 32
0.0
 13
-0.4556871662195802
 23
0.8901399926656306
 33
0.0
 40
0.0
 40
0.0
 40
0.0
 40
0.0
 40
0.420496119414567
 40
0.8335337924020501
 40
1.242332046333941
 40
1.649007939202232
 40
2.055153655247259
 40
2.461463560792525
 40
2.867305683619208
 40
3.071415622318105
 40
3.071415622318105
 40
3.071415622318105
 40
3.071415622318105
 10
90.89136239624309
 20
222.0726339819109
 30
0.0
 10
90.88186997206769
 20
222.2124775577742
 30
0.0
 10
90.85669091079493
 20
222.4893012319672
 30
0.0
 10
90.79929225067713
 20
222.8995765328819
 30
0.0
 10
90.72215326522483
 20
223.3019356868047
 30
0.0
 10
90.62449097753098
 20
223.6974589794221
 30
0.0
 10
90.50546500058286
 20
224.0862390427142
 30
0.0
 10
90.36452243019827
 20
224.4673335433678
 30
0.0
 10
90.22847318845659
 20
224.7778021844986
 30
0.0
 10
90.13856072996404
 20
224.960190938432
 30
0.0
 10
90.10755730344305
 20
225.0207530782109
 30
0.0
 11
90.89136239624309
 21
222.0726339819109
 31
0.0
 11
90.85307265444312
 21
222.4913831695108
 31
0.0
 11
90.79565292314311
 21
222.9004101781109
 31
0.0
 11
90.71850454824305
 21
223.3018627166109
 31
0.0
 11
90.62084983504309
 21
223.6966396648108
 31
0.0
 11
90.50181501954307
 21
224.0849501789108
 31
0.0
 11
90.36077199544308
 21
224.4659942770109
 31
0.0
 11
90.19781144574308
 21
224.8376818984109
 31
0.0
 11
90.10755730344305
 21
225.0207530782109
 31
0.0
  0
SPLINE
  5
5D0
330
1F
100
AcDbEntity
  8
0
  6
Continuous
 62
     7
100
AcDbSpline
210
0.0
220
0.0
230
1.0
 70
     8
 71
     3
 72
    24
 73
    20
 74
    18
 42
0.0000000001
 43
0.0000000001
 44
0.0000000001
 12
-0.1643676017487852
 22
0.9863991542450513
 32
0.0
 13
-0.6565563562320414
 23
0.7542769723989359
 33
0.0
 40
0.0
 40
0.0
 40
0.0
 40
0.0
 40
1.452452570930494
 40
2.723906193860616
 40
3.846305196599884
 40
4.846374343041881
 40
5.744476243290161
 40
6.555624042174236
 40
7.292290664799853
 40
7.965016607089784
 40
8.582787393500892
 40
9.152572600187571
 40
9.680314919424894
 40
10.17263891662889
 40
10.63456204739987
 40
11.06729650147801
 40
11.47610816009949
 40
11.87364286092888
 40
12.03401224267486
 40
12.03401224267486
 40
12.03401224267486
 40
12.03401224267486
 10
104.051257416243
 20
215.9568393773108
 30
0.0
 10
103.9716787009971
 20
216.4344053731598
 30
0.0
 10
103.8147504176941
 20
217.3287753989921
 30
0.0
 10
103.5684315088756
 20
218.5870781409448
 30
0.0
 10
103.3279616187079
 20
219.6926232220938
 30
0.0
 10
103.0920327386116
 20
220.6715391416373
 30
0.0
 10
102.8596087334126
 20
221.544317966483
 30
0.0
 10
102.6299218017084
 20
222.3266972952926
 30
0.0
 10
102.4022919409769
 20
223.0311074526162
 30
0.0
 10
102.1759439726829
 20
223.6678977504176
 30
0.0
 10
101.9502239513325
 20
224.2455638709101
 30
0.0
 10
101.7245530295534
 20
224.7710324521273
 30
0.0
 10
101.4981789886676
 20
225.2503335239044
 30
0.0
 10
101.2701763609535
 20
225.688712648587
 30
0.0
 10
101.0400137025869
 20
226.0898376547163
 30
0.0
 10
100.8072602624285
 20
226.4569072085846
 30
0.0
 10
100.5697832073374
 20
226.795024800982
 30
0.0
 10
100.371228381011
 20
227.0490502514661
 30
0.0
 10
100.2507727691199
 20
227.1907565944679
 30
0.0
 10
100.2156755901431
 20
227.2310775717109
 30
0.0
 11
104.051257416243
 21
215.9568393773108
 31
0.0
 11
103.7993437189431
 21
217.3872791558109
 31
0.0
 11
103.554285297843
 21
218.6348931528108
 31
0.0
 11
103.314988418743
 21
219.7314862975108
 31
0.0
 11
103.0800220586431
 21
220.7035609383109
 31
0.0
 11
102.848317698743
 21
221.5712591075108
 31
0.0
 11
102.6192697643431
 21
222.3493964960108
 31
0.0
 11
102.3922155271431
 21
223.0501989548109
 31
0.0
 11
102.166413530843
 21
223.683897346711
 31
0.0
 11
101.9411148711431
 21
224.2591201370109
 31
0.0
 11
101.7158201321431
 21
224.7824722769109
 31
0.0
 11
101.4900063454431
 21
225.2594629364108
 31
0.0
 11
101.262426786543
 21
225.6960296124109
 31
0.0
 11
101.0321602576431
 21
226.0964672535108
 31
0.0
 11
100.8000754620431
 21
226.4617010901109
 31
0.0
 11
100.5647750741431
 21
226.7960073863108
 31
0.0
 11
100.3195378566431
 21
227.1088852307108
 31
0.0
 11
100.2156755901431
 21
227.2310775717109
 31
0.0
  0
SPLINE
  5
5D1
330
1F
100
AcDbEntity
  8
0
  6
Continuous
 62
     7
100
AcDbSpline
210
0.0
220
0.0
230
1.0
 70
     8
 71
     3
 72
    27
 73
    23
 74
    21
 42
0.0000000001
 43
0.0000000001
 44
0.0000000001
 12
0.1391731034916775
 22
-0.9902680683857754
 32
0.0
 13
0.9771140486316667
 23
-0.2127160924016625
 33
0.0
 40
0.0
 40
0.0
 40
0.0
 40
0.0
 40
0.3347786954874943
 40
0.6711983322342988
 40
1.010859706606884
 40
1.355286310442335
 40
1.705892611119803
 40
2.063959330293847
 40
2.43061627350176
 40
2.806832378306847
 40
3.193412034819679
 40
3.590996420259047
 40
4.00006853510262
 40
4.420960747313687
 40
4.853863857762386
 40
5.298836930845772
 40
5.755817351038803
 40
6.22463074427578
 40
6.705000543493193
 40
7.196557080139938
 40
7.698846150281268
 40
8.211337055316759
 40
8.211337055316759
 40
8.211337055316759
 40
8.211337055316759
 10
84.85272857494312
 20
226.9002001450109
 30
0.0
 10
84.8682593049544
 20
226.7896932609718
 30
0.0
 10
84.90900727607222
 20
226.569367992082
 30
0.0
 10
84.99865902800577
 20
226.244154675947
 30
0.0
 10
85.11666033808193
 20
225.9246765361422
 30
0.0
 10
85.26268123726103
 20
225.6117936874745
 30
0.0
 10
85.43632379362366
 20
225.3062983388495
 30
0.0
 10
85.63711925703408
 20
225.0089660566312
 30
0.0
 10
85.86453400300019
 20
224.7205409995089
 30
0.0
 10
86.11797195241825
 20
224.441740208053
 30
0.0
 10
86.39677682192562
 20
224.1732529440335
 30
0.0
 10
86.70023354437146
 20
223.9157411764157
 30
0.0
 10
87.02756941492001
 20
223.6698392668702
 30
0.0
 10
87.37795515665444
 20
223.4361533366176
 30
0.0
 10
87.75050610999825
 20
223.2152602589631
 30
0.0
 10
88.14428366830741
 20
223.0077064145474
 30
0.0
 10
88.55829691654539
 20
222.8140063271299
 30
0.0
 10
88.99150483567936
 20
222.6346411925688
 30
0.0
 10
89.44281766457621
 20
222.4700576658361
 30
0.0
 10
89.91110277760368
 20
222.320665792248
 30
0.0
 10
90.39517423355304
 20
222.1868405904238
 30
0.0
 10
90.72444173444107
 20
222.1089723675477
 30
0.0
 10
90.89136242214312
 20
222.0726340133109
 30
0.0
 11
84.85272857494312
 21
226.9002001450109
 31
0.0
 11
84.91357964814307
 21
226.5709981981109
 31
0.0
 11
85.00288160034306
 21
226.2466475648109
 31
0.0
 11
85.12040895074306
 21
225.9279672059109
 31
0.0
 11
85.26586495174308
 21
225.6157617652108
 31
0.0
 11
85.43888233804313
 21
225.3108195377109
 31
0.0
 11
85.63902425374312
 21
225.0139104793109
 31
0.0
 11
85.86578535584312
 21
224.7257842629109
 31
0.0
 11
86.11859308974306
 21
224.4471683854109
 31
0.0
 11
86.3968091350431
 21
224.1787663307109
 31
0.0
 11
86.69973101734308
 21
223.9212557935109
 31
0.0
 11
87.02659388204308
 21
223.6752869686108
 31
0.0
 11
87.3765724250431
 21
223.4414809085108
 31
0.0
 11
87.74878297714309
 21
223.2204279557108
 31
0.0
 11
88.14228573494307
 21
223.0126862522109
 31
0.0
 11
88.55608713394309
 21
222.8187803301109
 31
0.0
 11
88.98914235704308
 21
222.6391997871109
 31
0.0
 11
89.4403579724431
 21
222.4743980504108
 31
0.0
 11
89.90859469524309
 21
222.3247912319109
 31
0.0
 11
90.39267026314309
 21
222.1907570775108
 31
0.0
 11
90.89136242214312
 21
222.0726340133109
 31
0.0
  0
SPLINE
  5
5D2
330
1F
100
AcDbEntity
  8
0
  6
Continuous
 62
     7
100
AcDbSpline
210
0.0
220
0.0
230
1.0
 70
     8
 71
     3
 72
    27
 73
    23
 74
    21
 42
0.0000000001
 43
0.0000000001
 44
0.0000000001
 12
0.1391731002953667
 22
-0.9902680688349876
 32
0.0
 13
0.9917031971282602
 23
-0.1285487020766344
 33
0.0
 40
0.0
 40
0.0
 40
0.0
 40
0.0
 40
0.239274153267529
 40
0.4812503910678846
 40
0.7285163839465682
 40
0.9834489015424949
 40
1.248146832514895
 40
1.524396348284873
 40
1.813663607357605
 40
2.117106955802596
 40
2.435600493969411
 40
2.769762603222607
 40
3.119985189178986
 40
3.486461233857491
 40
3.869209547089238
 40
4.268096403527333
 40
4.682854184367958
 40
5.113097344934959
 40
5.558336094404771
 40
6.01798816980125
 40
6.491389051271062
 40
6.977800913749825
 40
6.977800913749825
 40
6.977800913749825
 40
6.977800913749825
 10
85.81839371924308
 20
220.0291356322109
 30
0.0
 10
85.82949389448669
 20
219.9501537809847
 30
0.0
 10
85.86125786330624
 20
219.7924657563873
 30
0.0
 10
85.93683635620871
 20
219.561149386814
 30
0.0
 10
86.04019549910878
 20
219.3350893959941
 30
0.0
 10
86.17098229335704
 20
219.1149174582137
 30
0.0
 10
86.32879067946632
 20
218.9011568733393
 30
0.0
 10
86.5131656572289
 20
218.6943050361792
 30
0.0
 10
86.72361081500936
 20
218.4948260825058
 30
0.0
 10
86.95958600392838
 20
218.3031658893546
 30
0.0
 10
87.22050354691676
 20
218.1197554571791
 30
0.0
 10
87.5057242383502
 20
217.9450127941539
 30
0.0
 10
87.81455464901121
 20
217.7793420044241
 30
0.0
 10
88.14624585270934
 20
217.6231314809679
 30
0.0
 10
88.49999340321724
 20
217.4767517118474
 30
0.0
 10
88.87493825949151
 20
217.3405531513346
 30
0.0
 10
89.27016833368824
 20
217.2148643069526
 30
0.0
 10
89.68472064312457
 20
217.0999900750932
 30
0.0
 10
90.11758317122916
 20
216.9962104040615
 30
0.0
 10
90.56769929580759
 20
216.9037789007148
 30
0.0
 10
91.03396316603154
 20
216.8229227337225
 30
0.0
 10
91.35070483126266
 20
216.7774574669763
 30
0.0
 10
91.51149689764309
 20
216.7566149291109
 30
0.0
 11
85.81839371924308
 21
220.0291356322109
 31
0.0
 11
85.8655692729431
 21
219.7945581662108
 31
0.0
 11
85.94049408484307
 21
219.5644738942108
 31
0.0
 11
86.04298386434306
 21
219.3394487482108
 31
0.0
 11
86.17278652034309
 21
219.1200362166108
 31
0.0
 11
86.32958278054308
 21
218.9067759825109
 31
0.0
 11
86.51298697774308
 21
218.7001925964108
 31
0.0
 11
86.72254799764312
 21
218.5007941859109
 31
0.0
 11
86.9577503886431
 21
218.3090712061108
 31
0.0
 11
87.21801563004305
 21
218.1254952328108
 31
0.0
 11
87.50270355454308
 21
217.9505178031108
 31
0.0
 11
87.81111392314306
 21
217.7845693043108
 31
0.0
 11
88.14248814744308
 21
217.6280579156109
 31
0.0
 11
88.49601115534312
 21
217.4813686039108
 31
0.0
 11
88.8708133961431
 21
217.3448621772108
 31
0.0
 11
89.26597297904312
 21
217.2188743968108
 31
0.0
 11
89.68051794094305
 21
217.1037151515109
 31
0.0
 11
90.11342863724308
 21
216.9996676957108
 31
0.0
 11
90.56364024924306
 21
216.9069879523109
 31
0.0
 11
91.03004540394312
 21
216.8259038833108
 31
0.0
 11
91.51149689764309
 21
216.7566149291109
 31
0.0
  0
SPLINE
  5
5D3
330
1F
100
AcDbEntity
  8
0
  6
Continuous
 62
     7
100
AcDbSpline
210
0.0
220
0.0
230
1.0
 70
     8
 71
     3
 72
    27
 73
    23
 74
    21
 42
0.0000000001
 43
0.0000000001
 44
0.0000000001
 12
0.1391730801404047
 22
-0.9902680716675826
 32
0.0
 13
0.9901370395615268
 23
-0.1401022586839173
 33
0.0
 40
0.0
 40
0.0
 40
0.0
 40
0.0
 40
0.2233601513371867
 40
0.4492538658081297
 40
0.6801087896638776
 40
0.9181573720685937
 40
1.165374973584276
 40
1.423447798072307
 40
1.693766364631773
 40
1.977437036424899
 40
2.275304052245451
 40
2.587976110285658
 40
2.91585356227552
 40
3.259153987047839
 40
3.617935118512429
 40
3.992114839007358
 40
4.381488357210562
 40
4.785742869213231
 40
5.204470069110715
 40
5.637176864960573
 40
6.083294625013188
 40
6.542187232527489
 40
6.542187232527489
 40
6.542187232527489
 40
6.542187232527489
 10
93.76414214234307
 20
163.4921978790108
 30
0.0
 10
93.77450404909048
 20
163.4184690702268
 30
0.0
 10
93.80411644949012
 20
163.2712608903523
 30
0.0
 10
93.87449988137317
 20
163.0552628911386
 30
0.0
 10
93.97071949657194
 20
162.8440790048747
 30
0.0
 10
94.09246368479291
 20
162.6382621996903
 30
0.0
 10
94.23937579702196
 20
162.4382662084334
 30
0.0
 10
94.41105788074512
 20
162.2445219997047
 30
0.0
 10
94.60707754415109
 20
162.057431138979
 30
0.0
 10
94.82696566810023
 20
161.8773798294891
 30
0.0
 10
95.07021274158507
 20
161.7047421912675
 30
0.0
 10
95.33626498112823
 20
161.5398821425949
 30
0.0
 10
95.62452164221246
 20
161.3831526842075
 30
0.0
 10
95.93433362924157
 20
161.2348943434343
 30
0.0
 10
96.2650032486845
 20
161.0954332529505
 30
0.0
 10
96.61578482444562
 20
160.9650792782047
 30
0.0
 10
96.98588587809988
 20
160.8441243390372
 30
0.0
 10
97.37446884806221
 20
160.7328409472389
 30
0.0
 10
97.78065255057221
 20
160.631481044077
 30
0.0
 10
98.20351591898274
 20
160.5402747607714
 30
0.0
 10
98.64209367907367
 20
160.4594304230217
 30
0.0
 10
98.94024502401613
 20
160.4131927675796
 30
0.0
 10
99.0917005466431
 20
160.3917621373109
 30
0.0
 11
93.76414214234307
 21
163.4921978790108
 31
0.0
 11
93.80812203794306
 21
163.2732103771108
 31
0.0
 11
93.87789636434309
 21
163.0583627250108
 31
0.0
 11
93.97330563484308
 21
162.8481460107108
 31
0.0
 11
94.09413176764308
 21
162.6430407372108
 31
0.0
 11
94.24009858444311
 21
162.4435157240109
 31
0.0
 11
94.41087244134308
 21
162.2500270356109
 31
0.0
 11
94.6060629921431
 21
162.0630169388109
 31
0.0
 11
94.82522407984305
 21
161.8829128920109
 31
0.0
 11
95.06785475684308
 21
161.7101265682108
 31
0.0
 11
95.33340042994309
 21
161.5450529138108
 31
0.0
 11
95.6212541281431
 21
161.3880692460108
 31
0.0
 11
95.93075788954308
 21
161.2395343904108
 31
0.0
 11
96.2612042659431
 21
161.0997878605107
 31
0.0
 11
96.61183793914307
 21
160.9691490820108
 31
0.0
 11
96.98185744834308
 21
160.8479166627108
 31
0.0
 11
97.37041702104306
 21
160.7363677096108
 31
0.0
 11
97.77662850714314
 21
160.6347571959108
 31
0.0
 11
98.19956340854311
 21
160.5433173777108
 31
0.0
 11
98.63825500154309
 21
160.4622572638107
 31
0.0
 11
99.0917005466431
 21
160.3917621373109
 31
0.0
  0
SPLINE
  5
5D4
330
1F
100
AcDbEntity
  8
0
  6
Continuous
 62
     7
100
AcDbSpline
210
0.0
220
0.0
230
1.0
 70
     8
 71
     3
 72
    60
 73
    56
 74
    54
 42
0.0000000001
 43
0.0000000001
 44
0.0000000001
 12
-0.1620402756749087
 22
-0.9867841451194884
 32
0.0
 13
0.2771303326017883
 23
0.9608323364417032
 33
0.0
 40
0.0
 40
0.0
 40
0.0
 40
0.0
 40
0.3924072362482282
 40
0.7493814916262723
 40
1.077645604497774
 40
1.381552002873121
 40
1.662968106894957
 40
1.923726582755273
 40
2.166240985307142
 40
2.392682392273996
 40
2.604688473862819
 40
2.803813473034331
 40
2.991550736988462
 40
3.169171476573929
 40
3.337980307232517
 40
3.499225061060938
 40
3.653862830891956
 40
3.802814532236333
 40
3.947049285676192
 40
4.086764379213242
 40
4.221352846951634
 40
4.349605725110935
 40
4.46949014096416
 40
4.581046705575732
 40
4.686943843277848
 40
4.789369265138925
 40
4.889874810917658
 40
4.990027131071507
 40
5.091453049908723
 40
5.195811365714694
 40
5.304797533704969
 40
5.42012716445734
 40
5.543479935741053
 40
5.676437711292964
 40
5.820452904826938
 40
5.97684943738441
 40
6.145538191281739
 40
6.323645490694375
 40
6.508720145017527
 40
6.701331754571191
 40
6.902745389090515
 40
7.113877103259113
 40
7.335307664888651
 40
7.567555701725737
 40
7.811604608818047
 40
8.068327192505254
 40
8.338393614923143
 40
8.622388866410755
 40
8.920922380597128
 40
9.235408179654365
 40
9.567749555620309
 40
9.917604947362056
 40
10.28532823023229
 40
10.67540040695551
 40
11.09219125684794
 40
11.09219125684794
 40
11.09219125684794
 40
11.09219125684794
 10
223.821572455143
 20
214.8357811034109
 30
0.0
 10
223.8003771962302
 20
214.7067073570243
 30
0.0
 10
223.7657086645366
 20
214.4592051557412
 30
0.0
 10
223.7340996676594
 20
214.1012293999051
 30
0.0
 10
223.7224501541331
 20
213.7715603958458
 30
0.0
 10
223.7283795744982
 20
213.4669312374796
 30
0.0
 10
223.7499185546716
 20
213.1855693243015
 30
0.0
 10
223.7852575060471
 20
212.9262461101481
 30
0.0
 10
223.8327906634009
 20
212.6875379728619
 30
0.0
 10
223.8911484116373
 20
212.4680187547735
 30
0.0
 10
223.9591060998235
 20
212.2664878280906
 30
0.0
 10
224.0355615520272
 20
212.0819177541617
 30
0.0
 10
224.1195360945014
 20
211.9133609932506
 30
0.0
 10
224.2101717210738
 20
211.7599203108821
 30
0.0
 10
224.3067223659512
 20
211.6207553115632
 30
0.0
 10
224.4085326294866
 20
211.4951106689129
 30
0.0
 10
224.5149979329322
 20
211.3823307478467
 30
0.0
 10
224.6255627509238
 20
211.2818220309514
 30
0.0
 10
224.7395849698846
 20
211.1931505864991
 30
0.0
 10
224.8560664556427
 20
211.1161196266106
 30
0.0
 10
224.9733705749625
 20
211.0507054016109
 30
0.0
 10
225.0891364236482
 20
210.9968391223043
 30
0.0
 10
225.2011620462337
 20
210.953861047019
 30
0.0
 10
225.3085796404871
 20
210.9203726936485
 30
0.0
 10
225.4121383098447
 20
210.894734635307
 30
0.0
 10
225.5133438811316
 20
210.8756256696892
 30
0.0
 10
225.6135236127359
 20
210.8622107805911
 30
0.0
 10
225.7139275994481
 20
210.8540139177794
 30
0.0
 10
225.8159001759797
 20
210.8508566174171
 30
0.0
 10
225.9208480896921
 20
210.8528575249457
 30
0.0
 10
226.0301900476042
 20
210.8604348426417
 30
0.0
 10
226.1452971210413
 20
210.8743076401772
 30
0.0
 10
226.2674106908133
 20
210.8954870818056
 30
0.0
 10
226.3975568884935
 20
210.925250542619
 30
0.0
 10
226.5364847143461
 20
210.9650994286102
 30
0.0
 10
226.6842252618068
 20
211.0165717752289
 30
0.0
 10
226.8393062642792
 20
211.0807150099077
 30
0.0
 10
226.9991003381571
 20
211.1577297870753
 30
0.0
 10
227.1613321972905
 20
211.2473863718358
 30
0.0
 10
227.3250538081101
 20
211.3498196225689
 30
0.0
 10
227.4902459092017
 20
211.4657468977751
 30
0.0
 10
227.6567938222486
 20
211.5959742731428
 30
0.0
 10
227.8242983287329
 20
211.7412035361886
 30
0.0
 10
227.9923061595195
 20
211.9021649065707
 30
0.0
 10
228.1603492455726
 20
212.0796757889435
 30
0.0
 10
228.3278913028159
 20
212.2746141130662
 30
0.0
 10
228.494210718521
 20
212.4877641417934
 30
0.0
 10
228.658450555944
 20
212.7198243530306
 30
0.0
 10
228.8198150354946
 20
212.9716733487725
 30
0.0
 10
228.9776063716607
 20
213.2445664960441
 30
0.0
 10
229.1307984381369
 20
213.5394936330266
 30
0.0
 10
229.2780993658734
 20
213.8570855146054
 30
0.0
 10
229.4185124766451
 20
214.1986911551098
 30
0.0
 10
229.5513421029973
 20
214.5671266354043
 30
0.0
 10
229.6313865467244
 20
214.8240013612077
 30
0.0
 10
229.6698883423431
 20
214.9574900699109
 30
0.0
 11
223.821572455143
 21
214.8357811034109
 31
0.0
 11
223.7675484948431
 21
214.4471104835108
 31
0.0
 11
223.7365220237431
 21
214.0914871194109
 31
0.0
 11
223.7252771130431
 21
213.7634156641109
 31
0.0
 11
223.7315183931431
 21
213.4595733606108
 31
0.0
 11
223.7533042252431
 21
213.1790017991109
 31
0.0
 11
223.7887952741431
 21
212.9206699037108
 31
0.0
 11
223.8364160914431
 21
212.6828769408108
 31
0.0
 11
223.8948284599431
 21
212.4640991860108
 31
0.0
 11
223.9627834468431
 21
212.2632791213109
 31
0.0
 11
224.0391776937431
 21
212.0793914264109
 31
0.0
 11
224.1230584957431
 21
211.9114352079109
 31
0.0
 11
224.2135343304431
 21
211.7585847893108
 31
0.0
 11
224.3098764267431
 21
211.6199679729109
 31
0.0
 11
224.4114832782431
 21
211.4947644651108
 31
0.0
 11
224.5177065759431
 21
211.3823836354108
 31
0.0
 11
224.6279757522431
 21
211.2822471381109
 31
0.0
 11
224.7418681417431
 21
211.1937474900108
 31
0.0
 11
224.8584249281431
 21
211.1167096882109
 31
0.0
 11
224.975980299843
 21
211.0511750391109
 31
0.0
 11
225.0922622970431
 21
210.9970705302108
 31
0.0
 11
225.204189180143
 21
210.9541211879109
 31
0.0
 11
225.310685992343
 21
210.9209052866109
 31
0.0
 11
225.413475709443
 21
210.8954400587108
 31
0.0
 11
225.5141191834431
 21
210.8764174883108
 31
0.0
 11
225.6137327928431
 21
210.8630573403108
 31
0.0
 11
225.7135511406431
 21
210.8548851512108
 31
0.0
 11
225.8149276782431
 21
210.8517205602108
 31
0.0
 11
225.9192675883431
 21
210.8536804679108
 31
0.0
 11
226.0279953707431
 21
210.8611807444109
 31
0.0
 11
226.1425013329431
 21
210.8749396815109
 31
0.0
 11
226.2640481248431
 21
210.8959702203108
 31
0.0
 11
226.3936733168431
 21
210.9255519660108
 31
0.0
 11
226.5321267529431
 21
210.9651880859108
 31
0.0
 11
226.6798459999431
 21
211.0165583055108
 31
0.0
 11
226.8357670894431
 21
211.0809361708108
 31
0.0
 11
226.9962606708431
 21
211.1581632414108
 31
0.0
 11
227.158300139443
 21
211.2475826928108
 31
0.0
 11
227.321647936943
 21
211.3496450717109
 31
0.0
 11
227.4865832184431
 21
211.4652469968108
 31
0.0
 11
227.6529809247431
 21
211.5952023894109
 31
0.0
 11
227.8203660658431
 21
211.7401634468109
 31
0.0
 11
227.9881571424431
 21
211.9007414815108
 31
0.0
 11
228.1560288261431
 21
212.0778825746108
 31
0.0
 11
228.3234625989431
 21
212.2724909421108
 31
0.0
 11
228.4897081175431
 21
212.4853249151109
 31
0.0
 11
228.6538854368431
 21
212.7170556008108
 31
0.0
 11
228.8150584013431
 21
212.9683433534108
 31
0.0
 11
228.9726063451431
 21
213.2405196992109
 31
0.0
 11
229.1259362199431
 21
213.5353768505109
 31
0.0
 11
229.2732845914431
 21
213.8526893976108
 31
0.0
 11
229.4132382865431
 21
214.1927384764108
 31
0.0
 11
229.5457027893431
 21
214.5596300933109
 31
0.0
 11
229.6698883423431
 21
214.9574900699109
 31
0.0
  0
LINE
  5
5D5
330
1F
100
AcDbEntity
  8
0
  6
Continuous
 62
     7
100
AcDbLine
 10
229.6698883423431
 20
214.9574900699109
 30
0.0
 11
229.814419705143
 21
215.4581913996108
 31
0.0
  0
SPLINE
  5
5D6
330
1F
100
AcDbEntity
  8
0
  6
Continuous
 62
     7
100
AcDbSpline
210
0.0
220
0.0
230
1.0
 70
     8
 71
     3
 72
     9
 73
     5
 74
     3
 42
0.0000000001
 43
0.0000000001
 44
0.0000000001
 12
0.9979798244693313
 22
0.0635316452814098
 32
0.0
 13
0.9979234410948889
 23
0.0644112235044137
 33
0.0
 40
0.0
 40
0.0
 40
0.0
 40
0.0
 40
2.167635249180904
 40
6.15798843668578
 40
6.15798843668578
 40
6.15798843668578
 40
6.15798843668578
 10
230.4018067136431
 20
216.3630924640108
 30
0.0
 10
231.1228921288068
 20
216.4089969419276
 30
0.0
 10
233.1713970033084
 20
216.5395816729605
 30
0.0
 10
235.2198524701901
 20
216.6709423785702
 30
0.0
 10
236.5472081315431
 20
216.7566168889109
 30
0.0
 11
230.4018067136431
 21
216.3630924640108
 31
0.0
 11
232.5650489533431
 21
216.5010257300108
 31
0.0
 11
236.5472081315431
 21
216.7566168889109
 31
0.0
  0
SPLINE
  5
5D7
330
1F
100
AcDbEntity
  8
0
  6
Continuous
 62
     7
100
AcDbSpline
210
0.0
220
0.0
230
1.0
 70
     8
 71
     3
 72
    12
 73
     8
 74
     6
 42
0.0000000001
 43
0.0000000001
 44
0.0000000001
 12
0.1307160911462992
 22
0.9914198422038126
 32
0.0
 13
0.1555351490298367
 23
0.9878303586225049
 33
0.0
 40
0.0
 40
0.0
 40
0.0
 40
0.0
 40
14.30016049679391
 40
26.93161078720177
 40
38.16054165780332
 40
48.10777976480143
 40
56.87349764138838
 40
56.87349764138838
 40
56.87349764138838
 40
56.87349764138838
 10
228.9670039738431
 20
160.3917621856108
 30
0.0
 10
229.5900910014783
 20
165.1175831400177
 30
0.0
 10
230.7366576120824
 20
174.0212946262196
 30
0.0
 10
232.3534110416825
 20
186.6382825901327
 30
0.0
 10
233.8254209603859
 20
197.8110567255289
 30
0.0
 10
235.2031412636929
 20
207.6960791533351
 30
0.0
 10
236.0927490527803
 20
213.8702694777067
 30
0.0
 10
236.5472081315431
 20
216.7566168889109
 30
0.0
 11
228.9670039738431
 21
160.3917621856108
 31
0.0
 11
230.8061350064431
 21
174.5731650527108
 31
0.0
 11
232.420679771643
 21
187.1010053151108
 31
0.0
 11
233.8959480335431
 21
198.2326032261108
 31
0.0
 11
235.265578475143
 21
208.0850982609108
 31
0.0
 11
236.5472081315431
 21
216.7566168889109
 31
0.0
  0
SPLINE
  5
5D9
330
1F
100
AcDbEntity
  8
0
  6
Continuous
 62
     7
100
AcDbSpline
210
0.0
220
0.0
230
1.0
 70
     8
 71
     3
 72
    29
 73
    25
 74
    23
 42
0.0000000001
 43
0.0000000001
 44
0.0000000001
 12
0.9972220235385799
 22
0.0744864804486023
 32
0.0
 13
0.9979883509354454
 23
0.0633975661768656
 33
0.0
 40
0.0
 40
0.0
 40
0.0
 40
0.0
 40
2.771723083646842
 40
5.632387304815427
 40
8.533668273853749
 40
11.46608795631846
 40
14.45807722410201
 40
17.5553016820409
 40
20.78623400250122
 40
24.06848742569507
 40
27.25750201475586
 40
30.29463933102932
 40
33.20419518921765
 40
36.02127545100673
 40
38.76421836877295
 40
41.43677025129877
 40
44.03794814236188
 40
46.56715573101842
 40
49.02352717303078
 40
51.40339852440103
 40
53.70279990322683
 40
55.92126549601204
 40
58.06146076558644
 40
60.12753574109499
 40
60.12753574109499
 40
60.12753574109499
 40
60.12753574109499
 10
164.029352279843
 20
211.7300048913109
 30
0.0
 10
164.950693380564
 20
211.7988235237373
 30
0.0
 10
166.8228566658859
 20
211.9397931061691
 30
0.0
 10
169.6591002587036
 20
212.1571022268204
 30
0.0
 10
172.5487364552125
 20
212.3787125904934
 30
0.0
 10
175.4820339717239
 20
212.6034828656615
 30
0.0
 10
178.4805140571392
 20
212.8324728119238
 30
0.0
 10
181.5783386364308
 20
213.0673443215641
 30
0.0
 10
184.7728504397325
 20
213.3067574093399
 30
0.0
 10
187.9981744572567
 20
213.5444125101198
 30
0.0
 10
191.1594093883204
 20
213.772733475537
 30
0.0
 10
194.197013861417
 20
213.9881991367489
 30
0.0
 10
197.1111921219324
 20
214.1914619755041
 30
0.0
 10
199.9277456602399
 20
214.3849754687873
 30
0.0
 10
202.6656561683858
 20
214.5705447586687
 30
0.0
 10
205.3319105228862
 20
214.749070519342
 30
0.0
 10
207.9272031306716
 20
214.9209707392246
 30
0.0
 10
210.4506977166705
 20
215.0865212715284
 30
0.0
 10
212.9006686802937
 20
215.2459105251586
 30
0.0
 10
215.274270696953
 20
215.3992228390037
 30
0.0
 10
217.5687919765463
 20
215.5465488696601
 30
0.0
 10
219.7836271155575
 20
215.6881043162705
 30
0.0
 10
221.9208743149786
 20
215.8242417751776
 30
0.0
 10
223.3201408912708
 20
215.9131780023154
 30
0.0
 10
224.0074471438431
 20
215.9568393773108
 30
0.0
 11
164.029352279843
 21
211.7300048913109
 31
0.0
 11
166.793247950543
 21
211.9381624612109
 31
0.0
 11
169.6455982282431
 21
212.1561020849109
 31
0.0
 11
172.5383896407431
 21
212.3778882546108
 31
0.0
 11
175.462244973743
 21
212.6018417895109
 31
0.0
 11
178.4455578824431
 21
212.8295342736108
 31
0.0
 11
181.5339299260431
 21
213.0635374000108
 31
0.0
 11
184.7558409779431
 21
213.3048107575108
 31
0.0
 11
188.0292286363431
 21
213.5458932577108
 31
0.0
 11
191.2099535761431
 21
213.7756820881109
 31
0.0
 11
194.2394771318431
 21
213.9906009178108
 31
0.0
 11
197.141977947443
 21
214.1930961211109
 31
0.0
 11
199.952429898143
 21
214.3862308776108
 31
0.0
 11
202.6890915427431
 21
214.5717541729109
 31
0.0
 11
205.3556702595431
 21
214.7503361202109
 31
0.0
 11
207.9511589615431
 21
214.9222803517109
 31
0.0
 11
210.4749395103431
 21
215.0878785643109
 31
0.0
 11
212.926127424443
 21
215.2473729871109
 31
0.0
 11
215.3010481247431
 21
215.4007982665108
 31
0.0
 11
217.5957224642431
 21
215.5481630404108
 31
0.0
 11
219.8096692257431
 21
215.6896880333108
 31
0.0
 11
221.9455342854431
 21
215.8257624198109
 31
0.0
 11
224.0074471438431
 21
215.9568393773108
 31
0.0
  0
SPLINE
  5
5DA
330
1F
100
AcDbEntity
  8
0
  6
Continuous
 62
     7
100
AcDbSpline
210
0.0
220
0.0
230
1.0
 70
     8
 71
     3
 72
    24
 73
    20
 74
    18
 42
0.0000000001
 43
0.0000000001
 44
0.0000000001
 12
-0.6565563562102436
 22
-0.7542769724179096
 32
0.0
 13
-0.1643675770429676
 23
-0.9863991583618796
 33
0.0
 40
0.0
 40
0.0
 40
0.0
 40
0.0
 40
0.1603693931025962
 40
0.557904093079058
 40
0.9667157511341301
 40
1.399450204752358
 40
1.861373334964293
 40
2.353697331358735
 40
2.881439649930284
 40
3.451224855697265
 40
4.068995641088084
 40
4.741721582173847
 40
5.478388203156745
 40
6.289536000268763
 40
7.187637897850457
 40
8.187707042740392
 40
9.31010603846102
 40
10.58155966256692
 40
12.03401224273708
 40
12.03401224273708
 40
12.03401224273708
 40
12.03401224273708
 10
227.8430289695431
 20
227.2310775717108
 30
0.0
 10
227.807931788082
 20
227.1907565916115
 30
0.0
 10
227.6874761739338
 20
227.0490502459285
 30
0.0
 10
227.488921346057
 20
226.7950247924506
 30
0.0
 10
227.2514442916095
 20
226.4569072003703
 30
0.0
 10
227.0186908522764
 20
226.0898376466028
 30
0.0
 10
226.7885281944943
 20
225.688712640847
 30
0.0
 10
226.5605255673189
 20
225.2503335166497
 30
0.0
 10
226.3341515269357
 20
224.7710324455163
 30
0.0
 10
226.108480605948
 20
224.2455638649052
 30
0.0
 10
225.8827605850297
 20
223.667897745374
 30
0.0
 10
225.6564126172353
 20
223.0311074487603
 30
0.0
 10
225.4287827572567
 20
222.326697292812
 30
0.0
 10
225.1990958260861
 20
221.544317965964
 30
0.0
 10
224.9666718211882
 20
220.6715391430962
 30
0.0
 10
224.730742942407
 20
219.6926232271108
 30
0.0
 10
224.4902730511851
 20
218.5870781486508
 30
0.0
 10
224.2439541477541
 20
217.3287754046594
 30
0.0
 10
224.0870258471338
 20
216.434405378191
 30
0.0
 10
224.007447143343
 20
215.9568393773108
 30
0.0
 11
227.8430289695431
 21
227.2310775717108
 31
0.0
 11
227.7391666957431
 21
227.1088852220109
 31
0.0
 11
227.4939294792431
 21
226.7960073779108
 31
0.0
 11
227.2586290920431
 21
226.4617010819108
 31
0.0
 11
227.0265442971431
 21
226.0964672454108
 31
0.0
 11
226.7962777688431
 21
225.6960296046108
 31
0.0
 11
226.5686982105431
 21
225.2594629292109
 31
0.0
 11
226.3428844243431
 21
224.7824722702108
 31
0.0
 11
226.1175896860431
 21
224.2591201310108
 31
0.0
 11
225.8922910268431
 21
223.6838973416108
 31
0.0
 11
225.6664890310431
 21
223.0501989508109
 31
0.0
 11
225.4394347945431
 21
222.3493964935108
 31
0.0
 11
225.2103868606431
 21
221.5712591067109
 31
0.0
 11
224.9786825013431
 21
220.7035609401108
 31
0.0
 11
224.7437161416431
 21
219.7314863008108
 31
0.0
 11
224.5044192638431
 21
218.6348931630109
 31
0.0
 11
224.2593608422431
 21
217.387279164911
 31
0.0
 11
224.007447143343
 21
215.9568393773108
 31
0.0
  0
SPLINE
  5
5DC
330
1F
100
AcDbEntity
  8
0
  6
Continuous
 62
     7
100
AcDbSpline
210
0.0
220
0.0
230
1.0
 70
     8
 71
     3
 72
    15
 73
    11
 74
     9
 42
0.0000000001
 43
0.0000000001
 44
0.0000000001
 12
0.0677230329041706
 22
0.9977041599664003
 32
0.0
 13
0.4556856838395546
 23
0.8901407515352151
 33
0.0
 40
0.0
 40
0.0
 40
0.0
 40
0.0
 40
0.420496119414567
 40
0.8335337924159503
 40
1.242332046328971
 40
1.649007939197262
 40
2.055153655242306
 40
2.461463560822281
 40
2.867305683608792
 40
3.071404396233622
 40
3.071404396233622
 40
3.071404396233622
 40
3.071404396233622
 10
237.1673421633431
 20
222.0726339819109
 30
0.0
 10
237.1768345875201
 20
222.2124775577741
 30
0.0
 10
237.2020136487412
 20
222.4893012319799
 30
0.0
 10
237.2594123090793
 20
222.8995765328572
 30
0.0
 10
237.3365512943181
 20
223.3019356868258
 30
0.0
 10
237.4342135820664
 20
223.6974589793942
 30
0.0
 10
237.5532395590062
 20
224.0862390428216
 30
0.0
 10
237.6941821293826
 20
224.467333543019
 30
0.0
 10
237.8302298687379
 20
224.7777987558253
 30
0.0
 10
237.9201405194653
 20
224.9601842238297
 30
0.0
 10
237.9511421399431
 20
225.0207430843108
 30
0.0
 11
237.1673421633431
 21
222.0726339819109
 31
0.0
 11
237.205631905143
 21
222.4913831695108
 31
0.0
 11
237.263051636543
 21
222.9004101781109
 31
0.0
 11
237.3402000113431
 21
223.3018627166109
 31
0.0
 11
237.4378547245431
 21
223.6966396648108
 31
0.0
 11
237.5568895400431
 21
224.0849501789108
 31
0.0
 11
237.6979325642431
 21
224.4659942770109
 31
0.0
 11
237.8608931138431
 21
224.8376818984108
 31
0.0
 11
237.9511421399431
 21
225.0207430843108
 31
0.0
  0
SPLINE
  5
5DD
330
1F
100
AcDbEntity
  8
0
  6
Continuous
 62
     7
100
AcDbSpline
210
0.0
220
0.0
230
1.0
 70
     8
 71
     3
 72
    13
 73
     9
 74
     7
 42
0.0000000001
 43
0.0000000001
 44
0.0000000001
 12
0.1432225288584363
 22
0.9896905108302265
 32
0.0
 13
0.0677810234380571
 23
0.9977002219412851
 33
0.0
 40
0.0
 40
0.0
 40
0.0
 40
0.0
 40
1.192658525604301
 40
2.235000447390987
 40
3.152222519488955
 40
3.967316075288753
 40
4.696552278583524
 40
5.353233098224173
 40
5.353233098224173
 40
5.353233098224173
 40
5.353233098224173
 10
236.5472079364431
 20
216.7566168763108
 30
0.0
 10
236.6041464598103
 20
217.1500711514613
 30
0.0
 10
236.7083482732017
 20
217.8877572994121
 30
0.0
 10
236.8462393286489
 20
218.9294263125834
 30
0.0
 10
236.9581142819821
 20
219.8475405654639
 30
0.0
 10
237.0473027853026
 20
220.6632212563425
 30
0.0
 10
237.1165489476698
 20
221.3936430605225
 30
0.0
 10
237.1525053306672
 20
221.8542437820775
 30
0.0
 10
237.1673421633431
 20
222.0726339819109
 30
0.0
 11
236.5472079364431
 21
216.7566168763108
 31
0.0
 11
236.713524365843
 21
217.9376220431108
 31
0.0
 11
236.8498142610431
 21
218.9710153595109
 31
0.0
 11
236.9602469751431
 21
219.8815651633109
 31
0.0
 11
237.0483608786431
 21
220.6918820425108
 31
0.0
 11
237.1167147217431
 21
221.4179076566108
 31
0.0
 11
237.1673421633431
 21
222.0726339819109
 31
0.0
  0
SPLINE
  5
5DE
330
1F
100
AcDbEntity
  8
0
  6
Continuous
 62
     7
100
AcDbSpline
210
0.0
220
0.0
230
1.0
 70
     8
 71
     3
 72
    27
 73
    23
 74
    21
 42
0.0000000001
 43
0.0000000001
 44
0.0000000001
 12
-0.1391731034916779
 22
-0.9902680683857754
 32
0.0
 13
-0.9771140486316667
 23
-0.2127160924016622
 33
0.0
 40
0.0
 40
0.0
 40
0.0
 40
0.0
 40
0.3347786955056893
 40
0.6711983322524937
 40
1.010859706625079
 40
1.355286310460506
 40
1.705892611137974
 40
2.063959330312049
 40
2.430616273519927
 40
2.806832378325053
 40
3.193412034837844
 40
3.590996420277212
 40
4.000068535040938
 40
4.420960747251957
 40
4.853863857786625
 40
5.298836930870062
 40
5.755817351063042
 40
6.224630744207709
 40
6.705000543518988
 40
7.196557080165733
 40
7.698846150307064
 40
8.211337055342553
 40
8.211337055342553
 40
8.211337055342553
 40
8.211337055342553
 10
243.2059759847431
 20
226.9002001450108
 30
0.0
 10
243.190445254731
 20
226.7896932609658
 30
0.0
 10
243.1496972834703
 20
226.5693679920962
 30
0.0
 10
243.0600455315927
 20
226.2441546759447
 30
0.0
 10
242.9420442215008
 20
225.9246765361428
 30
0.0
 10
242.7960233223262
 20
225.6117936874743
 30
0.0
 10
242.6223807659623
 20
225.3062983388495
 30
0.0
 10
242.4215853025521
 20
225.0089660566312
 30
0.0
 10
242.1941705565861
 20
224.7205409995086
 30
0.0
 10
241.9407326071671
 20
224.4417402080541
 30
0.0
 10
241.6619277376636
 20
224.1732529440295
 30
0.0
 10
241.3584710152231
 20
223.9157411764486
 30
0.0
 10
241.0311351447556
 20
223.6698392668408
 30
0.0
 10
240.680749403013
 20
223.4361533365914
 30
0.0
 10
240.3081984496039
 20
223.215260258993
 30
0.0
 10
239.9144208912829
 20
223.0077064145392
 30
0.0
 10
239.500407643062
 20
222.8140063271591
 30
0.0
 10
239.0671997239588
 20
222.6346411925212
 30
0.0
 10
238.6158868950336
 20
222.470057665862
 30
0.0
 10
238.1476017819843
 20
222.3206657922434
 30
0.0
 10
237.6635303260326
 20
222.1868405904252
 30
0.0
 10
237.3342628251451
 20
222.1089723675477
 30
0.0
 10
237.1673421374431
 20
222.0726340133108
 30
0.0
 11
243.2059759847431
 21
226.9002001450108
 31
0.0
 11
243.1451249114431
 21
226.5709981981109
 31
0.0
 11
243.0558229592431
 21
226.2466475648109
 31
0.0
 11
242.9382956088431
 21
225.9279672059109
 31
0.0
 11
242.7928396078431
 21
225.6157617652108
 31
0.0
 11
242.6198222215431
 21
225.3108195377109
 31
0.0
 11
242.419680305843
 21
225.0139104793108
 31
0.0
 11
242.1929192037431
 21
224.7257842629108
 31
0.0
 11
241.9401114698431
 21
224.4471683854109
 31
0.0
 11
241.6618954245431
 21
224.1787663307109
 31
0.0
 11
241.3589735422431
 21
223.9212557935108
 31
0.0
 11
241.032110677643
 21
223.6752869686108
 31
0.0
 11
240.6821321346431
 21
223.4414809085107
 31
0.0
 11
240.3099215824431
 21
223.2204279557108
 31
0.0
 11
239.9164188246431
 21
223.0126862522108
 31
0.0
 11
239.5026174256431
 21
222.8187803301109
 31
0.0
 11
239.0695622026431
 21
222.6391997871108
 31
0.0
 11
238.6183465871431
 21
222.4743980504108
 31
0.0
 11
238.1501098643431
 21
222.3247912319109
 31
0.0
 11
237.6660342964431
 21
222.1907570775108
 31
0.0
 11
237.1673421374431
 21
222.0726340133108
 31
0.0
  0
SPLINE
  5
5DF
330
1F
100
AcDbEntity
  8
0
  6
Continuous
 62
     7
100
AcDbSpline
210
0.0
220
0.0
230
1.0
 70
     8
 71
     3
 72
    27
 73
    23
 74
    21
 42
0.0000000001
 43
0.0000000001
 44
0.0000000001
 12
-0.1391731002953671
 22
-0.9902680688349876
 32
0.0
 13
-0.9917031971282602
 23
-0.128548702076634
 33
0.0
 40
0.0
 40
0.0
 40
0.0
 40
0.0
 40
0.2392741532872427
 40
0.4812503910875983
 40
0.7285163839663054
 40
0.9834489015622033
 40
1.248146832534637
 40
1.524396348304577
 40
1.813663607304872
 40
2.117106955827409
 40
2.435600493994224
 40
2.769762603247371
 40
3.119985189203801
 40
3.486461233882255
 40
3.869209547114001
 40
4.268096403552149
 40
4.68285418439272
 40
5.113097344959776
 40
5.558336094332314
 40
6.017988169728792
 40
6.491389051297114
 40
6.977800913676909
 40
6.977800913676909
 40
6.977800913676909
 40
6.977800913676909
 10
242.2403108404431
 20
220.0291356322109
 30
0.0
 10
242.2292106651986
 20
219.9501537809782
 30
0.0
 10
242.1974466962367
 20
219.7924657564026
 30
0.0
 10
242.1218682033899
 20
219.5611493868115
 30
0.0
 10
242.0185090604742
 20
219.3350893959944
 30
0.0
 10
241.887722266229
 20
219.1149174582148
 30
0.0
 10
241.7299138801244
 20
218.9011568733342
 30
0.0
 10
241.5455389023541
 20
218.6943050362181
 30
0.0
 10
241.3350937446715
 20
218.4948260824365
 30
0.0
 10
241.0991185556577
 20
218.3031658893946
 30
0.0
 10
240.8382010126755
 20
218.1197554571718
 30
0.0
 10
240.5529803212342
 20
217.945012794156
 30
0.0
 10
240.2441499105754
 20
217.7793420044235
 30
0.0
 10
239.9124587068767
 20
217.6231314809681
 30
0.0
 10
239.558711156369
 20
217.4767517118472
 30
0.0
 10
239.1837663000945
 20
217.340553151335
 30
0.0
 10
238.7885362258984
 20
217.2148643069507
 30
0.0
 10
238.3739839164911
 20
217.0999900751091
 30
0.0
 10
237.9411213884271
 20
216.9962104040478
 30
0.0
 10
237.491005263847
 20
216.9037789007034
 30
0.0
 10
237.0247413936177
 20
216.8229227337453
 30
0.0
 10
236.7079997283908
 20
216.7774574669721
 30
0.0
 10
236.5472076620431
 20
216.7566149291109
 30
0.0
 11
242.2403108404431
 21
220.0291356322109
 31
0.0
 11
242.1931352866431
 21
219.7945581662108
 31
0.0
 11
242.1182104747432
 21
219.5644738942108
 31
0.0
 11
242.0157206952431
 21
219.3394487482108
 31
0.0
 11
241.8859180392431
 21
219.1200362166108
 31
0.0
 11
241.7291217790431
 21
218.9067759825109
 31
0.0
 11
241.5457175818431
 21
218.7001925964108
 31
0.0
 11
241.3361565620431
 21
218.5007941859108
 31
0.0
 11
241.1009541709431
 21
218.3090712061108
 31
0.0
 11
240.8406889295431
 21
218.1254952328108
 31
0.0
 11
240.5560010050431
 21
217.9505178031108
 31
0.0
 11
240.2475906364431
 21
217.7845693043108
 31
0.0
 11
239.9162164121431
 21
217.6280579156109
 31
0.0
 11
239.5626934042431
 21
217.4813686039108
 31
0.0
 11
239.1878911634431
 21
217.3448621772108
 31
0.0
 11
238.7927315805431
 21
217.2188743968108
 31
0.0
 11
238.3781866186431
 21
217.1037151515108
 31
0.0
 11
237.9452759224431
 21
216.9996676957108
 31
0.0
 11
237.4950643104431
 21
216.9069879523109
 31
0.0
 11
237.0286591556431
 21
216.8259038833108
 31
0.0
 11
236.5472076620431
 21
216.7566149291109
 31
0.0
  0
SPLINE
  5
5E0
330
1F
100
AcDbEntity
  8
0
  6
Continuous
 62
     7
100
AcDbSpline
210
0.0
220
0.0
230
1.0
 70
     8
 71
     3
 72
    27
 73
    23
 74
    21
 42
0.0000000001
 43
0.0000000001
 44
0.0000000001
 12
-0.1391730801404051
 22
-0.9902680716675826
 32
0.0
 13
-0.9901370395615268
 23
-0.1401022586839169
 33
0.0
 40
0.0
 40
0.0
 40
0.0
 40
0.0
 40
0.2233601513371979
 40
0.4492538658081409
 40
0.6801087896225652
 40
0.9181573720780319
 40
1.165374973534644
 40
1.42344779808884
 40
1.693766364648305
 40
1.977437036441432
 40
2.27530405226203
 40
2.587976110302188
 40
2.915853562292051
 40
3.25915398706437
 40
3.617935118436921
 40
3.992114839025493
 40
4.381488357228751
 40
4.785742869231421
 40
5.204470069128849
 40
5.637176864978707
 40
6.083294625031378
 40
6.542187232545623
 40
6.542187232545623
 40
6.542187232545623
 40
6.542187232545623
 10
234.2945624172431
 20
163.4921978790108
 30
0.0
 10
234.2842005104957
 20
163.4184690702267
 30
0.0
 10
234.2545881101065
 20
163.2712608903472
 30
0.0
 10
234.1842046781795
 20
163.0552628911703
 30
0.0
 10
234.0879850631647
 20
162.8440790048125
 30
0.0
 10
233.9662408747483
 20
162.6382621997626
 30
0.0
 10
233.8193287626935
 20
162.4382662083592
 30
0.0
 10
233.6476466788245
 20
162.2445219997466
 30
0.0
 10
233.4516270154445
 20
162.0574311389714
 30
0.0
 10
233.2317388914832
 20
161.8773798294913
 30
0.0
 10
232.988491818002
 20
161.7047421912666
 30
0.0
 10
232.7224395784573
 20
161.5398821425959
 30
0.0
 10
232.4341829173754
 20
161.3831526842037
 30
0.0
 10
232.1243709303661
 20
161.2348943434624
 30
0.0
 10
231.7937013109542
 20
161.0954332529024
 30
0.0
 10
231.4429197351637
 20
160.9650792782313
 30
0.0
 10
231.0728186814881
 20
160.8441243390323
 30
0.0
 10
230.6842357115234
 20
160.7328409472402
 30
0.0
 10
230.2780520090141
 20
160.6314810440765
 30
0.0
 10
229.8551886406034
 20
160.5402747607714
 30
0.0
 10
229.4166108805125
 20
160.4594304230216
 30
0.0
 10
229.1184595355701
 20
160.4131927675795
 30
0.0
 10
228.9670040129431
 20
160.3917621373109
 30
0.0
 11
234.2945624172431
 21
163.4921978790108
 31
0.0
 11
234.2505825216431
 21
163.2732103771108
 31
0.0
 11
234.180808195243
 21
163.0583627250108
 31
0.0
 11
234.085398924843
 21
162.8481460107107
 31
0.0
 11
233.964572791943
 21
162.6430407372108
 31
0.0
 11
233.8186059752431
 21
162.4435157240109
 31
0.0
 11
233.6478321182431
 21
162.2500270356109
 31
0.0
 11
233.4526415674431
 21
162.0630169388109
 31
0.0
 11
233.2334804797432
 21
161.8829128920109
 31
0.0
 11
232.9908498027431
 21
161.7101265682108
 31
0.0
 11
232.7253041296431
 21
161.5450529138108
 31
0.0
 11
232.4374504314431
 21
161.3880692460108
 31
0.0
 11
232.1279466700431
 21
161.2395343904108
 31
0.0
 11
231.797500293743
 21
161.0997878605107
 31
0.0
 11
231.4468666204431
 21
160.9691490820108
 31
0.0
 11
231.0768471112431
 21
160.8479166627108
 31
0.0
 11
230.6882875385431
 21
160.7363677096107
 31
0.0
 11
230.2820760524431
 21
160.6347571959108
 31
0.0
 11
229.8591411510431
 21
160.5433173777108
 31
0.0
 11
229.4204495580431
 21
160.4622572638107
 31
0.0
 11
228.9670040129431
 21
160.3917621373109
 31
0.0
  0
SPLINE
  5
5E1
330
1F
100
AcDbEntity
  8
0
  6
Continuous
 62
     7
100
AcDbSpline
210
0.0
220
0.0
230
1.0
 70
     8
 71
     3
 72
    11
 73
     7
 74
     5
 42
0.0000000001
 43
0.0000000001
 44
0.0000000001
 12
0.500086009761036
 22
0.865975740330689
 32
0.0
 13
0.7053200915125868
 23
0.7088889676872368
 33
0.0
 40
0.0
 40
0.0
 40
0.0
 40
0.0
 40
0.2948445532761931
 40
0.584590233585762
 40
0.8706454621802684
 40
1.154229398397362
 40
1.154229398397362
 40
1.154229398397362
 40
1.154229398397362
 10
225.7864674485431
 20
126.0239713625108
 30
0.0
 10
225.8356166605923
 20
126.1090807726128
 30
0.0
 10
225.9390531059688
 20
126.2744444811217
 30
0.0
 10
226.1093519297292
 20
126.5096880874328
 30
0.0
 10
226.2920429509351
 20
126.7305724500535
 30
0.0
 10
226.4219669427284
 20
126.869230294645
 30
0.0
 10
226.4886394253431
 20
126.9362401359108
 30
0.0
 11
225.7864674485431
 21
126.0239713625108
 31
0.0
 11
225.9427305250431
 21
126.2740016837109
 31
0.0
 11
226.1125499034431
 21
126.5087652626108
 31
0.0
 11
226.294794527043
 21
126.7292522032108
 31
0.0
 11
226.4886394253431
 21
126.9362401359108
 31
0.0
  0
SPLINE
  5
5E2
330
1F
100
AcDbEntity
  8
0
  6
Continuous
 62
     7
100
AcDbSpline
210
0.0
220
0.0
230
1.0
 70
     8
 71
     3
 72
    28
 73
    24
 74
    22
 42
0.0000000001
 43
0.0000000001
 44
0.0000000001
 12
-0.9993149855514879
 22
0.0370075620951945
 32
0.0
 13
-0.7406135879750061
 23
-0.6719311819723714
 33
0.0
 40
0.0
 40
0.0
 40
0.0
 40
0.0
 40
0.1577748426992645
 40
0.3190654464024245
 40
0.4832897692327798
 40
0.6498431531627861
 40
0.8181034280641117
 40
0.9874358218396206
 40
1.157197742387313
 40
1.326743484106004
 40
1.495428907157629
 40
1.662616129801556
 40
1.8276782800557
 40
1.990004356782591
 40
2.149004261679414
 40
2.30411407910419
 40
2.454801708749971
 40
2.600572985719012
 40
2.740978474344978
 40
2.875621181694661
 40
3.004165521939484
 40
3.126347964529133
 40
3.24198991797347
 40
3.24198991797347
 40
3.24198991797347
 40
3.24198991797347
 10
104.0512574152431
 20
215.9568393855109
 30
0.0
 10
103.9987018270256
 20
215.9587856729403
 30
0.0
 10
103.8923426505011
 20
215.9608561260583
 30
0.0
 10
103.7312344116232
 20
215.958670801961
 30
0.0
 10
103.5673528643624
 20
215.9512420679956
 30
0.0
 10
103.4014621813389
 20
215.9386038988165
 30
0.0
 10
103.2343327751844
 20
215.920814687741
 30
0.0
 10
103.0667419004297
 20
215.8979568836739
 30
0.0
 10
102.8994687964851
 20
215.8701366380639
 30
0.0
 10
102.7332913158289
 20
215.8374832982631
 30
0.0
 10
102.5689821570397
 20
215.8001487972148
 30
0.0
 10
102.4073052304114
 20
215.7583069329541
 30
0.0
 10
102.2490120331777
 20
215.7121525351906
 30
0.0
 10
102.0948380834553
 20
215.6619005295778
 30
0.0
 10
101.9454994171495
 20
215.6077848887135
 30
0.0
 10
101.8016891697011
 20
215.5500574820058
 30
0.0
 10
101.6640742293879
 20
215.4889867874507
 30
0.0
 10
101.5332920785843
 20
215.4248565527484
 30
0.0
 10
101.4099474755854
 20
215.3579640578083
 30
0.0
 10
101.2946103068198
 20
215.2886191053651
 30
0.0
 10
101.1878100770984
 20
215.2171396583759
 30
0.0
 10
101.0900430945228
 20
215.1438581586675
 30
0.0
 10
101.0294940444967
 20
215.092591390732
 30
0.0
 10
101.0009453771431
 20
215.0666902459108
 30
0.0
 11
104.0512574152431
 21
215.9568393855109
 31
0.0
 11
103.893513719543
 21
215.9599742628108
 31
0.0
 11
103.732237251543
 21
215.9578389145109
 31
0.0
 11
103.5681795392431
 21
215.9504432912109
 31
0.0
 11
103.402105070843
 21
215.9378218553108
 31
0.0
 11
103.2347877324431
 21
215.9200334214108
 31
0.0
 11
103.0670072017431
 21
215.8971608811108
 31
0.0
 11
102.8995453146431
 21
215.8693108176108
 31
0.0
 11
102.733182422643
 21
215.8366130088109
 31
0.0
 11
102.5686937557431
 21
215.7992198221108
 31
0.0
 11
102.406845810243
 21
215.7573055053109
 31
0.0
 11
102.2483927772431
 21
215.7110653736108
 31
0.0
 11
102.0940730279431
 21
215.6607149003108
 31
0.0
 11
101.9446056727431
 21
215.6064887121108
 31
0.0
 11
101.8006872107431
 21
215.5486394964108
 31
0.0
 11
101.662988283743
 21
215.4874368230108
 31
0.0
 11
101.5321505514431
 21
215.4231658887108
 31
0.0
 11
101.4087837011431
 21
215.3561261879108
 31
0.0
 11
101.2934626067431
 21
215.2866301173109
 31
0.0
 11
101.186724650043
 21
215.2150015196108
 31
0.0
 11
101.0890672163431
 21
215.1415741751109
 31
0.0
 11
101.0009453771431
 21
215.0666902459108
 31
0.0
  0
SPLINE
  5
5E3
330
1F
100
AcDbEntity
  8
0
  6
Continuous
 62
     7
100
AcDbSpline
210
0.0
220
0.0
230
1.0
 70
     8
 71
     3
 72
    28
 73
    24
 74
    22
 42
0.0000000001
 43
0.0000000001
 44
0.0000000001
 12
-0.999315417489273
 22
0.0369958966405744
 32
0.0
 13
-0.7455458106699206
 23
-0.6664543826793632
 33
0.0
 40
0.0
 40
0.0
 40
0.0
 40
0.0
 40
0.1577116533532914
 40
0.3189220196639217
 40
0.4830465091426054
 40
0.6494783384627469
 40
0.817593575819551
 40
0.9867559986580149
 40
1.156321827980271
 40
1.325644391537561
 40
1.494078760920799
 40
1.6609864044738
 40
1.825739898906915
 40
1.987727751807432
 40
2.146359392798923
 40
2.301070413735681
 40
2.451328159163848
 40
2.596637805467083
 40
2.736549113889692
 40
2.870664107845631
 40
2.998646010169456
 40
3.120229884856724
 40
3.235235549586831
 40
3.235235549586831
 40
3.235235549586831
 40
3.235235549586831
 10
104.237131566343
 20
214.8357805014109
 30
0.0
 10
104.1845970041052
 20
214.8377253960864
 30
0.0
 10
104.0782867920786
 20
214.8398197890601
 30
0.0
 10
103.917258896406
 20
214.8377465843042
 30
0.0
 10
103.75347031313
 20
214.8305059211681
 30
0.0
 10
103.5876829671418
 20
214.8181308194498
 30
0.0
 10
103.4206650411369
 20
214.8006783125234
 30
0.0
 10
103.2531914765553
 20
214.7782290968514
 30
0.0
 10
103.0860391706269
 20
214.7508871833392
 30
0.0
 10
102.9199836157883
 20
214.7187794038547
 30
0.0
 10
102.755795155471
 20
214.6820548130955
 30
0.0
 10
102.5942353694129
 20
214.6408839835199
 30
0.0
 10
102.4360534680354
 20
214.5954581908362
 30
0.0
 10
102.2819827462085
 20
214.5459884957723
 30
0.0
 10
102.1327370971419
 20
214.4927047196462
 30
0.0
 10
101.9890076120076
 20
214.4358543155984
 30
0.0
 10
101.8514592474347
 20
214.3757011082689
 30
0.0
 10
101.7207276803522
 20
214.3125239799932
 30
0.0
 10
101.5974159991832
 20
214.2466151660158
 30
0.0
 10
101.4820925606673
 20
214.1782792622577
 30
0.0
 10
101.3752854838604
 20
214.1078289339554
 30
0.0
 10
101.2774898055192
 20
214.0355910978747
 30
0.0
 10
101.2168861102907
 20
213.9850303143417
 30
0.0
 10
101.1883054464431
 20
213.9594816379109
 30
0.0
 11
104.237131566343
 21
214.8357805014109
 31
0.0
 11
104.079451762743
 21
214.8389499083108
 31
0.0
 11
103.918254104443
 21
214.8369257629108
 31
0.0
 11
103.754287984143
 21
214.8297174732108
 31
0.0
 11
103.5883156648431
 21
214.8173585478108
 31
0.0
 11
103.421108736243
 21
214.7999064402108
 31
0.0
 11
103.2534445275431
 21
214.7774422816109
 31
0.0
 11
103.0861024938431
 21
214.7500705036109
 31
0.0
 11
102.9198605925431
 21
214.7179183531109
 31
0.0
 11
102.7554916666431
 21
214.6811353001109
 31
0.0
 11
102.593759851543
 21
214.6398923436108
 31
0.0
 11
102.435417023443
 21
214.5943812162109
 31
0.0
 11
102.281199303143
 21
214.5448134925109
 31
0.0
 11
102.1318236343431
 21
214.4914196062109
 31
0.0
 11
101.9879844504431
 21
214.4344477783108
 31
0.0
 11
101.8503504463431
 21
214.3741628633108
 31
0.0
 11
101.7195614696431
 21
214.3108451179108
 31
0.0
 11
101.5962255460431
 21
214.2447888981108
 31
0.0
 11
101.4809160525431
 21
214.1763012911109
 31
0.0
 11
101.3741690525431
 21
214.1057006869108
 31
0.0
 11
101.276480802543
 21
214.0333152989109
 31
0.0
 11
101.1883054464431
 21
213.9594816379109
 31
0.0
  0
SPLINE
  5
5E4
330
1F
100
AcDbEntity
  8
0
  6
Continuous
 62
     7
100
AcDbSpline
210
0.0
220
0.0
230
1.0
 70
     8
 71
     3
 72
    28
 73
    24
 74
    22
 42
0.0000000001
 43
0.0000000001
 44
0.0000000001
 12
0.999314987267436
 22
0.0370075157594319
 32
0.0
 13
0.7406136266699999
 23
-0.671931139322111
 33
0.0
 40
0.0
 40
0.0
 40
0.0
 40
0.0
 40
0.1577748395647215
 40
0.3190654404422387
 40
0.4832897607870446
 40
0.6498431423821554
 40
0.8181034151612413
 40
0.9874358070451256
 40
1.157197725701868
 40
1.326743465577192
 40
1.495428886931144
 40
1.662616107790181
 40
1.827678256271933
 40
1.990004331311835
 40
2.149004234331918
 40
2.304114049911105
 40
2.454801677546377
 40
2.600572952496768
 40
2.740978438865325
 40
2.875621143991041
 40
3.004165481803584
 40
3.126347921805614
 40
3.241989872587814
 40
3.241989872587814
 40
3.241989872587814
 40
3.241989872587814
 10
224.0074471604431
 20
215.9568393471108
 30
0.0
 10
224.0600027477067
 20
215.9587856320647
 30
0.0
 10
224.1663619223211
 20
215.9608560805549
 30
0.0
 10
224.3274701583001
 20
215.9586707510113
 30
0.0
 10
224.4913517027768
 20
215.9512420121868
 30
0.0
 10
224.6572423832218
 20
215.9386038397898
 30
0.0
 10
224.824371786962
 20
215.920814626103
 30
0.0
 10
224.9919626595406
 20
215.8979568207366
 30
0.0
 10
225.1592357614961
 20
215.8701365746285
 30
0.0
 10
225.3254132403498
 20
215.8374832351133
 30
0.0
 10
225.4897223976981
 20
215.8001487357712
 30
0.0
 10
225.6513993230198
 20
215.758306873476
 30
0.0
 10
225.8096925192824
 20
215.7121524786594
 30
0.0
 10
225.9638664682819
 20
215.6619004766027
 30
0.0
 10
226.1132051343026
 20
215.6077848402609
 30
0.0
 10
226.2570153815173
 20
215.5500574381194
 30
0.0
 10
226.3946303220986
 20
215.4889867490243
 30
0.0
 10
226.5254124734073
 20
215.4248565201299
 30
0.0
 10
226.6487570772984
 20
215.3579640313937
 30
0.0
 10
226.7640942471406
 20
215.2886190852315
 30
0.0
 10
226.87089447839
 20
215.2171396448849
 30
0.0
 10
226.9686614627446
 20
215.1438581518355
 30
0.0
 10
227.0292105143551
 20
215.0925913884917
 30
0.0
 10
227.0577591825431
 20
215.0666902459108
 30
0.0
 11
224.0074471604431
 21
215.9568393471108
 31
0.0
 11
224.1651908531431
 21
215.9599742176109
 31
0.0
 11
224.3264673182431
 21
215.9578388637108
 31
0.0
 11
224.4905250278431
 21
215.9504432357108
 31
0.0
 11
224.6565994936431
 21
215.9378217964108
 31
0.0
 11
224.8239168296431
 21
215.9200333600108
 31
0.0
 11
224.9916973582431
 21
215.8971608183108
 31
0.0
 11
225.159159243343
 21
215.8693107543108
 31
0.0
 11
225.3255221335431
 21
215.8366129459109
 31
0.0
 11
225.490010799043
 21
215.7992197607109
 31
0.0
 11
225.6518587432431
 21
215.7573054460108
 31
0.0
 11
225.8103117752431
 21
215.7110653172109
 31
0.0
 11
225.9646315239431
 21
215.6607148475109
 31
0.0
 11
226.1140988787431
 21
215.6064886637109
 31
0.0
 11
226.2580173406431
 21
215.5486394527108
 31
0.0
 11
226.3957162678431
 21
215.4874367847108
 31
0.0
 11
226.5265540007431
 21
215.4231658562108
 31
0.0
 11
226.6499208518431
 21
215.3561261616108
 31
0.0
 11
226.7652419474431
 21
215.2866300973108
 31
0.0
 11
226.8719799056431
 21
215.2150015062109
 31
0.0
 11
226.9696373411431
 21
215.1415741684108
 31
0.0
 11
227.0577591825431
 21
215.0666902459108
 31
0.0
  0
SPLINE
  5
5E5
330
1F
100
AcDbEntity
  8
0
  6
Continuous
 62
     7
100
AcDbSpline
210
0.0
220
0.0
230
1.0
 70
     8
 71
     3
 72
    20
 73
    16
 74
    14
 42
0.0000000001
 43
0.0000000001
 44
0.0000000001
 12
-0.0958457523984932
 22
-0.9953961983789001
 32
0.0
 13
-0.9954798246482379
 23
0.0949732526468039
 33
0.0
 40
0.0
 40
0.0
 40
0.0
 40
0.0
 40
0.0080958630097744
 40
0.0161404008475896
 40
0.0269718767014375
 40
0.0405120601554905
 40
0.0566207445360952
 40
0.0751141508196304
 40
0.0957731919437305
 40
0.1183487779437651
 40
0.1425661809064536
 40
0.1681291426311832
 40
0.1947239590893652
 40
0.2220236578403747
 40
0.249692216948019
 40
0.249692216948019
 40
0.249692216948019
 40
0.249692216948019
 10
139.300739571043
 20
116.2869151039109
 30
0.0
 10
139.3004809196825
 20
116.2842289068234
 30
0.0
 10
139.2936001302227
 20
116.2819922868013
 30
0.0
 10
139.285578977235
 20
116.2802141456567
 30
0.0
 10
139.2745526194366
 20
116.2788555573979
 30
0.0
 10
139.2612011471366
 20
116.2778942689626
 30
0.0
 10
139.2451232984216
 20
116.2773078575403
 30
0.0
 10
139.2267148937032
 20
116.2771277316195
 30
0.0
 10
139.2061348926359
 20
116.2773543010882
 30
0.0
 10
139.1836601395762
 20
116.2779889952352
 30
0.0
 10
139.1595626122082
 20
116.2790248797083
 30
0.0
 10
139.1341435936967
 20
116.280450059754
 30
0.0
 10
139.1077182319425
 20
116.2822478320283
 30
0.0
 10
139.0806149728865
 20
116.2843952613609
 30
0.0
 10
139.062365700566
 20
116.2860391795594
 30
0.0
 10
139.053184536443
 20
116.2869151039109
 30
0.0
 11
139.300739571043
 21
116.2869151039109
 31
0.0
 11
139.294101764443
 21
116.2822801798108
 31
0.0
 11
139.2862611843431
 21
116.2804802096109
 31
0.0
 11
139.275523681243
 21
116.2790565185108
 31
0.0
 11
139.262022710343
 21
116.2780267842109
 31
0.0
 11
139.2459260767431
 21
116.2774038081108
 31
0.0
 11
139.227433845643
 21
116.2771953257108
 31
0.0
 11
139.206775857643
 21
116.2774039209109
 31
0.0
 11
139.184208871443
 21
116.2780269916107
 31
0.0
 11
139.1600133735431
 21
116.2790567914109
 31
0.0
 11
139.134490087943
 21
116.2804804853109
 31
0.0
 11
139.1079562550431
 21
116.2822804781109
 31
0.0
 11
139.0807416336431
 21
116.2844340644107
 31
0.0
 11
139.053184536443
 21
116.2869151039109
 31
0.0
  0
SPLINE
  5
5E6
330
1F
100
AcDbEntity
  8
0
  6
Continuous
 62
     7
100
AcDbSpline
210
0.0
220
0.0
230
1.0
 70
     8
 71
     3
 72
    20
 73
    16
 74
    14
 42
0.0000000001
 43
0.0000000001
 44
0.0000000001
 12
-0.9954798246614442
 22
-0.0949732525083786
 32
0.0
 13
-0.0958457523711267
 23
0.9953961983815352
 33
0.0
 40
0.0
 40
0.0
 40
0.0
 40
0.0
 40
0.0276685588233002
 40
0.0549682532780424
 40
0.0815630703018243
 40
0.1071260321701726
 40
0.1313434386419855
 40
0.1539190311278712
 40
0.1745780819128044
 40
0.1930715003675764
 40
0.2091801976000518
 40
0.2227203922176465
 40
0.2335518688359917
 40
0.2415964137774425
 40
0.2496920824808664
 40
0.2496920824808664
 40
0.2496920824808664
 40
0.2496920824808664
 10
138.022020023143
 20
116.2869151039109
 30
0.0
 10
138.0128388591144
 20
116.2860391795697
 30
0.0
 10
137.9945895861374
 20
116.2843952986975
 30
0.0
 10
137.9674863621334
 20
116.2822474375788
 30
0.0
 10
137.941060990189
 20
116.2804498178992
 30
0.0
 10
137.9156419739119
 20
116.2790245826391
 30
0.0
 10
137.8915444387963
 20
116.277988784034
 30
0.0
 10
137.8690696768429
 20
116.2773541795856
 30
0.0
 10
137.8484896642752
 20
116.2771277242383
 30
0.0
 10
137.8300812509336
 20
116.2773079694425
 30
0.0
 10
137.8140033882182
 20
116.2778944642051
 30
0.0
 10
137.800651928654
 20
116.2788558582454
 30
0.0
 10
137.7896255268996
 20
116.2802143789387
 30
0.0
 10
137.7816045283167
 20
116.2819926618224
 30
0.0
 10
137.7747236336957
 20
116.284228971294
 30
0.0
 10
137.7744649885431
 20
116.2869151039109
 30
0.0
 11
138.022020023143
 21
116.2869151039109
 31
0.0
 11
137.994462930343
 21
116.2844340187108
 31
0.0
 11
137.967248333243
 21
116.2822801798108
 31
0.0
 11
137.940714498243
 21
116.2804802096109
 31
0.0
 11
137.915191212343
 21
116.2790565185108
 31
0.0
 11
137.890995708143
 21
116.2780267842109
 31
0.0
 11
137.8684287128431
 21
116.2774038081108
 31
0.0
 11
137.847770714043
 21
116.2771953257108
 31
0.0
 11
137.829278472043
 21
116.2774039209109
 31
0.0
 11
137.813181829243
 21
116.2780269916107
 31
0.0
 11
137.7996808521431
 21
116.2790567914109
 31
0.0
 11
137.788943348643
 21
116.2804804853109
 31
0.0
 11
137.781102766443
 21
116.2822804781109
 31
0.0
 11
137.7744649885431
 21
116.2869151039109
 31
0.0
  0
SPLINE
  5
5E7
330
1F
100
AcDbEntity
  8
0
  6
Continuous
 62
     7
100
AcDbSpline
210
0.0
220
0.0
230
1.0
 70
     8
 71
     3
 72
    47
 73
    43
 74
    41
 42
0.0000000001
 43
0.0000000001
 44
0.0000000001
 12
-0.5046297395637333
 22
-0.8633358708798324
 32
0.0
 13
0.7830301512233581
 23
0.6219837475972544
 33
0.0
 40
0.0
 40
0.0
 40
0.0
 40
0.0
 40
0.2382951861656142
 40
0.4479798112085819
 40
0.6343982367416574
 40
0.8010401889529788
 40
0.9497430875743511
 40
1.082215653062234
 40
1.200339357455802
 40
1.305737660496448
 40
1.39967625221004
 40
1.483317105897354
 40
1.557739355692139
 40
1.623887054836865
 40
1.682685855973685
 40
1.735015847149789
 40
1.781658747342371
 40
1.823407898978605
 40
1.861100546193844
 40
1.895422589943759
 40
1.926935777095601
 40
1.956091111598173
 40
1.9830805836636
 40
2.008383886231035
 40
2.032893059514613
 40
2.057294033785985
 40
2.082081455852183
 40
2.107743760855461
 40
2.134803548492866
 40
2.163832110135647
 40
2.195466357165839
 40
2.230415767659163
 40
2.269452441768267
 40
2.313391915564956
 40
2.363076287787228
 40
2.419363302586526
 40
2.48262199664709
 40
2.552077158478844
 40
2.626928046301556
 40
2.707500537158717
 40
2.794445785440875
 40
2.874844944009666
 40
2.874844944009666
 40
2.874844944009666
 40
2.874844944009666
 10
226.8703991053431
 20
213.9594815932108
 30
0.0
 10
226.8303154927651
 20
213.8909053325192
 30
0.0
 10
226.7555541092347
 20
213.7616370318408
 30
0.0
 10
226.652087531691
 20
213.5772037039777
 30
0.0
 10
226.5629682794392
 20
213.4121329958328
 30
0.0
 10
226.486381948556
 20
213.2634295380597
 30
0.0
 10
226.4210808758289
 20
213.1291815128788
 30
0.0
 10
226.3660418683057
 20
213.0079752066568
 30
0.0
 10
226.3202717839867
 20
212.8984701232691
 30
0.0
 10
226.282864677693
 20
212.7994563651735
 30
0.0
 10
226.2530385388266
 20
212.7099406560869
 30
0.0
 10
226.2301068635212
 20
212.6290969257503
 30
0.0
 10
226.2134531198315
 20
212.5561999852027
 30
0.0
 10
226.2025234044098
 20
212.4906031682909
 30
0.0
 10
226.1968252206068
 20
212.4317328558899
 30
0.0
 10
226.1959277445579
 20
212.3790861518866
 30
0.0
 10
226.199455086047
 20
212.3322348118286
 30
0.0
 10
226.2070764751412
 20
212.2908102319489
 30
0.0
 10
226.2184909236429
 20
212.2545340081303
 30
0.0
 10
226.2333654443513
 20
212.223258505143
 30
0.0
 10
226.251216633766
 20
212.1969500587919
 30
0.0
 10
226.2713138776383
 20
212.1755721865474
 30
0.0
 10
226.2928099588291
 20
212.1588250317294
 30
0.0
 10
226.3150949618747
 20
212.1460699871306
 30
0.0
 10
226.3380036802121
 20
212.1365796753645
 30
0.0
 10
226.3616610045628
 20
212.1297901792644
 30
0.0
 10
226.3862515984129
 20
212.1253525307457
 30
0.0
 10
226.4120188863527
 20
212.1230734292749
 30
0.0
 10
226.439295720665
 20
212.1228899457703
 30
0.0
 10
226.4684943581185
 20
212.124866287982
 30
0.0
 10
226.5000932466067
 20
212.1291932228763
 30
0.0
 10
226.5346209297194
 20
212.1361878312696
 30
0.0
 10
226.5726320702078
 20
212.1462897321931
 30
0.0
 10
226.6146798333955
 20
212.1600511392756
 30
0.0
 10
226.6612923682101
 20
212.1781221211335
 30
0.0
 10
226.7128058449194
 20
212.2011665954825
 30
0.0
 10
226.7690333589438
 20
212.2296337417522
 30
0.0
 10
226.8293192258897
 20
212.2636276763183
 30
0.0
 10
226.8930588794479
 20
212.303112997652
 30
0.0
 10
226.9600924227704
 20
212.3482388787543
 30
0.0
 10
227.0269924511103
 20
212.3967793924358
 30
0.0
 10
227.0711273862123
 20
212.4309051967274
 30
0.0
 10
227.0921123746431
 20
212.4475741867108
 30
0.0
 11
226.8703991053431
 21
213.9594815932108
 31
0.0
 11
226.751260025143
 21
213.7531069937108
 31
0.0
 11
226.6488178523431
 21
213.5701500501109
 31
0.0
 11
226.5604004634431
 21
213.4060336441109
 31
0.0
 11
226.4842438467431
 21
213.2578118172108
 31
0.0
 11
226.419341865543
 21
213.1240198709109
 31
0.0
 11
226.3647131619431
 21
213.0033356327108
 31
0.0
 11
226.3193059547431
 21
212.8942879593108
 31
0.0
 11
226.2822071336431
 21
212.7956346281109
 31
0.0
 11
226.2526688707431
 21
212.7064609210108
 31
0.0
 11
226.2300080479431
 21
212.6259483163108
 31
0.0
 11
226.2136050885431
 21
212.5533562080108
 31
0.0
 11
226.2029147140431
 21
212.4880780800108
 31
0.0
 11
226.1974403123431
 21
212.4295346778108
 31
0.0
 11
226.1967463227431
 21
212.3772092886108
 31
0.0
 11
226.200448561243
 21
212.3307135515109
 31
0.0
 11
226.2081968392431
 21
212.2896897066109
 31
0.0
 11
226.219684178443
 21
212.2537901705109
 31
0.0
 11
226.2345607749431
 21
212.2228597718108
 31
0.0
 11
226.2523364757431
 21
212.1968385223109
 31
0.0
 11
226.2723351171431
 21
212.1756232478108
 31
0.0
 11
226.293620475143
 21
212.1590291182108
 31
0.0
 11
226.3155634953431
 21
212.1464290791109
 31
0.0
 11
226.3381883732431
 21
212.1370049359109
 31
0.0
 11
226.3616280168431
 21
212.1302232950108
 31
0.0
 11
226.3860118147432
 21
212.1257683323109
 31
0.0
 11
226.4115695282431
 21
212.1234537743108
 31
0.0
 11
226.4386282868431
 21
212.1232177870109
 31
0.0
 11
226.4675942420431
 21
212.1251232608109
 31
0.0
 11
226.4989437172431
 21
212.1293583511108
 31
0.0
 11
226.533209305543
 21
212.1362380860108
 31
0.0
 11
226.5709530482431
 21
212.1462016101108
 31
0.0
 11
226.6127347478431
 21
212.1598018651109
 31
0.0
 11
226.6590871245431
 21
212.1776902417109
 31
0.0
 11
226.7105007976431
 21
212.2006001141108
 31
0.0
 11
226.7669771906431
 21
212.2290971211108
 31
0.0
 11
226.8275179568431
 21
212.2631387887108
 31
0.0
 11
226.8911897314431
 21
212.3024905425108
 31
0.0
 11
226.9580691228431
 21
212.3474246419109
 31
0.0
 11
227.0284828301431
 21
212.3984284263109
 31
0.0
 11
227.0921123746431
 21
212.4475741867108
 31
0.0
  0
SPLINE
  5
5E8
330
1F
100
AcDbEntity
  8
0
  6
Continuous
 62
     7
100
AcDbSpline
210
0.0
220
0.0
230
1.0
 70
     8
 71
     3
 72
    28
 73
    24
 74
    22
 42
0.0000000001
 43
0.0000000001
 44
0.0000000001
 12
0.9993153393086291
 22
0.0369980083582796
 32
0.0
 13
0.7455442812787414
 23
-0.6664560935669845
 33
0.0
 40
0.0
 40
0.0
 40
0.0
 40
0.0
 40
0.1577118036543742
 40
0.3189223023836657
 40
0.4830469094377838
 40
0.6494788442390355
 40
0.8175941773698717
 40
0.986756688650783
 40
1.156322601323732
 40
1.325645245175276
 40
1.494079693594244
 40
1.66098741647474
 40
1.825740992376232
 40
1.987728930284334
 40
2.146360661108324
 40
2.301071778045193
 40
2.451329626773924
 40
2.596639384795593
 40
2.736550814188813
 40
2.870665939226192
 40
2.998647983658169
 40
3.120232011553678
 40
3.235237841463367
 40
3.235237841463367
 40
3.235237841463367
 40
3.235237841463367
 10
223.8215716952431
 20
214.8357820293108
 30
0.0
 10
223.874106303437
 20
214.8377270368541
 30
0.0
 10
223.9804166060993
 20
214.839821638307
 30
0.0
 10
224.1414446390811
 20
214.8377486931699
 30
0.0
 10
224.3052333508144
 20
214.8305082410104
 30
0.0
 10
224.4710208160515
 20
214.8181333027332
 30
0.0
 10
224.638038851857
 20
214.8006809130932
 30
0.0
 10
224.8055125165441
 20
214.7782317697032
 30
0.0
 10
224.9726649127928
 20
214.7508898853059
 30
0.0
 10
225.1387205480326
 20
214.7187820934943
 30
0.0
 10
225.302909078822
 20
214.6820574516318
 30
0.0
 10
225.4644689252015
 20
214.64088653354
 30
0.0
 10
225.6226508768858
 20
214.5954606179057
 30
0.0
 10
225.7767216391106
 20
214.5459907680451
 30
0.0
 10
225.9259673187217
 20
214.492706807931
 30
0.0
 10
226.0696968246432
 20
214.4358561934631
 30
0.0
 10
226.2072452005413
 20
214.375702752423
 30
0.0
 10
226.3379767696661
 20
214.312525370181
 30
0.0
 10
226.4612884439463
 20
214.2466162853291
 30
0.0
 10
226.5766118667937
 20
214.1782800967132
 30
0.0
 10
226.6834189197725
 20
214.1078294735119
 30
0.0
 10
226.7812145662679
 20
214.0355913354063
 30
0.0
 10
226.8418182289754
 20
213.9850303468239
 30
0.0
 10
226.8703988752431
 20
213.9594815681109
 30
0.0
 11
223.8215716952431
 21
214.8357820293108
 31
0.0
 11
223.9792516429431
 21
214.8389517462109
 31
0.0
 11
224.1404494369431
 21
214.8369278613108
 31
0.0
 11
224.3044156842431
 21
214.8297197834109
 31
0.0
 11
224.4703881215431
 21
214.8173610222108
 31
0.0
 11
224.6375951587431
 21
214.7999090325108
 31
0.0
 11
224.8052594664431
 21
214.7774449468108
 31
0.0
 11
224.972601589443
 21
214.7500731984108
 31
0.0
 11
225.138843570243
 21
214.7179210361108
 31
0.0
 11
225.3032125657431
 21
214.6811379322108
 31
0.0
 11
225.4649444402431
 21
214.6398948876109
 31
0.0
 11
225.6232873178431
 21
214.5943836375108
 31
0.0
 11
225.7775050777431
 21
214.5448157592109
 31
0.0
 11
225.9268807762431
 21
214.4914216891109
 31
0.0
 11
226.070719980143
 21
214.4344496510107
 31
0.0
 11
226.2083539947431
 21
214.3741645025108
 31
0.0
 11
226.3391429727431
 21
214.3108465034108
 31
0.0
 11
226.4624788886431
 21
214.2447900130108
 31
0.0
 11
226.5777883657431
 21
214.1763021217109
 31
0.0
 11
226.684535341343
 21
214.1057012230108
 31
0.0
 11
226.7822235588431
 21
214.0333155338108
 31
0.0
 11
226.8703988752431
 21
213.9594815681109
 31
0.0
  0
SPLINE
  5
5E9
330
1F
100
AcDbEntity
  8
0
  6
Continuous
 62
     7
100
AcDbSpline
210
0.0
220
0.0
230
1.0
 70
     8
 71
     3
 72
    20
 73
    16
 74
    14
 42
0.0000000001
 43
0.0000000001
 44
0.0000000001
 12
-0.0958457523984932
 22
-0.9953961983789001
 32
0.0
 13
-0.9954798246482379
 23
0.0949732526468039
 33
0.0
 40
0.0
 40
0.0
 40
0.0
 40
0.0
 40
0.0080958630097744
 40
0.0161404008475896
 40
0.0269718767014375
 40
0.0405120601554905
 40
0.0566207445360952
 40
0.0751141508196304
 40
0.0957731919437305
 40
0.1183487779437651
 40
0.1425661809064536
 40
0.1681291426311832
 40
0.1947239590893652
 40
0.2220236578403747
 40
0.249692216948019
 40
0.249692216948019
 40
0.249692216948019
 40
0.249692216948019
 10
190.284239571043
 20
116.2869151039109
 30
0.0
 10
190.2839809196825
 20
116.2842289068234
 30
0.0
 10
190.2771001302227
 20
116.2819922868013
 30
0.0
 10
190.269078977235
 20
116.2802141456567
 30
0.0
 10
190.2580526194366
 20
116.2788555573979
 30
0.0
 10
190.2447011471366
 20
116.2778942689626
 30
0.0
 10
190.2286232984216
 20
116.2773078575403
 30
0.0
 10
190.2102148937032
 20
116.2771277316195
 30
0.0
 10
190.1896348926359
 20
116.2773543010882
 30
0.0
 10
190.1671601395762
 20
116.2779889952352
 30
0.0
 10
190.1430626122082
 20
116.2790248797083
 30
0.0
 10
190.1176435936967
 20
116.280450059754
 30
0.0
 10
190.0912182319424
 20
116.2822478320283
 30
0.0
 10
190.0641149728865
 20
116.2843952613609
 30
0.0
 10
190.045865700566
 20
116.2860391795594
 30
0.0
 10
190.036684536443
 20
116.2869151039109
 30
0.0
 11
190.284239571043
 21
116.2869151039109
 31
0.0
 11
190.277601764443
 21
116.2822801798108
 31
0.0
 11
190.2697611843431
 21
116.2804802096109
 31
0.0
 11
190.259023681243
 21
116.2790565185108
 31
0.0
 11
190.245522710343
 21
116.2780267842109
 31
0.0
 11
190.229426076743
 21
116.2774038081108
 31
0.0
 11
190.210933845643
 21
116.2771953257108
 31
0.0
 11
190.190275857643
 21
116.2774039209109
 31
0.0
 11
190.167708871443
 21
116.2780269916107
 31
0.0
 11
190.143513373543
 21
116.2790567914109
 31
0.0
 11
190.117990087943
 21
116.2804804853109
 31
0.0
 11
190.0914562550431
 21
116.2822804781109
 31
0.0
 11
190.0642416336431
 21
116.2844340644107
 31
0.0
 11
190.036684536443
 21
116.2869151039109
 31
0.0
  0
SPLINE
  5
5EA
330
1F
100
AcDbEntity
  8
0
  6
Continuous
 62
     7
100
AcDbSpline
210
0.0
220
0.0
230
1.0
 70
     8
 71
     3
 72
    20
 73
    16
 74
    14
 42
0.0000000001
 43
0.0000000001
 44
0.0000000001
 12
-0.9954798246614442
 22
-0.0949732525083786
 32
0.0
 13
-0.0958457523711267
 23
0.9953961983815352
 33
0.0
 40
0.0
 40
0.0
 40
0.0
 40
0.0
 40
0.0276685588233002
 40
0.0549682532780424
 40
0.0815630703018243
 40
0.1071260321701726
 40
0.1313434386419855
 40
0.1539190311278712
 40
0.1745780819128044
 40
0.1930715003675764
 40
0.2091801976000518
 40
0.2227203922176465
 40
0.2335518688359917
 40
0.2415964137774425
 40
0.2496920824808664
 40
0.2496920824808664
 40
0.2496920824808664
 40
0.2496920824808664
 10
189.005520023143
 20
116.2869151039109
 30
0.0
 10
188.9963388591144
 20
116.2860391795697
 30
0.0
 10
188.9780895861374
 20
116.2843952986975
 30
0.0
 10
188.9509863621334
 20
116.2822474375788
 30
0.0
 10
188.924560990189
 20
116.2804498178992
 30
0.0
 10
188.8991419739118
 20
116.2790245826391
 30
0.0
 10
188.8750444387964
 20
116.277988784034
 30
0.0
 10
188.8525696768429
 20
116.2773541795856
 30
0.0
 10
188.8319896642752
 20
116.2771277242383
 30
0.0
 10
188.8135812509336
 20
116.2773079694425
 30
0.0
 10
188.7975033882182
 20
116.2778944642051
 30
0.0
 10
188.784151928654
 20
116.2788558582454
 30
0.0
 10
188.7731255268996
 20
116.2802143789387
 30
0.0
 10
188.7651045283167
 20
116.2819926618224
 30
0.0
 10
188.7582236336957
 20
116.284228971294
 30
0.0
 10
188.7579649885431
 20
116.2869151039109
 30
0.0
 11
189.005520023143
 21
116.2869151039109
 31
0.0
 11
188.9779629303431
 21
116.2844340187108
 31
0.0
 11
188.9507483332431
 21
116.2822801798108
 31
0.0
 11
188.924214498243
 21
116.2804802096109
 31
0.0
 11
188.898691212343
 21
116.2790565185108
 31
0.0
 11
188.874495708143
 21
116.2780267842109
 31
0.0
 11
188.8519287128431
 21
116.2774038081108
 31
0.0
 11
188.831270714043
 21
116.2771953257108
 31
0.0
 11
188.812778472043
 21
116.2774039209109
 31
0.0
 11
188.796681829243
 21
116.2780269916107
 31
0.0
 11
188.7831808521431
 21
116.2790567914109
 31
0.0
 11
188.772443348643
 21
116.2804804853109
 31
0.0
 11
188.764602766443
 21
116.2822804781109
 31
0.0
 11
188.7579649885431
 21
116.2869151039109
 31
0.0
  0
SPLINE
  5
5EB
330
1F
100
AcDbEntity
  8
0
  6
Continuous
 62
     7
100
AcDbSpline
210
0.0
220
0.0
230
1.0
 70
     8
 71
     3
 72
    30
 73
    26
 74
    24
 42
0.0000000001
 43
0.0000000001
 44
0.0000000001
 12
0.0958458692132947
 22
0.9953961871309072
 32
0.0
 13
0.9690161509749303
 23
0.2469973666858234
 33
0.0
 40
0.0
 40
0.0
 40
0.0
 40
0.0
 40
0.1377929266178746
 40
0.2772884215313396
 40
0.418274911392175
 40
0.5605947705079223
 40
0.7048947064731176
 40
0.8521984648517491
 40
1.002285847334079
 40
1.155013932424096
 40
1.31138011179863
 40
1.47351008563506
 40
1.63957765984834
 40
1.801180672142574
 40
1.953790376142352
 40
2.095999264936708
 40
2.226446338968055
 40
2.343229842272005
 40
2.445697186837802
 40
2.536753956325846
 40
2.618383566854426
 40
2.691854462989923
 40
2.758299208922054
 40
2.818651233529571
 40
2.873782672792904
 40
2.873782672792904
 40
2.873782672792904
 40
2.873782672792904
 10
106.6410638679431
 20
121.8085286736108
 30
0.0
 10
106.6454661622174
 20
121.8542481915339
 30
0.0
 10
106.6570951888453
 20
121.9460092634397
 30
0.0
 10
106.6829392307482
 20
122.0831005329688
 30
0.0
 10
106.717423082058
 20
122.2198416357054
 30
0.0
 10
106.7606733455859
 20
122.3557499499748
 30
0.0
 10
106.8129603158321
 20
122.4907085388332
 30
0.0
 10
106.8746410521771
 20
122.6245026060809
 30
0.0
 10
106.9460061964245
 20
122.7565993257057
 30
0.0
 10
107.0273166277762
 20
122.8864026107663
 30
0.0
 10
107.1192927100537
 20
123.0138733405235
 30
0.0
 10
107.2224728426911
 20
123.1383068734306
 30
0.0
 10
107.3352173713916
 20
123.25657994315
 30
0.0
 10
107.4534978066747
 20
123.3646508071279
 30
0.0
 10
107.5724369981057
 20
123.4596883891688
 30
0.0
 10
107.6885319947477
 20
123.5411784913287
 30
0.0
 10
107.7989540024803
 20
123.6095565038408
 30
0.0
 10
107.9011732288436
 20
123.6656811207194
 30
0.0
 10
107.9940883404804
 20
123.7112059515057
 30
0.0
 10
108.0780649673677
 20
123.7481427443438
 30
0.0
 10
108.1543560329908
 20
123.7783919259801
 30
0.0
 10
108.2238838182667
 20
123.8033174538347
 30
0.0
 10
108.287382317334
 20
123.8239455918302
 30
0.0
 10
108.3455561956588
 20
123.8410962836099
 30
0.0
 10
108.3827450078521
 20
123.8510536637376
 30
0.0
 10
108.400552759543
 20
123.8555927705108
 30
0.0
 11
106.6410638679431
 21
121.8085286736108
 31
0.0
 11
106.6583829039431
 21
121.9452288624108
 31
0.0
 11
106.6842189042431
 21
122.0823109334108
 31
0.0
 11
106.7186884266431
 21
122.2190188057108
 31
0.0
 11
106.7618407186431
 21
122.3546389443108
 31
0.0
 11
106.8139657047431
 21
122.4891954653108
 31
0.0
 11
106.8756313499431
 21
122.6229704459109
 31
0.0
 11
106.9469659260431
 21
122.7550219534109
 31
0.0
 11
107.028038971243
 21
122.8844554472109
 31
0.0
 11
107.1195302378431
 21
123.0112613232108
 31
0.0
 11
107.223016025843
 21
123.1360684548109
 31
0.0
 11
107.3375991943431
 21
123.2562730167108
 31
0.0
 11
107.4569025567431
 21
123.3652787106109
 31
0.0
 11
107.576127183743
 21
123.4605426076109
 31
0.0
 11
107.6925251767431
 21
123.542242517511
 31
0.0
 11
107.803431554843
 21
123.6109172175109
 31
0.0
 11
107.9058009546431
 21
123.6671212443109
 31
0.0
 11
107.997818041543
 21
123.7122035293108
 31
0.0
 11
108.0811691928431
 21
123.7488630553109
 31
0.0
 11
108.1570523254431
 21
123.7789486582108
 31
0.0
 11
108.226213729543
 21
123.8037412531109
 31
0.0
 11
108.2894079503431
 21
123.8242691541108
 31
0.0
 11
108.347296962343
 21
123.8413345918108
 31
0.0
 11
108.400552759543
 21
123.8555927705108
 31
0.0
  0
LINE
  5
5EC
330
1F
100
AcDbEntity
  8
0
  6
Continuous
 62
     7
100
AcDbLine
 10
218.271809715943
 20
117.8373139042108
 30
0.0
 11
218.2706893463431
 21
117.8537144226108
 31
0.0
  0
LINE
  5
5ED
330
1F
100
AcDbEntity
  8
0
  6
Continuous
 62
     7
100
AcDbLine
 10
218.2706893463431
 20
117.8537144226108
 30
0.0
 11
218.2705154545431
 21
117.8563715729109
 31
0.0
  0
SPLINE
  5
5EE
330
1F
100
AcDbEntity
  8
0
  6
Continuous
 62
     7
100
AcDbSpline
210
0.0
220
0.0
230
1.0
 70
     8
 71
     3
 72
    71
 73
    67
 74
    65
 42
0.0000000001
 43
0.0000000001
 44
0.0000000001
 12
-0.061241243632109
 22
0.9981229934624254
 32
0.0
 13
0.1302191814808693
 23
0.9914852317480338
 33
0.0
 40
0.0
 40
0.0
 40
0.0
 40
0.0
 40
0.0117964265301227
 40
0.0251828407159752
 40
0.0401338673316208
 40
0.0566252292545959
 40
0.0746347708267808
 40
0.0941431059454199
 40
0.1151340741818145
 40
0.1375955004097849
 40
0.1615191931069749
 40
0.1869014416848804
 40
0.2137431385501472
 40
0.2420497248017529
 40
0.2718316373692708
 40
0.3031038085247395
 40
0.335886363517778
 40
0.3702038690489741
 40
0.4060862237636219
 40
0.4435677151081231
 40
0.4826881770172133
 40
0.523491794160088
 40
0.5660286012823309
 40
0.6103531210879848
 40
0.6565258792286124
 40
0.7046126132372334
 40
0.7546846144864176
 40
0.806820127581879
 40
0.8611019957819671
 40
0.9176216329995412
 40
0.9764760049331494
 40
1.03776924331265
 40
1.101615830882444
 40
1.168135123431953
 40
1.237457372304512
 40
1.30972318023164
 40
1.385078602757479
 40
1.46368723892252
 40
1.545726093389325
 40
1.63137754509613
 40
1.720841269188741
 40
1.814331038260071
 40
1.912065914176037
 40
2.014296795638598
 40
2.121316089842514
 40
2.233426170525409
 40
2.35093831209119
 40
2.474189946112806
 40
2.603530357845529
 40
2.739312493360228
 40
2.88193629451615
 40
3.031878394527824
 40
3.189635860595974
 40
3.355709506829619
 40
3.530592126742506
 40
3.714770022014466
 40
3.908560520860221
 40
4.111791838380037
 40
4.32416362049743
 40
4.545494976736965
 40
4.775649050743816
 40
5.014517224784522
 40
5.261995238106142
 40
5.518311636235552
 40
5.784676406442354
 40
6.062664993850809
 40
6.062664993850809
 40
6.062664993850809
 40
6.062664993850809
 10
218.269497453743
 20
117.8723974608109
 30
0.0
 10
218.269256644466
 20
117.876322222331
 30
0.0
 10
218.2687531901794
 20
117.8847014039092
 30
0.0
 10
218.2679925584942
 20
117.8980577416245
 30
0.0
 10
218.2671921720742
 20
117.9129792545325
 30
0.0
 10
218.2663685604352
 20
117.9294426810954
 30
0.0
 10
218.2655379398505
 20
117.9474266355797
 30
0.0
 10
218.2647168559432
 20
117.9669123478959
 30
0.0
 10
218.2639217447559
 20
117.9878842552027
 30
0.0
 10
218.2631688869218
 20
118.0103304023984
 30
0.0
 10
218.2624742914967
 20
118.034242854518
 30
0.0
 10
218.2618536456865
 20
118.0596179020974
 30
0.0
 10
218.2613222866898
 20
118.0864562514524
 30
0.0
 10
218.2608951941577
 20
118.1147632004029
 30
0.0
 10
218.2605870078048
 20
118.1445486080761
 30
0.0
 10
218.2604120543607
 20
118.1758271162053
 30
0.0
 10
218.260384388845
 20
118.2086179713849
 30
0.0
 10
218.2605178434734
 20
118.2429453110673
 30
0.0
 10
218.2608260820906
 20
118.278837902453
 30
0.0
 10
218.2613226610362
 20
118.3163295173622
 30
0.0
 10
218.2620210880774
 20
118.3554586111846
 30
0.0
 10
218.2629348928418
 20
118.3962688152425
 30
0.0
 10
218.2640776845333
 20
118.4388085886561
 30
0.0
 10
218.2654632296872
 20
118.4831317727862
 30
0.0
 10
218.2671055106906
 20
118.5292973817277
 30
0.0
 10
218.2690188010146
 20
118.5773699597982
 30
0.0
 10
218.2712177402514
 20
118.6274198997459
 30
0.0
 10
218.2737173900452
 20
118.6795232394067
 30
0.0
 10
218.2765333390747
 20
118.7337626666488
 30
0.0
 10
218.2796817448321
 20
118.7902270523001
 30
0.0
 10
218.2831794382724
 20
118.8490123038125
 30
0.0
 10
218.2870440185633
 20
118.9102219561875
 30
0.0
 10
218.2912939055625
 20
118.9739669436827
 30
0.0
 10
218.2959484771077
 20
119.0403668378826
 30
0.0
 10
218.3010281291184
 20
119.1095498447217
 30
0.0
 10
218.3065543520414
 20
119.1816529934403
 30
0.0
 10
218.312549949094
 20
119.2568243428548
 30
0.0
 10
218.3190391961454
 20
119.3352239903551
 30
0.0
 10
218.3260479217806
 20
119.4170240390385
 30
0.0
 10
218.3336035539982
 20
119.5024085107374
 30
0.0
 10
218.3417351880025
 20
119.5915735713026
 30
0.0
 10
218.3504736349882
 20
119.6847274973619
 30
0.0
 10
218.3598519078093
 20
119.782095498512
 30
0.0
 10
218.3699062043526
 20
119.8839288016102
 30
0.0
 10
218.380676253028
 20
119.9905061825891
 30
0.0
 10
218.3922046758928
 20
120.1021263450421
 30
0.0
 10
218.4045364760714
 20
120.2191028273359
 30
0.0
 10
218.4177190966875
 20
120.3417646277911
 30
0.0
 10
218.4318022176338
 20
120.4704544689579
 30
0.0
 10
218.4468384730584
 20
120.6055357062365
 30
0.0
 10
218.4628859075308
 20
120.7474138003557
 30
0.0
 10
218.4800088341988
 20
120.8965418466477
 30
0.0
 10
218.4982763558835
 20
121.0534062327779
 30
0.0
 10
218.5177590667813
 20
121.2184985935801
 30
0.0
 10
218.5385278034693
 20
121.3923069202697
 30
0.0
 10
218.5606465134191
 20
121.5752584297898
 30
0.0
 10
218.5841521920897
 20
121.7675604596957
 30
0.0
 10
218.609048303176
 20
121.969160280594
 30
0.0
 10
218.6353152335621
 20
122.1798406885206
 30
0.0
 10
218.6629320719844
 20
122.3993963898366
 30
0.0
 10
218.6918836897021
 20
122.6276857984575
 30
0.0
 10
218.7221564799763
 20
122.8645929042667
 30
0.0
 10
218.7537510158982
 20
123.1101226978144
 30
0.0
 10
218.7867236228974
 20
123.3647161762933
 30
0.0
 10
218.8212038619248
 20
123.6293694476335
 30
0.0
 10
218.8447738309386
 20
123.8092832361409
 30
0.0
 10
218.856840313043
 20
123.9011570958109
 30
0.0
 11
218.269497453743
 21
117.8723974608109
 31
0.0
 11
218.2687907217431
 21
117.8841726979109
 31
0.0
 11
218.2680291554431
 21
117.8975374314109
 31
0.0
 11
218.267228201243
 21
117.9124669883109
 31
0.0
 11
218.2664039004431
 21
117.9289377365108
 31
0.0
 11
218.265572624043
 21
117.9469280830107
 31
0.0
 11
218.2647508636431
 21
117.9664191027107
 31
0.0
 11
218.2639550660431
 21
117.9873949806109
 31
0.0
 11
218.2632014926431
 21
118.0098437622109
 31
0.0
 11
218.262506143543
 21
118.0337573475109
 31
0.0
 11
218.261884691243
 21
118.059131987211
 31
0.0
 11
218.2613524566431
 21
118.0859684068108
 31
0.0
 11
218.2609244068431
 21
118.1142717564109
 31
0.0
 11
218.2606151639431
 21
118.1440520634108
 31
0.0
 11
218.260439041943
 21
118.1753237386109
 31
0.0
 11
218.260410080343
 21
118.2081062808109
 31
0.0
 11
218.260542097443
 21
118.2424235324108
 31
0.0
 11
218.2608487448431
 21
118.2783045768108
 31
0.0
 11
218.2613435622431
 21
118.3157828018108
 31
0.0
 11
218.262040049943
 21
118.3548970632108
 31
0.0
 11
218.262951715843
 21
118.3956904945108
 31
0.0
 11
218.264092166943
 21
118.4382120106108
 31
0.0
 11
218.265475143943
 21
118.4825149499108
 31
0.0
 11
218.2671146247431
 21
118.5286585919108
 31
0.0
 11
218.2690248671431
 21
118.5767073688108
 31
0.0
 11
218.2712204788431
 21
118.6267312091108
 31
0.0
 11
218.273716544043
 21
118.6788069365109
 31
0.0
 11
218.2765285750431
 21
118.7330159182108
 31
0.0
 11
218.2796727674431
 21
118.7894480318108
 31
0.0
 11
218.283165910843
 21
118.8481986492108
 31
0.0
 11
218.287025524843
 21
118.9093702476109
 31
0.0
 11
218.291270130843
 21
118.9730755854109
 31
0.0
 11
218.295918960143
 21
119.0394322329108
 31
0.0
 11
218.300992403043
 21
119.1085685791108
 31
0.0
 11
218.306512057343
 21
119.1806232834109
 31
0.0
 11
218.3125004006431
 21
119.2557403883109
 31
0.0
 11
218.3189817923431
 21
119.3340813689109
 31
0.0
 11
218.3259822692431
 21
119.4158209980108
 31
0.0
 11
218.3335289052431
 21
119.5011393399108
 31
0.0
 11
218.3416508676431
 21
119.5902336251108
 31
0.0
 11
218.3503792236431
 21
119.6833150557108
 31
0.0
 11
218.359746136943
 21
119.7806000335108
 31
0.0
 11
218.3697874438431
 21
119.8823365819108
 31
0.0
 11
218.3805438714431
 21
119.9888139438108
 31
0.0
 11
218.3920580704431
 21
120.1003311775109
 31
0.0
 11
218.404374436943
 21
120.2171961018108
 31
0.0
 11
218.417540896243
 21
120.3397424589109
 31
0.0
 11
218.4316074202431
 21
120.4683156871108
 31
0.0
 11
218.446625052343
 21
120.6032647851109
 31
0.0
 11
218.4626506796431
 21
120.7449853832108
 31
0.0
 11
218.479750675943
 21
120.8939492160107
 31
0.0
 11
218.4979947764431
 21
121.0506481978109
 31
0.0
 11
218.517454044843
 21
121.2155778581109
 31
0.0
 11
218.5381992821431
 21
121.3892256795108
 31
0.0
 11
218.5603009617431
 21
121.5720726452108
 31
0.0
 11
218.5838092063431
 21
121.7644319961109
 31
0.0
 11
218.6087132109431
 21
121.9661316713107
 31
0.0
 11
218.6349832809431
 21
122.1768724060108
 31
0.0
 11
218.662601586243
 21
122.3964738597109
 31
0.0
 11
218.6915536539431
 21
122.6247996698109
 31
0.0
 11
218.7218268857431
 21
122.8617417218108
 31
0.0
 11
218.7534078915431
 21
123.1071964165108
 31
0.0
 11
218.7863250405431
 21
123.3613903528109
 31
0.0
 11
218.8207338916431
 21
123.6255233151108
 31
0.0
 11
218.856840313043
 21
123.9011570958109
 31
0.0
  0
SPLINE
  5
5EF
330
1F
100
AcDbEntity
  8
0
  6
Continuous
 62
     7
100
AcDbSpline
210
0.0
220
0.0
230
1.0
 70
     8
 71
     3
 72
    30
 73
    26
 74
    24
 42
0.0000000001
 43
0.0000000001
 44
0.0000000001
 12
0.9690161510418022
 22
-0.2469973664234723
 32
0.0
 13
0.0958458682159824
 23
-0.9953961872269376
 33
0.0
 40
0.0
 40
0.0
 40
0.0
 40
0.0
 40
0.055835840432595
 40
0.1158487818278166
 40
0.1794741996115919
 40
0.2479716489583255
 40
0.3232846909772901
 40
0.4074338249978453
 40
0.5025445880910582
 40
0.6108492415008309
 40
0.7352539675671613
 40
0.8810513131358607
 40
1.040321064631641
 40
1.204489517371841
 40
1.370129356346645
 40
1.53443401069943
 40
1.695017434969511
 40
1.851501001222689
 40
2.004611110484304
 40
2.154646547691439
 40
2.301775784757311
 40
2.447106206040881
 40
2.591034642017691
 40
2.733312269038039
 40
2.873770039585811
 40
2.873770039585811
 40
2.873770039585811
 40
2.873770039585811
 10
219.6581518041431
 20
123.8555927698108
 30
0.0
 10
219.6761870812051
 20
123.8509956679645
 30
0.0
 10
219.7134921171068
 20
123.8410010222327
 30
0.0
 10
219.7708773112989
 20
123.8240684012417
 30
0.0
 10
219.8318056913555
 20
123.8043056182105
 30
0.0
 10
219.8969535570653
 20
123.7811064050482
 30
0.0
 10
219.9677288247175
 20
123.7534149689212
 30
0.0
 10
220.0456701440039
 20
123.7198134468126
 30
0.0
 10
220.1322036687565
 20
123.6785204907261
 30
0.0
 10
220.2287329665669
 20
123.6272255802578
 30
0.0
 10
220.3371453274847
 20
123.5625730069709
 30
0.0
 10
220.4557900354551
 20
123.4823015380894
 30
0.0
 10
220.5795285501397
 20
123.3864350015818
 30
0.0
 10
220.7014045545457
 20
123.2779631741394
 30
0.0
 10
220.816635860835
 20
123.1600929917411
 30
0.0
 10
220.9226241259218
 20
123.0354147252822
 30
0.0
 10
221.0180023199247
 20
122.9062285035402
 30
0.0
 10
221.102491105895
 20
122.7740899389918
 30
0.0
 10
221.176423662775
 20
122.6397755185818
 30
0.0
 10
221.2402113177267
 20
122.5037997411345
 30
0.0
 10
221.2942875531509
 20
122.3664667651355
 30
0.0
 10
221.3390174760867
 20
122.227952843562
 30
0.0
 10
221.3746318285191
 20
122.0884890349575
 30
0.0
 10
221.4012410604059
 20
121.9486916521886
 30
0.0
 10
221.4131532593211
 20
121.8551323833674
 30
0.0
 10
221.417640691643
 20
121.8085286736108
 30
0.0
 11
219.6581518041431
 21
123.8555927698108
 31
0.0
 11
219.7120858243431
 21
123.8411441525109
 31
0.0
 11
219.769645655543
 21
123.8241612503109
 31
0.0
 11
219.830167315143
 21
123.8045316169108
 31
0.0
 11
219.8946959147431
 21
123.7815542280108
 31
0.0
 11
219.9648322289431
 21
123.7541142621108
 31
0.0
 11
220.0421068362431
 21
123.7208019247109
 31
0.0
 11
220.1279460774431
 21
123.6798424090109
 31
0.0
 11
220.2235870646431
 21
123.6290221422109
 31
0.0
 11
220.3304358589431
 21
123.5653050250109
 31
0.0
 11
220.4511933678431
 21
123.4836074729108
 31
0.0
 11
220.5770989905431
 21
123.3860645187109
 31
0.0
 11
220.6997314676431
 21
123.2769198604108
 31
0.0
 11
220.8155220722431
 21
123.1584753918108
 31
0.0
 11
220.921938190643
 21
123.0332890140108
 31
0.0
 11
221.0173147149431
 21
122.9040978581109
 31
0.0
 11
221.1016069251431
 21
122.7722573112108
 31
0.0
 11
221.1754343327431
 21
122.6381222321108
 31
0.0
 11
221.2391491794431
 21
122.5022875873108
 31
0.0
 11
221.2930487118431
 21
122.3653867005108
 31
0.0
 11
221.3377029386431
 21
122.2270865509109
 31
0.0
 11
221.3733086571431
 21
122.0876318002108
 31
0.0
 11
221.3999058814431
 21
121.9478623085108
 31
0.0
 11
221.417640691643
 21
121.8085286736108
 31
0.0
  0
LINE
  5
5F0
330
1F
100
AcDbEntity
  8
0
  6
Continuous
 62
     7
100
AcDbLine
 10
109.7868948436431
 20
117.8373139042108
 30
0.0
 11
109.7880152132431
 21
117.8537144226108
 31
0.0
  0
LINE
  5
5F1
330
1F
100
AcDbEntity
  8
0
  6
Continuous
 62
     7
100
AcDbLine
 10
109.7880152132431
 20
117.8537144226108
 30
0.0
 11
109.7881891050431
 21
117.8563715729109
 31
0.0
  0
SPLINE
  5
5F2
330
1F
100
AcDbEntity
  8
0
  6
Continuous
 62
     7
100
AcDbSpline
210
0.0
220
0.0
230
1.0
 70
     8
 71
     3
 72
    71
 73
    67
 74
    65
 42
0.0000000001
 43
0.0000000001
 44
0.0000000001
 12
0.0612412436008928
 22
0.9981229934643407
 32
0.0
 13
-0.1302191814808689
 23
0.9914852317480338
 33
0.0
 40
0.0
 40
0.0
 40
0.0
 40
0.0
 40
0.0117964265301261
 40
0.0251828407159819
 40
0.0401338673316244
 40
0.0566252292596001
 40
0.0746347708271646
 40
0.0941431059458085
 40
0.1151340741822031
 40
0.1375955004101715
 40
0.1615191931073615
 40
0.1869014416852656
 40
0.2137431385505347
 40
0.2420497248021403
 40
0.2718316373696583
 40
0.3031038085251266
 40
0.3358863635181652
 40
0.3702038690493613
 40
0.406086223764009
 40
0.443567715108511
 40
0.4826881770176002
 40
0.5234917941582422
 40
0.5660286012831675
 40
0.6103531210888179
 40
0.6565258792294474
 40
0.7046126132380661
 40
0.7546846144872502
 40
0.8068201275827144
 40
0.8611019957827997
 40
0.9176216330003738
 40
0.9764760049339887
 40
1.037769243313485
 40
1.101615830883284
 40
1.168135123425801
 40
1.237457372305682
 40
1.309723180225169
 40
1.385078602758949
 40
1.463687238923989
 40
1.545726093390799
 40
1.6313775450976
 40
1.720841269190216
 40
1.814331038261541
 40
1.912065914177518
 40
2.014296795640068
 40
2.121316089843989
 40
2.233426170516609
 40
2.350938312092882
 40
2.474189946114499
 40
2.603530357847209
 40
2.739312493350855
 40
2.881936294518006
 40
3.031878394529679
 40
3.189635860597836
 40
3.355709506819766
 40
3.530592126732639
 40
3.714770022016605
 40
3.908560520862367
 40
4.111791838382183
 40
4.324163620499569
 40
4.545494976739118
 40
4.775649050745955
 40
5.01451722478666
 40
5.261995238095521
 40
5.51831163623778
 40
5.784676406444582
 40
6.062664993853044
 40
6.062664993853044
 40
6.062664993853044
 40
6.062664993853044
 10
109.789207105843
 20
117.8723974608109
 30
0.0
 10
109.7894479151199
 20
117.876322222331
 30
0.0
 10
109.7899513694046
 20
117.8847014039093
 30
0.0
 10
109.7907120011012
 20
117.898057741624
 30
0.0
 10
109.7915123874717
 20
117.9129792545362
 30
0.0
 10
109.7923359993244
 20
117.9294426810886
 30
0.0
 10
109.793166619683
 20
117.9474266355837
 30
0.0
 10
109.7939877036588
 20
117.9669123478951
 30
0.0
 10
109.7947828148255
 20
117.987884255203
 30
0.0
 10
109.7955356726656
 20
118.0103304023983
 30
0.0
 10
109.796230268089
 20
118.034242854518
 30
0.0
 10
109.7968509138995
 20
118.0596179020974
 30
0.0
 10
109.7973822728964
 20
118.0864562514524
 30
0.0
 10
109.7978093654285
 20
118.1147632004029
 30
0.0
 10
109.7981175517813
 20
118.144548608076
 30
0.0
 10
109.7982925052255
 20
118.1758271162053
 30
0.0
 10
109.7983201707409
 20
118.2086179713849
 30
0.0
 10
109.7981867161135
 20
118.2429453110674
 30
0.0
 10
109.7978784774928
 20
118.2788379024529
 30
0.0
 10
109.7973818985608
 20
118.3163295173625
 30
0.0
 10
109.7966834714652
 20
118.3554586111828
 30
0.0
 10
109.7957696669175
 20
118.396268815246
 30
0.0
 10
109.7946268750033
 20
118.4388085886539
 30
0.0
 10
109.7932413299131
 20
118.4831317727866
 30
0.0
 10
109.7915990488914
 20
118.5292973817276
 30
0.0
 10
109.7896857585727
 20
118.5773699597982
 30
0.0
 10
109.7874868193344
 20
118.6274198997459
 30
0.0
 10
109.784987169541
 20
118.6795232394068
 30
0.0
 10
109.7821712205112
 20
118.7337626666488
 30
0.0
 10
109.7790228147549
 20
118.7902270523002
 30
0.0
 10
109.7755251213106
 20
118.8490123038123
 30
0.0
 10
109.7716605410345
 20
118.9102219561883
 30
0.0
 10
109.7674106539775
 20
118.9739669436771
 30
0.0
 10
109.7627560826619
 20
119.0403668378934
 30
0.0
 10
109.7576764303754
 20
119.1095498447099
 30
0.0
 10
109.7521502077311
 20
119.1816529934522
 30
0.0
 10
109.7461546104392
 20
119.256824342848
 30
0.0
 10
109.739665363456
 20
119.3352239903563
 30
0.0
 10
109.7326566378011
 20
119.4170240390382
 30
0.0
 10
109.7251010055892
 20
119.5024085107375
 30
0.0
 10
109.7169693715829
 20
119.5915735713025
 30
0.0
 10
109.7082309245987
 20
119.684727497362
 30
0.0
 10
109.6988526517739
 20
119.7820954985117
 30
0.0
 10
109.6887983552444
 20
119.8839288016113
 30
0.0
 10
109.6780283065154
 20
119.9905061825812
 30
0.0
 10
109.6664998838659
 20
120.1021263450567
 30
0.0
 10
109.654168083463
 20
120.2191028273269
 30
0.0
 10
109.6409854629233
 20
120.3417646277938
 30
0.0
 10
109.6269023419061
 20
120.4704544689491
 30
0.0
 10
109.6118660867009
 20
120.6055357062521
 30
0.0
 10
109.5958186520041
 20
120.7474138003462
 30
0.0
 10
109.5786957254097
 20
120.8965418466503
 30
0.0
 10
109.560428203667
 20
121.0534062327698
 30
0.0
 10
109.5409454929354
 20
121.2184985935876
 30
0.0
 10
109.520176756239
 20
121.3923069202764
 30
0.0
 10
109.4980580461325
 20
121.5752584297816
 30
0.0
 10
109.4745523675065
 20
121.767560459697
 30
0.0
 10
109.449656256407
 20
121.9691602805936
 30
0.0
 10
109.4233893260257
 20
122.1798406885208
 30
0.0
 10
109.3957724875985
 20
122.3993963898362
 30
0.0
 10
109.3668208698952
 20
122.627685798459
 30
0.0
 10
109.3365480795671
 20
122.8645929042569
 30
0.0
 10
109.3049535438589
 20
123.1101226978321
 30
0.0
 10
109.2719809366407
 20
123.3647161762828
 30
0.0
 10
109.2375006976761
 20
123.6293694476354
 30
0.0
 10
109.2139307286474
 20
123.8092832361409
 30
0.0
 10
109.201864246543
 20
123.9011570958109
 30
0.0
 11
109.789207105843
 21
117.8723974608109
 31
0.0
 11
109.789913837843
 21
117.8841726979109
 31
0.0
 11
109.790675404143
 21
117.8975374314109
 31
0.0
 11
109.791476358343
 21
117.9124669883109
 31
0.0
 11
109.7923006592431
 21
117.9289377365108
 31
0.0
 11
109.793131935543
 21
117.9469280830107
 31
0.0
 11
109.793953695943
 21
117.9664191027107
 31
0.0
 11
109.7947494935431
 21
117.9873949806109
 31
0.0
 11
109.795503066943
 21
118.0098437622109
 31
0.0
 11
109.796198416043
 21
118.0337573475109
 31
0.0
 11
109.796819868343
 21
118.059131987211
 31
0.0
 11
109.7973521029431
 21
118.0859684068108
 31
0.0
 11
109.7977801527431
 21
118.1142717564109
 31
0.0
 11
109.7980893956431
 21
118.1440520634108
 31
0.0
 11
109.798265517643
 21
118.1753237386109
 31
0.0
 11
109.7982944792431
 21
118.2081062808109
 31
0.0
 11
109.7981624621431
 21
118.2424235324108
 31
0.0
 11
109.7978558147431
 21
118.2783045768108
 31
0.0
 11
109.797360997343
 21
118.3157828018108
 31
0.0
 11
109.7966645096431
 21
118.3548970632108
 31
0.0
 11
109.7957528438431
 21
118.3956904945108
 31
0.0
 11
109.794612392643
 21
118.4382120106108
 31
0.0
 11
109.7932294156431
 21
118.4825149499108
 31
0.0
 11
109.791589934843
 21
118.5286585919108
 31
0.0
 11
109.789679692443
 21
118.5767073688108
 31
0.0
 11
109.7874840807431
 21
118.6267312091108
 31
0.0
 11
109.7849880155431
 21
118.6788069365109
 31
0.0
 11
109.782175984543
 21
118.7330159182108
 31
0.0
 11
109.7790317921431
 21
118.7894480318108
 31
0.0
 11
109.775538648743
 21
118.8481986492108
 31
0.0
 11
109.7716790347431
 21
118.9093702476109
 31
0.0
 11
109.767434428743
 21
118.9730755854109
 31
0.0
 11
109.762785599543
 21
119.0394322329108
 31
0.0
 11
109.757712156543
 21
119.1085685791108
 31
0.0
 11
109.752192502343
 21
119.1806232834109
 31
0.0
 11
109.7462041589431
 21
119.2557403883109
 31
0.0
 11
109.7397227672431
 21
119.3340813689109
 31
0.0
 11
109.732722290343
 21
119.4158209980108
 31
0.0
 11
109.7251756543431
 21
119.5011393399108
 31
0.0
 11
109.717053691943
 21
119.5902336251108
 31
0.0
 11
109.708325335943
 21
119.6833150557108
 31
0.0
 11
109.698958422643
 21
119.7806000335108
 31
0.0
 11
109.6889171157431
 21
119.8823365819108
 31
0.0
 11
109.678160688143
 21
119.9888139438108
 31
0.0
 11
109.666646489243
 21
120.1003311775109
 31
0.0
 11
109.654330122643
 21
120.2171961018108
 31
0.0
 11
109.641163663343
 21
120.3397424589109
 31
0.0
 11
109.6270971393431
 21
120.4683156871108
 31
0.0
 11
109.612079507343
 21
120.6032647851109
 31
0.0
 11
109.5960538799431
 21
120.7449853832108
 31
0.0
 11
109.5789538836431
 21
120.8939492160107
 31
0.0
 11
109.560709783143
 21
121.0506481978109
 31
0.0
 11
109.541250514843
 21
121.2155778581109
 31
0.0
 11
109.5205052775431
 21
121.3892256795108
 31
0.0
 11
109.4984035978431
 21
121.5720726452108
 31
0.0
 11
109.474895353243
 21
121.7644319961109
 31
0.0
 11
109.4499913486431
 21
121.9661316713107
 31
0.0
 11
109.4237212786431
 21
122.1768724060108
 31
0.0
 11
109.396102973343
 21
122.3964738597109
 31
0.0
 11
109.3671509056431
 21
122.6247996698109
 31
0.0
 11
109.3368776738431
 21
122.8617417218108
 31
0.0
 11
109.3052966681431
 21
123.1071964165108
 31
0.0
 11
109.272379519043
 21
123.3613903528109
 31
0.0
 11
109.2379706679431
 21
123.6255233151108
 31
0.0
 11
109.201864246543
 21
123.9011570958109
 31
0.0
  0
SPLINE
  5
5F3
330
1F
100
AcDbEntity
  8
0
  6
Continuous
 62
     7
100
AcDbSpline
210
0.0
220
0.0
230
1.0
 70
     8
 71
     3
 72
    30
 73
    26
 74
    24
 42
0.0000000001
 43
0.0000000001
 44
0.0000000001
 12
0.9962596746280436
 22
0.0864098415113972
 32
0.0
 13
0.0958463556669097
 23
-0.995396140290574
 33
0.0
 40
0.0
 40
0.0
 40
0.0
 40
0.0
 40
0.2106673894010809
 40
0.4207097858443074
 40
0.6288652998182172
 40
0.8336083833458845
 40
1.033563227905828
 40
1.229187147683569
 40
1.42022388671004
 40
1.605444305598054
 40
1.785455763253432
 40
1.961172908763039
 40
2.133169608698963
 40
2.300858037117503
 40
2.464370046581563
 40
2.624090451642516
 40
2.78075967103315
 40
2.934721639510337
 40
3.08627607112264
 40
3.235824569507295
 40
3.383815583947538
 40
3.531081652399825
 40
3.677625707110873
 40
3.823181515246564
 40
3.967888542578333
 40
3.967888542578333
 40
3.967888542578333
 40
3.967888542578333
 10
219.2279263757431
 20
118.2642312200109
 30
0.0
 10
219.2978861840162
 20
118.2702991319208
 30
0.0
 10
219.4381821322341
 20
118.276509720254
 30
0.0
 10
219.6478707883422
 20
118.2681841091737
 30
0.0
 10
219.8541939846052
 20
118.2427451720006
 30
0.0
 10
220.0544494606458
 20
118.2012684305831
 30
0.0
 10
220.2467476113499
 20
118.1451723084179
 30
0.0
 10
220.4298341411474
 20
118.0759663354984
 30
0.0
 10
220.6027068660294
 20
117.995211783469
 30
0.0
 10
220.7646329915522
 20
117.9045396511798
 30
0.0
 10
220.9154189551088
 20
117.8053883882762
 30
0.0
 10
221.0554594578404
 20
117.6987074070705
 30
0.0
 10
221.1848562726469
 20
117.5854984604223
 30
0.0
 10
221.3035914491558
 20
117.4668549934423
 30
0.0
 10
221.4117069304416
 20
117.3438687558633
 30
0.0
 10
221.50959247196
 20
117.2172147978092
 30
0.0
 10
221.597662061092
 20
117.0873848533634
 30
0.0
 10
221.6762754938089
 20
116.9547805781057
 30
0.0
 10
221.7457061934823
 20
116.8198140056712
 30
0.0
 10
221.8062150490244
 20
116.6827953377846
 30
0.0
 10
221.8580820333913
 20
116.5438046074124
 30
0.0
 10
221.9014577972588
 20
116.4029833756777
 30
0.0
 10
221.9363743958742
 20
116.2606651555302
 30
0.0
 10
221.9628277528924
 20
116.117407450118
 30
0.0
 10
221.9748832452067
 20
116.0213433139039
 30
0.0
 10
221.9795064589431
 20
115.9733297084109
 30
0.0
 11
219.2279263757431
 21
118.2642312200109
 31
0.0
 11
219.4383868895431
 21
118.2735650878108
 31
0.0
 11
219.648264543043
 21
118.2652477045109
 31
0.0
 11
219.854857331543
 21
118.2397891551108
 31
0.0
 11
220.0553476029431
 21
118.1982755269108
 31
0.0
 11
220.247304248843
 21
118.1422881537108
 31
0.0
 11
220.430294056243
 21
118.0731256756108
 31
0.0
 11
220.603379260843
 21
117.9922767572108
 31
0.0
 11
220.764989236143
 21
117.9017846611109
 31
0.0
 11
220.9153974154431
 21
117.8028831723108
 31
0.0
 11
221.0551763463431
 21
117.6964014100109
 31
0.0
 11
221.1846230100431
 21
117.5831475975108
 31
0.0
 11
221.303241288743
 21
117.4646186433109
 31
0.0
 11
221.4111970126431
 21
117.3418109118108
 31
0.0
 11
221.5088660396431
 21
117.2154330302108
 31
0.0
 11
221.5968137124431
 21
117.0857779063107
 31
0.0
 11
221.675325858043
 21
116.9533387477108
 31
0.0
 11
221.7446515432431
 21
116.8185697041108
 31
0.0
 11
221.805062185843
 21
116.6817658020108
 31
0.0
 11
221.8567997344431
 21
116.5431131193108
 31
0.0
 11
221.900147701543
 21
116.4023713392109
 31
0.0
 11
221.935062694843
 21
116.2600474016107
 31
0.0
 11
221.9614903073431
 21
116.1169108424108
 31
0.0
 11
221.9795064589431
 21
115.9733297084109
 31
0.0
  0
SPLINE
  5
5F4
330
1F
100
AcDbEntity
  8
0
  6
Continuous
 62
     7
100
AcDbSpline
210
0.0
220
0.0
230
1.0
 70
     8
 71
     3
 72
    49
 73
    45
 74
    43
 42
0.0000000001
 43
0.0000000001
 44
0.0000000001
 12
0.0958464410362566
 22
0.995396132070385
 32
0.0
 13
0.9962596794779578
 23
-0.0864097855944387
 33
0.0
 40
0.0
 40
0.0
 40
0.0
 40
0.0
 40
0.1327601301063147
 40
0.2624447611594236
 40
0.3891571400431102
 40
0.5130012377939303
 40
0.6340826648250046
 40
0.7525084378066041
 40
0.868386464445915
 40
0.9818248352135745
 40
1.092931030917506
 40
1.201811132709138
 40
1.308569096709702
 40
1.413306130460471
 40
1.516120190553474
 40
1.617104868804396
 40
1.716351258948813
 40
1.813946028569072
 40
1.909971500950909
 40
2.004505767509493
 40
2.097622825643144
 40
2.18939273198378
 40
2.279881766114345
 40
2.369152596079387
 40
2.457264439151201
 40
2.544273205154377
 40
2.630231610130365
 40
2.71518925690819
 40
2.799192773906695
 40
2.88228591553297
 40
2.964509642180528
 40
3.045902184049146
 40
3.126500027528039
 40
3.206336791629944
 40
3.285443621544243
 40
3.363849205517964
 40
3.441579881747082
 40
3.518659696397364
 40
3.59511052042723
 40
3.670952349853901
 40
3.746204204161553
 40
3.82088717638414
 40
3.895047586344534
 40
3.968440346634834
 40
3.968440346634834
 40
3.968440346634834
 40
3.968440346634834
 10
106.079198098543
 20
115.973329708611
 30
0.0
 10
106.0834396272038
 20
116.0173793486113
 30
0.0
 10
106.0941317862583
 20
116.1042539050828
 30
0.0
 10
106.1166866792802
 20
116.2320523631433
 30
0.0
 10
106.1450523895324
 20
116.3556401452225
 30
0.0
 10
106.178738711525
 20
116.4749027887391
 30
0.0
 10
106.2172835842723
 20
116.5897717047559
 30
0.0
 10
106.2602536322997
 20
116.7002116413052
 30
0.0
 10
106.3072448761247
 20
116.8062174545836
 30
0.0
 10
106.3578825694535
 20
116.9078086358475
 30
0.0
 10
106.4118205410078
 20
117.0050248188944
 30
0.0
 10
106.4687400800844
 20
117.0979215627244
 30
0.0
 10
106.5283484999924
 20
117.1865666731304
 30
0.0
 10
106.5903774854048
 20
117.2710370261784
 30
0.0
 10
106.6545811672887
 20
117.35141570374
 30
0.0
 10
106.7207345763382
 20
117.4277901682203
 30
0.0
 10
106.7886318049056
 20
117.500250352992
 30
0.0
 10
106.8580844255179
 20
117.5688873308226
 30
0.0
 10
106.9289195011915
 20
117.6337918400333
 30
0.0
 10
107.0009781160771
 20
117.6950535367055
 30
0.0
 10
107.0741140182541
 20
117.7527604247254
 30
0.0
 10
107.1481923726185
 20
117.8069984344955
 30
0.0
 10
107.2230886212599
 20
117.8578511193702
 30
0.0
 10
107.298687441219
 20
117.9053994504812
 30
0.0
 10
107.3748817905549
 20
117.9497216861886
 30
0.0
 10
107.4515720269792
 20
117.9908933009304
 30
0.0
 10
107.5286650850484
 20
118.0289869598343
 30
0.0
 10
107.606073726593
 20
118.0640725478307
 30
0.0
 10
107.6837158611914
 20
118.0962172369658
 30
0.0
 10
107.7615139336632
 20
118.1254855913627
 30
0.0
 10
107.83939435251
 20
118.1519396930332
 30
0.0
 10
107.9172872604251
 20
118.1756393801268
 30
0.0
 10
107.9951259899479
 20
118.196642346334
 30
0.0
 10
108.0728466690986
 20
118.2150042991517
 30
0.0
 10
108.1503875535156
 20
118.2307790856155
 30
0.0
 10
108.2276888020998
 20
118.2440189407598
 30
0.0
 10
108.3046921901514
 20
118.2547746991739
 30
0.0
 10
108.3813409005329
 20
118.2630960455361
 30
0.0
 10
108.4575794047515
 20
118.2690316700605
 30
0.0
 10
108.5333537172928
 20
118.2726297550091
 30
0.0
 10
108.6086124572389
 20
118.2739371310174
 30
0.0
 10
108.68331630727
 20
118.2730026531344
 30
0.0
 10
108.7573388510827
 20
118.2698660177138
 30
0.0
 10
108.8064054339621
 20
118.2663451635044
 30
0.0
 10
108.8307781832431
 20
118.2642312126108
 30
0.0
 11
106.079198098543
 21
115.973329708611
 31
0.0
 11
106.0954133900431
 21
116.1050958517108
 31
0.0
 11
106.1179504927431
 21
116.2328071767109
 31
0.0
 11
106.146294457743
 21
116.3563087824107
 31
0.0
 11
106.1799559072431
 21
116.4754904394108
 31
0.0
 11
106.218473050843
 21
116.5902821709108
 31
0.0
 11
106.261412920843
 21
116.7006489742109
 31
0.0
 11
106.308371906543
 21
116.8065856096108
 31
0.0
 11
106.3589756378431
 21
116.9081115981109
 31
0.0
 11
106.412878309243
 21
117.0052665709108
 31
0.0
 11
106.469761560143
 21
117.0981060686109
 31
0.0
 11
106.529333029943
 21
117.1866978451108
 31
0.0
 11
106.591324699143
 21
117.2711186908109
 31
0.0
 11
106.655491114043
 21
117.3514517609108
 31
0.0
 11
106.721607082443
 21
117.4277838247109
 31
0.0
 11
106.789467264043
 21
117.5002051041108
 31
0.0
 11
106.858883360243
 21
117.5688064499108
 31
0.0
 11
106.929682538043
 21
117.6336783835108
 31
0.0
 11
107.0017059629431
 21
117.6949103508109
 31
0.0
 11
107.0748074452431
 21
117.7525901549108
 31
0.0
 11
107.148852195943
 21
117.8068035352108
 31
0.0
 11
107.223715690243
 21
117.8576338659108
 31
0.0
 11
107.299282628843
 21
117.9051619510108
 31
0.0
 11
107.375445988743
 21
117.9494658955107
 31
0.0
 11
107.4521061470431
 21
117.9906210348109
 31
0.0
 11
107.5291700604431
 21
118.0286999087108
 31
0.0
 11
107.606550489843
 21
118.0637722752107
 31
0.0
 11
107.684165349643
 21
118.0959051930108
 31
0.0
 11
107.7619370911431
 21
118.1251631220109
 31
0.0
 11
107.8397921304431
 21
118.1516080474108
 31
0.0
 11
107.9176603200431
 21
118.1752996265108
 31
0.0
 11
107.9954753699431
 21
118.1962955876108
 31
0.0
 11
108.073173300643
 21
118.2146515258109
 31
0.0
 11
108.1506923785431
 21
118.2304212151109
 31
0.0
 11
108.2279727418431
 21
118.2436568128109
 31
0.0
 11
108.304956159543
 21
118.2544090882108
 31
0.0
 11
108.381585784543
 21
118.2627276457107
 31
0.0
 11
108.4578060049431
 21
118.2686611520109
 31
0.0
 11
108.533562516143
 21
118.2722575532109
 31
0.0
 11
108.6088030250431
 21
118.2735642273108
 31
0.0
 11
108.6834801268431
 21
118.2726278477108
 31
0.0
 11
108.7575742020431
 21
118.2694918589108
 31
0.0
 11
108.8307781832431
 21
118.2642312126108
 31
0.0
  0
LINE
  5
5F5
330
1F
100
AcDbEntity
  8
0
  6
Continuous
 62
     7
100
AcDbLine
 10
108.943189404643
 20
123.9327365861109
 30
0.0
 11
108.9413582489431
 21
123.9057293012108
 31
0.0
  0
SPLINE
  5
5F6
330
1F
100
AcDbEntity
  8
0
  6
Continuous
 62
     7
100
AcDbSpline
210
0.0
220
0.0
230
1.0
 70
     8
 71
     3
 72
    35
 73
    31
 74
    29
 42
0.0000000001
 43
0.0000000001
 44
0.0000000001
 12
-0.9943478564586182
 22
0.1061712783955761
 32
0.0
 13
-0.1391728406922002
 23
0.9902681053197985
 33
0.0
 40
0.0
 40
0.0
 40
0.0
 40
0.0
 40
0.5418942808556668
 40
1.083717870639109
 40
1.625443222454236
 40
2.167043567546787
 40
2.708493161027591
 40
3.249767521329324
 40
3.790843665003546
 40
4.331700360737173
 40
4.872318314390048
 40
5.41268034715461
 40
5.9527716165211
 40
6.492579753002977
 40
7.032094961408891
 40
7.571310130409216
 40
8.110220921243275
 40
8.648825834384718
 40
9.187126276259474
 40
9.725126574613767
 40
10.26283393006241
 40
10.80025842074479
 40
11.33741295786096
 40
11.87431311358235
 40
12.4109769979471
 40
12.94742511635308
 40
13.48368017334561
 40
14.01976686797917
 40
14.55571166903102
 40
15.09154257074983
 40
15.09154257074983
 40
15.09154257074983
 40
15.09154257074983
 10
108.018693214143
 20
124.3457558305108
 30
0.0
 10
107.8390827419444
 20
124.3649337000287
 30
0.0
 10
107.4807262871065
 20
124.4117021196054
 30
0.0
 10
106.9471531259559
 20
124.5069212144595
 30
0.0
 10
106.4187059570595
 20
124.6269952510626
 30
0.0
 10
105.8965853357664
 20
124.7716525531043
 30
0.0
 10
105.3819579606272
 20
124.9405684471292
 30
0.0
 10
104.8759789755552
 20
125.1333633472387
 30
0.0
 10
104.3797826920401
 20
125.3496043320349
 30
0.0
 10
103.8944818281431
 20
125.5888059380047
 30
0.0
 10
103.4211645372284
 20
125.8504313143453
 30
0.0
 10
102.9608920924599
 20
126.1338934234671
 30
0.0
 10
102.5146964727839
 20
126.4385563795263
 30
0.0
 10
102.0835780618212
 20
126.7637368828417
 30
0.0
 10
101.6685034203029
 20
127.10870575296
 30
0.0
 10
101.2704031281737
 20
127.4726895616463
 30
0.0
 10
100.8901696974332
 20
127.8548723734103
 30
0.0
 10
100.5286555609639
 20
128.2543975867638
 30
0.0
 10
100.1866711540834
 20
128.6703698718489
 30
0.0
 10
99.86498309861339
 20
129.1018571863768
 30
0.0
 10
99.5643124822244
 20
129.5478928784389
 30
0.0
 10
99.28533323684558
 20
130.0074778770549
 30
0.0
 10
99.02867063554298
 20
130.4795829332576
 30
0.0
 10
98.79489989893286
 20
130.9631509588257
 30
0.0
 10
98.58454493510279
 20
131.4570992504837
 30
0.0
 10
98.398077097238
 20
131.960322414612
 30
0.0
 10
98.23591438629255
 20
132.471692997794
 30
0.0
 10
98.09841954699196
 20
132.9900708980813
 30
0.0
 10
97.98590286323928
 20
133.5142802266775
 30
0.0
 10
97.92770115465069
 20
133.8669296712718
 30
0.0
 10
97.90284345174306
 20
134.0438017552107
 30
0.0
 11
108.018693214143
 21
124.3457558305108
 31
0.0
 11
107.4813559417431
 21
124.4158847640109
 31
0.0
 11
106.947959370543
 21
124.5110735253109
 31
0.0
 11
106.4196998392431
 21
124.6311077887108
 31
0.0
 11
105.897762141843
 21
124.7757175181109
 31
0.0
 11
105.3833168671431
 21
124.9445775833109
 31
0.0
 11
104.877517769843
 21
125.1373085001108
 31
0.0
 11
104.381499175943
 21
125.3534772947109
 31
0.0
 11
103.8963734053431
 21
125.5925985025108
 31
0.0
 11
103.423228297643
 21
125.8541352664109
 31
0.0
 11
102.963124783043
 21
126.1375005471109
 31
0.0
 11
102.517094464843
 21
126.4420584800109
 31
0.0
 11
102.086137325943
 21
126.7671258094107
 31
0.0
 11
101.671219516243
 21
127.1119734153108
 31
0.0
 11
101.2732711881431
 21
127.4758279558109
 31
0.0
 11
100.8931844109431
 21
127.8578736105108
 31
0.0
 11
100.531811168043
 21
128.2572539202108
 31
0.0
 11
100.1899614293431
 21
128.6730737392109
 31
0.0
 11
99.86840133834311
 21
129.1044012585108
 31
0.0
 11
99.56785151924309
 21
129.5502700804108
 31
0.0
 11
99.28898543864306
 21
130.0096814345108
 31
0.0
 11
99.03242789484306
 21
130.4816064534108
 31
0.0
 11
98.79875366564306
 21
130.9649884264109
 31
0.0
 11
98.5884862221431
 21
131.4587451752108
 31
0.0
 11
98.40209655654307
 21
131.9617714929108
 31
0.0
 11
98.24000213744305
 21
132.4729416069108
 31
0.0
 11
98.1025659771431
 21
132.9911117006108
 31
0.0
 11
97.99009581974308
 21
133.5151224767108
 31
0.0
 11
97.90284345174306
 21
134.0438017552107
 31
0.0
  0
SPLINE
  5
5F7
330
1F
100
AcDbEntity
  8
0
  6
Continuous
 62
     7
100
AcDbSpline
210
0.0
220
0.0
230
1.0
 70
     8
 71
     3
 72
    26
 73
    22
 74
    20
 42
0.0000000001
 43
0.0000000001
 44
0.0000000001
 12
0.1391730961924021
 22
-0.9902680694116218
 32
0.0
 13
0.9883047472756217
 23
-0.152491726045939
 33
0.0
 40
0.0
 40
0.0
 40
0.0
 40
0.0
 40
0.2296934494238263
 40
0.4621417272518544
 40
0.6999781013431066
 40
0.9456128087274342
 40
1.201164313792721
 40
1.468425601109227
 40
1.748859760709328
 40
2.04361561717249
 40
2.353554445517817
 40
2.67928098554109
 40
3.02117443983008
 40
3.379417144633605
 40
3.754019949989523
 40
4.144844138624769
 40
4.551620118703116
 40
4.973963295917566
 40
5.41138757053971
 40
5.863316881235866
 40
6.329095164887153
 40
6.329095164887153
 40
6.329095164887153
 40
6.329095164887153
 10
97.08493797424306
 20
139.8635077538108
 30
0.0
 10
97.0955936904202
 20
139.787688390905
 30
0.0
 10
97.12631735337485
 20
139.6362854493461
 30
0.0
 10
97.199871050316
 20
139.414314850401
 30
0.0
 10
97.30074518276762
 20
139.1974803272995
 30
0.0
 10
97.42859056117815
 20
138.9863812067912
 30
0.0
 10
97.58300948676701
 20
138.7815058514514
 30
0.0
 10
97.76356032396536
 20
138.5833168430915
 30
0.0
 10
97.9697643413732
 20
138.3922449958678
 30
0.0
 10
98.2011022746084
 20
138.2087051014297
 30
0.0
 10
98.45700962801366
 20
138.0330993158123
 30
0.0
 10
98.73687211129229
 20
137.8658188103973
 30
0.0
 10
99.04002266981288
 20
137.7072425840004
 30
0.0
 10
99.36574010200011
 20
137.5577354598233
 30
0.0
 10
99.71324901098862
 20
137.4176457829556
 30
0.0
 10
100.0817206731885
 20
137.2873032633057
 30
0.0
 10
100.4702747065354
 20
137.1670170590272
 30
0.0
 10
100.8779805776768
 20
137.0570742358518
 30
0.0
 10
101.3038617302032
 20
136.957738164403
 30
0.0
 10
101.7468907288747
 20
136.8692484521927
 30
0.0
 10
102.0485838668063
 20
136.8183677301537
 30
0.0
 10
102.2020274964431
 20
136.7946919520109
 30
0.0
 11
97.08493797424306
 21
139.8635077538108
 31
0.0
 11
97.13054074834309
 21
139.6383867470109
 31
0.0
 11
97.20342049624308
 21
139.4176589866108
 31
0.0
 11
97.30340103304307
 21
139.2018580758109
 31
0.0
 11
97.43024065864306
 21
138.9915057075108
 31
0.0
 11
97.58363274174307
 21
138.7871104028109
 31
0.0
 11
97.76320646114305
 21
138.5891662819108
 31
0.0
 11
97.96852770234306
 21
138.3981518694108
 31
0.0
 11
98.19910010694307
 21
138.2145289374108
 31
0.0
 11
98.45436627244311
 21
138.0387413893108
 31
0.0
 11
98.73370910004307
 21
137.8712141869108
 31
0.0
 11
99.03645328604305
 21
137.7123523226108
 31
0.0
 11
99.36186695484309
 21
137.5625398408109
 31
0.0
 11
99.70916342784311
 21
137.4221389091107
 31
0.0
 11
100.077503125343
 21
137.2914889429108
 31
0.0
 11
100.465995596343
 21
137.1709057851109
 31
0.0
 11
100.873701671043
 21
137.0606809422109
 31
0.0
 11
101.299635731243
 21
136.9610808800109
 31
0.0
 11
101.742768093143
 21
136.8723463788107
 31
0.0
 11
102.2020274964431
 21
136.7946919520109
 31
0.0
  0
LINE
  5
5F8
330
1F
100
AcDbEntity
  8
0
  6
Continuous
 62
     7
100
AcDbLine
 10
225.862684370843
 20
121.1148972602107
 30
0.0
 11
225.8476911116431
 21
121.1005735721108
 31
0.0
  0
SPLINE
  5
5F9
330
1F
100
AcDbEntity
  8
0
  6
Continuous
 62
     7
100
AcDbSpline
210
0.0
220
0.0
230
1.0
 70
     8
 71
     3
 72
    14
 73
    10
 74
     8
 42
0.0000000001
 43
0.0000000001
 44
0.0000000001
 12
0.9999962162120828
 22
0.0027509201219065
 32
0.0
 13
1.0
 23
0.0000000095019235
 33
0.0
 40
0.0
 40
0.0
 40
0.0
 40
0.0
 40
0.0323706419105307
 40
0.073623418090408
 40
0.1152981763923164
 40
0.157403614612813
 40
0.1786242763598849
 40
0.1892777844762792
 40
0.1999606576574814
 40
0.1999606576574814
 40
0.1999606576574814
 40
0.1999606576574814
 10
242.0896014693431
 20
231.3442449952109
 30
0.0
 10
242.1003916424854
 20
231.3442746782276
 30
0.0
 10
242.1249334351897
 20
231.3441657798928
 30
0.0
 10
242.1633601392155
 20
231.3433358896353
 30
0.0
 10
242.205000779163
 20
231.3415088490507
 30
0.0
 10
242.239931663167
 20
231.3392563342332
 30
0.0
 10
242.2644888738662
 20
231.3369338965486
 30
0.0
 10
242.2786213507191
 20
231.3358173886708
 30
0.0
 10
242.285662867216
 20
231.334502025277
 30
0.0
 10
242.2892238249431
 20
231.3345020253108
 30
0.0
 11
242.0896014693431
 21
231.3442449952109
 31
0.0
 11
242.1219717753431
 21
231.3440975260108
 31
0.0
 11
242.1632144966431
 21
231.3431867668108
 31
0.0
 11
242.2048497821431
 21
231.3413733499108
 31
0.0
 11
242.2468591067431
 21
231.3385300113109
 31
0.0
 11
242.2679985370431
 21
231.3366750257108
 31
0.0
 11
242.2786006452431
 21
231.3356297808109
 31
0.0
 11
242.2892238249431
 21
231.3345020253108
 31
0.0
  0
SPLINE
  5
5FA
330
1F
100
AcDbEntity
  8
0
  6
Continuous
 62
     7
100
AcDbSpline
210
0.0
220
0.0
230
1.0
 70
     8
 71
     3
 72
    11
 73
     7
 74
     5
 42
0.0000000001
 43
0.0000000001
 44
0.0000000001
 12
-0.9545035935972451
 22
0.2981994128262924
 32
0.0
 13
-0.9999999999962263
 23
-0.0000027472969136
 33
0.0
 40
0.0
 40
0.0
 40
0.0
 40
0.0
 40
0.1191135757952777
 40
0.237395422311613
 40
0.3553576692229679
 40
0.4735199873962103
 40
0.4735199873962103
 40
0.4735199873962103
 40
0.4735199873962103
 10
94.5482424908431
 20
227.1484308377109
 30
0.0
 10
94.51034437879551
 20
227.1602707038314
 30
0.0
 10
94.43390965219533
 20
227.1810878392714
 30
0.0
 10
94.31748766991601
 20
227.2035169540702
 30
0.0
 10
94.2000098029467
 20
227.216975635217
 30
0.0
 10
94.12126843063404
 20
227.2199484302199
 30
0.0
 10
94.08188099124311
 20
227.219948322011
 30
0.0
 11
94.5482424908431
 21
227.1484308377109
 31
0.0
 11
94.43330436524309
 21
227.1796921752109
 31
0.0
 11
94.3171544493431
 21
227.2020482091109
 31
0.0
 11
94.19995849304308
 21
227.2154720507109
 31
0.0
 11
94.08188099124311
 21
227.219948322011
 31
0.0
  0
LINE
  5
5FB
330
1F
100
AcDbEntity
  8
0
  6
Continuous
 62
     7
100
AcDbLine
 10
102.2109921779431
 20
121.1005938569107
 30
0.0
 11
102.1960202967431
 21
121.1148971586109
 31
0.0
  0
SPLINE
  5
5FC
330
1F
100
AcDbEntity
  8
0
  6
Continuous
 62
     7
100
AcDbSpline
210
0.0
220
0.0
230
1.0
 70
     8
 71
     3
 72
    32
 73
    28
 74
    26
 42
0.0000000001
 43
0.0000000001
 44
0.0000000001
 12
-0.1688212142565638
 22
0.9856466900552851
 32
0.0
 13
-0.9545004449078049
 23
0.2982094912486899
 33
0.0
 40
0.0
 40
0.0
 40
0.0
 40
0.0
 40
1.385757958912262
 40
2.588711177136135
 40
3.64094989084327
 40
4.569526812795299
 40
5.395403977886076
 40
6.133773294133099
 40
6.797225048869198
 40
7.396734020076629
 40
7.941691870583852
 40
8.439247300430865
 40
8.895534833026038
 40
9.31734896344269
 40
9.710287706838016
 40
10.07618161882199
 40
10.42002141651764
 40
10.75206234750138
 40
11.08932796870604
 40
11.44659587040996
 40
11.82262398914113
 40
12.21212428976227
 40
12.61493854513942
 40
13.03554728068151
 40
13.48410360482868
 40
13.9648152700267
 40
14.45009032637963
 40
14.45009032637963
 40
14.45009032637963
 40
14.45009032637963
 10
101.0009453771431
 20
215.0666902459108
 30
0.0
 10
100.9229635967133
 20
215.5219794943841
 30
0.0
 10
100.7699521621244
 20
216.3712723798467
 30
0.0
 10
100.5310510387627
 20
217.5612597838831
 30
0.0
 10
100.3001199629093
 20
218.5971738106013
 30
0.0
 10
100.0758116001294
 20
219.505538407545
 30
0.0
 10
99.85711325466034
 20
220.3072723642451
 30
0.0
 10
99.64326793770588
 20
221.0184716267778
 30
0.0
 10
99.43362891473245
 20
221.6518810924906
 30
0.0
 10
99.22743593765027
 20
222.2182477568991
 30
0.0
 10
99.02404574403202
 20
222.7264995507252
 30
0.0
 10
98.8228769118087
 20
223.1839187436072
 30
0.0
 10
98.62319217156304
 20
223.5968282041426
 30
0.0
 10
98.42400228552165
 20
223.9708938810728
 30
0.0
 10
98.22464081175102
 20
224.3103514477672
 30
0.0
 10
98.02453570873957
 20
224.6188177422768
 30
0.0
 10
97.82188291407912
 20
224.9009773873056
 30
0.0
 10
97.61095966816483
 20
225.1649466717367
 30
0.0
 10
97.3818402992952
 20
225.419375836531
 30
0.0
 10
97.12815057741321
 20
225.6706108380641
 30
0.0
 10
96.8476529407291
 20
225.9187120591524
 30
0.0
 10
96.54068280135494
 20
226.1587832397314
 30
0.0
 10
96.20692348142009
 20
226.3874537979484
 30
0.0
 10
95.84216921996704
 20
226.6042055235162
 30
0.0
 10
95.44058044578701
 20
226.8079083684948
 30
0.0
 10
95.00662638932823
 20
226.9931322473935
 30
0.0
 10
94.70264090990696
 20
227.1001929618206
 30
0.0
 10
94.5482424908431
 20
227.1484308377109
 30
0.0
 11
101.0009453771431
 21
215.0666902459108
 31
0.0
 11
100.7543195040431
 21
216.4303253875108
 31
0.0
 11
100.5167222789431
 21
217.6095810866109
 31
0.0
 11
100.2870222105431
 21
218.6364424157109
 31
0.0
 11
100.0637645524431
 21
219.5377809304109
 31
0.0
 11
99.84583324174309
 21
220.3343856226108
 31
0.0
 11
99.63267097064306
 21
221.0413163783108
 31
0.0
 11
99.42368964744311
 21
221.6709948974108
 31
0.0
 11
99.21813182564306
 21
222.2341618251108
 31
0.0
 11
99.01522463184306
 21
222.7399362111108
 31
0.0
 11
98.8144995892431
 21
223.1952063101108
 31
0.0
 11
98.61544771134312
 21
223.6057871941109
 31
0.0
 11
98.41682512254307
 21
223.9779111356109
 31
0.0
 11
98.2175072872431
 21
224.3165455352109
 31
0.0
 11
98.0180711470431
 21
224.6233086047109
 31
0.0
 11
97.81719832794307
 21
224.9023711730109
 31
0.0
 11
97.6095761958431
 21
225.1614932101108
 31
0.0
 11
97.38404764654308
 21
225.4122619735109
 31
0.0
 11
97.1303591340431
 21
225.6638220900109
 31
0.0
 11
96.84863231934309
 21
225.9128745904109
 31
0.0
 11
96.54180092914305
 21
226.1528016255109
 31
0.0
 11
96.20953575844305
 21
226.3805277344109
 31
0.0
 11
95.84799762844307
 21
226.5954739811109
 31
0.0
 11
95.44813737724309
 21
226.7987338036109
 31
0.0
 11
95.00613442494307
 21
226.9877234732109
 31
0.0
 11
94.5482424908431
 21
227.1484308377109
 31
0.0
  0
SPLINE
  5
5FD
330
1F
100
AcDbEntity
  8
0
  6
Continuous
 62
     7
100
AcDbSpline
210
0.0
220
0.0
230
1.0
 70
     8
 71
     3
 72
    34
 73
    30
 74
    28
 42
0.0000000001
 43
0.0000000001
 44
0.0000000001
 12
-0.5162733030868078
 22
-0.8564238883402525
 32
0.0
 13
-0.4602800508908817
 23
0.8877737745348683
 33
0.0
 40
0.0
 40
0.0
 40
0.0
 40
0.0
 40
0.0498861777909853
 40
0.1047279824917492
 40
0.160620344075084
 40
0.2179595704919901
 40
0.2770715426674122
 40
0.3382034383399945
 40
0.4015215760021249
 40
0.4671137776691404
 40
0.5349946192699439
 40
0.6051122550403147
 40
0.6773559055045372
 40
0.7515634532685239
 40
0.8275288554346126
 40
0.905009248149717
 40
0.9837317181484554
 40
1.063399770915027
 40
1.143699549313867
 40
1.224305863329706
 40
1.304888098382073
 40
1.385116064329376
 40
1.464665849031927
 40
1.543225740216786
 40
1.620502278810552
 40
1.696226510282538
 40
1.77016049306782
 40
1.842104118725364
 40
1.91190226382521
 40
1.91190226382521
 40
1.91190226382521
 40
1.91190226382521
 10
230.4876443503431
 20
216.5041231423108
 30
0.0
 10
230.4790593830809
 20
216.4898819041914
 30
0.0
 10
230.4592407608413
 20
216.4610291550998
 30
0.0
 10
230.4236686730629
 20
216.4208305584434
 30
0.0
 10
230.3815459209928
 20
216.3836836428759
 30
0.0
 10
230.3341764006828
 20
216.3509590134143
 30
0.0
 10
230.2819294507358
 20
216.3228897690483
 30
0.0
 10
230.2252056609486
 20
216.2996729459354
 30
0.0
 10
230.1644329404873
 20
216.2814684828916
 30
0.0
 10
230.1000651639004
 20
216.2684006151335
 30
0.0
 10
230.0325802579306
 20
216.2605575338793
 30
0.0
 10
229.9624779771934
 20
216.257990856187
 30
0.0
 10
229.8902770789767
 20
216.2607149229497
 30
0.0
 10
229.8165120092459
 20
216.2687062708279
 30
0.0
 10
229.7417292030369
 20
216.2819033878396
 30
0.0
 10
229.6664831224647
 20
216.3002068231972
 30
0.0
 10
229.591332131339
 20
216.3234796613624
 30
0.0
 10
229.5168342853672
 20
216.3515483540354
 30
0.0
 10
229.4435430996607
 20
216.3842038917554
 30
0.0
 10
229.3720033439957
 20
216.4212032954001
 30
0.0
 10
229.3027469072002
 20
216.4622714059273
 30
0.0
 10
229.236288771538
 20
216.5071029463566
 30
0.0
 10
229.1731231245894
 20
216.5553648623246
 30
0.0
 10
229.1137196841694
 20
216.6066988284367
 30
0.0
 10
229.0585201194908
 20
216.660724220397
 30
0.0
 10
229.0079351909623
 20
216.7170403802721
 30
0.0
 10
228.9623405318209
 20
216.7752322782254
 30
0.0
 10
228.9220787788917
 20
216.8348646294086
 30
0.0
 10
228.8986202607693
 20
216.8759417056339
 30
0.0
 10
228.8879113628431
 20
216.8965966932108
 30
0.0
 11
230.4876443503431
 21
216.5041231423108
 31
0.0
 11
230.4594127346431
 21
216.4629939968108
 31
0.0
 11
230.423109484043
 21
216.4218880661108
 31
0.0
 11
230.3812399420431
 21
216.3848624326109
 31
0.0
 11
230.3341171648431
 21
216.3521939347108
 31
0.0
 11
230.282093486943
 21
216.3241268331108
 31
0.0
 11
230.2255578862431
 21
216.3008709839108
 31
0.0
 11
230.1649330764431
 21
216.2826002698109
 31
0.0
 11
230.1006723457431
 21
216.2694512999108
 31
0.0
 11
230.0332561680431
 21
216.2615223882109
 31
0.0
 11
229.9631886104431
 21
216.2588728188108
 31
0.0
 11
229.8909935639431
 21
216.2615224024109
 31
0.0
 11
229.817210826943
 21
216.2694513283108
 31
0.0
 11
229.7423920689431
 21
216.2826003122108
 31
0.0
 11
229.6670967054431
 21
216.3008710399109
 31
0.0
 11
229.5918877156431
 21
216.3241269023109
 31
0.0
 11
229.5173274331431
 21
216.3521940166109
 31
0.0
 11
229.4439733407431
 21
216.3848625265109
 31
0.0
 11
229.3723739030431
 21
216.4218881714108
 31
0.0
 11
229.3030644650431
 21
216.4629941127109
 31
0.0
 11
229.2365632493432
 21
216.5078730034109
 31
0.0
 11
229.1733674820431
 21
216.5561892868108
 31
0.0
 11
229.113949674143
 21
216.6075817046108
 31
0.0
 11
229.0587540894431
 21
216.6616659985109
 31
0.0
 11
229.0081934220431
 21
216.7180377835109
 31
0.0
 11
228.9626457114431
 21
216.7762755708108
 31
0.0
 11
228.9224515150431
 21
216.8359439196108
 31
0.0
 11
228.8879113628431
 21
216.8965966932108
 31
0.0
  0
SPLINE
  5
5FE
330
1F
100
AcDbEntity
  8
0
  6
Continuous
 62
     7
100
AcDbSpline
210
0.0
220
0.0
230
1.0
 70
     8
 71
     3
 72
    14
 73
    10
 74
     8
 42
0.0000000001
 43
0.0000000001
 44
0.0000000001
 12
0.4555175620660831
 22
-0.8902267973103102
 32
0.0
 13
0.6862164388945978
 23
-0.7273974147540099
 33
0.0
 40
0.0
 40
0.0
 40
0.0
 40
0.0
 40
0.5504065185351035
 40
1.087448169905381
 40
1.61106925181831
 40
2.12140541785376
 40
2.618658054384601
 40
3.103033912080594
 40
3.574874272153496
 40
3.574874272153496
 40
3.574874272153496
 40
3.574874272153496
 10
99.17079317954307
 20
216.8965967970109
 30
0.0
 10
99.25436645803253
 20
216.7332679196062
 30
0.0
 10
99.42487250931316
 20
216.4132947565725
 30
0.0
 10
99.69408948301515
 20
215.948496797962
 30
0.0
 10
99.97329955459873
 20
215.5053232735273
 30
0.0
 10
100.2621453751415
 20
215.0843497585892
 30
0.0
 10
100.560272066211
 20
214.6861041709303
 30
0.0
 10
100.8672880172799
 20
214.3111135352958
 30
0.0
 10
101.0803772487711
 20
214.0738867541087
 30
0.0
 10
101.1883054526431
 20
213.9594816014108
 30
0.0
 11
99.17079317954307
 21
216.8965967970109
 31
0.0
 11
99.42984023404306
 21
216.4109611731109
 31
0.0
 11
99.69922076474308
 21
215.9463668716108
 31
0.0
 11
99.97855402794307
 21
215.5034764049108
 31
0.0
 11
100.267503933643
 21
215.0828210182109
 31
0.0
 11
100.5657187251431
 21
214.6849163529109
 31
0.0
 11
100.8727861396431
 21
214.3103104607108
 31
0.0
 11
101.1883054526431
 21
213.9594816014108
 31
0.0
  0
SPLINE
  5
5FF
330
1F
100
AcDbEntity
  8
0
  6
Continuous
 62
     7
100
AcDbSpline
210
0.0
220
0.0
230
1.0
 70
     8
 71
     3
 72
    24
 73
    20
 74
    18
 42
0.0000000001
 43
0.0000000001
 44
0.0000000001
 12
0.9464987613611048
 22
-0.3227074445095652
 32
0.0
 13
0.4555173925442719
 23
-0.8902268840524127
 33
0.0
 40
0.0
 40
0.0
 40
0.0
 40
0.0
 40
0.7519286434750341
 40
1.513242321189102
 40
2.285767129539657
 40
3.071285656255605
 40
3.871413250361984
 40
4.687574845828278
 40
5.521056609985306
 40
6.373027494568032
 40
7.244515453784361
 40
8.136402367133056
 40
9.049428596733541
 40
9.984183731257456
 40
10.94111705288056
 40
11.92058346071771
 40
12.92285854886624
 40
13.94806426330044
 40
14.99609220836544
 40
14.99609220836544
 40
14.99609220836544
 40
14.99609220836544
 10
88.79580866604312
 20
227.2199483023109
 30
0.0
 10
89.03304184260347
 20
227.1390639786477
 30
0.0
 10
89.50560045066836
 20
226.9616160820309
 30
0.0
 10
90.20204970966196
 20
226.651585643115
 30
0.0
 10
90.88931607849886
 20
226.2965678995229
 30
0.0
 10
91.56667629282775
 20
225.8969500228524
 30
0.0
 10
92.23346513757034
 20
225.4531445220885
 30
0.0
 10
92.88899908238809
 20
224.9656238499522
 30
0.0
 10
93.53261155897943
 20
224.434905542858
 30
0.0
 10
94.16366130590764
 20
223.8615402981394
 30
0.0
 10
94.78152836183145
 20
223.2461108944533
 30
0.0
 10
95.38560461366591
 20
222.5892390777098
 30
0.0
 10
95.97528909807728
 20
221.8915917025887
 30
0.0
 10
96.54998731883788
 20
221.1538848025142
 30
0.0
 10
97.10911928511482
 20
220.3768767502217
 30
0.0
 10
97.65212896895981
 20
219.5613544647883
 30
0.0
 10
98.17847858550726
 20
218.7081361786466
 30
0.0
 10
98.68761459945311
 20
217.8181334119603
 30
0.0
 10
99.01166152725989
 20
217.2075910143226
 30
0.0
 10
99.17079317954307
 20
216.8965967970109
 30
0.0
 11
88.79580866604312
 21
227.2199483023109
 31
0.0
 11
89.4998328020431
 21
226.9558522955109
 31
0.0
 11
90.19547027604307
 21
226.6465191084109
 31
0.0
 11
90.88198857584307
 21
226.2922773780109
 31
0.0
 11
91.55873642464309
 21
225.893464508411
 31
0.0
 11
92.22504107574309
 21
225.4504720945109
 31
0.0
 11
92.88020082714309
 21
224.9637633006109
 31
0.0
 11
93.52353511694309
 21
224.4338455308109
 31
0.0
 11
94.15440044014308
 21
223.8612520169108
 31
0.0
 11
94.77216865034307
 21
223.2465539597109
 31
0.0
 11
95.37622109624312
 21
222.5903657940108
 31
0.0
 11
95.96594958724308
 21
221.8933455627109
 31
0.0
 11
96.5407485476431
 21
221.1562069620109
 31
0.0
 11
97.1000207719431
 21
220.3797174507108
 31
0.0
 11
97.64320123224308
 21
219.5646656538109
 31
0.0
 11
98.16975813094309
 21
218.7118507942109
 31
0.0
 11
98.67914961284311
 21
217.8221502406108
 31
0.0
 11
99.17079317954307
 21
216.8965967970109
 31
0.0
  0
SPLINE
  5
600
330
1F
100
AcDbEntity
  8
0
  6
Continuous
 62
     7
100
AcDbSpline
210
0.0
220
0.0
230
1.0
 70
     8
 71
     3
 72
    19
 73
    15
 74
    13
 42
0.0000000001
 43
0.0000000001
 44
0.0000000001
 12
-1.0
 22
0.0000000000000002
 32
0.0
 13
-0.998592273921602
 23
0.0530421574229806
 33
0.0
 40
0.0
 40
0.0
 40
0.0
 40
0.0
 40
9.181080475080035
 40
13.75134681707006
 40
18.31905448409909
 40
20.60423654201399
 40
22.89138364821281
 40
27.46737978849612
 40
32.02930440667717
 40
36.55375728719107
 40
45.41008332350638
 40
53.88645521180499
 40
61.8386778635312
 40
64.95944811080548
 40
64.95944811080548
 40
64.95944811080548
 40
64.95944811080548
 10
164.029352279843
 20
158.9591854774108
 30
0.0
 10
160.968992121483
 20
158.9591854774108
 30
0.0
 10
156.3851934168749
 20
158.9751055644069
 30
0.0
 10
150.2790404171954
 20
159.0249534441718
 30
0.0
 10
146.4715481972029
 20
159.0670184565699
 30
0.0
 10
143.4251266843382
 20
159.1066660646228
 30
0.0
 10
140.3759942388329
 20
159.1501515311102
 30
0.0
 10
136.5681295833071
 20
159.2115689081365
 30
0.0
 10
132.0147839622192
 20
159.2960721225693
 30
0.0
 10
126.0352168934564
 20
159.4226160406125
 30
0.0
 10
118.7517995993282
 20
159.6077588594244
 30
0.0
 10
110.3278546968009
 20
159.881294633062
 30
0.0
 10
103.816868290005
 20
160.1515424161811
 30
0.0
 10
100.1304929355806
 20
160.3365847237652
 30
0.0
 10
99.09170058304312
 20
160.3917621860108
 30
0.0
 11
164.029352279843
 21
158.9591854774108
 31
0.0
 11
154.8483236060431
 21
158.9900266959109
 31
0.0
 11
150.278208102343
 21
159.0271578091108
 31
0.0
 11
145.7107769703431
 21
159.0774189857108
 31
0.0
 11
143.4257880942431
 21
159.1071321800109
 31
0.0
 11
141.1388735309431
 21
159.1397460660108
 31
0.0
 11
136.563471786543
 21
159.2134993929108
 31
0.0
 11
132.0023352376431
 21
159.2982909270109
 31
0.0
 11
127.4788997294431
 21
159.3942339890108
 31
0.0
 11
118.625492740143
 21
159.6216005286109
 31
0.0
 11
110.153697608843
 21
159.9001102089109
 31
0.0
 11
102.2085221036431
 21
160.2348209709109
 31
0.0
 11
99.09170058304312
 21
160.3917621860108
 31
0.0
  0
SPLINE
  5
601
330
1F
100
AcDbEntity
  8
0
  6
Continuous
 62
     7
100
AcDbSpline
210
0.0
220
0.0
230
1.0
 70
     8
 71
     3
 72
    14
 73
    10
 74
     8
 42
0.0000000001
 43
0.0000000001
 44
0.0000000001
 12
-0.9999957654559899
 22
0.002910166677153
 32
0.0
 13
-0.9999999999999996
 23
0.0000000319219627
 33
0.0
 40
0.0
 40
0.0
 40
0.0
 40
0.0
 40
0.0186655282548621
 40
0.0541516772593824
 40
0.0900109579822
 40
0.1262525453441577
 40
0.1445233771159122
 40
0.1536975345868754
 40
0.1628981174948215
 40
0.1628981174948215
 40
0.1628981174948215
 40
0.1628981174948215
 10
86.49882000324305
 20
231.3429606729108
 30
0.0
 10
86.49259818683809
 20
231.3429787795103
 30
0.0
 10
86.47454739762967
 20
231.3429327535393
 30
0.0
 10
86.44454609965448
 20
231.3423664555336
 30
0.0
 10
86.40871457477372
 20
231.340806785904
 30
0.0
 10
86.37865347108254
 20
231.3388084141083
 30
0.0
 10
86.35752179225546
 20
231.3367116780951
 30
0.0
 10
86.34535733845339
 20
231.3356997751926
 30
0.0
 10
86.33930042971243
 20
231.334502005713
 30
0.0
 10
86.33623356874313
 20
231.3345020058109
 30
0.0
 11
86.49882000324305
 21
231.3429606729108
 31
0.0
 11
86.48015453834307
 21
231.3429120406109
 31
0.0
 11
86.44467506064307
 21
231.3422239757109
 31
0.0
 11
86.4088491854431
 21
231.3406765003109
 31
0.0
 11
86.37269573014311
 21
231.3381505699109
 31
0.0
 11
86.35450172854309
 21
231.3364767720109
 31
0.0
 11
86.34537672084309
 21
231.3355284051108
 31
0.0
 11
86.33623356874313
 21
231.3345020058109
 31
0.0
  0
SPLINE
  5
602
330
1F
100
AcDbEntity
  8
0
  6
Continuous
 62
     7
100
AcDbSpline
210
0.0
220
0.0
230
1.0
 70
     8
 71
     3
 72
    14
 73
    10
 74
     8
 42
0.0000000001
 43
0.0000000001
 44
0.0000000001
 12
0.9999957654559484
 22
0.0029101666914437
 32
0.0
 13
1.0
 23
-0.0000000000000002
 33
0.0
 40
0.0
 40
0.0
 40
0.0
 40
0.0
 40
0.0186655282548621
 40
0.0541516772594392
 40
0.0900109580821513
 40
0.1262525453443078
 40
0.144523377215686
 40
0.1536975345871409
 40
0.1628981167994863
 40
0.1628981167994863
 40
0.1628981167994863
 40
0.1628981167994863
 10
241.5598845563431
 20
231.3429606729108
 30
0.0
 10
241.566106372748
 20
231.3429787795103
 30
0.0
 10
241.5841571619565
 20
231.3429327535398
 30
0.0
 10
241.6141584599649
 20
231.342366455529
 30
0.0
 10
241.6499899848462
 20
231.3408067859171
 30
0.0
 10
241.6800510885702
 20
231.3388084140866
 30
0.0
 10
241.7011827673632
 20
231.3367116781128
 30
0.0
 10
241.7133472209386
 20
231.335699775199
 30
0.0
 10
241.7194041294056
 20
231.3345020058108
 30
0.0
 10
241.7224709901431
 20
231.3345020058108
 30
0.0
 11
241.5598845563431
 21
231.3429606729108
 31
0.0
 11
241.5785500212431
 21
231.3429120406109
 31
0.0
 11
241.6140294989431
 21
231.3422239757108
 31
0.0
 11
241.6498553742431
 21
231.3406765003108
 31
0.0
 11
241.6860088294431
 21
231.3381505699108
 31
0.0
 11
241.7042028311431
 21
231.3364767720108
 31
0.0
 11
241.7133278387431
 21
231.3355284051108
 31
0.0
 11
241.7224709901431
 21
231.3345020058108
 31
0.0
  0
SPLINE
  5
603
330
1F
100
AcDbEntity
  8
0
  6
Continuous
 62
     7
100
AcDbSpline
210
0.0
220
0.0
230
1.0
 70
     8
 71
     3
 72
    31
 73
    27
 74
    25
 42
0.0000000001
 43
0.0000000001
 44
0.0000000001
 12
0.9998291507211018
 22
0.0184843005905029
 32
0.0
 13
0.9999999999993937
 23
-0.0000011013137219
 33
0.0
 40
0.0
 40
0.0
 40
0.0
 40
0.0
 40
1.501380947629796
 40
3.082548957414583
 40
4.738418116399797
 40
6.465106452144768
 40
8.259795218933698
 40
10.11511430733825
 40
12.024637015117
 40
13.98479990623338
 40
15.98757826098898
 40
18.0237231946551
 40
20.08789923283589
 40
22.17141946198914
 40
24.26425511354559
 40
26.35358376452937
 40
28.43774023754244
 40
30.52397797349828
 40
32.67048031208068
 40
34.96083330958156
 40
37.42099728133722
 40
40.05158932263937
 40
42.8767278461347
 40
45.94777360921835
 40
49.35193692859602
 40
53.21544519278851
 40
53.21544519278851
 40
53.21544519278851
 40
53.21544519278851
 10
110.8157490825431
 20
123.9307959546108
 30
0.0
 10
111.3161238951356
 20
123.9400466135231
 30
0.0
 10
112.3434777599142
 20
123.9583364049139
 30
0.0
 10
113.92273412933
 20
123.9844985036985
 30
0.0
 10
115.5771131751355
 20
124.0099960036241
 30
0.0
 10
117.3026851457337
 20
124.034718989821
 30
0.0
 10
119.0947588305359
 20
124.0585670458515
 30
0.0
 10
120.9477947809221
 20
124.0814412463298
 30
0.0
 10
122.856005352227
 20
124.1032463806215
 30
0.0
 10
124.8133846067655
 20
124.1239006005145
 30
0.0
 10
126.812985848362
 20
124.1433283371686
 30
0.0
 10
128.8472717648922
 20
124.1614528851699
 30
0.0
 10
130.9084842677224
 20
124.1782082476884
 30
0.0
 10
132.9886052352301
 20
124.193544224989
 30
0.0
 10
135.077120985148
 20
124.2073978459592
 30
0.0
 10
137.1658582942009
 20
124.2197400854448
 30
0.0
 10
139.2524046661212
 20
124.2305672308095
 30
0.0
 10
141.3580158721941
 20
124.2400053023513
 30
0.0
 10
143.5323649280423
 20
124.2482085759768
 30
0.0
 10
145.8313604216323
 20
124.2553516766183
 30
0.0
 10
148.2917225610452
 20
124.26149634937
 30
0.0
 10
150.9303493161162
 20
124.2665770194359
 30
0.0
 10
153.7726054552447
 20
124.2705375492358
 30
0.0
 10
156.8727201573473
 20
124.2733501446692
 30
0.0
 10
160.3189589701641
 20
124.2749908899567
 30
0.0
 10
162.7415161917797
 20
124.2752783326224
 30
0.0
 10
164.029352279843
 20
124.2752769143108
 30
0.0
 11
110.8157490825431
 21
123.9307959546108
 31
0.0
 11
112.3168914295431
 21
123.9575616780108
 31
0.0
 11
113.8978419025431
 21
123.9837890890108
 31
0.0
 11
115.553513929843
 21
124.0093392298108
 31
0.0
 11
117.2800246279431
 21
124.0341065095109
 31
0.0
 11
119.0745541378431
 21
124.0580148289109
 31
0.0
 11
120.929731599143
 21
124.0809387658109
 31
0.0
 11
122.8391294068431
 21
124.1027787171108
 31
0.0
 11
124.799182976243
 21
124.1234805236109
 31
0.0
 11
126.801866661943
 21
124.1429534101108
 31
0.0
 11
128.8379306722431
 21
124.1611065601108
 31
0.0
 11
130.902038421643
 21
124.1778968986109
 31
0.0
 11
132.9855019710431
 21
124.1932651650109
 31
0.0
 11
135.0782915445431
 21
124.2071527665108
 31
0.0
 11
137.1675837154431
 21
124.2194992817108
 31
0.0
 11
139.2517121071431
 21
124.2303182887109
 31
0.0
 11
141.3379288739431
 21
124.2396720499108
 31
0.0
 11
143.484415834243
 21
124.2477972454108
 31
0.0
 11
145.7747576582431
 21
124.2549514328109
 31
0.0
 11
148.234913876943
 21
124.2611278004109
 31
0.0
 11
150.8655009756431
 21
124.2662272038107
 31
0.0
 11
153.6906367002431
 21
124.2702039520108
 31
0.0
 11
156.761681153743
 21
124.2730400728108
 31
0.0
 11
160.1658440546431
 21
124.2747280100108
 31
0.0
 11
164.029352279843
 21
124.2752769143108
 31
0.0
  0
SPLINE
  5
604
330
1F
100
AcDbEntity
  8
0
  6
Continuous
 62
     7
100
AcDbSpline
210
0.0
220
0.0
230
1.0
 70
     8
 71
     3
 72
    31
 73
    27
 74
    25
 42
0.0000000001
 43
0.0000000001
 44
0.0000000001
 12
-0.9998291507211018
 22
0.0184843005905033
 32
0.0
 13
-0.9999999999993937
 23
-0.0000011013137216
 33
0.0
 40
0.0
 40
0.0
 40
0.0
 40
0.0
 40
1.501380947529881
 40
3.082548957414585
 40
4.738418116399799
 40
6.46510645214477
 40
8.259795218833664
 40
10.11511430733831
 40
12.024637015117
 40
13.9847999062335
 40
15.9875782609891
 40
18.02372319465511
 40
20.08789923283589
 40
22.17141946198914
 40
24.26425511344566
 40
26.35358376452937
 40
28.4377402375425
 40
30.52397797349828
 40
32.67048031208073
 40
34.96083330958156
 40
37.42099728123729
 40
40.05158932263937
 40
42.8767278461347
 40
45.94777360921846
 40
49.35193692859602
 40
53.21544519268858
 40
53.21544519268858
 40
53.21544519268858
 40
53.21544519268858
 10
217.2429554770431
 20
123.9307959546108
 30
0.0
 10
216.7425806644839
 20
123.9400466135225
 30
0.0
 10
215.7152267997053
 20
123.9583364049165
 30
0.0
 10
214.1359704302895
 20
123.9844985036971
 30
0.0
 10
212.4815913844507
 20
124.0099960036245
 30
0.0
 10
210.7560194138858
 20
124.0347189898199
 30
0.0
 10
208.9639457290836
 20
124.0585670458534
 30
0.0
 10
207.1109097786973
 20
124.0814412463287
 30
0.0
 10
205.2026992073591
 20
124.1032463806216
 30
0.0
 10
203.2453199528206
 20
124.1239006005145
 30
0.0
 10
201.2457187112241
 20
124.1433283371686
 30
0.0
 10
199.2114327946939
 20
124.1614528851699
 30
0.0
 10
197.1502202918637
 20
124.1782082476884
 30
0.0
 10
195.0700993243894
 20
124.1935442249884
 30
0.0
 10
192.9815835744715
 20
124.2073978459601
 30
0.0
 10
190.8928462654186
 20
124.2197400854444
 30
0.0
 10
188.806299893465
 20
124.2305672308096
 30
0.0
 10
186.700688687392
 20
124.2400053023514
 30
0.0
 10
184.5263396315439
 20
124.2482085759768
 30
0.0
 10
182.2273441379871
 20
124.2553516766181
 30
0.0
 10
179.7669819985744
 20
124.2614963493702
 30
0.0
 10
177.1283552435032
 20
124.2665770194358
 30
0.0
 10
174.2860991043414
 20
124.2705375492358
 30
0.0
 10
171.1859844022388
 20
124.2733501446693
 30
0.0
 10
167.7397455894554
 20
124.2749908899567
 30
0.0
 10
165.3171883678731
 20
124.2752783326224
 30
0.0
 10
164.029352279843
 20
124.2752769143108
 30
0.0
 11
217.2429554770431
 21
123.9307959546108
 31
0.0
 11
215.741813130143
 21
123.9575616780108
 31
0.0
 11
214.1608626570431
 21
123.9837890890108
 31
0.0
 11
212.5051906297431
 21
124.0093392298108
 31
0.0
 11
210.7786799316431
 21
124.0341065095109
 31
0.0
 11
208.9841504218431
 21
124.0580148289109
 31
0.0
 11
207.1289729604431
 21
124.0809387658109
 31
0.0
 11
205.2195751527431
 21
124.1027787171108
 31
0.0
 11
203.259521583343
 21
124.1234805236109
 31
0.0
 11
201.2568378976431
 21
124.1429534101108
 31
0.0
 11
199.220773887343
 21
124.1611065601108
 31
0.0
 11
197.1566661379431
 21
124.1778968986109
 31
0.0
 11
195.0732025885431
 21
124.1932651650109
 31
0.0
 11
192.980413015143
 21
124.2071527665108
 31
0.0
 11
190.8911208441431
 21
124.2194992817108
 31
0.0
 11
188.8069924524431
 21
124.2303182887109
 31
0.0
 11
186.7207756856431
 21
124.2396720499108
 31
0.0
 11
184.5742887253431
 21
124.2477972454108
 31
0.0
 11
182.2839469013431
 21
124.2549514328109
 31
0.0
 11
179.8237906827431
 21
124.2611278004109
 31
0.0
 11
177.1932035839431
 21
124.2662272038107
 31
0.0
 11
174.3680678593431
 21
124.2702039520108
 31
0.0
 11
171.297023405843
 21
124.2730400728108
 31
0.0
 11
167.8928605049431
 21
124.2747280100108
 31
0.0
 11
164.029352279843
 21
124.2752769143108
 31
0.0
  0
SPLINE
  5
605
330
1F
100
AcDbEntity
  8
0
  6
Continuous
 62
     7
100
AcDbSpline
210
0.0
220
0.0
230
1.0
 70
     8
 71
     3
 72
    47
 73
    43
 74
    41
 42
0.0000000001
 43
0.0000000001
 44
0.0000000001
 12
0.7830301821088439
 22
-0.621983708714779
 32
0.0
 13
-0.5046297441120128
 23
0.8633358682213108
 33
0.0
 40
0.0
 40
0.0
 40
0.0
 40
0.0
 40
0.0804139765255531
 40
0.1673694351575179
 40
0.2479423136967836
 40
0.3227904925245153
 40
0.392243461413696
 40
0.4554995982953526
 40
0.5117840891002745
 40
0.5614662757356687
 40
0.6054039058217342
 40
0.6444390503115579
 40
0.6793872132547821
 40
0.7110204541548477
 40
0.7400482098991761
 40
0.7671073688123985
 40
0.7927692160103388
 40
0.817556331768038
 40
0.8419570966133004
 40
0.8664661242056402
 40
0.8917694311914498
 40
0.91875916677273
 40
0.9479150499366488
 40
0.9794288665292139
 40
1.01375089359526
 40
1.051442027620686
 40
1.093188489418979
 40
1.139829059835639
 40
1.192158945446275
 40
1.250958251726625
 40
1.317102981259351
 40
1.391521310381598
 40
1.475162551454416
 40
1.569104413799093
 40
1.674503453309966
 40
1.792622861810725
 40
1.925090937129959
 40
2.073798452707137
 40
2.240435655455264
 40
2.426831385086622
 40
2.636512629743371
 40
2.874844779664
 40
2.874844779664
 40
2.874844779664
 40
2.874844779664
 10
100.9665922687431
 20
212.4475741730109
 30
0.0
 10
100.9875811256374
 20
212.4309021118936
 30
0.0
 10
101.0317227478903
 20
212.3967713100793
 30
0.0
 10
101.0986300117943
 20
212.3482263314232
 30
0.0
 10
101.1656662543056
 20
212.3030997465515
 30
0.0
 10
101.2294051330475
 20
212.2636160316617
 30
0.0
 10
101.2896892932594
 20
212.2296241320524
 30
0.0
 10
101.3459150503157
 20
212.2011588841383
 30
0.0
 10
101.397426656586
 20
212.1781161619502
 30
0.0
 10
101.4440374288149
 20
212.1600466786417
 30
0.0
 10
101.4860836451596
 20
212.1462865043804
 30
0.0
 10
101.5240934586785
 20
212.1361856093112
 30
0.0
 10
101.5586200214286
 20
212.1291918239878
 30
0.0
 10
101.590217973848
 20
212.1248655722742
 30
0.0
 10
101.6194158351502
 20
212.1228898116818
 30
0.0
 10
101.6466920353314
 20
212.123073810692
 30
0.0
 10
101.6724588149166
 20
212.1253533954606
 30
0.0
 10
101.6970489928903
 20
212.1297915265518
 30
0.0
 10
101.7207059443971
 20
212.1365815273452
 30
0.0
 10
101.7436143112324
 20
212.1460723860004
 30
0.0
 10
101.7658989992377
 20
212.1588280672868
 30
0.0
 10
101.7873948042818
 20
212.1755760251897
 30
0.0
 10
101.8074917138646
 20
212.1969548770106
 30
0.0
 10
101.8253422922874
 20
212.2232642064341
 30
0.0
 10
101.8402157981216
 20
212.254539848423
 30
0.0
 10
101.85162909267
 20
212.290814938618
 30
0.0
 10
101.8592496779078
 20
212.3322374309514
 30
0.0
 10
101.8627767816039
 20
212.3790870645576
 30
0.0
 10
101.8618793135266
 20
212.431733125017
 30
0.0
 10
101.8561811929913
 20
212.4906025829827
 30
0.0
 10
101.8452519033599
 20
212.5561973072296
 30
0.0
 10
101.82859889561
 20
212.629092188452
 30
0.0
 10
101.8056675294426
 20
212.7099359175441
 30
0.0
 10
101.7758410930712
 20
212.799453074804
 30
0.0
 10
101.7384341011962
 20
212.8984667736357
 30
0.0
 10
101.6926651838912
 20
213.0079694347103
 30
0.0
 10
101.6376269776842
 20
213.1291745776449
 30
0.0
 10
101.5723267577379
 20
213.2634213058786
 30
0.0
 10
101.4957440773822
 20
213.4121180830248
 30
0.0
 10
101.4066300813095
 20
213.5771799489958
 30
0.0
 10
101.303162177492
 20
213.761616695223
 30
0.0
 10
101.2283952774524
 20
213.8908947394519
 30
0.0
 10
101.188305446843
 20
213.9594816373108
 30
0.0
 11
100.9665922687431
 21
212.4475741730109
 31
0.0
 11
101.0302336712431
 21
212.3984195241108
 31
0.0
 11
101.1006560518431
 21
212.3474103083109
 31
0.0
 11
101.1675362826431
 21
212.3024767631109
 31
0.0
 11
101.231206256343
 21
212.2631272482108
 31
0.0
 11
101.2917455718431
 21
212.2290874749109
 31
0.0
 11
101.3482200893431
 21
212.2005924275108
 31
0.0
 11
101.399631796243
 21
212.1776843438109
 31
0.0
 11
101.445982405843
 21
212.1597974587108
 31
0.0
 11
101.487762564443
 21
212.1461984262108
 31
0.0
 11
101.525504988043
 21
212.1362358981109
 31
0.0
 11
101.5597694672431
 21
212.1293569768108
 31
0.0
 11
101.591118018343
 21
212.1251225614109
 31
0.0
 11
101.620083203743
 21
212.1232176629108
 31
0.0
 11
101.6471413291431
 21
212.1234541601109
 31
0.0
 11
101.6726985396431
 21
212.1257691964108
 31
0.0
 11
101.6970819384431
 21
212.1302246392109
 31
0.0
 11
101.7205212192431
 21
212.1370067805109
 31
0.0
 11
101.743145720543
 21
212.1464314489109
 31
0.0
 11
101.765088398943
 21
212.1590320921108
 31
0.0
 11
101.786373480243
 21
212.1756270052109
 31
0.0
 11
101.806371844643
 21
212.1968432948109
 31
0.0
 11
101.824147089843
 21
212.2228656178108
 31
0.0
 11
101.839022807643
 21
212.2537964206109
 31
0.0
 11
101.850508949043
 21
212.2896947512108
 31
0.0
 11
101.8582562957431
 21
212.3307160346108
 31
0.0
 11
101.8619582196431
 21
212.3772094596108
 31
0.0
 11
101.8612642281431
 21
212.4295347432108
 31
0.0
 11
101.8557897628431
 21
212.4880786468108
 31
0.0
 11
101.8450999273431
 21
212.5533538539108
 31
0.0
 11
101.828698069543
 21
212.6259421916108
 31
0.0
 11
101.8060374331431
 21
212.7064552512108
 31
0.0
 11
101.7764983213431
 21
212.7956321225108
 31
0.0
 11
101.739399324143
 21
212.8942861743108
 31
0.0
 11
101.6939938903431
 21
213.0033299327109
 31
0.0
 11
101.6393672575431
 21
213.1240101795109
 31
0.0
 11
101.574463451943
 21
213.2578063723109
 31
0.0
 11
101.498309164543
 21
213.4060240563109
 31
0.0
 11
101.4099028815431
 21
213.5701206655109
 31
0.0
 11
101.307462810843
 21
213.7530749119108
 31
0.0
 11
101.188305446843
 21
213.9594816373108
 31
0.0
  0
SPLINE
  5
606
330
1F
100
AcDbEntity
  8
0
  6
Continuous
 62
     7
100
AcDbSpline
210
0.0
220
0.0
230
1.0
 70
     8
 71
     3
 72
    12
 73
     8
 74
     6
 42
0.0000000001
 43
0.0000000001
 44
0.0000000001
 12
-0.9909432355466091
 22
0.1342814355166714
 32
0.0
 13
-0.8654289220834094
 23
0.5010317163828534
 33
0.0
 40
0.0
 40
0.0
 40
0.0
 40
0.0
 40
0.2341384771321222
 40
0.4774344136223046
 40
0.7309349149891915
 40
0.9954282507930447
 40
1.271460318788982
 40
1.271460318788982
 40
1.271460318788982
 40
1.271460318788982
 10
109.2018642446431
 20
123.9011570956108
 30
0.0
 10
109.124524931278
 20
123.9116372458838
 30
0.0
 10
108.9679396309685
 20
123.9418888523911
 30
0.0
 10
108.7338835399062
 20
124.0105823273616
 30
0.0
 10
108.4967383695473
 20
124.1015939768298
 30
0.0
 10
108.2567233890563
 20
124.2135803739182
 30
0.0
 10
108.0983262843318
 20
124.2996957949092
 30
0.0
 10
108.018697572643
 20
124.3457960685108
 30
0.0
 11
109.2018642446431
 21
123.9011570956108
 31
0.0
 11
108.971833792843
 21
123.9448242196108
 31
0.0
 11
108.738189005943
 21
124.0126698257108
 31
0.0
 11
108.5013075735431
 21
124.1029454657108
 31
0.0
 11
108.261406259143
 21
124.2143190893108
 31
0.0
 11
108.018697572643
 21
124.3457960685108
 31
0.0
  0
SPLINE
  5
607
330
1F
100
AcDbEntity
  8
0
  6
Continuous
 62
     7
100
AcDbSpline
210
0.0
220
0.0
230
1.0
 70
     8
 71
     3
 72
    12
 73
     8
 74
     6
 42
0.0000000001
 43
0.0000000001
 44
0.0000000001
 12
0.9552494111611704
 22
-0.2958015592863524
 32
0.0
 13
0.9991878047749212
 23
-0.0402955430423005
 33
0.0
 40
0.0
 40
0.0
 40
0.0
 40
0.0
 40
0.5555120040787638
 40
1.126582869626284
 40
1.71647328189253
 40
2.328512784839742
 40
2.966311504326437
 40
2.966311504326437
 40
2.966311504326437
 40
2.966311504326437
 10
107.898309092043
 20
124.4204878347109
 30
0.0
 10
108.0751932636394
 20
124.3657140623746
 30
0.0
 10
108.4369023304311
 20
124.2640372779442
 30
0.0
 10
108.9952851163204
 20
124.138116310244
 30
0.0
 10
109.578089702917
 20
124.0383848375001
 30
0.0
 10
110.1873815227007
 20
123.966600831065
 30
0.0
 10
110.603322181739
 20
123.939362766362
 30
0.0
 10
110.8157490825431
 20
123.9307959511108
 30
0.0
 11
107.898309092043
 21
124.4204878347109
 31
0.0
 11
108.433068510843
 21
124.2700685850109
 31
0.0
 11
108.990118798243
 21
124.1443032846108
 31
0.0
 11
109.5715255521431
 21
124.0446193591107
 31
0.0
 11
110.1793329447431
 21
123.9727686342109
 31
0.0
 11
110.8157490825431
 21
123.9307959511108
 31
0.0
  0
SPLINE
  5
608
330
1F
100
AcDbEntity
  8
0
  6
Continuous
 62
     7
100
AcDbSpline
210
0.0
220
0.0
230
1.0
 70
     8
 71
     3
 72
    23
 73
    19
 74
    17
 42
0.0000000001
 43
0.0000000001
 44
0.0000000001
 12
0.9995805027545959
 22
0.0289623637307043
 32
0.0
 13
0.7360397629383069
 23
0.6769383039640475
 33
0.0
 40
0.0
 40
0.0
 40
0.0
 40
0.0
 40
0.5061703809027835
 40
1.012424643813676
 40
1.518806864023929
 40
2.025343613553078
 40
2.532072462581886
 40
3.039040885186465
 40
3.546290554666426
 40
4.053867057784359
 40
4.561818170221019
 40
5.07019489401954
 40
5.579051719432087
 40
6.088447418860176
 40
6.598444166837278
 40
7.109115494067264
 40
7.620550376499952
 40
8.132823328598581
 40
8.132823328598581
 40
8.132823328598581
 40
8.132823328598581
 10
219.1155151489431
 20
123.9327368170108
 30
0.0
 10
219.2841678302172
 20
123.937623447238
 30
0.0
 10
219.6213314877484
 20
123.9549260702776
 30
0.0
 10
220.1254336414569
 20
124.0034138517509
 30
0.0
 10
220.6270029891008
 20
124.0743543025244
 30
0.0
 10
221.125061621566
 20
124.16762554386
 30
0.0
 10
221.6186548581219
 20
124.2830662520972
 30
0.0
 10
222.1068348804888
 20
124.420478137949
 30
0.0
 10
222.588665413063
 20
124.5796258111824
 30
0.0
 10
223.0632190271398
 20
124.7602365067742
 30
0.0
 10
223.5295816918359
 20
124.9620014342326
 30
0.0
 10
223.9868537315628
 20
125.1845764735253
 30
0.0
 10
224.4341515427965
 20
125.4275831461015
 30
0.0
 10
224.8706089984712
 20
125.6906097802148
 30
0.0
 10
225.2953795328036
 20
125.9732127588315
 30
0.0
 10
225.7076440230089
 20
126.2749240106125
 30
0.0
 10
226.1065903316188
 20
126.5952346160118
 30
0.0
 10
226.3629549764023
 20
126.8206477724573
 30
0.0
 10
226.4886393971431
 20
126.9362401669107
 30
0.0
 11
219.1155151489431
 21
123.9327368170108
 31
0.0
 11
219.6210203126431
 21
123.9586787517109
 31
0.0
 11
220.124948945943
 21
124.0071484459109
 31
0.0
 11
220.6263410305431
 21
124.0780633981108
 31
0.0
 11
221.1242228737431
 21
124.1713004553109
 31
0.0
 11
221.6176369842431
 21
124.2866982109109
 31
0.0
 11
222.1056419654431
 21
124.4240594858109
 31
0.0
 11
222.5872985157431
 21
124.5831481238108
 31
0.0
 11
223.061680210543
 21
124.7636915096109
 31
0.0
 11
223.5278730748431
 21
124.9653807406109
 31
0.0
 11
223.9849777553431
 21
125.1878716491107
 31
0.0
 11
224.4321108865431
 21
125.4307856910108
 31
0.0
 11
224.868406847643
 21
125.6937111803109
 31
0.0
 11
225.2930180085431
 21
125.9762037377108
 31
0.0
 11
225.7051220945431
 21
126.2777919118107
 31
0.0
 11
226.1039253041431
 21
126.5979819163107
 31
0.0
 11
226.4886393971431
 21
126.9362401669107
 31
0.0
  0
SPLINE
  5
609
330
1F
100
AcDbEntity
  8
0
  6
Continuous
 62
     7
100
AcDbSpline
210
0.0
220
0.0
230
1.0
 70
     8
 71
     3
 72
    23
 73
    19
 74
    17
 42
0.0000000001
 43
0.0000000001
 44
0.0000000001
 12
0.7360397841983878
 22
-0.6769382808478119
 32
0.0
 13
0.9995805018886866
 23
-0.0289623936158896
 33
0.0
 40
0.0
 40
0.0
 40
0.0
 40
0.0
 40
0.5122681107911247
 40
1.023698339377124
 40
1.534368555343377
 40
2.044367299696556
 40
2.55376481915188
 40
3.062623377542066
 40
3.571001694347839
 40
4.078954272012241
 40
4.586532119056018
 40
5.093783045290068
 40
5.600752536670399
 40
6.107481987870744
 40
6.614019951355772
 40
7.120401678957039
 40
7.626654468797484
 40
8.132823326828368
 40
8.132823326828368
 40
8.132823326828368
 40
8.132823326828368
 10
101.570065162443
 20
126.9362401658109
 30
0.0
 10
101.6957483990158
 20
126.8206488677269
 30
0.0
 10
101.9521106116932
 20
126.5952377444053
 30
0.0
 10
102.3510539621265
 20
126.2749291081332
 30
0.0
 10
102.7633171717221
 20
125.9732182358189
 30
0.0
 10
103.1880882206691
 20
125.6906143995403
 30
0.0
 10
103.6245470848105
 20
125.4275865153983
 30
0.0
 10
104.0718462784104
 20
125.1845787904197
 30
0.0
 10
104.5291196724445
 20
124.9620028807085
 30
0.0
 10
104.9954836368069
 20
124.760237258097
 30
0.0
 10
105.4700384977561
 20
124.5796260246248
 30
0.0
 10
105.9518701926227
 20
124.4204779664518
 30
0.0
 10
106.4400511690638
 20
124.2830658643218
 30
0.0
 10
106.9336453627446
 20
124.1676250232447
 30
0.0
 10
107.4317044533545
 20
124.0743538252013
 30
0.0
 10
107.9332735730525
 20
124.0034135566775
 30
0.0
 10
108.43737457694
 20
123.954925977677
 30
0.0
 10
108.7745372376261
 20
123.9376234406783
 30
0.0
 10
108.9431894113431
 20
123.9327368201109
 30
0.0
 11
101.570065162443
 21
126.9362401658109
 31
0.0
 11
101.9547755486431
 21
126.5979850312108
 31
0.0
 11
102.353574929143
 21
126.2777976910108
 31
0.0
 11
102.7656778532431
 21
125.9762098109108
 31
0.0
 11
103.1902904386431
 21
125.6937157905108
 31
0.0
 11
103.626587781243
 21
125.4307890675109
 31
0.0
 11
104.0737223089431
 21
125.1878739659108
 31
0.0
 11
104.5308283386431
 21
124.9653821894107
 31
0.0
 11
104.9970224993431
 21
124.7636922648108
 31
0.0
 11
105.4714054291431
 21
124.5831483457108
 31
0.0
 11
105.953063172443
 21
124.4240593125109
 31
0.0
 11
106.4410691961431
 21
124.2866977967108
 31
0.0
 11
106.934483913043
 21
124.1712999897109
 31
0.0
 11
107.4323669730431
 21
124.0780628350109
 31
0.0
 11
107.9337585902431
 21
124.0071480957108
 31
0.0
 11
108.437685766643
 21
123.9586786403109
 31
0.0
 11
108.9431894113431
 21
123.9327368201109
 31
0.0
  0
SPLINE
  5
60A
330
1F
100
AcDbEntity
  8
0
  6
Continuous
 62
     7
100
AcDbSpline
210
0.0
220
0.0
230
1.0
 70
     8
 71
     3
 72
    11
 73
     7
 74
     5
 42
0.0000000001
 43
0.0000000001
 44
0.0000000001
 12
-0.5000860290136057
 22
0.8659757292126627
 32
0.0
 13
-0.7053200713668224
 23
0.7088889877315775
 33
0.0
 40
0.0
 40
0.0
 40
0.0
 40
0.0
 40
0.2948445712081916
 40
0.5845902713269162
 40
0.8706454800670492
 40
1.15422940151493
 40
1.15422940151493
 40
1.15422940151493
 40
1.15422940151493
 10
102.2722372669431
 20
126.0239714586109
 30
0.0
 10
102.2230880500125
 20
126.1090808727964
 30
0.0
 10
102.1196513689377
 20
126.2744444484634
 30
0.0
 10
101.9493526338622
 20
126.5096881183928
 30
0.0
 10
101.7666615771299
 20
126.7305724482135
 30
0.0
 10
101.6367376396811
 20
126.8692303261402
 30
0.0
 10
101.570065162443
 20
126.9362401658109
 30
0.0
 11
102.2722372669431
 21
126.0239714586109
 31
0.0
 11
102.115974022043
 21
126.2740016957109
 31
0.0
 11
101.9461546304431
 21
126.5087652895109
 31
0.0
 11
101.763910020343
 21
126.7292522155107
 31
0.0
 11
101.570065162443
 21
126.9362401658109
 31
0.0
  0
SPLINE
  5
60B
330
1F
100
AcDbEntity
  8
0
  6
Continuous
 62
     7
100
AcDbSpline
210
0.0
220
0.0
230
1.0
 70
     8
 71
     3
 72
    31
 73
    27
 74
    25
 42
0.0000000001
 43
0.0000000001
 44
0.0000000001
 12
-0.8431712464549438
 22
0.5376450959058553
 32
0.0
 13
-0.180377545169118
 23
0.9835974487557209
 33
0.0
 40
0.0
 40
0.0
 40
0.0
 40
0.0
 40
0.3315839355148418
 40
0.6776194769705021
 40
1.039312444790676
 40
1.417477794433767
 40
1.812582425420285
 40
2.225487793315945
 40
2.657265226300555
 40
3.108688806108482
 40
3.580296316364467
 40
4.072552650155011
 40
4.586210899052376
 40
5.122264926991275
 40
5.6819467712082
 40
6.266824827030121
 40
6.87870439033889
 40
7.519582284147325
 40
8.191810979827311
 40
8.897664524255871
 40
9.63954595309884
 40
10.41973701952365
 40
11.24046078449681
 40
12.10385381807483
 40
13.01207634642311
 40
13.9673195814706
 40
13.9673195814706
 40
13.9673195814706
 40
13.9673195814706
 10
107.898309092043
 20
124.4204878347109
 30
0.0
 10
107.8051150786389
 20
124.4799126603144
 30
0.0
 10
107.61863201085
 20
124.6076606281095
 30
0.0
 10
107.3445599083006
 20
124.819832717058
 30
0.0
 10
107.0703220546479
 20
125.0563208829045
 30
0.0
 10
106.7961493373206
 20
125.317208226677
 30
0.0
 10
106.5224447265361
 20
125.6027338073747
 30
0.0
 10
106.2496912019089
 20
125.9133711051547
 30
0.0
 10
105.9784496006464
 20
126.2498067685814
 30
0.0
 10
105.7094861881656
 20
126.6127304417984
 30
0.0
 10
105.4437780800743
 20
127.0026957321634
 30
0.0
 10
105.1823438187831
 20
127.4202284965939
 30
0.0
 10
104.9261225447324
 20
127.8659386398567
 30
0.0
 10
104.6759041385782
 20
128.340606457522
 30
0.0
 10
104.4323101977715
 20
128.8452024754994
 30
0.0
 10
104.1957857244881
 20
129.380897021304
 30
0.0
 10
103.9665974450071
 20
129.9490592451491
 30
0.0
 10
103.744823054168
 20
130.5512772390231
 30
0.0
 10
103.5303833478516
 20
131.1892751025704
 30
0.0
 10
103.3230364249033
 20
131.8649044045284
 30
0.0
 10
103.1224120001042
 20
132.5800022424011
 30
0.0
 10
102.9279944901393
 20
133.3364044633492
 30
0.0
 10
102.7391357284205
 20
134.1358827788751
 30
0.0
 10
102.555040797874
 20
134.9801965762758
 30
0.0
 10
102.374794516908
 20
135.8711277348741
 30
0.0
 10
102.2594674523688
 20
136.4815002531329
 30
0.0
 10
102.2020326424431
 20
136.7946918561109
 30
0.0
 11
107.898309092043
 21
124.4204878347109
 31
0.0
 11
107.6244747639431
 21
124.6074709009109
 31
0.0
 11
107.3505769256431
 21
124.8189432871108
 31
0.0
 11
107.0764228570431
 21
125.0548698639109
 31
0.0
 11
106.8022432011431
 21
125.3153205271108
 31
0.0
 11
106.5286281514431
 21
125.6003511816107
 31
0.0
 11
106.2560080079431
 21
125.9104626135108
 31
0.0
 11
105.9848300303431
 21
126.2464600184108
 31
0.0
 11
105.715873963343
 21
126.6090146797109
 31
0.0
 11
105.450146942343
 21
126.9986334601109
 31
0.0
 11
105.1887265371431
 21
127.4157373679108
 31
0.0
 11
104.9325312125431
 21
127.8609437833109
 31
0.0
 11
104.682339170543
 21
128.3350301288107
 31
0.0
 11
104.438776232743
 21
128.8389357371108
 31
0.0
 11
104.2022636747431
 21
129.373860171111
 31
0.0
 11
103.973056473843
 21
129.9411878181109
 31
0.0
 11
103.7512485700431
 21
130.5424579143108
 31
0.0
 11
103.536711219843
 21
131.1795333766108
 31
0.0
 11
103.3292297122431
 21
131.8542041483109
 31
0.0
 11
103.128416374443
 21
132.5683904390108
 31
0.0
 11
102.9337715799431
 21
133.3239111231109
 31
0.0
 11
102.7446546700431
 21
134.1225488963108
 31
0.0
 11
102.5602923129431
 21
134.9660286244107
 31
0.0
 11
102.3797669903431
 21
135.8561290507108
 31
0.0
 11
102.2020326424431
 21
136.7946918561109
 31
0.0
  0
SPLINE
  5
60C
330
1F
100
AcDbEntity
  8
0
  6
Continuous
 62
     7
100
AcDbSpline
210
0.0
220
0.0
230
1.0
 70
     8
 71
     3
 72
    34
 73
    30
 74
    28
 42
0.0000000001
 43
0.0000000001
 44
0.0000000001
 12
0.5162734272798119
 22
-0.8564238134736545
 32
0.0
 13
0.4602798666919006
 23
0.8877738700356562
 33
0.0
 40
0.0
 40
0.0
 40
0.0
 40
0.0
 40
0.0498861237160282
 40
0.1047279353720697
 40
0.1606203020253706
 40
0.217959531769875
 40
0.2770715057610839
 40
0.33820340169469
 40
0.401521538474168
 40
0.4671137382083368
 40
0.5349945772094989
 40
0.6051122098628511
 40
0.6773558569934971
 40
0.7515634013902766
 40
0.8275288004266727
 40
0.9050091903908052
 40
0.9837316581658752
 40
1.063399709464289
 40
1.143699487245665
 40
1.224305801710182
 40
1.304888038320523
 40
1.385116007032322
 40
1.464665795662828
 40
1.543225692124524
 40
1.620502237463532
 40
1.696226476837173
 40
1.770160468821097
 40
1.842104105051525
 40
1.911902261658957
 40
1.911902261658957
 40
1.911902261658957
 40
1.911902261658957
 10
97.57106009494311
 20
216.5041233819108
 30
0.0
 10
97.57964505496463
 20
216.4898821604734
 30
0.0
 10
97.59946366976823
 20
216.4610294257318
 30
0.0
 10
97.63503574720466
 20
216.4208308386497
 30
0.0
 10
97.67715850191798
 20
216.3836839183498
 30
0.0
 10
97.72452802415385
 20
216.3509592856222
 30
0.0
 10
97.77677497532124
 20
216.32289003967
 30
0.0
 10
97.83349876540134
 20
216.2996732161245
 30
0.0
 10
97.89427148545733
 20
216.281468754552
 30
0.0
 10
97.95863926077512
 20
216.2684008894384
 30
0.0
 10
98.0261241647412
 20
216.2605578126645
 30
0.0
 10
98.09622644270124
 20
216.2579911407373
 30
0.0
 10
98.168427337402
 20
216.2607152147488
 30
0.0
 10
98.24219240294395
 20
216.2687065711308
 30
0.0
 10
98.316975204309
 20
216.2819036980003
 30
0.0
 10
98.39222127945822
 20
216.3002071443381
 30
0.0
 10
98.46737226452976
 20
216.3234799948548
 30
0.0
 10
98.54187010409257
 20
216.3515487005222
 30
0.0
 10
98.61516128281046
 20
216.3842042526352
 30
0.0
 10
98.6867010313286
 20
216.4212036711242
 30
0.0
 10
98.75595746068331
 20
216.4622717973619
 30
0.0
 10
98.82241558846713
 20
216.5071033544078
 30
0.0
 10
98.88558122759087
 20
216.5553652871933
 30
0.0
 10
98.94498466017358
 20
216.6066992705254
 30
0.0
 10
99.00018421682148
 20
216.6607246801973
 30
0.0
 10
99.0507691374592
 20
216.7170408578407
 30
0.0
 10
99.09636378893607
 20
216.7752327735202
 30
0.0
 10
99.13662553420175
 20
216.834865142456
 30
0.0
 10
99.16008404713688
 20
216.8759422301066
 30
0.0
 10
99.17079294254307
 20
216.8965972233109
 30
0.0
 11
97.57106009494311
 21
216.5041233819108
 31
0.0
 11
97.59929168254309
 21
216.4629942827109
 31
0.0
 11
97.63559493674307
 21
216.4218883459109
 31
0.0
 11
97.67746448144311
 21
216.3848627078108
 31
0.0
 11
97.7245872605431
 21
216.3521942068108
 31
0.0
 11
97.7766109396431
 21
216.3241271036108
 31
0.0
 11
97.83314654054311
 21
216.3008712542109
 31
0.0
 11
97.89377134984306
 21
216.2826005415109
 31
0.0
 11
97.9580320791431
 21
216.2694515744109
 31
0.0
 11
98.02544825474308
 21
216.2615226671108
 31
0.0
 11
98.0955158094431
 21
216.2588731035108
 31
0.0
 11
98.16771085234307
 21
216.2615226943108
 31
0.0
 11
98.24149358504309
 21
216.2694516287108
 31
0.0
 11
98.31631233814306
 21
216.2826006224109
 31
0.0
 11
98.39160769614307
 21
216.3008713611109
 31
0.0
 11
98.46681667984308
 21
216.3241272357109
 31
0.0
 11
98.54137695584308
 21
216.3521943631109
 31
0.0
 11
98.61473104124309
 21
216.3848628872108
 31
0.0
 11
98.68633047174308
 21
216.4218885470109
 31
0.0
 11
98.75563990224311
 21
216.4629945040109
 31
0.0
 11
98.8221411101431
 21
216.5078734112109
 31
0.0
 11
98.88533686954311
 21
216.5561897114109
 31
0.0
 11
98.94475466954311
 21
216.6075821464108
 31
0.0
 11
98.99995024634307
 21
216.6616664580109
 31
0.0
 11
99.05051090584311
 21
216.7180382607108
 31
0.0
 11
99.09605860874307
 21
216.7762760657108
 31
0.0
 11
99.13625279764307
 21
216.8359444323109
 31
0.0
 11
99.17079294254307
 21
216.8965972233109
 31
0.0
  0
LINE
  5
60D
330
1F
100
AcDbEntity
  8
0
  6
Continuous
 62
     7
100
AcDbLine
 10
218.856840313043
 20
123.9011570958109
 30
0.0
 11
217.2429554770431
 21
123.9307959546108
 31
0.0
  0
SPLINE
  5
60E
330
1F
100
AcDbEntity
  8
0
  6
Continuous
 62
     7
100
AcDbSpline
210
0.0
220
0.0
230
1.0
 70
     8
 71
     3
 72
    14
 73
    10
 74
     8
 42
0.0000000001
 43
0.0000000001
 44
0.0000000001
 12
-0.9999962162160812
 22
0.0027509186684701
 32
0.0
 13
-1.0
 23
0.0000000000000002
 33
0.0
 40
0.0
 40
0.0
 40
0.0
 40
0.0
 40
0.0323706387105637
 40
0.0736234148904977
 40
0.1152981731923494
 40
0.157403611412846
 40
0.1786242731599745
 40
0.1892777812763122
 40
0.1999606541592278
 40
0.1999606541592278
 40
0.1999606541592278
 40
0.1999606541592278
 10
85.96910308704309
 20
231.344244995211
 30
0.0
 10
85.95831291496741
 20
231.3442746782091
 30
0.0
 10
85.93377112333001
 20
231.3441657798752
 30
0.0
 10
85.89534442037054
 20
231.3433358896338
 30
0.0
 10
85.85370378042343
 20
231.341508849051
 30
0.0
 10
85.81877289641846
 20
231.3392563342337
 30
0.0
 10
85.79421568572099
 20
231.3369338965479
 30
0.0
 10
85.78008320896451
 20
231.33581738868
 30
0.0
 10
85.77304169257073
 20
231.3345020253108
 30
0.0
 10
85.7694807349431
 20
231.3345020253108
 30
0.0
 11
85.96910308704309
 21
231.344244995211
 31
0.0
 11
85.93673278424308
 21
231.3440975260109
 31
0.0
 11
85.89549006294305
 21
231.3431867668108
 31
0.0
 11
85.85385477744308
 21
231.3413733499109
 31
0.0
 11
85.8118454528431
 21
231.3385300113109
 31
0.0
 11
85.79070602254308
 21
231.3366750257109
 31
0.0
 11
85.78010391434309
 21
231.3356297808109
 31
0.0
 11
85.7694807349431
 21
231.3345020253108
 31
0.0
  0
LINE
  5
60F
330
1F
100
AcDbEntity
  8
0
  6
Continuous
 62
     7
100
AcDbLine
 10
109.201864246543
 20
123.9011570958109
 30
0.0
 11
110.8157490825431
 21
123.9307959546108
 31
0.0
  0
SPLINE
  5
610
330
1F
100
AcDbEntity
  8
0
  6
Continuous
 62
     7
100
AcDbSpline
210
0.0
220
0.0
230
1.0
 70
     8
 71
     3
 72
    31
 73
    27
 74
    25
 42
0.0000000001
 43
0.0000000001
 44
0.0000000001
 12
0.9999843530869977
 22
-0.0055940666047694
 32
0.0
 13
0.9999999997391714
 23
0.0000228398190398
 33
0.0
 40
0.0
 40
0.0
 40
0.0
 40
0.0
 40
2.030971770916624
 40
4.12766747710172
 40
6.285549607232197
 40
8.495892816029808
 40
10.75327705624786
 40
13.05420196995021
 40
15.39121490854018
 40
17.75529776221695
 40
20.14251939734724
 40
22.54856485634114
 40
24.9648135051837
 40
27.38230362894571
 40
29.79312986196
 40
32.1976848859221
 40
34.60398979617465
 40
37.05351625600616
 40
39.61132809498252
 40
42.30515865933607
 40
45.14157974789378
 40
48.14782124305041
 40
51.37429543866287
 40
54.87581568804309
 40
58.48887165265489
 40
61.82835326009251
 40
61.82835326009251
 40
61.82835326009251
 40
61.82835326009251
 10
102.202027509043
 20
136.7946918661109
 30
0.0
 10
102.8790075065357
 20
136.7909047356579
 30
0.0
 10
104.2548922992142
 20
136.7861109360471
 30
0.0
 10
106.3500788146379
 20
136.7860626564735
 30
0.0
 10
108.5050456334668
 20
136.7924826141845
 30
0.0
 10
110.7135522149019
 20
136.804259422251
 30
0.0
 10
112.9697138246159
 20
136.8202628762891
 30
0.0
 10
115.268072380695
 20
136.8397556418917
 30
0.0
 10
117.6019761277764
 20
136.8617170724431
 30
0.0
 10
119.9646335153486
 20
136.8850388062093
 30
0.0
 10
122.3502997256808
 20
136.9086764236162
 30
0.0
 10
124.7533582508205
 20
136.9320256806701
 30
0.0
 10
127.1665179030531
 20
136.9542068842287
 30
0.0
 10
129.5812881908336
 20
136.9744719412269
 30
0.0
 10
131.9921808069536
 20
136.9921930585341
 30
0.0
 10
134.3993665467943
 20
137.0066845334438
 30
0.0
 10
136.8194689336777
 20
137.0181828777477
 30
0.0
 10
139.2906718944392
 20
137.0259550265593
 30
0.0
 10
141.8577233795503
 20
137.031212849695
 30
0.0
 10
144.5537455108663
 20
137.0326558072161
 30
0.0
 10
147.3992423564894
 20
137.0292137391807
 30
0.0
 10
150.4222788121401
 20
137.0215811484094
 30
0.0
 10
153.6670069714215
 20
137.0110144967078
 30
0.0
 10
157.1140046271657
 20
136.9995171297596
 30
0.0
 10
160.598679024896
 20
136.990345222902
 30
0.0
 10
162.9161917443209
 20
136.9877198805256
 30
0.0
 10
164.029352279843
 20
136.9877453049108
 30
0.0
 11
102.202027509043
 21
136.7946918661109
 31
0.0
 11
104.232985974143
 21
136.7873401793108
 31
0.0
 11
106.329681666243
 21
136.7870971479109
 31
0.0
 11
108.487554976743
 21
136.7932666996108
 31
0.0
 11
110.6978680038431
 21
136.8048175831108
 31
0.0
 11
112.955196532043
 21
136.8206770837108
 31
0.0
 11
115.2560402504431
 21
136.8400069051108
 31
0.0
 11
117.592951474043
 21
136.8618107614109
 31
0.0
 11
119.956920816543
 21
136.8849772624108
 31
0.0
 11
122.3440261793431
 21
136.908538292211
 31
0.0
 11
124.749959355543
 21
136.9317826981109
 31
0.0
 11
127.166106948343
 21
136.9538811786109
 31
0.0
 11
129.5835127679431
 21
136.9740703304108
 31
0.0
 11
131.9942747354431
 21
136.9916732235108
 31
0.0
 11
134.398786043043
 21
137.0061727023108
 31
0.0
 11
136.805064405043
 21
137.0174760503109
 31
0.0
 11
139.2545780373431
 21
137.0254033822109
 31
0.0
 11
141.812384815143
 21
137.0304917069107
 31
0.0
 11
144.506215028343
 21
137.0318671691107
 31
0.0
 11
147.3426343246431
 21
137.0286785657108
 31
0.0
 11
150.3488670395431
 21
137.0214128196108
 31
0.0
 11
153.5753252999431
 21
137.0112723635108
 31
0.0
 11
157.0768275500431
 21
137.0000451927107
 31
0.0
 11
160.6898723011431
 21
136.9910435281109
 31
0.0
 11
164.029352279843
 21
136.9877453049108
 31
0.0
  0
SPLINE
  5
611
330
1F
100
AcDbEntity
  8
0
  6
Continuous
 62
     7
100
AcDbSpline
210
0.0
220
0.0
230
1.0
 70
     8
 71
     3
 72
    31
 73
    27
 74
    25
 42
0.0000000001
 43
0.0000000001
 44
0.0000000001
 12
0.8431712464549439
 22
0.5376450959058551
 32
0.0
 13
0.1803775451691183
 23
0.9835974487557209
 33
0.0
 40
0.0
 40
0.0
 40
0.0
 40
0.0
 40
0.3315839355148888
 40
0.6776194769705491
 40
1.039312444790723
 40
1.417477794433814
 40
1.812582425420332
 40
2.225487793315992
 40
2.657265226300602
 40
3.108688806108462
 40
3.580296316364511
 40
4.072552650155055
 40
4.58621089905242
 40
5.122264926991265
 40
5.68194677120824
 40
6.266824827030161
 40
6.878704390338929
 40
7.519582284181971
 40
8.191810979861939
 40
8.897664524261125
 40
9.639545953131145
 40
10.41973701955597
 40
11.24046078450609
 40
12.10385381808411
 40
13.01207634643239
 40
13.96731958147988
 40
13.96731958147988
 40
13.96731958147988
 40
13.96731958147988
 10
220.1603954675431
 20
124.4204878347109
 30
0.0
 10
220.2535894809472
 20
124.4799126603144
 30
0.0
 10
220.4400725487362
 20
124.6076606281095
 30
0.0
 10
220.7141446512856
 20
124.819832717058
 30
0.0
 10
220.9883825049383
 20
125.0563208829045
 30
0.0
 10
221.2625552222656
 20
125.317208226677
 30
0.0
 10
221.5362598330501
 20
125.6027338073747
 30
0.0
 10
221.8090133576773
 20
125.9133711051547
 30
0.0
 10
222.0802549589398
 20
126.2498067685814
 30
0.0
 10
222.3492183714205
 20
126.6127304417985
 30
0.0
 10
222.6149264795119
 20
127.0026957321634
 30
0.0
 10
222.8763607408032
 20
127.4202284965939
 30
0.0
 10
223.1325820148537
 20
127.8659386398567
 30
0.0
 10
223.3828004210082
 20
128.3406064575219
 30
0.0
 10
223.6263943618129
 20
128.8452024754999
 30
0.0
 10
223.8629188351051
 20
129.3808970213014
 30
0.0
 10
224.0921071145552
 20
129.9490592451703
 30
0.0
 10
224.3138815055387
 20
130.5512772390026
 30
0.0
 10
224.5283212118607
 20
131.1892751025528
 30
0.0
 10
224.7356681346257
 20
131.8649044045647
 30
0.0
 10
224.9362925596168
 20
132.5800022423813
 30
0.0
 10
225.1307100695645
 20
133.3364044633377
 30
0.0
 10
225.3195688311343
 20
134.1358827788902
 30
0.0
 10
225.5036637617217
 20
134.9801965762735
 30
0.0
 10
225.6839100426753
 20
135.8711277348748
 30
0.0
 10
225.7992371072174
 20
136.4815002531329
 30
0.0
 10
225.8566719171431
 20
136.7946918561109
 30
0.0
 11
220.1603954675431
 21
124.4204878347109
 31
0.0
 11
220.4342297956431
 21
124.6074709009109
 31
0.0
 11
220.7081276339431
 21
124.8189432871108
 31
0.0
 11
220.9822817025431
 21
125.0548698639109
 31
0.0
 11
221.2564613584431
 21
125.3153205271108
 31
0.0
 11
221.5300764081431
 21
125.6003511816107
 31
0.0
 11
221.8026965516431
 21
125.9104626135108
 31
0.0
 11
222.0738745292431
 21
126.2464600184108
 31
0.0
 11
222.3428305962431
 21
126.6090146797109
 31
0.0
 11
222.6085576172431
 21
126.9986334601109
 31
0.0
 11
222.8699780224431
 21
127.4157373679108
 31
0.0
 11
223.1261733470431
 21
127.8609437833109
 31
0.0
 11
223.376365389043
 21
128.3350301288107
 31
0.0
 11
223.6199283268431
 21
128.8389357371108
 31
0.0
 11
223.8564408848431
 21
129.373860171111
 31
0.0
 11
224.0856480857431
 21
129.9411878181109
 31
0.0
 11
224.3074559896431
 21
130.5424579143108
 31
0.0
 11
224.5219933398431
 21
131.1795333766108
 31
0.0
 11
224.729474847343
 21
131.8542041483109
 31
0.0
 11
224.9302881852431
 21
132.5683904390108
 31
0.0
 11
225.1249329797431
 21
133.3239111231109
 31
0.0
 11
225.3140498895431
 21
134.1225488963107
 31
0.0
 11
225.4984122466431
 21
134.9660286244107
 31
0.0
 11
225.6789375692431
 21
135.8561290507107
 31
0.0
 11
225.8566719171431
 21
136.7946918561109
 31
0.0
  0
SPLINE
  5
612
330
1F
100
AcDbEntity
  8
0
  6
Continuous
 62
     7
100
AcDbSpline
210
0.0
220
0.0
230
1.0
 70
     8
 71
     3
 72
    12
 73
     8
 74
     6
 42
0.0000000001
 43
0.0000000001
 44
0.0000000001
 12
-0.9552494111611704
 22
-0.2958015592863521
 32
0.0
 13
-0.9991878047749212
 23
-0.0402955430423002
 33
0.0
 40
0.0
 40
0.0
 40
0.0
 40
0.0
 40
0.5555120039825116
 40
1.126582869627565
 40
1.716473281795205
 40
2.328512784841713
 40
2.966311504328407
 40
2.966311504328407
 40
2.966311504328407
 40
2.966311504328407
 10
220.1603954675431
 20
124.4204878347109
 30
0.0
 10
219.9835112959773
 20
124.3657140623841
 30
0.0
 10
219.6218022291979
 20
124.2640372779062
 30
0.0
 10
219.0634194433258
 20
124.1381163102755
 30
0.0
 10
218.4806148567063
 20
124.0383848374766
 30
0.0
 10
217.8713230369173
 20
123.9666008310757
 30
0.0
 10
217.4553823778472
 20
123.939362766362
 30
0.0
 10
217.2429554770431
 20
123.9307959511108
 30
0.0
 11
220.1603954675431
 21
124.4204878347109
 31
0.0
 11
219.6256360488431
 21
124.2700685850109
 31
0.0
 11
219.0685857613431
 21
124.1443032846108
 31
0.0
 11
218.4871790075431
 21
124.0446193591107
 31
0.0
 11
217.8793716148431
 21
123.9727686342109
 31
0.0
 11
217.2429554770431
 21
123.9307959511108
 31
0.0
  0
SPLINE
  5
613
330
1F
100
AcDbEntity
  8
0
  6
Continuous
 62
     7
100
AcDbSpline
210
0.0
220
0.0
230
1.0
 70
     8
 71
     3
 72
    12
 73
     8
 74
     6
 42
0.0000000001
 43
0.0000000001
 44
0.0000000001
 12
0.9909432355466091
 22
0.134281435516671
 32
0.0
 13
0.8654289220834096
 23
0.5010317163828532
 33
0.0
 40
0.0
 40
0.0
 40
0.0
 40
0.0
 40
0.2341384771321222
 40
0.4774344135262833
 40
0.7309349148931704
 40
0.9954282506970235
 40
1.27146031869291
 40
1.27146031869291
 40
1.27146031869291
 40
1.27146031869291
 10
218.8568403150431
 20
123.9011570956108
 30
0.0
 10
218.9341796284082
 20
123.9116372458838
 30
0.0
 10
219.0907649286893
 20
123.941888852374
 30
0.0
 10
219.3248210197071
 20
124.0105823273828
 30
0.0
 10
219.5619661900397
 20
124.1015939768269
 30
0.0
 10
219.8019811705295
 20
124.2135803739191
 30
0.0
 10
219.9603782752543
 20
124.2996957949092
 30
0.0
 10
220.0400069869431
 20
124.3457960685108
 30
0.0
 11
218.8568403150431
 21
123.9011570956108
 31
0.0
 11
219.0868707668431
 21
123.9448242196108
 31
0.0
 11
219.3205155536432
 21
124.0126698257108
 31
0.0
 11
219.5573969860431
 21
124.1029454657108
 31
0.0
 11
219.7972983004431
 21
124.2143190893108
 31
0.0
 11
220.0400069869431
 21
124.3457960685108
 31
0.0
  0
SPLINE
  5
614
330
1F
100
AcDbEntity
  8
0
  6
Continuous
 62
     7
100
AcDbSpline
210
0.0
220
0.0
230
1.0
 70
     8
 71
     3
 72
    26
 73
    22
 74
    20
 42
0.0000000001
 43
0.0000000001
 44
0.0000000001
 12
-0.1391730961924025
 22
-0.9902680694116218
 32
0.0
 13
-0.9883047472756217
 23
-0.1524917260459386
 33
0.0
 40
0.0
 40
0.0
 40
0.0
 40
0.0
 40
0.2296934494238263
 40
0.4621417272518544
 40
0.6999781013431066
 40
0.9456128087274342
 40
1.201164313792686
 40
1.468425601109231
 40
1.748859760709291
 40
2.043615617172497
 40
2.353554445517777
 40
2.679280985541099
 40
3.021174439830089
 40
3.379417144633562
 40
3.75401994998948
 40
4.14484413862478
 40
4.551620118703072
 40
4.973963295917577
 40
5.411387570539721
 40
5.863316881235878
 40
6.329095164887108
 40
6.329095164887108
 40
6.329095164887108
 40
6.329095164887108
 10
230.9737665853431
 20
139.8635077538108
 30
0.0
 10
230.9631108691659
 20
139.787688390905
 30
0.0
 10
230.9323872062113
 20
139.636285449346
 30
0.0
 10
230.8588335092701
 20
139.4143148504009
 30
0.0
 10
230.7579593768185
 20
139.1974803272995
 30
0.0
 10
230.630113998408
 20
138.9863812067912
 30
0.0
 10
230.4756950728191
 20
138.7815058514513
 30
0.0
 10
230.2951442356209
 20
138.5833168430915
 30
0.0
 10
230.088940218213
 20
138.3922449958677
 30
0.0
 10
229.8576022849778
 20
138.2087051014297
 30
0.0
 10
229.6016949315725
 20
138.0330993158122
 30
0.0
 10
229.3218324482939
 20
137.8658188103973
 30
0.0
 10
229.0186818897733
 20
137.7072425840003
 30
0.0
 10
228.692964457586
 20
137.5577354598233
 30
0.0
 10
228.3454555485976
 20
137.4176457829555
 30
0.0
 10
227.9769838863976
 20
137.2873032633057
 30
0.0
 10
227.5884298530507
 20
137.1670170590271
 30
0.0
 10
227.1807239819094
 20
137.0570742358517
 30
0.0
 10
226.7548428293828
 20
136.957738164403
 30
0.0
 10
226.3118138307115
 20
136.8692484521927
 30
0.0
 10
226.0101206927799
 20
136.8183677301537
 30
0.0
 10
225.8566770631431
 20
136.7946919520108
 30
0.0
 11
230.9737665853431
 21
139.8635077538108
 31
0.0
 11
230.928163811243
 21
139.6383867470109
 31
0.0
 11
230.8552840633431
 21
139.4176589866108
 31
0.0
 11
230.755303526543
 21
139.2018580758109
 31
0.0
 11
230.6284639009431
 21
138.9915057075108
 31
0.0
 11
230.4750718178431
 21
138.7871104028109
 31
0.0
 11
230.2954980984431
 21
138.5891662819107
 31
0.0
 11
230.0901768572432
 21
138.3981518694108
 31
0.0
 11
229.859604452643
 21
138.2145289374107
 31
0.0
 11
229.6043382871431
 21
138.0387413893108
 31
0.0
 11
229.3249954595431
 21
137.8712141869107
 31
0.0
 11
229.0222512735431
 21
137.7123523226108
 31
0.0
 11
228.6968376047431
 21
137.5625398408109
 31
0.0
 11
228.3495411317431
 21
137.4221389091107
 31
0.0
 11
227.9812014342431
 21
137.2914889429108
 31
0.0
 11
227.5927089632431
 21
137.1709057851108
 31
0.0
 11
227.1850028885431
 21
137.0606809422109
 31
0.0
 11
226.759068828343
 21
136.9610808800109
 31
0.0
 11
226.3159364664431
 21
136.8723463788107
 31
0.0
 11
225.8566770631431
 21
136.7946919520108
 31
0.0
  0
SPLINE
  5
615
330
1F
100
AcDbEntity
  8
0
  6
Continuous
 62
     7
100
AcDbSpline
210
0.0
220
0.0
230
1.0
 70
     8
 71
     3
 72
    35
 73
    31
 74
    29
 42
0.0000000001
 43
0.0000000001
 44
0.0000000001
 12
0.9943478564586182
 22
0.1061712783955758
 32
0.0
 13
0.1391728406922006
 23
0.9902681053197985
 33
0.0
 40
0.0
 40
0.0
 40
0.0
 40
0.0
 40
0.5418942807565763
 40
1.083717870539906
 40
1.625443222355145
 40
2.167043567447641
 40
2.708493160928499
 40
3.249767521230233
 40
3.790843664996063
 40
4.331700360640057
 40
4.872318314292833
 40
5.412680347057396
 40
5.952771616423978
 40
6.492579752905855
 40
7.032094961388621
 40
7.571310130388947
 40
8.110220921152524
 40
8.64882583429393
 40
9.187126276232222
 40
9.725126574526752
 40
10.2628339299754
 40
10.80025842065774
 40
11.33741295777394
 40
11.8743131134953
 40
12.41097699786008
 40
12.94742511626604
 40
13.48368017325857
 40
14.01976686789214
 40
14.55571166896497
 40
15.0915425706675
 40
15.0915425706675
 40
15.0915425706675
 40
15.0915425706675
 10
220.040011345543
 20
124.3457558305108
 30
0.0
 10
220.2196218177089
 20
124.3649337000252
 30
0.0
 10
220.5779782725115
 20
124.4117021196168
 30
0.0
 10
221.1115514336303
 20
124.5069212144581
 30
0.0
 10
221.6399986025267
 20
124.6269952510626
 30
0.0
 10
222.1621192238192
 20
124.7716525531055
 30
0.0
 10
222.6767465989611
 20
124.9405684471244
 30
0.0
 10
223.1827255840515
 20
125.1333633472674
 30
0.0
 10
223.6789218676042
 20
125.3496043319815
 30
0.0
 10
224.1642227314606
 20
125.5888059380368
 30
0.0
 10
224.6375400223602
 20
125.8504313143402
 30
0.0
 10
225.0978124671246
 20
126.1338934234695
 30
0.0
 10
225.5440080868061
 20
126.4385563795213
 30
0.0
 10
225.9751264977714
 20
126.7637368828742
 30
0.0
 10
226.3902011393746
 20
127.1087057529295
 30
0.0
 10
226.7883014315077
 20
127.4726895616183
 30
0.0
 10
227.1685348621593
 20
127.8548723734383
 30
0.0
 10
227.5300489986125
 20
128.2543975867979
 30
0.0
 10
227.8720334056215
 20
128.6703698717822
 30
0.0
 10
228.1937214609552
 20
129.101857186415
 30
0.0
 10
228.4943920773696
 20
129.5478928784331
 30
0.0
 10
228.7733713227384
 20
130.0074778770565
 30
0.0
 10
229.0300339240438
 20
130.4795829332572
 30
0.0
 10
229.2638046606529
 20
130.9631509588258
 30
0.0
 10
229.4741596244844
 20
131.4570992504835
 30
0.0
 10
229.6606274623447
 20
131.9603224146126
 30
0.0
 10
229.8227901733064
 20
132.4716929977914
 30
0.0
 10
229.9602850125482
 20
132.9900708980976
 30
0.0
 10
230.0728016965273
 20
133.5142802266497
 30
0.0
 10
230.1310034049362
 20
133.8669296712771
 30
0.0
 10
230.1558611078431
 20
134.0438017552107
 30
0.0
 11
220.040011345543
 21
124.3457558305108
 31
0.0
 11
220.5773486178431
 21
124.4158847640109
 31
0.0
 11
221.1107451890431
 21
124.5110735253109
 31
0.0
 11
221.6390047203431
 21
124.6311077887108
 31
0.0
 11
222.160942417743
 21
124.7757175181109
 31
0.0
 11
222.6753876924431
 21
124.9445775833109
 31
0.0
 11
223.1811867897432
 21
125.1373085001108
 31
0.0
 11
223.6772053837431
 21
125.3534772947109
 31
0.0
 11
224.1623311542431
 21
125.5925985025108
 31
0.0
 11
224.635476261943
 21
125.8541352664108
 31
0.0
 11
225.095579776543
 21
126.1375005471108
 31
0.0
 11
225.5416100947432
 21
126.4420584800108
 31
0.0
 11
225.9725672336431
 21
126.7671258094107
 31
0.0
 11
226.3874850434431
 21
127.1119734153108
 31
0.0
 11
226.785433371543
 21
127.4758279558108
 31
0.0
 11
227.1655201486431
 21
127.8578736105108
 31
0.0
 11
227.5268933915431
 21
128.2572539202107
 31
0.0
 11
227.8687431303431
 21
128.6730737392109
 31
0.0
 11
228.1903032212431
 21
129.1044012585108
 31
0.0
 11
228.4908530403431
 21
129.5502700804108
 31
0.0
 11
228.7697191209431
 21
130.0096814345108
 31
0.0
 11
229.0262766647432
 21
130.4816064534108
 31
0.0
 11
229.2599508939431
 21
130.9649884264109
 31
0.0
 11
229.4702183374431
 21
131.4587451752108
 31
0.0
 11
229.6566080030431
 21
131.9617714929108
 31
0.0
 11
229.8187024221431
 21
132.4729416069107
 31
0.0
 11
229.9561385824431
 21
132.9911117006108
 31
0.0
 11
230.0686087399431
 21
133.5151224767108
 31
0.0
 11
230.1558611078431
 21
134.0438017552107
 31
0.0
  0
SPLINE
  5
616
330
1F
100
AcDbEntity
  8
0
  6
Continuous
 62
     7
100
AcDbSpline
210
0.0
220
0.0
230
1.0
 70
     8
 71
     3
 72
    10
 73
     6
 74
     4
 42
0.0000000001
 43
0.0000000001
 44
0.0000000001
 12
-0.1302421289793977
 22
0.991482217611044
 32
0.0
 13
-0.1305829613853102
 23
0.9914373859179624
 33
0.0
 40
0.0
 40
0.0
 40
0.0
 40
0.0
 40
8.017646246068347
 40
15.94870759204226
 40
23.80117370682981
 40
23.80117370682981
 40
23.80117370682981
 40
23.80117370682981
 10
102.202027509043
 20
136.7946918661109
 30
0.0
 10
101.8539490702125
 20
139.4444764261351
 30
0.0
 10
101.1597593520776
 20
144.7151943278405
 30
0.0
 10
100.1216186119986
 20
152.5807043732718
 30
0.0
 10
99.43350000952536
 20
157.796686026426
 30
0.0
 10
99.09170058304312
 20
160.3917621857108
 30
0.0
 11
102.202027509043
 21
136.7946918661109
 31
0.0
 11
101.155624587543
 21
144.7437605067109
 31
0.0
 11
100.1182699919431
 21
152.6066880478109
 31
0.0
 11
99.09170058304312
 21
160.3917621857108
 31
0.0
  0
LINE
  5
617
330
1F
100
AcDbEntity
  8
0
  6
Continuous
 62
     7
100
AcDbLine
 10
101.634401558043
 20
126.3367822582108
 30
0.0
 11
101.576444110143
 21
126.8756678062109
 31
0.0
  0
LINE
  5
618
330
1F
100
AcDbEntity
  8
0
  6
Continuous
 62
     7
100
AcDbLine
 10
108.941358209343
 20
123.9057299691107
 30
0.0
 11
108.910184124543
 21
123.3614732236109
 31
0.0
  0
LINE
  5
619
330
1F
100
AcDbEntity
  8
0
  6
Continuous
 62
     7
100
AcDbLine
 10
102.1960202267431
 20
121.1148970856108
 30
0.0
 11
102.1678523227431
 21
121.3771965843109
 31
0.0
  0
LINE
  5
61A
330
1F
100
AcDbEntity
  8
0
  6
Continuous
 62
     7
100
AcDbLine
 10
108.8307790082431
 20
118.2642387513108
 30
0.0
 11
108.817372030243
 21
118.0124521918108
 31
0.0
  0
LINE
  5
61B
330
1F
100
AcDbEntity
  8
0
  6
Continuous
 62
     7
100
AcDbLine
 10
226.4886393989431
 20
126.9362401649107
 30
0.0
 11
226.4822605661431
 21
126.8756675122109
 31
0.0
  0
LINE
  5
61C
330
1F
100
AcDbEntity
  8
0
  6
Continuous
 62
     7
100
AcDbLine
 10
219.1173463106431
 20
123.9057293012108
 30
0.0
 11
219.1155151555431
 21
123.9327365861109
 31
0.0
  0
SPLINE
  5
61D
330
1F
100
AcDbEntity
  8
0
  6
Continuous
 62
     7
100
AcDbSpline
210
0.0
220
0.0
230
1.0
 70
     8
 71
     3
 72
    24
 73
    20
 74
    18
 42
0.0000000001
 43
0.0000000001
 44
0.0000000001
 12
0.4555173780270975
 22
0.8902268914806597
 32
0.0
 13
0.9464987613597697
 23
0.3227074445134812
 33
0.0
 40
0.0
 40
0.0
 40
0.0
 40
0.0
 40
1.048027946130345
 40
2.073233661581404
 40
3.075508750568272
 40
4.054975159182141
 40
5.011908481548477
 40
5.946663616808868
 40
6.859689847061218
 40
7.751576761195779
 40
8.623064721048448
 40
9.475035606196128
 40
10.3085173709798
 40
11.12467896702634
 40
11.92480656168723
 40
12.71032508884937
 40
13.48284989769013
 40
14.24416357594231
 40
14.9960922178607
 40
14.9960922178607
 40
14.9960922178607
 40
14.9960922178607
 10
228.887911375843
 20
216.8965967887108
 30
0.0
 10
229.0470430232165
 20
217.2075910089337
 30
0.0
 10
229.3710899583603
 20
217.818133403601
 30
0.0
 10
229.88022596974
 20
218.7081361727086
 30
0.0
 10
230.4065755874024
 20
219.5613544592686
 30
0.0
 10
230.9495852711864
 20
220.3768767456581
 30
0.0
 10
231.5087172378727
 20
221.1538847985945
 30
0.0
 10
232.0834154588711
 20
221.8915916993804
 30
0.0
 10
232.67309994366
 20
222.589239075133
 30
0.0
 10
233.2771761957974
 20
223.2461108925365
 30
0.0
 10
233.8950432521468
 20
223.8615402967404
 30
0.0
 10
234.5260929995514
 20
224.4349055418344
 30
0.0
 10
235.1697054764349
 20
224.9656238495082
 30
0.0
 10
235.8252394218486
 20
225.4531445218281
 30
0.0
 10
236.4920282668992
 20
225.896950023073
 30
0.0
 10
237.1693884816852
 20
226.2965678999647
 30
0.0
 10
237.8566548510617
 20
226.6515856435713
 30
0.0
 10
238.5531041098443
 20
226.961616082537
 30
0.0
 10
239.0256627176742
 20
227.1390639788141
 30
0.0
 10
239.262895893743
 20
227.2199483023108
 30
0.0
 11
228.887911375843
 21
216.8965967887108
 31
0.0
 11
229.3795549427431
 21
217.8221502334108
 31
0.0
 11
229.8889464249431
 21
218.7118507880108
 31
0.0
 11
230.4155033239431
 21
219.5646656484109
 31
0.0
 11
230.9586837844431
 21
220.3797174461109
 31
0.0
 11
231.5179560090431
 21
221.1562069581109
 31
0.0
 11
232.0927549697431
 21
221.8933455595108
 31
0.0
 11
232.6824834610431
 21
222.5903657914108
 31
0.0
 11
233.2865359073431
 21
223.2465539578108
 31
0.0
 11
233.9043041179431
 21
223.8612520155109
 31
0.0
 11
234.5351694415431
 21
224.4338455298109
 31
0.0
 11
235.1785037317431
 21
224.9637633001109
 31
0.0
 11
235.8336634836431
 21
225.4504720943108
 31
0.0
 11
236.499968135143
 21
225.8934645086108
 31
0.0
 11
237.1767159843431
 21
226.2922773784108
 31
0.0
 11
237.8632342846431
 21
226.6465191089108
 31
0.0
 11
238.5588717591431
 21
226.9558522962108
 31
0.0
 11
239.262895893743
 21
227.2199483023108
 31
0.0
  0
SPLINE
  5
61E
330
1F
100
AcDbEntity
  8
0
  6
Continuous
 62
     7
100
AcDbSpline
210
0.0
220
0.0
230
1.0
 70
     8
 71
     3
 72
    14
 73
    10
 74
     8
 42
0.0000000001
 43
0.0000000001
 44
0.0000000001
 12
0.6862164310151066
 22
0.7273974221874103
 32
0.0
 13
0.4555175919653405
 23
0.8902267820112454
 33
0.0
 40
0.0
 40
0.0
 40
0.0
 40
0.0
 40
0.4718403625200046
 40
0.9562162235756488
 40
1.453468863267589
 40
1.963805031822461
 40
2.487426116188337
 40
3.024467772477248
 40
3.574874302635787
 40
3.574874302635787
 40
3.574874302635787
 40
3.574874302635787
 10
226.8703990996431
 20
213.9594815573109
 30
0.0
 10
226.9783273028356
 20
214.0738867117712
 30
0.0
 10
227.1914165331346
 20
214.3111134966135
 30
0.0
 10
227.4984324832807
 20
214.6861041368529
 30
0.0
 10
227.7965591735596
 20
215.0843497288458
 30
0.0
 10
228.0854049939285
 20
215.505323247212
 30
0.0
 10
228.3646150651768
 20
215.9484967756492
 30
0.0
 10
228.6338320444012
 20
216.4132947385824
 30
0.0
 10
228.8043380901031
 20
216.7332679106638
 30
0.0
 10
228.887911375843
 20
216.8965967887108
 30
0.0
 11
226.8703990996431
 21
213.9594815573109
 31
0.0
 11
227.1859184107431
 21
214.3103104216109
 31
0.0
 11
227.492985824443
 21
214.6849163188108
 31
0.0
 11
227.7912006153431
 21
215.0828209885109
 31
0.0
 11
228.0801505205431
 21
215.5034763786109
 31
0.0
 11
228.3594837837431
 21
215.9463668482108
 31
0.0
 11
228.6288643161431
 21
216.4109611544108
 31
0.0
 11
228.887911375843
 21
216.8965967887108
 31
0.0
  0
SPLINE
  5
61F
330
1F
100
AcDbEntity
  8
0
  6
Continuous
 62
     7
100
AcDbSpline
210
0.0
220
0.0
230
1.0
 70
     8
 71
     3
 72
    32
 73
    28
 74
    26
 42
0.0000000001
 43
0.0000000001
 44
0.0000000001
 12
-0.9545004549087465
 22
-0.2982094592379588
 32
0.0
 13
-0.1688211608427567
 23
-0.9856466992039814
 33
0.0
 40
0.0
 40
0.0
 40
0.0
 40
0.0
 40
0.4852750798764771
 40
0.9659867434022839
 40
1.414543064600296
 40
1.835151798267649
 40
2.237966052077517
 40
2.627466351236233
 40
3.003494468503822
 40
3.360762368508291
 40
3.698027988471871
 40
4.03006891872128
 40
4.373908716066468
 40
4.739802627639511
 40
5.132741370608906
 40
5.554555500437158
 40
6.010843032454222
 40
6.508398461550481
 40
7.053356311259127
 40
7.652865281449731
 40
8.316317034794504
 40
9.054686349365281
 40
9.880563512272241
 40
10.80914043165336
 40
11.86137914191149
 40
13.06433235572316
 40
14.45009032650465
 40
14.45009032650465
 40
14.45009032650465
 40
14.45009032650465
 10
233.5104620687431
 20
227.1484308377108
 30
0.0
 10
233.3560636405771
 20
227.1001929646603
 30
0.0
 10
233.0520781545523
 20
226.9931322457422
 30
0.0
 10
232.6181240955367
 20
226.807908357381
 30
0.0
 10
232.2165353225023
 20
226.6042055150203
 30
0.0
 10
231.8517810639665
 20
226.3874537885986
 30
0.0
 10
231.5180217458958
 20
226.1587832306175
 30
0.0
 10
231.2110516082607
 20
225.9187120502299
 30
0.0
 10
230.9305539732672
 20
225.6706108295729
 30
0.0
 10
230.6768642527407
 20
225.419375828754
 30
0.0
 10
230.4477448852649
 20
225.1649466643553
 30
0.0
 10
230.2368216401127
 20
224.9009773803132
 30
0.0
 10
230.0341688461818
 20
224.618817735371
 30
0.0
 10
229.8340637437704
 20
224.3103514409483
 30
0.0
 10
229.6347022705153
 20
223.9708938745045
 30
0.0
 10
229.435512384922
 20
223.5968281979375
 30
0.0
 10
229.2358276452261
 20
223.1839187378459
 30
0.0
 10
229.0346588134968
 20
222.7264995455243
 30
0.0
 10
228.8312686202462
 20
222.2182477524723
 30
0.0
 10
228.6250756437369
 20
221.651881088993
 30
0.0
 10
228.4154366212153
 20
221.0184716245659
 30
0.0
 10
228.2015913048007
 20
220.3072723637022
 30
0.0
 10
227.9828929598016
 20
219.5055384090832
 30
0.0
 10
227.7585845982436
 20
218.5971738146989
 30
0.0
 10
227.5276535203991
 20
217.5612597918543
 30
0.0
 10
227.288752408276
 20
216.3712723845537
 30
0.0
 10
227.1357409389679
 20
215.5219795025096
 30
0.0
 10
227.0577591825431
 20
215.0666902459108
 30
0.0
 11
233.5104620687431
 21
227.1484308377108
 31
0.0
 11
233.0525701116431
 21
226.9877234677109
 31
0.0
 11
232.6105671630431
 21
226.7987337937108
 31
0.0
 11
232.2107069146431
 21
226.5954739722109
 31
0.0
 11
231.8491687869431
 21
226.3805277253108
 31
0.0
 11
231.5169036181431
 21
226.1528016164108
 31
0.0
 11
231.2100722296431
 21
225.9128745815108
 31
0.0
 11
230.928345416543
 21
225.6638220815108
 31
0.0
 11
230.6746569056431
 21
225.4122619658109
 31
0.0
 11
230.4491283576431
 21
225.1614932029108
 31
0.0
 11
230.2415062263431
 21
224.9023711661109
 31
0.0
 11
230.0406334078431
 21
224.6233085978108
 31
0.0
 11
229.8411972682431
 21
224.3165455284108
 31
0.0
 11
229.6418794334431
 21
223.9779111290108
 31
0.0
 11
229.4432568451431
 21
223.6057871879108
 31
0.0
 11
229.2442049677431
 21
223.1952063043108
 31
0.0
 11
229.0434799256431
 21
222.7399362059109
 31
0.0
 11
228.8405727322431
 21
222.2341618206108
 31
0.0
 11
228.6350149109431
 21
221.6709948938108
 31
0.0
 11
228.4260335882431
 21
221.0413163760108
 31
0.0
 11
228.2128713176431
 21
220.3343856219108
 31
0.0
 11
227.9949400075431
 21
219.5377809318108
 31
0.0
 11
227.7716823500431
 21
218.6364424196108
 31
0.0
 11
227.5419822822431
 21
217.6095810939108
 31
0.0
 11
227.304385057643
 21
216.4303253992108
 31
0.0
 11
227.0577591825431
 21
215.0666902459108
 31
0.0
  0
SPLINE
  5
620
330
1F
100
AcDbEntity
  8
0
  6
Continuous
 62
     7
100
AcDbSpline
210
0.0
220
0.0
230
1.0
 70
     8
 71
     3
 72
    11
 73
     7
 74
     5
 42
0.0000000001
 43
0.0000000001
 44
0.0000000001
 12
-0.9999999999960252
 22
0.0000028195219557
 32
0.0
 13
-0.9545035712331705
 23
-0.2981994844112306
 33
0.0
 40
0.0
 40
0.0
 40
0.0
 40
0.0
 40
0.1181624898616686
 40
0.2361246806781883
 40
0.3544061249980116
 40
0.4735199870747379
 40
0.4735199870747379
 40
0.4735199870747379
 40
0.4735199870747379
 10
233.976823568343
 20
227.2199483220109
 30
0.0
 10
233.9374360717226
 20
227.2199484330648
 30
0.0
 10
233.8586946608742
 20
227.2169756270331
 30
0.0
 10
233.7412168897628
 20
227.2035169495156
 30
0.0
 10
233.6247949653487
 20
227.1810878440653
 30
0.0
 10
233.5483602709882
 20
227.16027073513
 30
0.0
 10
233.5104620687431
 20
227.1484308377108
 30
0.0
 11
233.976823568343
 21
227.2199483220109
 31
0.0
 11
233.8587458952431
 21
227.2154720372109
 31
0.0
 11
233.741549995943
 21
227.2020481909108
 31
0.0
 11
233.6254004742431
 21
227.1796922369109
 31
0.0
 11
233.5104620687431
 21
227.1484308377108
 31
0.0
  0
ENDSEC
  0
SECTION
  2
OBJECTS
  0
DICTIONARY
  5
C
330
0
100
AcDbDictionary
281
     1
  3
ACAD_COLOR
350
C9
  3
ACAD_GROUP
350
D
  3
ACAD_LAYOUT
350
1A
  3
ACAD_MATERIAL
350
C8
  3
ACAD_MLEADERSTYLE
350
2EC
  3
ACAD_MLINESTYLE
350
17
  3
ACAD_PLOTSETTINGS
350
19
  3
ACAD_PLOTSTYLENAME
350
E
  3
ACAD_SCALELIST
350
2CA
  3
ACAD_TABLESTYLE
350
123
  3
ACAD_VISUALSTYLE
350
296
  3
ACDB_RECOMPOSE_DATA
350
30D
  3
AcDbVariableDictionary
350
9E
  3
AcmDictionary
350
63
  3
AMG
350
49
  3
AMGSNAPSETTINGS
350
4E6
  0
DICTIONARY
  5
621
330
10
100
AcDbDictionary
280
     1
281
     1
  3
ADSK_XREC_LAYER_RECONCILED
360
622
  0
DICTIONARY
  5
99
330
1F
100
AcDbDictionary
280
     1
281
     1
  0
DICTIONARY
  5
C9
102
{ACAD_REACTORS
330
C
102
}
330
C
100
AcDbDictionary
281
     1
  0
DICTIONARY
  5
D
102
{ACAD_REACTORS
330
C
102
}
330
C
100
AcDbDictionary
281
     1
  0
DICTIONARY
  5
1A
102
{ACAD_REACTORS
330
C
102
}
330
C
100
AcDbDictionary
281
     1
  3
Layout1
350
1E
  3
Layout2
350
26
  3
Model
350
22
  0
DICTIONARY
  5
C8
102
{ACAD_REACTORS
330
C
102
}
330
C
100
AcDbDictionary
281
     1
  3
ByBlock
350
294
  3
ByLayer
350
293
  3
Global
350
295
  0
DICTIONARY
  5
2EC
102
{ACAD_REACTORS
330
C
102
}
330
C
100
AcDbDictionary
281
     1
  3
Standard
350
2ED
  0
DICTIONARY
  5
17
102
{ACAD_REACTORS
330
C
102
}
330
C
100
AcDbDictionary
281
     1
  3
Standard
350
18
  0
DICTIONARY
  5
19
102
{ACAD_REACTORS
330
C
102
}
330
C
100
AcDbDictionary
281
     1
  0
ACDBDICTIONARYWDFLT
  5
E
102
{ACAD_REACTORS
330
C
102
}
330
C
100
AcDbDictionary
281
     1
  3
Normal
350
F
100
AcDbDictionaryWithDefault
340
F
  0
DICTIONARY
  5
2CA
102
{ACAD_REACTORS
330
C
102
}
330
C
100
AcDbDictionary
281
     1
  3
A0
350
2CB
  3
A1
350
2CC
  3
A2
350
2CD
  3
A3
350
2CE
  3
A4
350
2CF
  3
A5
350
2D0
  3
A6
350
2D1
  3
A7
350
2D2
  3
A8
350
2D3
  3
A9
350
2D4
  3
B0
350
2D5
  3
B1
350
2D6
  3
B2
350
2D7
  3
B3
350
2D8
  3
B4
350
2D9
  3
B5
350
2DA
  3
B6
350
2DB
  3
B7
350
2DC
  3
B8
350
2DD
  3
B9
350
2DE
  3
C0
350
2DF
  3
C1
350
2E0
  3
C2
350
2E1
  3
C3
350
2E2
  3
C4
350
2E3
  3
C5
350
2E4
  3
C6
350
2E5
  3
C7
350
2E6
  3
C8
350
2E7
  3
C9
350
2E8
  3
D0
350
2E9
  3
D1
350
2EA
  3
D2
350
2EB
  0
DICTIONARY
  5
123
102
{ACAD_REACTORS
330
C
102
}
330
C
100
AcDbDictionary
281
     1
  3
Standard
350
124
  0
DICTIONARY
  5
296
102
{ACAD_REACTORS
330
C
102
}
330
C
100
AcDbDictionary
281
     1
  3
2dWireframe
350
29C
  3
3D Hidden
350
29E
  3
3dWireframe
350
29D
  3
Basic
350
29B
  3
Brighten
350
2A2
  3
ColorChange
350
2A6
  3
Conceptual
350
29F
  3
Dim
350
2A1
  3
Facepattern
350
2A5
  3
Flat
350
297
  3
FlatWithEdges
350
298
  3
Gouraud
350
299
  3
GouraudWithEdges
350
29A
  3
Linepattern
350
2A4
  3
Realistic
350
2A0
  3
Thicken
350
2A3
  0
XRECORD
  5
30D
102
{ACAD_REACTORS
330
C
102
}
330
C
100
AcDbXrecord
280
     1
 90
        1
330
124
  0
DICTIONARY
  5
9E
102
{ACAD_REACTORS
330
C
102
}
330
C
100
AcDbDictionary
281
     1
  3
CANNOSCALE
350
310
  3
CMLEADERSTYLE
350
30E
  3
CTABLESTYLE
350
144
  3
DIMASSOC
350
A0
  3
INDEXCTL
350
9F
  3
LAYEREVAL
350
36B
  3
LAYERNOTIFY
350
36C
  3
LIGHTINGUNITS
350
311
  3
MSLTSCALE
350
30F
  0
DICTIONARY
  5
63
102
{ACAD_REACTORS
330
C
102
}
330
C
100
AcDbDictionary
281
     1
  3
AcmStdDictionary
350
69
  3
AMDTSECTSYM_ARROWCOLOR
350
12C
  0
DICTIONARY
  5
49
102
{ACAD_REACTORS
330
C
102
}
330
C
100
AcDbDictionary
281
     1
  0
DICTIONARY
  5
4E6
102
{ACAD_REACTORS
330
C
102
}
330
C
100
AcDbDictionary
281
     1
  0
XRECORD
  5
622
102
{ACAD_REACTORS
330
621
102
}
330
621
100
AcDbXrecord
280
     1
290
     1
  0
LAYOUT
  5
1E
102
{ACAD_REACTORS
330
1A
102
}
330
1A
100
AcDbPlotSettings
  1

  2

  4

  6

 40
0.0
 41
0.0
 42
0.0
 43
0.0
 44
0.0
 45
0.0
 46
0.0
 47
0.0
 48
0.0
 49
0.0
140
0.0
141
0.0
142
1.0
143
1.0
 70
   688
 72
     0
 73
     0
 74
     5
  7

 75
    16
147
1.0
 76
     0
 77
     2
 78
   300
148
0.0
149
0.0
100
AcDbLayout
  1
Layout1
 70
     1
 71
     1
 10
0.0
 20
0.0
 11
12.0
 21
9.0
 12
0.0
 22
0.0
 32
0.0
 14
1.000000000000000E+20
 24
1.000000000000000E+20
 34
1.000000000000000E+20
 15
-1.000000000000000E+20
 25
-1.000000000000000E+20
 35
-1.000000000000000E+20
146
0.0
 13
0.0
 23
0.0
 33
0.0
 16
1.0
 26
0.0
 36
0.0
 17
0.0
 27
1.0
 37
0.0
 76
     0
330
1B
  0
LAYOUT
  5
26
102
{ACAD_REACTORS
330
1A
102
}
330
1A
100
AcDbPlotSettings
  1

  2

  4

  6

 40
0.0
 41
0.0
 42
0.0
 43
0.0
 44
0.0
 45
0.0
 46
0.0
 47
0.0
 48
0.0
 49
0.0
140
0.0
141
0.0
142
1.0
143
1.0
 70
   688
 72
     0
 73
     0
 74
     5
  7

 75
    16
147
1.0
 76
     0
 77
     2
 78
   300
148
0.0
149
0.0
100
AcDbLayout
  1
Layout2
 70
     1
 71
     2
 10
0.0
 20
0.0
 11
12.0
 21
9.0
 12
0.0
 22
0.0
 32
0.0
 14
0.0
 24
0.0
 34
0.0
 15
0.0
 25
0.0
 35
0.0
146
0.0
 13
0.0
 23
0.0
 33
0.0
 16
1.0
 26
0.0
 36
0.0
 17
0.0
 27
1.0
 37
0.0
 76
     0
330
23
  0
LAYOUT
  5
22
102
{ACAD_REACTORS
330
1A
102
}
330
1A
100
AcDbPlotSettings
  1

  2

  4

  6

 40
0.0
 41
0.0
 42
0.0
 43
0.0
 44
0.0
 45
0.0
 46
0.0
 47
0.0
 48
0.0
 49
0.0
140
0.0
141
0.0
142
1.0
143
1.0
 70
  1712
 72
     0
 73
     0
 74
     0
  7

 75
     0
147
1.0
 76
     0
 77
     2
 78
   300
148
0.0
149
0.0
100
AcDbLayout
  1
Model
 70
     1
 71
     0
 10
0.0
 20
0.0
 11
12.0
 21
9.0
 12
0.0
 22
0.0
 32
0.0
 14
0.0
 24
0.0
 34
0.0
 15
0.0
 25
0.0
 35
0.0
146
0.0
 13
0.0
 23
0.0
 33
0.0
 16
1.0
 26
0.0
 36
0.0
 17
0.0
 27
1.0
 37
0.0
 76
     0
330
1F
331
291
  0
MATERIAL
  5
294
102
{ACAD_REACTORS
330
C8
102
}
330
C8
100
AcDbMaterial
  1
ByBlock
 73
     1
 78
     1
172
     1
176
     1
270
     1
274
     1
 94
       63
  0
MATERIAL
  5
293
102
{ACAD_REACTORS
330
C8
102
}
330
C8
100
AcDbMaterial
  1
ByLayer
 73
     1
 78
     1
172
     1
176
     1
270
     1
274
     1
 94
       63
  0
MATERIAL
  5
295
102
{ACAD_REACTORS
330
C8
102
}
330
C8
100
AcDbMaterial
  1
Global
 73
     1
 78
     1
172
     1
176
     1
270
     1
274
     1
 94
       63
  0
MLEADERSTYLE
  5
2ED
102
{ACAD_REACTORS
330
2EC
102
}
330
2EC
100
AcDbMLeaderStyle
170
     2
171
     1
172
     0
 90
        2
 40
0.0
 41
0.0
173
     1
 91
-1056964608
340
14
 92
       -2
290
     1
 42
0.09
291
     1
 43
0.36
  3
Standard
 44
0.18
300

342
11
174
     1
178
     6
175
     1
176
     0
 93
-1056964608
 45
0.18
292
     0
297
     0
 46
0.18
 94
-1056964608
 47
1.0
 49
1.0
140
1.0
293
     1
141
0.0
294
     1
177
     0
142
1.0
295
     0
296
     0
143
0.125
1001
ACAD_MLEADERVER
1070
     2
  0
MLINESTYLE
  5
18
102
{ACAD_REACTORS
330
17
102
}
330
17
100
AcDbMlineStyle
  2
STANDARD
 70
     0
  3

 62
   256
 51
90.0
 52
90.0
 71
     2
 49
0.5
 62
   256
  6
BYLAYER
 49
-0.5
 62
   256
  6
BYLAYER
  0
ACDBPLACEHOLDER
  5
F
102
{ACAD_REACTORS
330
E
102
}
330
E
  0
SCALE
  5
2CB
102
{ACAD_REACTORS
330
2CA
102
}
330
2CA
100
AcDbScale
 70
     0
300
1:1
140
1.0
141
1.0
290
     1
  0
SCALE
  5
2CC
102
{ACAD_REACTORS
330
2CA
102
}
330
2CA
100
AcDbScale
 70
     0
300
1:2
140
1.0
141
2.0
290
     0
  0
SCALE
  5
2CD
102
{ACAD_REACTORS
330
2CA
102
}
330
2CA
100
AcDbScale
 70
     0
300
1:4
140
1.0
141
4.0
290
     0
  0
SCALE
  5
2CE
102
{ACAD_REACTORS
330
2CA
102
}
330
2CA
100
AcDbScale
 70
     0
300
1:5
140
1.0
141
5.0
290
     0
  0
SCALE
  5
2CF
102
{ACAD_REACTORS
330
2CA
102
}
330
2CA
100
AcDbScale
 70
     0
300
1:8
140
1.0
141
8.0
290
     0
  0
SCALE
  5
2D0
102
{ACAD_REACTORS
330
2CA
102
}
330
2CA
100
AcDbScale
 70
     0
300
1:10
140
1.0
141
10.0
290
     0
  0
SCALE
  5
2D1
102
{ACAD_REACTORS
330
2CA
102
}
330
2CA
100
AcDbScale
 70
     0
300
1:16
140
1.0
141
16.0
290
     0
  0
SCALE
  5
2D2
102
{ACAD_REACTORS
330
2CA
102
}
330
2CA
100
AcDbScale
 70
     0
300
1:20
140
1.0
141
20.0
290
     0
  0
SCALE
  5
2D3
102
{ACAD_REACTORS
330
2CA
102
}
330
2CA
100
AcDbScale
 70
     0
300
1:30
140
1.0
141
30.0
290
     0
  0
SCALE
  5
2D4
102
{ACAD_REACTORS
330
2CA
102
}
330
2CA
100
AcDbScale
 70
     0
300
1:40
140
1.0
141
40.0
290
     0
  0
SCALE
  5
2D5
102
{ACAD_REACTORS
330
2CA
102
}
330
2CA
100
AcDbScale
 70
     0
300
1:50
140
1.0
141
50.0
290
     0
  0
SCALE
  5
2D6
102
{ACAD_REACTORS
330
2CA
102
}
330
2CA
100
AcDbScale
 70
     0
300
1:100
140
1.0
141
100.0
290
     0
  0
SCALE
  5
2D7
102
{ACAD_REACTORS
330
2CA
102
}
330
2CA
100
AcDbScale
 70
     0
300
2:1
140
2.0
141
1.0
290
     0
  0
SCALE
  5
2D8
102
{ACAD_REACTORS
330
2CA
102
}
330
2CA
100
AcDbScale
 70
     0
300
4:1
140
4.0
141
1.0
290
     0
  0
SCALE
  5
2D9
102
{ACAD_REACTORS
330
2CA
102
}
330
2CA
100
AcDbScale
 70
     0
300
8:1
140
8.0
141
1.0
290
     0
  0
SCALE
  5
2DA
102
{ACAD_REACTORS
330
2CA
102
}
330
2CA
100
AcDbScale
 70
     0
300
10:1
140
10.0
141
1.0
290
     0
  0
SCALE
  5
2DB
102
{ACAD_REACTORS
330
2CA
102
}
330
2CA
100
AcDbScale
 70
     0
300
100:1
140
100.0
141
1.0
290
     0
  0
SCALE
  5
2DC
102
{ACAD_REACTORS
330
2CA
102
}
330
2CA
100
AcDbScale
 70
     0
300
1/128" = 1'-0"
140
0.0078125
141
12.0
290
     0
  0
SCALE
  5
2DD
102
{ACAD_REACTORS
330
2CA
102
}
330
2CA
100
AcDbScale
 70
     0
300
1/64" = 1'-0"
140
0.015625
141
12.0
290
     0
  0
SCALE
  5
2DE
102
{ACAD_REACTORS
330
2CA
102
}
330
2CA
100
AcDbScale
 70
     0
300
1/32" = 1'-0"
140
0.03125
141
12.0
290
     0
  0
SCALE
  5
2DF
102
{ACAD_REACTORS
330
2CA
102
}
330
2CA
100
AcDbScale
 70
     0
300
1/16" = 1'-0"
140
0.0625
141
12.0
290
     0
  0
SCALE
  5
2E0
102
{ACAD_REACTORS
330
2CA
102
}
330
2CA
100
AcDbScale
 70
     0
300
3/32" = 1'-0"
140
0.09375
141
12.0
290
     0
  0
SCALE
  5
2E1
102
{ACAD_REACTORS
330
2CA
102
}
330
2CA
100
AcDbScale
 70
     0
300
1/8" = 1'-0"
140
0.125
141
12.0
290
     0
  0
SCALE
  5
2E2
102
{ACAD_REACTORS
330
2CA
102
}
330
2CA
100
AcDbScale
 70
     0
300
3/16" = 1'-0"
140
0.1875
141
12.0
290
     0
  0
SCALE
  5
2E3
102
{ACAD_REACTORS
330
2CA
102
}
330
2CA
100
AcDbScale
 70
     0
300
1/4" = 1'-0"
140
0.25
141
12.0
290
     0
  0
SCALE
  5
2E4
102
{ACAD_REACTORS
330
2CA
102
}
330
2CA
100
AcDbScale
 70
     0
300
3/8" = 1'-0"
140
0.375
141
12.0
290
     0
  0
SCALE
  5
2E5
102
{ACAD_REACTORS
330
2CA
102
}
330
2CA
100
AcDbScale
 70
     0
300
1/2" = 1'-0"
140
0.5
141
12.0
290
     0
  0
SCALE
  5
2E6
102
{ACAD_REACTORS
330
2CA
102
}
330
2CA
100
AcDbScale
 70
     0
300
3/4" = 1'-0"
140
0.75
141
12.0
290
     0
  0
SCALE
  5
2E7
102
{ACAD_REACTORS
330
2CA
102
}
330
2CA
100
AcDbScale
 70
     0
300
1" = 1'-0"
140
1.0
141
12.0
290
     0
  0
SCALE
  5
2E8
102
{ACAD_REACTORS
330
2CA
102
}
330
2CA
100
AcDbScale
 70
     0
300
1-1/2" = 1'-0"
140
1.5
141
12.0
290
     0
  0
SCALE
  5
2E9
102
{ACAD_REACTORS
330
2CA
102
}
330
2CA
100
AcDbScale
 70
     0
300
3" = 1'-0"
140
3.0
141
12.0
290
     0
  0
SCALE
  5
2EA
102
{ACAD_REACTORS
330
2CA
102
}
330
2CA
100
AcDbScale
 70
     0
300
6" = 1'-0"
140
6.0
141
12.0
290
     0
  0
SCALE
  5
2EB
102
{ACAD_REACTORS
330
2CA
102
}
330
2CA
100
AcDbScale
 70
     0
300
1'-0" = 1'-0"
140
12.0
141
12.0
290
     0
  0
TABLESTYLE
  5
124
102
{ACAD_XDICTIONARY
360
30B
102
}
102
{ACAD_REACTORS
330
123
102
}
330
123
100
AcDbTableStyle
  3
Standard
 70
     0
 71
     0
 40
0.06
 41
0.06
280
     0
281
     0
  7
STANDARD
140
0.18
170
     2
 62
     0
 63
     7
283
     0
 90
      512
 91
        0
  1

274
    -2
284
     1
 64
     0
275
    -2
285
     1
 65
     0
276
    -2
286
     1
 66
     0
277
    -2
287
     1
 67
     0
278
    -2
288
     1
 68
     0
279
    -2
289
     1
 69
     0
  7
STANDARD
140
0.25
170
     5
 62
     0
 63
     7
283
     0
 90
      512
 91
        0
  1

274
    -2
284
     1
 64
     0
275
    -2
285
     1
 65
     0
276
    -2
286
     1
 66
     0
277
    -2
287
     1
 67
     0
278
    -2
288
     1
 68
     0
279
    -2
289
     1
 69
     0
  7
STANDARD
140
0.18
170
     5
 62
     0
 63
     7
283
     0
 90
      512
 91
        0
  1

274
    -2
284
     1
 64
     0
275
    -2
285
     1
 65
     0
276
    -2
286
     1
 66
     0
277
    -2
287
     1
 67
     0
278
    -2
288
     1
 68
     0
279
    -2
289
     1
 69
     0
  0
VISUALSTYLE
  5
29C
102
{ACAD_REACTORS
330
296
102
}
330
296
100
AcDbVisualStyle
  2
2dWireframe
 70
     4
 71
     0
 72
     2
 73
     0
 90
        0
 40
-0.6
 41
-30.0
 62
     5
 63
     7
421
 16777215
 74
     1
 91
        4
 64
     7
 65
   257
 75
     1
175
     1
 42
1.0
 92
        0
 66
   257
 43
1.0
 76
     1
 77
     6
 78
     2
 67
     7
 79
     5
170
     0
171
     0
290
     0
174
     0
 93
        1
 44
0.0
173
     0
291
     0
 45
0.0
  0
VISUALSTYLE
  5
29E
102
{ACAD_REACTORS
330
296
102
}
330
296
100
AcDbVisualStyle
  2
3D Hidden
 70
     6
 71
     1
 72
     2
 73
     2
 90
        0
 40
-0.6
 41
-30.0
 62
     5
 63
     7
421
 16777215
 74
     2
 91
        2
 64
     7
 65
   257
 75
     2
175
     1
 42
40.0
 92
        0
 66
   257
 43
1.0
 76
     1
 77
     6
 78
     2
 67
     7
 79
     3
170
     0
171
     0
290
     0
174
     0
 93
        1
 44
0.0
173
     0
291
     0
 45
0.0
  0
VISUALSTYLE
  5
29D
102
{ACAD_REACTORS
330
296
102
}
330
296
100
AcDbVisualStyle
  2
3dWireframe
 70
     5
 71
     0
 72
     2
 73
     0
 90
        0
 40
-0.6
 41
-30.0
 62
     5
 63
     7
421
 16777215
 74
     1
 91
        4
 64
     7
 65
   257
 75
     1
175
     1
 42
1.0
 92
        0
 66
   257
 43
1.0
 76
     1
 77
     6
 78
     2
 67
     7
 79
     5
170
     0
171
     0
290
     0
174
     0
 93
        1
 44
0.0
173
     0
291
     0
 45
0.0
  0
VISUALSTYLE
  5
29B
102
{ACAD_REACTORS
330
296
102
}
330
296
100
AcDbVisualStyle
  2
Basic
 70
     7
 71
     1
 72
     0
 73
     1
 90
        0
 40
-0.6
 41
-30.0
 62
     5
 63
     7
421
 16777215
 74
     0
 91
        4
 64
     7
 65
   257
 75
     1
175
     1
 42
1.0
 92
        8
 66
     7
 43
1.0
 76
     1
 77
     6
 78
     2
 67
     7
 79
     5
170
     0
171
     0
290
     0
174
     0
 93
        1
 44
0.0
173
     0
291
     1
 45
0.0
  0
VISUALSTYLE
  5
2A2
102
{ACAD_REACTORS
330
296
102
}
330
296
100
AcDbVisualStyle
  2
Brighten
 70
    12
 71
     2
 72
     2
 73
     0
 90
        0
 40
-0.6
 41
-30.0
 62
     5
 63
     7
421
 16777215
 74
     1
 91
        4
 64
     7
 65
   257
 75
     1
175
     1
 42
1.0
 92
        8
 66
     7
 43
1.0
 76
     1
 77
     6
 78
     2
 67
     7
 79
     5
170
     0
171
     0
290
     0
174
     0
 93
        1
 44
50.0
173
     0
291
     1
 45
0.0
  0
VISUALSTYLE
  5
2A6
102
{ACAD_REACTORS
330
296
102
}
330
296
100
AcDbVisualStyle
  2
ColorChange
 70
    16
 71
     2
 72
     2
 73
     3
 90
        0
 40
-0.6
 41
-30.0
 62
     5
 63
     8
421
  8421504
 74
     1
 91
        4
 64
     7
 65
   257
 75
     1
175
     1
 42
1.0
 92
        8
 66
     8
424
  8421504
 43
1.0
 76
     1
 77
     6
 78
     2
 67
     7
 79
     5
170
     0
171
     0
290
     0
174
     0
 93
        1
 44
0.0
173
     0
291
     1
 45
0.0
  0
VISUALSTYLE
  5
29F
102
{ACAD_REACTORS
330
296
102
}
330
296
100
AcDbVisualStyle
  2
Conceptual
 70
     9
 71
     3
 72
     2
 73
     0
 90
        0
 40
-0.6
 41
-30.0
 62
     5
 63
     7
421
 16777215
 74
     2
 91
        2
 64
     7
 65
   257
 75
     1
175
     1
 42
40.0
 92
        8
 66
     7
 43
1.0
 76
     1
 77
     6
 78
     2
 67
     7
 79
     3
170
     0
171
     0
290
     0
174
     0
 93
        1
 44
0.0
173
     0
291
     0
 45
0.0
  0
VISUALSTYLE
  5
2A1
102
{ACAD_REACTORS
330
296
102
}
330
296
100
AcDbVisualStyle
  2
Dim
 70
    11
 71
     2
 72
     2
 73
     0
 90
        0
 40
-0.6
 41
-30.0
 62
     5
 63
     7
421
 16777215
 74
     1
 91
        4
 64
     7
 65
   257
 75
     1
175
     1
 42
1.0
 92
        8
 66
     7
 43
1.0
 76
     1
 77
     6
 78
     2
 67
     7
 79
     5
170
     0
171
     0
290
     0
174
     0
 93
        1
 44
-50.0
173
     0
291
     1
 45
0.0
  0
VISUALSTYLE
  5
2A5
102
{ACAD_REACTORS
330
296
102
}
330
296
100
AcDbVisualStyle
  2
Facepattern
 70
    15
 71
     2
 72
     2
 73
     0
 90
        0
 40
-0.6
 41
-30.0
 62
     5
 63
     7
421
 16777215
 74
     1
 91
        4
 64
     7
 65
   257
 75
     1
175
     1
 42
1.0
 92
        8
 66
     7
 43
1.0
 76
     1
 77
     6
 78
     2
 67
     7
 79
     5
170
     0
171
     0
290
     0
174
     0
 93
        1
 44
0.0
173
     0
291
     1
 45
0.0
  0
VISUALSTYLE
  5
297
102
{ACAD_REACTORS
330
296
102
}
330
296
100
AcDbVisualStyle
  2
Flat
 70
     0
 71
     2
 72
     1
 73
     1
 90
        2
 40
-0.6
 41
30.0
 62
     5
 63
     7
421
 16777215
 74
     0
 91
        4
 64
     7
 65
   257
 75
     1
175
     1
 42
1.0
 92
        8
 66
     7
 43
1.0
 76
     1
 77
     6
 78
     2
 67
     7
 79
     5
170
     0
171
     0
290
     0
174
     0
 93
       13
 44
0.0
173
     0
291
     1
 45
0.0
  0
VISUALSTYLE
  5
298
102
{ACAD_REACTORS
330
296
102
}
330
296
100
AcDbVisualStyle
  2
FlatWithEdges
 70
     1
 71
     2
 72
     1
 73
     1
 90
        2
 40
-0.6
 41
30.0
 62
     5
 63
     7
421
 16777215
 74
     1
 91
        4
 64
     7
 65
   257
 75
     1
175
     1
 42
1.0
 92
        0
 66
   257
 43
1.0
 76
     1
 77
     6
 78
     2
 67
     7
 79
     5
170
     0
171
     0
290
     0
174
     0
 93
       13
 44
0.0
173
     0
291
     1
 45
0.0
  0
VISUALSTYLE
  5
299
102
{ACAD_REACTORS
330
296
102
}
330
296
100
AcDbVisualStyle
  2
Gouraud
 70
     2
 71
     2
 72
     2
 73
     1
 90
        2
 40
-0.6
 41
30.0
 62
     5
 63
     7
421
 16777215
 74
     0
 91
        4
 64
     7
 65
   257
 75
     1
175
     1
 42
1.0
 92
        0
 66
     7
 43
1.0
 76
     1
 77
     6
 78
     2
 67
     7
 79
     5
170
     0
171
     0
290
     0
174
     0
 93
       13
 44
0.0
173
     0
291
     1
 45
0.0
  0
VISUALSTYLE
  5
29A
102
{ACAD_REACTORS
330
296
102
}
330
296
100
AcDbVisualStyle
  2
GouraudWithEdges
 70
     3
 71
     2
 72
     2
 73
     1
 90
        2
 40
-0.6
 41
30.0
 62
     5
 63
     7
421
 16777215
 74
     1
 91
        4
 64
     7
 65
   257
 75
     1
175
     1
 42
1.0
 92
        0
 66
   257
 43
1.0
 76
     1
 77
     6
 78
     2
 67
     7
 79
     5
170
     0
171
     0
290
     0
174
     0
 93
       13
 44
0.0
173
     0
291
     1
 45
0.0
  0
VISUALSTYLE
  5
2A4
102
{ACAD_REACTORS
330
296
102
}
330
296
100
AcDbVisualStyle
  2
Linepattern
 70
    14
 71
     2
 72
     2
 73
     0
 90
        0
 40
-0.6
 41
-30.0
 62
     5
 63
     7
421
 16777215
 74
     1
 91
        4
 64
     7
 65
   257
 75
     7
175
     7
 42
1.0
 92
        8
 66
     7
 43
1.0
 76
     1
 77
     6
 78
     2
 67
     7
 79
     5
170
     0
171
     0
290
     0
174
     0
 93
        1
 44
0.0
173
     0
291
     1
 45
0.0
  0
VISUALSTYLE
  5
2A0
102
{ACAD_REACTORS
330
296
102
}
330
296
100
AcDbVisualStyle
  2
Realistic
 70
     8
 71
     2
 72
     2
 73
     0
 90
        0
 40
-0.6
 41
-30.0
 62
     5
 63
     7
421
 16777215
 74
     1
 91
        0
 64
     7
 65
   257
 75
     1
175
     1
 42
1.0
 92
        8
 66
     8
424
  7895160
 43
1.0
 76
     1
 77
     6
 78
     2
 67
     7
 79
     5
170
     0
171
     0
290
     0
174
     0
 93
       13
 44
0.0
173
     0
291
     0
 45
0.0
  0
VISUALSTYLE
  5
2A3
102
{ACAD_REACTORS
330
296
102
}
330
296
100
AcDbVisualStyle
  2
Thicken
 70
    13
 71
     2
 72
     2
 73
     0
 90
        0
 40
-0.6
 41
-30.0
 62
     5
 63
     7
421
 16777215
 74
     1
 91
        4
 64
     7
 65
   257
 75
     1
175
     1
 42
1.0
 92
       12
 66
     7
 43
1.0
 76
     1
 77
     6
 78
     2
 67
     7
 79
     5
170
     0
171
     0
290
     0
174
     0
 93
        1
 44
0.0
173
     0
291
     1
 45
0.0
  0
DICTIONARYVAR
  5
310
102
{ACAD_REACTORS
330
9E
102
}
330
9E
100
DictionaryVariables
280
     0
  1
1:1
  0
DICTIONARYVAR
  5
30E
102
{ACAD_REACTORS
330
9E
102
}
330
9E
100
DictionaryVariables
280
     0
  1
STANDARD
  0
DICTIONARYVAR
  5
144
102
{ACAD_REACTORS
330
9E
102
}
330
9E
100
DictionaryVariables
280
     0
  1
STANDARD
  0
DICTIONARYVAR
  5
A0
102
{ACAD_REACTORS
330
9E
102
}
330
9E
100
DictionaryVariables
280
     0
  1
2
  0
DICTIONARYVAR
  5
9F
102
{ACAD_REACTORS
330
9E
102
}
330
9E
100
DictionaryVariables
280
     0
  1
1
  0
DICTIONARYVAR
  5
36B
102
{ACAD_REACTORS
330
9E
102
}
330
9E
100
DictionaryVariables
280
     0
  1
1
  0
DICTIONARYVAR
  5
36C
102
{ACAD_REACTORS
330
9E
102
}
330
9E
100
DictionaryVariables
280
     0
  1
15
  0
DICTIONARYVAR
  5
311
102
{ACAD_REACTORS
330
9E
102
}
330
9E
100
DictionaryVariables
280
     0
  1
0
  0
DICTIONARYVAR
  5
30F
102
{ACAD_REACTORS
330
9E
102
}
330
9E
100
DictionaryVariables
280
     0
  1
0
  0
DICTIONARY
  5
69
102
{ACAD_REACTORS
330
63
102
}
330
63
100
AcDbDictionary
281
     1
  0
XRECORD
  5
12C
102
{ACAD_REACTORS
330
63
102
}
330
63
100
AcDbXrecord
280
     1
 90
-1023410169
  0
DICTIONARY
  5
30B
330
124
100
AcDbDictionary
280
     1
281
     1
  3
ACAD_ROUNDTRIP_2008_TABLESTYLE_CELLSTYLEMAP
360
623
  0
CELLSTYLEMAP
  5
623
102
{ACAD_REACTORS
330
30B
102
}
330
30B
100
AcDbCellStyleMap
 90
        3
300
CELLSTYLE
  1
TABLEFORMAT_BEGIN
 90
        5
170
     1
 91
        0
 92
    32768
 62
   257
 93
        1
300
CONTENTFORMAT
  1
CONTENTFORMAT_BEGIN
 90
        0
 91
        0
 92
      512
 93
        0
300

 40
0.0
140
1.0
 94
        5
 62
     0
340
11
144
0.25
309
CONTENTFORMAT_END
171
     0
 94
        6
 95
        1
302
GRIDFORMAT
  1
GRIDFORMAT_BEGIN
 90
        0
 91
        1
 62
     0
 92
       -2
340
0
 93
        0
 40
0.045
309
GRIDFORMAT_END
 95
        2
302
GRIDFORMAT
  1
GRIDFORMAT_BEGIN
 90
        0
 91
        1
 62
     0
 92
       -2
340
0
 93
        0
 40
0.045
309
GRIDFORMAT_END
 95
        4
302
GRIDFORMAT
  1
GRIDFORMAT_BEGIN
 90
        0
 91
        1
 62
     0
 92
       -2
340
0
 93
        0
 40
0.045
309
GRIDFORMAT_END
 95
        8
302
GRIDFORMAT
  1
GRIDFORMAT_BEGIN
 90
        0
 91
        1
 62
     0
 92
       -2
340
0
 93
        0
 40
0.045
309
GRIDFORMAT_END
 95
       16
302
GRIDFORMAT
  1
GRIDFORMAT_BEGIN
 90
        0
 91
        1
 62
     0
 92
       -2
340
0
 93
        0
 40
0.045
309
GRIDFORMAT_END
 95
       32
302
GRIDFORMAT
  1
GRIDFORMAT_BEGIN
 90
        0
 91
        1
 62
     0
 92
       -2
340
0
 93
        0
 40
0.045
309
GRIDFORMAT_END
309
TABLEFORMAT_END
  1
CELLSTYLE_BEGIN
 90
        1
 91
        1
300
_TITLE
309
CELLSTYLE_END
300
CELLSTYLE
  1
TABLEFORMAT_BEGIN
 90
        5
170
     1
 91
        0
 92
        0
 62
   257
 93
        1
300
CONTENTFORMAT
  1
CONTENTFORMAT_BEGIN
 90
        0
 91
        0
 92
      512
 93
        0
300

 40
0.0
140
1.0
 94
        5
 62
     0
340
11
144
0.18
309
CONTENTFORMAT_END
171
     0
 94
        6
 95
        1
302
GRIDFORMAT
  1
GRIDFORMAT_BEGIN
 90
        0
 91
        1
 62
     0
 92
       -2
340
0
 93
        0
 40
0.045
309
GRIDFORMAT_END
 95
        2
302
GRIDFORMAT
  1
GRIDFORMAT_BEGIN
 90
        0
 91
        1
 62
     0
 92
       -2
340
0
 93
        0
 40
0.045
309
GRIDFORMAT_END
 95
        4
302
GRIDFORMAT
  1
GRIDFORMAT_BEGIN
 90
        0
 91
        1
 62
     0
 92
       -2
340
0
 93
        0
 40
0.045
309
GRIDFORMAT_END
 95
        8
302
GRIDFORMAT
  1
GRIDFORMAT_BEGIN
 90
        0
 91
        1
 62
     0
 92
       -2
340
0
 93
        0
 40
0.045
309
GRIDFORMAT_END
 95
       16
302
GRIDFORMAT
  1
GRIDFORMAT_BEGIN
 90
        0
 91
        1
 62
     0
 92
       -2
340
0
 93
        0
 40
0.045
309
GRIDFORMAT_END
 95
       32
302
GRIDFORMAT
  1
GRIDFORMAT_BEGIN
 90
        0
 91
        1
 62
     0
 92
       -2
340
0
 93
        0
 40
0.045
309
GRIDFORMAT_END
309
TABLEFORMAT_END
  1
CELLSTYLE_BEGIN
 90
        2
 91
        1
300
_HEADER
309
CELLSTYLE_END
300
CELLSTYLE
  1
TABLEFORMAT_BEGIN
 90
        5
170
     1
 91
        0
 92
        0
 62
   257
 93
        1
300
CONTENTFORMAT
  1
CONTENTFORMAT_BEGIN
 90
        0
 91
        0
 92
      512
 93
        0
300

 40
0.0
140
1.0
 94
        2
 62
     0
340
11
144
0.18
309
CONTENTFORMAT_END
171
     0
 94
        6
 95
        1
302
GRIDFORMAT
  1
GRIDFORMAT_BEGIN
 90
        0
 91
        1
 62
     0
 92
       -2
340
0
 93
        0
 40
0.045
309
GRIDFORMAT_END
 95
        2
302
GRIDFORMAT
  1
GRIDFORMAT_BEGIN
 90
        0
 91
        1
 62
     0
 92
       -2
340
0
 93
        0
 40
0.045
309
GRIDFORMAT_END
 95
        4
302
GRIDFORMAT
  1
GRIDFORMAT_BEGIN
 90
        0
 91
        1
 62
     0
 92
       -2
340
0
 93
        0
 40
0.045
309
GRIDFORMAT_END
 95
        8
302
GRIDFORMAT
  1
GRIDFORMAT_BEGIN
 90
        0
 91
        1
 62
     0
 92
       -2
340
0
 93
        0
 40
0.045
309
GRIDFORMAT_END
 95
       16
302
GRIDFORMAT
  1
GRIDFORMAT_BEGIN
 90
        0
 91
        1
 62
     0
 92
       -2
340
0
 93
        0
 40
0.045
309
GRIDFORMAT_END
 95
       32
302
GRIDFORMAT
  1
GRIDFORMAT_BEGIN
 90
        0
 91
        1
 62
     0
 92
       -2
340
0
 93
        0
 40
0.045
309
GRIDFORMAT_END
309
TABLEFORMAT_END
  1
CELLSTYLE_BEGIN
 90
        3
 91
        2
300
_DATA
309
CELLSTYLE_END
  0
ENDSEC
  0
EOF
