  0
SECTION
  2
HEADER
  9
$ACADVER
  1
AC1015
  9
$ACADMAINTVER
 70
    20
  9
$DWGCODEPAGE
  3
ANSI_936
  9
$INSBASE
 10
0.0
 20
0.0
 30
0.0
  9
$EXTMIN
 10
-789.5366666316
 20
-975.069370489
 30
0.0
  9
$EXTMAX
 10
2202.0005964391
 20
1038.3563822816
 30
0.0
  9
$LIMMIN
 10
0.0
 20
0.0
  9
$LIMMAX
 10
863.6000000000001
 20
558.8
  9
$ORTHOMODE
 70
     0
  9
$REGENMODE
 70
     1
  9
$FILLMODE
 70
     1
  9
$QTEXTMODE
 70
     0
  9
$MIRRTEXT
 70
     0
  9
$LTSCALE
 40
47.498
  9
$ATTMODE
 70
     1
  9
$TEXTSIZE
 40
0.2
  9
$TRACEWID
 40
0.05
  9
$TEXTSTYLE
  7
STANDARD
  9
$CLAYER
  8
0
  9
$CELTYPE
  6
BYLAYER
  9
$CECOLOR
 62
   256
  9
$CELTSCALE
 40
1.0
  9
$DISPSILH
 70
     0
  9
$DIMSCALE
 40
1.0
  9
$DIMASZ
 40
4.7625
  9
$DIMEXO
 40
5.397499999999999
  9
$DIMDLI
 40
32.8168
  9
$DIMRND
 40
0.0
  9
$DIMDLE
 40
0.0
  9
$DIMEXE
 40
15.5448
  9
$DIMTP
 40
0.0
  9
$DIMTM
 40
0.0
  9
$DIMTXT
 40
3.96875
  9
$DIMCEN
 40
7.7724
  9
$DIMTSZ
 40
0.0
  9
$DIMTOL
 70
     1
  9
$DIMLIM
 70
     0
  9
$DIMTIH
 70
     1
  9
$DIMTOH
 70
     1
  9
$DIMSE1
 70
     0
  9
$DIMSE2
 70
     0
  9
$DIMTAD
 70
     0
  9
$DIMZIN
 70
     0
  9
$DIMBLK
  1

  9
$DIMASO
 70
     1
  9
$DIMSHO
 70
     1
  9
$DIMPOST
  1

  9
$DIMAPOST
  1

  9
$DIMALT
 70
     0
  9
$DIMALTD
 70
     2
  9
$DIMALTF
 40
25.4
  9
$DIMLFAC
 40
1.0
  9
$DIMTOFL
 70
     0
  9
$DIMTVP
 40
0.0
  9
$DIMTIX
 70
     0
  9
$DIMSOXD
 70
     0
  9
$DIMSAH
 70
     0
  9
$DIMBLK1
  1

  9
$DIMBLK2
  1

  9
$DIMSTYLE
  2
STANDARD
  9
$DIMCLRD
 70
     0
  9
$DIMCLRE
 70
     0
  9
$DIMCLRT
 70
     0
  9
$DIMTFAC
 40
1.0
  9
$DIMGAP
 40
0.09
  9
$DIMJUST
 70
     0
  9
$DIMSD1
 70
     0
  9
$DIMSD2
 70
     0
  9
$DIMTOLJ
 70
     1
  9
$DIMTZIN
 70
     0
  9
$DIMALTZ
 70
     0
  9
$DIMALTTZ
 70
     0
  9
$DIMUPT
 70
     0
  9
$DIMDEC
 70
     4
  9
$DIMTDEC
 70
     4
  9
$DIMALTU
 70
     2
  9
$DIMALTTD
 70
     2
  9
$DIMTXSTY
  7
STANDARD
  9
$DIMAUNIT
 70
     0
  9
$DIMADEC
 70
     0
  9
$DIMALTRND
 40
0.0
  9
$DIMAZIN
 70
     0
  9
$DIMDSEP
 70
    46
  9
$DIMATFIT
 70
     3
  9
$DIMFRAC
 70
     0
  9
$DIMLDRBLK
  1

  9
$DIMLUNIT
 70
     2
  9
$DIMLWD
 70
    -2
  9
$DIMLWE
 70
    -2
  9
$DIMTMOVE
 70
     0
  9
$LUNITS
 70
     2
  9
$LUPREC
 70
     2
  9
$SKETCHINC
 40
0.1
  9
$FILLETRAD
 40
0.0
  9
$AUNITS
 70
     0
  9
$AUPREC
 70
     0
  9
$MENU
  1
.
  9
$ELEVATION
 40
0.0
  9
$PELEVATION
 40
0.0
  9
$THICKNESS
 40
0.0
  9
$LIMCHECK
 70
     0
  9
$CHAMFERA
 40
0.0
  9
$CHAMFERB
 40
0.0
  9
$CHAMFERC
 40
0.0
  9
$CHAMFERD
 40
0.0
  9
$SKPOLY
 70
     0
  9
$TDCREATE
 40
2455694.697428947
  9
$TDUCREATE
 40
2455694.364095613
  9
$TDUPDATE
 40
2455694.697830521
  9
$TDUUPDATE
 40
2455694.364497188
  9
$TDINDWG
 40
0.0004021296
  9
$TDUSRTIMER
 40
0.0004019444
  9
$USRTIMER
 70
     1
  9
$ANGBASE
 50
0.0
  9
$ANGDIR
 70
     0
  9
$PDMODE
 70
     3
  9
$PDSIZE
 40
7.9375
  9
$PLINEWID
 40
0.0
  9
$SPLFRAME
 70
     0
  9
$SPLINETYPE
 70
     6
  9
$SPLINESEGS
 70
     8
  9
$HANDSEED
  5
683
  9
$SURFTAB1
 70
     6
  9
$SURFTAB2
 70
     6
  9
$SURFTYPE
 70
     6
  9
$SURFU
 70
     6
  9
$SURFV
 70
     6
  9
$UCSBASE
  2

  9
$UCSNAME
  2

  9
$UCSORG
 10
0.0
 20
0.0
 30
0.0
  9
$UCSXDIR
 10
1.0
 20
0.0
 30
0.0
  9
$UCSYDIR
 10
0.0
 20
1.0
 30
0.0
  9
$UCSORTHOREF
  2

  9
$UCSORTHOVIEW
 70
     0
  9
$UCSORGTOP
 10
0.0
 20
0.0
 30
0.0
  9
$UCSORGBOTTOM
 10
0.0
 20
0.0
 30
0.0
  9
$UCSORGLEFT
 10
0.0
 20
0.0
 30
0.0
  9
$UCSORGRIGHT
 10
0.0
 20
0.0
 30
0.0
  9
$UCSORGFRONT
 10
0.0
 20
0.0
 30
0.0
  9
$UCSORGBACK
 10
0.0
 20
0.0
 30
0.0
  9
$PUCSBASE
  2

  9
$PUCSNAME
  2

  9
$PUCSORG
 10
0.0
 20
0.0
 30
0.0
  9
$PUCSXDIR
 10
1.0
 20
0.0
 30
0.0
  9
$PUCSYDIR
 10
0.0
 20
1.0
 30
0.0
  9
$PUCSORTHOREF
  2

  9
$PUCSORTHOVIEW
 70
     0
  9
$PUCSORGTOP
 10
0.0
 20
0.0
 30
0.0
  9
$PUCSORGBOTTOM
 10
0.0
 20
0.0
 30
0.0
  9
$PUCSORGLEFT
 10
0.0
 20
0.0
 30
0.0
  9
$PUCSORGRIGHT
 10
0.0
 20
0.0
 30
0.0
  9
$PUCSORGFRONT
 10
0.0
 20
0.0
 30
0.0
  9
$PUCSORGBACK
 10
0.0
 20
0.0
 30
0.0
  9
$USERI1
 70
     0
  9
$USERI2
 70
     0
  9
$USERI3
 70
     0
  9
$USERI4
 70
     0
  9
$USERI5
 70
     0
  9
$USERR1
 40
0.0
  9
$USERR2
 40
0.0
  9
$USERR3
 40
0.0
  9
$USERR4
 40
0.0
  9
$USERR5
 40
0.0
  9
$WORLDVIEW
 70
     1
  9
$SHADEDGE
 70
     3
  9
$SHADEDIF
 70
    70
  9
$TILEMODE
 70
     1
  9
$MAXACTVP
 70
    64
  9
$PINSBASE
 10
0.0
 20
0.0
 30
0.0
  9
$PLIMCHECK
 70
     0
  9
$PEXTMIN
 10
1.000000000000000E+20
 20
1.000000000000000E+20
 30
1.000000000000000E+20
  9
$PEXTMAX
 10
-1.000000000000000E+20
 20
-1.000000000000000E+20
 30
-1.000000000000000E+20
  9
$PLIMMIN
 10
0.0
 20
0.0
  9
$PLIMMAX
 10
12.0
 20
9.0
  9
$UNITMODE
 70
     0
  9
$VISRETAIN
 70
     1
  9
$PLINEGEN
 70
     0
  9
$PSLTSCALE
 70
     1
  9
$TREEDEPTH
 70
  3020
  9
$CMLSTYLE
  2
Standard
  9
$CMLJUST
 70
     0
  9
$CMLSCALE
 40
1.0
  9
$PROXYGRAPHICS
 70
     1
  9
$MEASUREMENT
 70
     1
  9
$CELWEIGHT
370
    -1
  9
$ENDCAPS
280
     0
  9
$JOINSTYLE
280
     0
  9
$LWDISPLAY
290
     0
  9
$INSUNITS
 70
     4
  9
$HYPERLINKBASE
  1

  9
$STYLESHEET
  1

  9
$XEDIT
290
     1
  9
$CEPSNTYPE
380
     0
  9
$PSTYLEMODE
290
     1
  9
$FINGERPRINTGUID
  2
{14530FF6-ECFC-473A-96F7-A033FC6A8718}
  9
$VERSIONGUID
  2
{F8BF0C6B-CEA2-413C-AE30-5D119B421CA0}
  9
$EXTNAMES
290
     1
  9
$PSVPSCALE
 40
0.0
  9
$OLESTARTUP
290
     0
  0
ENDSEC
  0
SECTION
  2
CLASSES
  0
CLASS
  1
ACDBDICTIONARYWDFLT
  2
AcDbDictionaryWithDefault
  3
ObjectDBX Classes
 90
        0
280
     0
281
     0
  0
CLASS
  1
ACDBPLACEHOLDER
  2
AcDbPlaceHolder
  3
ObjectDBX Classes
 90
        0
280
     0
281
     0
  0
CLASS
  1
LAYOUT
  2
AcDbLayout
  3
ObjectDBX Classes
 90
        0
280
     0
281
     0
  0
CLASS
  1
MATERIAL
  2
AcDbMaterial
  3
ObjectDBX Classes
 90
     1024
280
     0
281
     0
  0
CLASS
  1
VISUALSTYLE
  2
AcDbVisualStyle
  3
ObjectDBX Classes
 90
     4095
280
     0
281
     0
  0
CLASS
  1
TABLESTYLE
  2
AcDbTableStyle
  3
ObjectDBX Classes
 90
     4095
280
     0
281
     0
  0
CLASS
  1
SCALE
  2
AcDbScale
  3
ObjectDBX Classes
 90
     1153
280
     0
281
     0
  0
CLASS
  1
MLEADERSTYLE
  2
AcDbMLeaderStyle
  3
ACDB_MLEADERSTYLE_CLASS
 90
     4095
280
     0
281
     0
  0
CLASS
  1
CELLSTYLEMAP
  2
AcDbCellStyleMap
  3
ObjectDBX Classes
 90
     1152
280
     0
281
     0
  0
CLASS
  1
DICTIONARYVAR
  2
AcDbDictionaryVar
  3
ObjectDBX Classes
 90
        0
280
     0
281
     0
  0
CLASS
  1
ACME_DOCUMENT
  2
AcMeDbDoc
  3
AcMeServices
 90
        0
280
     0
281
     0
  0
CLASS
  1
ACMESCOPE
  2
AcMeScope
  3
AcMeServices
 90
        0
280
     0
281
     0
  0
CLASS
  1
ACMECOMMANDHISTORY
  2
AcMeCommandHistory
  3
AcMeServices
 90
        0
280
     0
281
     0
  0
CLASS
  1
ACIMSYSVARMAN
  2
AcImSysVarManager
  3
AcMeServices
 90
        0
280
     0
281
     0
  0
CLASS
  1
ACIMINTSYSVAR
  2
AcImIntSysVar
  3
AcMeServices
 90
        0
280
     0
281
     0
  0
CLASS
  1
ACMEDRAWINGMAN
  2
AcMeDrawingMan
  3
AcMeServices
 90
        0
280
     0
281
     0
  0
CLASS
  1
ACMEVIEW
  2
AcMeView
  3
AcMeServices
 90
        0
280
     0
281
     0
  0
CLASS
  1
ACDBENTITYCACHE
  2
AcMeEntityCache
  3
AcMeServices
 90
        0
280
     0
281
     0
  0
CLASS
  1
GSMANAGER
  2
AcMeGSManager
  3
AcMeServices
 90
        0
280
     0
281
     0
  0
CLASS
  1
AMDTINTERNALREACTOR
  2
AmdtInternalReactor
  3
AcMeServices
 90
        0
280
     0
281
     0
  0
CLASS
  1
ACMESTATEMGR
  2
AcMeStateMgr
  3
AcMeServices
 90
        0
280
     0
281
     0
  0
CLASS
  1
ACGREFMASTER
  2
AcGrefMaster
  3
AcAttribServices
 90
        0
280
     0
281
     0
  0
CLASS
  1
AM_DRAWING_MGR
  2
AcDmDwgMgr
  3
AcMechDwgViewMgmt
 90
        0
280
     0
281
     0
  0
CLASS
  1
AM_DWG_DOCUMENT
  2
AcDmDwgDocument
  3
AcMechDwgViewMgmt
 90
        0
280
     0
281
     0
  0
CLASS
  1
AM_DWG_SHEET
  2
AcDmSheet
  3
AcMechDwgViewMgmt
 90
        0
280
     0
281
     0
  0
CLASS
  1
AM_VIEWDIMPARMAP
  2
AcDmViewDimParMap
  3
AcMechDwgViewMgmt
 90
        0
280
     0
281
     0
  0
CLASS
  1
ACIMREALSYSVAR
  2
AcImRealSysVar
  3
AcMeServices
 90
        0
280
     0
281
     0
  0
CLASS
  1
AM_DWGMGR_NAME
  2
AcDmDwgMgrName
  3
AcMechDwgViewMgmt
 90
        0
280
     0
281
     0
  0
CLASS
  1
ACME_DATABASE
  2
AcMeDbDatabase
  3
AcMeServices
 90
        0
280
     0
281
     0
  0
CLASS
  1
ACRFINSADJUSTERMGR
  2
AcRfInsAdjusterMgr
  3
AcMeServices
 90
        0
280
     0
281
     0
  0
CLASS
  1
ACGREFACADMASTER
  2
AcGrefacadMaster
  3
AcGrefServices
 90
        0
280
     0
281
     0
  0
CLASS
  1
AMDTMENUSTATEMGR
  2
AmdtMenuStateMgr
  3
McadcomServices
 90
        0
280
     0
281
     0
  0
CLASS
  1
AMDTMCOMMENUSTATE
  2
AmdtMcomMenuState
  3
McadcomServices
 90
        0
280
     0
281
     0
  0
CLASS
  1
AMIMASTER
  2
AmiMaster
  3
AmiServices
 90
        0
280
     0
281
     0
  0
CLASS
  1
AMGSETTINGSOBJ
  2
AmgSettingsObj
  3
"AcadM|Product Description: AutoCAD Mechanical|Company: Autodesk"
 90
        0
280
     0
281
     0
  0
CLASS
  1
MAPIAMMOUDLE
  2
MApiAmModule
  3
MApiAmServices
 90
        0
280
     0
281
     0
  0
CLASS
  1
ACIMSTRSYSVAR
  2
AcImStrSysVar
  3
AcMeServices
 90
        0
280
     0
281
     0
  0
CLASS
  1
AMDTADMENUSTATE
  2
AmdtAdMenuState
  3
DesignerServices
 90
        0
280
     0
281
     0
  0
CLASS
  1
ADAPPL
  2
AcAdAppl
  3
DesignerServices
 90
        0
280
     0
281
     0
  0
CLASS
  1
DEPMGR
  2
AcAdDepMgr
  3
DesignerServices
 90
        0
280
     0
281
     0
  0
CLASS
  1
PARAMMGR
  2
AcAdParamMgr
  3
DesignerServices
 90
        0
280
     0
281
     0
  0
CLASS
  1
PARAMSCOPE
  2
AcAdParamScope
  3
DesignerServices
 90
        0
280
     0
281
     0
  0
CLASS
  1
NAMEDAPPL
  2
AcAdNamedAppl
  3
DesignerServices
 90
        0
280
     0
281
     0
  0
CLASS
  1
AMDTDMMENUSTATE
  2
AmdtDmMenuState
  3
AcMechDwgViewMgmt
 90
        0
280
     0
281
     0
  0
CLASS
  1
AMDTAMMENUSTATE
  2
AmdtAmMenuState
  3
DesignerAssemblies
 90
        0
280
     0
281
     0
  0
CLASS
  1
ACAMPROJECT
  2
AcAmProject
  3
DesignerAssemblies
 90
        0
280
     0
281
     0
  0
CLASS
  1
ACAMGRCOMPDEF
  2
AcAmGrCompDef
  3
DesignerAssemblies
 90
        0
280
     0
281
     0
  0
CLASS
  1
ACCMCONTEXT
  2
AcCmContext
  3
DesignerAssemblies
 90
        0
280
     0
281
     0
  0
CLASS
  1
ACAMCOMPDEF
  2
AcAmCompDef
  3
DesignerAssemblies
 90
        0
280
     0
281
     0
  0
CLASS
  1
ACAMCOMPDEFMGR
  2
AcAmCompDefMgr
  3
DesignerAssemblies
 90
        0
280
     0
281
     0
  0
CLASS
  1
AMCONTEXTMGR
  2
AcAmContextMgr
  3
DesignerAssemblies
 90
        0
280
     0
281
     0
  0
CLASS
  1
ACAMCONTEXTMODELER
  2
AcAmContextModeler
  3
DesignerAssemblies
 90
        0
280
     0
281
     0
  0
CLASS
  1
ACMDATADICTIONARY
  2
AcmDataDictionary
  3
"AcmSymBB|Product Description: AutoCAD Mechanical|Company: Autodesk"
 90
        0
280
     0
281
     0
  0
CLASS
  1
CATALOGSTATE
  2
AcAmCatalogState
  3
DesignerAssemblies
 90
        0
280
     0
281
     0
  0
CLASS
  1
ACAMGRCOMPDEFSET
  2
AcAmGrCompDefSet
  3
DesignerAssemblies
 90
        0
280
     0
281
     0
  0
CLASS
  1
AMDTBROWSERDBTAB
  2
AmdtBrowserDbTab
  3
McadcomServices
 90
        0
280
     0
281
     0
  0
CLASS
  1
CBROWSERAPPOBJECT
  2
CBrowserAppObject
  3
McadcomServices
 90
        0
280
     0
281
     0
  0
CLASS
  1
DM_PLACEHOLDER
  2
AcDmSelsetPlaceholder
  3
AcMechDwgViewMgmt
 90
        0
280
     0
281
     0
  0
CLASS
  1
ACMSTANDARDISO
  2
AcmStandardISO
  3
"Amdt_StdImp|Product Description: AutoCAD Mechanical|Company: Autodesk"
 90
        0
280
     0
281
     0
  0
CLASS
  1
AMGOBJPROPCFG
  2
AmgObjPropCfg
  3
"AmgLay|Product Description: AutoCAD Mechanical|Company: Autodesk"
 90
        1
280
     0
281
     0
  0
CLASS
  1
AMDTEDGESTANDARDISO13715
  2
AmdtEdgeStdISO13715
  3
"Amdt_StdImp|Product Description: AutoCAD Mechanical|Company: Autodesk"
 90
        0
280
     0
281
     0
  0
CLASS
  1
ACMSURFSTANDARDISO
  2
AcmSurfTextStdISO
  3
"Amdt_StdImp|Product Description: AutoCAD Mechanical|Company: Autodesk"
 90
        0
280
     0
281
     0
  0
CLASS
  1
ACMFCFSTANDARDISO
  2
AcmFCFStdISO
  3
"Amdt_StdImp|Product Description: AutoCAD Mechanical|Company: Autodesk"
 90
        0
280
     0
281
     0
  0
CLASS
  1
ACMWELDSTANDARDISO
  2
AcmWeldingStdISO
  3
"Amdt_StdImp|Product Description: AutoCAD Mechanical|Company: Autodesk"
 90
        0
280
     0
281
     0
  0
CLASS
  1
ACMIDSTANDARDISO
  2
AcmIdStdISO
  3
"Amdt_StdImp|Product Description: AutoCAD Mechanical|Company: Autodesk"
 90
        0
280
     0
281
     0
  0
CLASS
  1
ACMDATUMSTANDARDISO
  2
AcmDatumStdISO
  3
"Amdt_StdImp|Product Description: AutoCAD Mechanical|Company: Autodesk"
 90
        0
280
     0
281
     0
  0
CLASS
  1
ACMBOMSTANDARDISO
  2
AcmBOMStdISO
  3
"Amdt_StdImp|Product Description: AutoCAD Mechanical|Company: Autodesk"
 90
        0
280
     0
281
     0
  0
CLASS
  1
ACMDETAILSTANDARDISO
  2
AmdtDetailSymStdISO
  3
"Amdt_StdImp|Product Description: AutoCAD Mechanical|Company: Autodesk"
 90
        0
280
     0
281
     0
  0
CLASS
  1
ACMSECTIONSTANDARDISO
  2
AmdtSectionSymStdISO
  3
"Amdt_StdImp|Product Description: AutoCAD Mechanical|Company: Autodesk"
 90
        0
280
     0
281
     0
  0
CLASS
  1
ACMCENTERLINESTANDARDISO
  2
AmdtCenterLineStdISO
  3
"Amdt_StdImp|Product Description: AutoCAD Mechanical|Company: Autodesk"
 90
        0
280
     0
281
     0
  0
CLASS
  1
ACMTHREADLINESTANDARDISO
  2
AmdtThreadLineStdISO
  3
"Amdt_StdImp|Product Description: AutoCAD Mechanical|Company: Autodesk"
 90
        0
280
     0
281
     0
  0
CLASS
  1
ACMNOTESTANDARDISO
  2
AmdtNoteStdISO
  3
"Amdt_StdImp|Product Description: AutoCAD Mechanical|Company: Autodesk"
 90
        0
280
     0
281
     0
  0
CLASS
  1
ACMTAPERSTANDARDISO
  2
AcmTaperStdISO
  3
"Amdt_StdImp|Product Description: AutoCAD Mechanical|Company: Autodesk"
 90
        0
280
     0
281
     0
  0
CLASS
  1
AMDTNOTETEMPLATEDB
  2
AmdtNoteTemplateDB
  3
AMDT_STDIMP_MODULE_NAME
 90
        0
280
     0
281
     0
  0
CLASS
  1
ACAMGLAYSTD
  2
AcAmgLayStd
  3
"AmgLay|Product Description: AutoCAD Mechanical|Company: Autodesk"
 90
        0
280
     0
281
     0
  0
CLASS
  1
ACAMGDIMSTD
  2
AcAmgDimStd
  3
"AmgDim|Product Description: AutoCAD Mechanical|Company: Autodesk"
 90
        0
280
     0
281
     0
  0
CLASS
  1
ACAMGHOLECHARTSTDISO
  2
AcAmgHoleChartStdISO
  3
ACMSYMBB_MODULE_NAME
 90
        0
280
     0
281
     0
  0
CLASS
  1
ACAMGTITLESTD
  2
AcAmgTitleStd
  3
"AmgTitle|Product Description: AutoCAD Mechanical|Company: Autodesk"
 90
        0
280
     0
281
     0
  0
CLASS
  1
ACAMGFILTERDAT
  2
AcAmgFilterDat
  3
"AcadM|Product Description: AutoCAD Mechanical|Company: Autodesk"
 90
        0
280
     0
281
     0
  0
CLASS
  1
CAMSSTRUCTBTNSTATE
  2
StructBtnState
  3
L"DesignerAssemblies"
 90
        0
280
     0
281
     0
  0
ENDSEC
  0
SECTION
  2
TABLES
  0
TABLE
  2
VPORT
  5
8
330
0
100
AcDbSymbolTable
 70
     1
  0
VPORT
  5
1F4
330
8
100
AcDbSymbolTableRecord
100
AcDbViewportTableRecord
  2
*ACTIVE
 70
     0
 10
0.0
 20
0.0
 11
1.0
 21
1.0
 12
725.4217542048982
 22
-317.5507935998053
 13
0.0
 23
0.0
 14
1.0
 24
1.0
 15
0.0
 25
0.0
 16
0.0
 26
0.0
 36
1.0
 17
0.0
 27
0.0
 37
0.0
 40
7683.580833515559
 41
1.329690346083788
 42
50.0
 43
0.0
 44
0.0
 50
0.0
 51
0.0
 71
     0
 72
   100
 73
     1
 74
     1
 75
     0
 76
     0
 77
     0
 78
     0
281
     0
 65
     0
110
0.0
120
0.0
130
0.0
111
1.0
121
0.0
131
0.0
112
0.0
122
1.0
132
0.0
 79
     0
146
0.0
  0
ENDTAB
  0
TABLE
  2
LTYPE
  5
5
330
0
100
AcDbSymbolTable
 70
    17
  0
LTYPE
  5
14
330
5
100
AcDbSymbolTableRecord
100
AcDbLinetypeTableRecord
  2
BYBLOCK
 70
     0
  3

 72
    65
 73
     0
 40
0.0
  0
LTYPE
  5
15
330
5
100
AcDbSymbolTableRecord
100
AcDbLinetypeTableRecord
  2
BYLAYER
 70
     0
  3

 72
    65
 73
     0
 40
0.0
  0
LTYPE
  5
16
330
5
100
AcDbSymbolTableRecord
100
AcDbLinetypeTableRecord
  2
CONTINUOUS
 70
     0
  3
Solid line
 72
    65
 73
     0
 40
0.0
  0
LTYPE
  5
1F5
330
5
100
AcDbSymbolTableRecord
100
AcDbLinetypeTableRecord
  2
CENTER
 70
     0
  3
____ _ ____ _ ____ _ ____ _ ____ _ ____ _ ____
 72
    65
 73
     4
 40
0.6
 49
0.375
 74
     0
 49
-0.075
 74
     0
 49
0.075
 74
     0
 49
-0.075
 74
     0
  0
LTYPE
  5
1F6
330
5
100
AcDbSymbolTableRecord
100
AcDbLinetypeTableRecord
  2
HIDDEN
 70
     0
  3
- - - - - - - - - - - - - - - - - - - -
 72
    65
 73
     2
 40
0.2
 49
0.1
 74
     0
 49
-0.1
 74
     0
  0
LTYPE
  5
1F7
330
5
100
AcDbSymbolTableRecord
100
AcDbLinetypeTableRecord
  2
PHANTOM
 70
     0
  3
_____ _ _ _____ _ _ _____ _ _ _____
 72
    65
 73
     6
 40
0.8
 49
0.45
 74
     0
 49
-0.05
 74
     0
 49
0.1
 74
     0
 49
-0.05
 74
     0
 49
0.1
 74
     0
 49
-0.05
 74
     0
  0
LTYPE
  5
1F8
330
5
100
AcDbSymbolTableRecord
100
AcDbLinetypeTableRecord
  2
DOT
 70
     0
  3
. . . . . . . . . . . . . . . . . . . .
 72
    65
 73
     2
 40
0.2
 49
0.1
 74
     0
 49
-0.1
 74
     0
  0
LTYPE
  5
1F9
330
5
100
AcDbSymbolTableRecord
100
AcDbLinetypeTableRecord
  2
DASHED
 70
     0
  3
- - - - - - - - - - - - - - - - - - - -
 72
    65
 73
     2
 40
0.2
 49
0.1
 74
     0
 49
-0.1
 74
     0
  0
LTYPE
  5
5E1
330
5
100
AcDbSymbolTableRecord
100
AcDbLinetypeTableRecord
  2
PHANTOM2
 70
     0
  3
Phantom (.5x) ___ _ _ ___ _ _ ___ _ _ ___ _ _
 72
    65
 73
     6
 40
31.75
 49
15.875
 74
     0
 49
-3.174999999999999
 74
     0
 49
3.174999999999999
 74
     0
 49
-3.174999999999999
 74
     0
 49
3.174999999999999
 74
     0
 49
-3.174999999999999
 74
     0
  0
LTYPE
  5
61A
330
5
100
AcDbSymbolTableRecord
100
AcDbLinetypeTableRecord
  2
AM_ISO02W050
 70
     0
  3
__ __ __ __ __ __ __ __ __ __ __ __ __ __ __
 72
    65
 73
     2
 40
7.5
 49
6.0
 74
     0
 49
-1.5
 74
     0
  0
LTYPE
  5
61B
330
5
100
AcDbSymbolTableRecord
100
AcDbLinetypeTableRecord
  2
AM_ISO08W050
 70
     0
  3
____ . ____ . ____ . ____ . ____ . ____ . ____
 72
    65
 73
     4
 40
18.0
 49
12.0
 74
     0
 49
-1.5
 74
     0
 49
3.0
 74
     0
 49
-1.5
 74
     0
  0
LTYPE
  5
61C
330
5
100
AcDbSymbolTableRecord
100
AcDbLinetypeTableRecord
  2
AM_ISO09W050
 70
     0
  3
_____ . . _____ . . _____ . . ____ .. ____
 72
    65
 73
     6
 40
22.5
 49
12.0
 74
     0
 49
-1.5
 74
     0
 49
3.0
 74
     0
 49
-1.5
 74
     0
 49
3.0
 74
     0
 49
-1.5
 74
     0
  0
LTYPE
  5
61D
330
5
100
AcDbSymbolTableRecord
100
AcDbLinetypeTableRecord
  2
Amconstr
 70
     0
  3
_______________________
 72
    65
 73
     2
 40
9999.0
 49
9999.0
 74
     0
 49
0.0
 74
     0
  0
LTYPE
  5
61E
330
5
100
AcDbSymbolTableRecord
100
AcDbLinetypeTableRecord
  2
AM_ISO08W050x2
 70
     0
  3
__ . __ . __ . __ . __ . __
 72
    65
 73
     4
 40
9.0
 49
6.0
 74
     0
 49
-0.75
 74
     0
 49
1.5
 74
     0
 49
-0.75
 74
     0
  0
LTYPE
  5
61F
330
5
100
AcDbSymbolTableRecord
100
AcDbLinetypeTableRecord
  2
AM_ISO02W050x2
 70
     0
  3
 _ _ _ _ _ _ _ _ _ _ _ _
 72
    65
 73
     2
 40
3.75
 49
3.0
 74
     0
 49
-0.75
 74
     0
  0
LTYPE
  5
622
330
5
100
AcDbSymbolTableRecord
100
AcDbLinetypeTableRecord
  2
Amzigzag
 70
     0
  3
/\/-/\/-/\/-/\/-/\/-/\/
 72
    65
 73
     2
 40
11.0001
 49
0.0001
 74
     4
 75
   136
340
621
 46
0.04
 50
0.0
 44
0.0
 45
0.0
 49
-11.0
 74
     0
  0
LTYPE
  5
632
330
5
100
AcDbSymbolTableRecord
100
AcDbLinetypeTableRecord
  2
ACISOWELD
 70
     0
  3
_ _ _ _ _
 72
    65
 73
     2
 40
2.0
 49
2.0
 74
     0
 49
-1.0
 74
     0
  0
LTYPE
  5
633
330
5
100
AcDbSymbolTableRecord
100
AcDbLinetypeTableRecord
  2
ACISOTGB
 70
     0
  3
__ . . __ . .
 72
    65
 73
     6
 40
9.0
 49
4.0
 74
     0
 49
-1.0
 74
     0
 49
1.0
 74
     0
 49
-1.0
 74
     0
 49
1.0
 74
     0
 49
-1.0
 74
     0
  0
LTYPE
  5
634
330
5
100
AcDbSymbolTableRecord
100
AcDbLinetypeTableRecord
  2
ACISOTGL
 70
     0
  3
_ _ _ _ _
 72
    65
 73
     2
 40
3.0
 49
2.0
 74
     0
 49
-1.0
 74
     0
  0
ENDTAB
  0
TABLE
  2
LAYER
  5
2
330
0
100
AcDbSymbolTable
 70
    35
  0
LAYER
  5
10
330
2
100
AcDbSymbolTableRecord
100
AcDbLayerTableRecord
  2
0
 70
     0
 62
     7
  6
CONTINUOUS
370
    -3
390
F
  0
LAYER
  5
1FA
330
2
100
AcDbSymbolTableRecord
100
AcDbLayerTableRecord
  2
DEFAULT_1
 70
     0
 62
     7
  6
CENTER
370
    -3
390
F
  0
LAYER
  5
1FB
330
2
100
AcDbSymbolTableRecord
100
AcDbLayerTableRecord
  2
DEFAULT_2
 70
     0
 62
     8
  6
HIDDEN
370
    -3
390
F
  0
LAYER
  5
1FC
330
2
100
AcDbSymbolTableRecord
100
AcDbLayerTableRecord
  2
DEFAULT_3
 70
     0
 62
     7
  6
PHANTOM
370
    -3
390
F
  0
LAYER
  5
1FD
330
2
100
AcDbSymbolTableRecord
100
AcDbLayerTableRecord
  2
AXIS
 70
     0
 62
     7
  6
CONTINUOUS
370
    -3
390
F
  0
LAYER
  5
1FE
330
2
100
AcDbSymbolTableRecord
100
AcDbLayerTableRecord
  2
BLEND
 70
     0
 62
     7
  6
CONTINUOUS
370
    -3
390
F
  0
LAYER
  5
1FF
330
2
100
AcDbSymbolTableRecord
100
AcDbLayerTableRecord
  2
BRACE
 70
     0
 62
     7
  6
CONTINUOUS
370
    -3
390
F
  0
LAYER
  5
200
330
2
100
AcDbSymbolTableRecord
100
AcDbLayerTableRecord
  2
CONST
 70
     0
 62
     7
  6
CONTINUOUS
370
    -3
390
F
  0
LAYER
  5
201
330
2
100
AcDbSymbolTableRecord
100
AcDbLayerTableRecord
  2
COR_BRACE
 70
     0
 62
     7
  6
CONTINUOUS
370
    -3
390
F
  0
LAYER
  5
202
330
2
100
AcDbSymbolTableRecord
100
AcDbLayerTableRecord
  2
CURVE
 70
     0
 62
     7
  6
CONTINUOUS
370
    -3
390
F
  0
LAYER
  5
203
330
2
100
AcDbSymbolTableRecord
100
AcDbLayerTableRecord
  2
DATUM_AXIS
 70
     0
 62
     7
  6
CONTINUOUS
370
    -3
390
F
  0
LAYER
  5
204
330
2
100
AcDbSymbolTableRecord
100
AcDbLayerTableRecord
  2
DATUM_CRV
 70
     0
 62
     7
  6
CONTINUOUS
370
    -3
390
F
  0
LAYER
  5
205
330
2
100
AcDbSymbolTableRecord
100
AcDbLayerTableRecord
  2
DATUM_CSYS
 70
     0
 62
     7
  6
CONTINUOUS
370
    -3
390
F
  0
LAYER
  5
206
330
2
100
AcDbSymbolTableRecord
100
AcDbLayerTableRecord
  2
DATUM_PLANE
 70
     0
 62
     7
  6
CONTINUOUS
370
    -3
390
F
  0
LAYER
  5
207
330
2
100
AcDbSymbolTableRecord
100
AcDbLayerTableRecord
  2
DATUM_PLN
 70
     0
 62
     7
  6
CONTINUOUS
370
    -3
390
F
  0
LAYER
  5
208
330
2
100
AcDbSymbolTableRecord
100
AcDbLayerTableRecord
  2
DATUM_PNT
 70
     0
 62
     7
  6
CONTINUOUS
370
    -3
390
F
  0
LAYER
  5
209
330
2
100
AcDbSymbolTableRecord
100
AcDbLayerTableRecord
  2
DATUM_POINT
 70
     0
 62
     7
  6
CONTINUOUS
370
    -3
390
F
  0
LAYER
  5
20A
330
2
100
AcDbSymbolTableRecord
100
AcDbLayerTableRecord
  2
DRIVEN_DIM
 70
     0
 62
     7
  6
CONTINUOUS
370
    -3
390
F
  0
LAYER
  5
20B
330
2
100
AcDbSymbolTableRecord
100
AcDbLayerTableRecord
  2
FLR_RND
 70
     0
 62
     7
  6
CONTINUOUS
370
    -3
390
F
  0
LAYER
  5
20C
330
2
100
AcDbSymbolTableRecord
100
AcDbLayerTableRecord
  2
GRIND
 70
     0
 62
     7
  6
CONTINUOUS
370
    -3
390
F
  0
LAYER
  5
20D
330
2
100
AcDbSymbolTableRecord
100
AcDbLayerTableRecord
  2
PARAM_DIM
 70
     0
 62
     7
  6
CONTINUOUS
370
    -3
390
F
  0
LAYER
  5
20E
330
2
100
AcDbSymbolTableRecord
100
AcDbLayerTableRecord
  2
PATCH_RHT
 70
     0
 62
     7
  6
CONTINUOUS
370
    -3
390
F
  0
LAYER
  5
20F
330
2
100
AcDbSymbolTableRecord
100
AcDbLayerTableRecord
  2
PAT_CTR
 70
     0
 62
     7
  6
CONTINUOUS
370
    -3
390
F
  0
LAYER
  5
210
330
2
100
AcDbSymbolTableRecord
100
AcDbLayerTableRecord
  2
RIM_RND
 70
     0
 62
     7
  6
CONTINUOUS
370
    -3
390
F
  0
LAYER
  5
211
330
2
100
AcDbSymbolTableRecord
100
AcDbLayerTableRecord
  2
RIM_TAPER
 70
     0
 62
     7
  6
CONTINUOUS
370
    -3
390
F
  0
LAYER
  5
212
330
2
100
AcDbSymbolTableRecord
100
AcDbLayerTableRecord
  2
RND_PATCH
 70
     0
 62
     7
  6
CONTINUOUS
370
    -3
390
F
  0
LAYER
  5
213
330
2
100
AcDbSymbolTableRecord
100
AcDbLayerTableRecord
  2
SURFACE
 70
     0
 62
     7
  6
CONTINUOUS
370
    -3
390
F
  0
LAYER
  5
214
330
2
100
AcDbSymbolTableRecord
100
AcDbLayerTableRecord
  2
TILE_BOT
 70
     0
 62
     7
  6
CONTINUOUS
370
    -3
390
F
  0
LAYER
  5
215
330
2
100
AcDbSymbolTableRecord
100
AcDbLayerTableRecord
  2
TILE_IN
 70
     0
 62
     7
  6
CONTINUOUS
370
    -3
390
F
  0
LAYER
  5
216
330
2
100
AcDbSymbolTableRecord
100
AcDbLayerTableRecord
  2
WP-INFO
 70
     0
 62
     7
  6
CONTINUOUS
370
    -3
390
F
  0
LAYER
  5
217
330
2
100
AcDbSymbolTableRecord
100
AcDbLayerTableRecord
  2
XSEC_DATUMS
 70
     0
 62
     7
  6
CONTINUOUS
370
    -3
390
F
  0
LAYER
  5
218
330
2
100
AcDbSymbolTableRecord
100
AcDbLayerTableRecord
  2
_CURVE
 70
     0
 62
     7
  6
CONTINUOUS
370
    -3
390
F
  0
LAYER
  5
219
330
2
100
AcDbSymbolTableRecord
100
AcDbLayerTableRecord
  2
_SURFACE
 70
     0
 62
     7
  6
CONTINUOUS
370
    -3
390
F
  0
LAYER
  5
21A
330
2
100
AcDbSymbolTableRecord
100
AcDbLayerTableRecord
  2
___NOTE
 70
     0
 62
     7
  6
CONTINUOUS
370
    -3
390
F
  0
LAYER
  5
21B
330
2
100
AcDbSymbolTableRecord
100
AcDbLayerTableRecord
  2
___SYMBOL
 70
     0
 62
     7
  6
CONTINUOUS
370
    -3
390
F
  0
ENDTAB
  0
TABLE
  2
STYLE
  5
3
330
0
100
AcDbSymbolTable
 70
     5
  0
STYLE
  5
11
330
3
100
AcDbSymbolTableRecord
100
AcDbTextStyleTableRecord
  2
STANDARD
 70
     0
 40
0.0
 41
0.8
 50
0.0
 71
     0
 42
0.2
  3
txt
  4

  0
STYLE
  5
21C
330
3
100
AcDbSymbolTableRecord
100
AcDbTextStyleTableRecord
  2
TEXTSTYLE_1
 70
     0
 40
0.0
 41
0.8
 50
0.0
 71
     0
 42
0.2
  3
gdt
  4

  0
STYLE
  5
621
330
3
100
AcDbSymbolTableRecord
100
AcDbTextStyleTableRecord
  2

 70
     1
 40
0.0
 41
1.0
 50
0.0
 71
     0
 42
0.2
  3
genltshp.shx
  4

  0
STYLE
  5
623
330
3
100
AcDbSymbolTableRecord
100
AcDbTextStyleTableRecord
  2
ACISOTS
 70
     0
 40
1.0
 41
1.0
 50
0.0
 71
     0
 42
0.2
  3
isocp.shx
  4

  0
STYLE
  5
631
330
3
100
AcDbSymbolTableRecord
100
AcDbTextStyleTableRecord
  2
ACISOGDT
 70
     0
 40
0.0
 41
1.0
 50
0.0
 71
     0
 42
0.2
  3
amgdt.shx
  4

  0
ENDTAB
  0
TABLE
  2
VIEW
  5
6
330
0
100
AcDbSymbolTable
 70
     0
  0
ENDTAB
  0
TABLE
  2
UCS
  5
7
330
0
100
AcDbSymbolTable
 70
     0
  0
ENDTAB
  0
TABLE
  2
APPID
  5
9
330
0
100
AcDbSymbolTable
 70
    10
  0
APPID
  5
21D
330
9
100
AcDbSymbolTableRecord
100
AcDbRegAppTableRecord
  2
ACAD
 70
     0
  0
APPID
  5
5A6
330
9
100
AcDbSymbolTableRecord
100
AcDbRegAppTableRecord
  2
ACAD_MLEADERVER
 70
     0
  0
APPID
  5
5B4
330
9
100
AcDbSymbolTableRecord
100
AcDbRegAppTableRecord
  2
MCAD_NO_VIS
 70
     0
  0
APPID
  5
5B5
330
9
100
AcDbSymbolTableRecord
100
AcDbRegAppTableRecord
  2
ACAD_TEMP_GRAPHIC
 70
     0
  0
APPID
  5
5E3
330
9
100
AcDbSymbolTableRecord
100
AcDbRegAppTableRecord
  2
AD_DRAW
 70
     0
  0
APPID
  5
5E6
330
9
100
AcDbSymbolTableRecord
100
AcDbRegAppTableRecord
  2
ACATTRIBSERVICES
 70
     0
  0
APPID
  5
60B
330
9
100
AcDbSymbolTableRecord
100
AcDbRegAppTableRecord
  2
DESIGNERASSEMBLIES
 70
     0
  0
APPID
  5
611
330
9
100
AcDbSymbolTableRecord
100
AcDbRegAppTableRecord
  2
ACADM_DIM_EDIT
 70
     0
  0
APPID
  5
612
330
9
100
AcDbSymbolTableRecord
100
AcDbRegAppTableRecord
  2
AMDT_DM_ADJ
 70
     0
  0
APPID
  5
682
330
9
100
AcDbSymbolTableRecord
100
AcDbRegAppTableRecord
  2
ACAD_DSTYLE_DIMARC_LENGTH_SYMBOL
 70
     0
  0
ENDTAB
  0
TABLE
  2
DIMSTYLE
  5
A
330
0
100
AcDbSymbolTable
 70
     8
100
AcDbDimStyleTable
 71
     1
340
220
  0
DIMSTYLE
105
220
330
A
100
AcDbSymbolTableRecord
100
AcDbDimStyleTableRecord
  2
STANDARD
 70
     0
 41
4.7625
 71
     1
 78
     8
140
3.96875
271
     0
272
     0
284
     8
340
11
  0
DIMSTYLE
105
63F
330
A
100
AcDbSymbolTableRecord
100
AcDbDimStyleTableRecord
  2
AM_ISO
 70
     0
  4
"
 41
2.5
 42
1.0
 43
10.0
 44
1.0
 47
0.1
 48
0.1
 73
     0
 74
     0
 77
     1
 78
     8
 79
     2
140
3.5
141
0.0
143
0.0393701
146
0.71
147
1.5
172
     1
176
   256
177
   256
178
     2
271
     2
272
     3
274
     4
283
     0
284
     8
340
11
371
    -1
372
    -1
1001
ACAD_DSTYLE_DIMARC_LENGTH_SYMBOL
1070
   379
1070
     1
  0
DIMSTYLE
105
640
330
A
100
AcDbSymbolTableRecord
100
AcDbDimStyleTableRecord
  2
AM_ISO$3
 70
     0
  4
"
 41
2.5
 42
1.0
 43
10.0
 44
1.0
 47
0.1
 48
0.1
 73
     0
 77
     1
 78
     8
 79
     2
140
3.5
141
0.0
143
0.0393701
146
0.71
147
1.5
176
   256
177
   256
178
     2
271
     2
272
     3
274
     4
283
     0
284
     8
288
     1
289
     0
340
11
371
    -1
372
    -1
1001
ACAD_DSTYLE_DIMARC_LENGTH_SYMBOL
1070
   379
1070
     1
  0
DIMSTYLE
105
641
330
A
100
AcDbSymbolTableRecord
100
AcDbDimStyleTableRecord
  2
AM_ISO$4
 70
     0
  4
"
 41
2.5
 42
1.0
 43
10.0
 44
1.0
 47
0.1
 48
0.1
 73
     0
 77
     1
 78
     8
 79
     2
140
3.5
141
0.0
143
0.0393701
146
0.71
147
1.5
176
   256
177
   256
178
     2
271
     2
272
     3
274
     4
283
     0
284
     8
288
     1
289
     0
340
11
371
    -1
372
    -1
1001
ACAD_DSTYLE_DIMARC_LENGTH_SYMBOL
1070
   379
1070
     1
  0
DIMSTYLE
105
642
330
A
100
AcDbSymbolTableRecord
100
AcDbDimStyleTableRecord
  2
AM_ISO$6
 70
     0
  4
"
 41
2.5
 42
1.0
 43
10.0
 44
1.0
 47
0.1
 48
0.1
 73
     0
 74
     0
 78
     8
 79
     2
140
3.5
141
0.0
143
0.0393701
146
0.71
147
1.5
172
     1
176
   256
177
   256
178
     2
271
     2
272
     3
274
     4
283
     0
284
     8
340
11
371
    -1
372
    -1
1001
ACAD_DSTYLE_DIMARC_LENGTH_SYMBOL
1070
   379
1070
     1
  0
DIMSTYLE
105
643
330
A
100
AcDbSymbolTableRecord
100
AcDbDimStyleTableRecord
  2
AM_ISO$7
 70
     0
  4
"
 41
2.5
 42
1.0
 43
10.0
 44
1.0
 47
0.1
 48
0.1
 73
     0
 74
     0
 77
     1
 78
     8
 79
     2
140
5.0
141
0.0
143
0.0393701
146
0.71
147
1.5
172
     1
176
   256
177
   256
178
     2
271
     2
272
     3
274
     4
283
     0
284
     8
340
11
371
    -1
372
    -1
1001
ACAD_DSTYLE_DIMARC_LENGTH_SYMBOL
1070
   379
1070
     1
  0
DIMSTYLE
105
644
330
A
100
AcDbSymbolTableRecord
100
AcDbDimStyleTableRecord
  2
AM_ISO$SF
 70
     0
  4
"
 41
2.5
 42
1.0
 43
10.0
 44
1.0
 47
0.1
 48
0.1
 73
     0
 74
     0
 75
     1
 76
     1
 77
     1
 78
     8
 79
     2
140
3.5
141
0.0
143
0.0393701
146
0.71
147
1.5
172
     1
176
   256
177
   256
178
     2
271
     2
272
     3
274
     4
283
     0
284
     8
340
11
371
    -1
372
    -1
1001
ACAD_DSTYLE_DIMARC_LENGTH_SYMBOL
1070
   379
1070
     1
  0
DIMSTYLE
105
649
330
A
100
AcDbSymbolTableRecord
100
AcDbDimStyleTableRecord
  2
AM_ISO$SH
 70
     0
  4
"
 41
2.5
 42
1.0
 43
10.0
 44
1.0
 47
0.1
 48
0.1
 73
     0
 74
     0
 75
     1
 76
     1
 77
     1
 78
     8
 79
     2
140
3.5
141
0.0
143
0.0393701
144
2.0
146
0.71
147
1.5
172
     1
173
     1
176
   256
177
   256
178
     2
271
     2
272
     3
274
     4
283
     0
284
     8
340
11
343
645
371
    -1
372
    -1
1001
ACAD_DSTYLE_DIMARC_LENGTH_SYMBOL
1070
   379
1070
     1
  0
ENDTAB
  0
TABLE
  2
BLOCK_RECORD
  5
1
330
0
100
AcDbSymbolTable
 70
     2
  0
BLOCK_RECORD
  5
21E
330
1
100
AcDbSymbolTableRecord
100
AcDbBlockTableRecord
  2
*Model_Space
340
551
  0
BLOCK_RECORD
  5
21F
330
1
100
AcDbSymbolTableRecord
100
AcDbBlockTableRecord
  2
*Paper_Space
340
552
  0
BLOCK_RECORD
  5
645
330
1
100
AcDbSymbolTableRecord
100
AcDbBlockTableRecord
  2
GENAXEH
340
0
  0
ENDTAB
  0
ENDSEC
  0
SECTION
  2
BLOCKS
  0
BLOCK
  5
20
330
21E
100
AcDbEntity
  8
0
100
AcDbBlockBegin
  2
*Model_Space
 70
     0
 10
0.0
 20
0.0
 30
0.0
  3
*Model_Space
  1

  0
ENDBLK
  5
21
330
21E
100
AcDbEntity
  8
0
100
AcDbBlockEnd
  0
BLOCK
  5
1C
330
21F
100
AcDbEntity
 67
     1
  8
0
100
AcDbBlockBegin
  2
*Paper_Space
 70
     0
 10
0.0
 20
0.0
 30
0.0
  3
*Paper_Space
  1

  0
ENDBLK
  5
1D
330
21F
100
AcDbEntity
 67
     1
  8
0
100
AcDbBlockEnd
  0
BLOCK
  5
647
330
645
100
AcDbEntity
  8
0
100
AcDbBlockBegin
  2
GENAXEH
 70
     0
 10
0.0
 20
0.0
 30
0.0
  3
GENAXEH
  1

  0
LINE
  5
646
330
645
100
AcDbEntity
  8
0
100
AcDbLine
 10
-1.0
 20
0.0
 30
0.0
 11
1.0
 21
0.0
 31
0.0
  0
ENDBLK
  5
648
330
645
100
AcDbEntity
  8
0
100
AcDbBlockEnd
  0
ENDSEC
  0
SECTION
  2
ENTITIES
  0
LINE
  5
291
330
21E
100
AcDbEntity
  8
DATUM_AXIS
  6
Continuous
 62
     7
100
AcDbLine
 10
1401.9735165378
 20
-552.2970717997
 30
0.0
 11
1401.9735165378
 21
-558.2809976571
 31
0.0
  0
LINE
  5
292
330
21E
100
AcDbEntity
  8
DATUM_AXIS
  6
Continuous
 62
     7
100
AcDbLine
 10
1417.5606065666
 20
-560.1201224616001
 30
0.0
 11
1417.5393739808
 21
-558.2950671319
 31
0.0
  0
LINE
  5
295
330
21E
100
AcDbEntity
  8
DATUM_AXIS
  6
Continuous
 62
     7
100
AcDbLine
 10
1411.9641882676
 20
-543.3669733422
 30
0.0
 11
1411.9653810517
 21
-543.2900359111
 31
0.0
  0
LINE
  5
29A
330
21E
100
AcDbEntity
  8
DATUM_AXIS
  6
Continuous
 62
     7
100
AcDbLine
 10
1417.5612494168
 20
-560.1201282903999
 30
0.0
 11
1417.6209523797
 21
-560.7005279925999
 31
0.0
  0
LWPOLYLINE
  5
29B
330
21E
100
AcDbEntity
  8
DATUM_AXIS
  6
Continuous
 62
     7
100
AcDbPolyline
 90
        8
 70
     0
 43
0.0
 10
1417.5606209676
 20
-560.1201416472
 10
1417.6100716169
 20
-560.6604812636
 10
1417.7764549741
 20
-561.2728564576999
 10
1418.047006938
 20
-561.8270504238999
 10
1418.4167140557
 20
-562.3171069505999
 10
1418.8687711641
 20
-562.7202119161999
 10
1419.3795913494
 20
-563.0180348125
 10
1419.4378083335
 20
-563.0438260861
  0
LWPOLYLINE
  5
29C
330
21E
100
AcDbEntity
  8
DATUM_AXIS
  6
Continuous
 62
     7
100
AcDbPolyline
 90
        3
 70
     0
 43
0.0
 10
1514.790998391
 20
-936.268047567
 10
1516.3861029359
 20
-938.2674073927999
 10
1518.058420656
 20
-940.1417979689
  0
LWPOLYLINE
  5
29D
330
21E
100
AcDbEntity
  8
DATUM_AXIS
  6
Continuous
 62
     7
100
AcDbPolyline
 90
        3
 70
     0
 43
0.0
 10
1511.8630168139
 20
-931.8783599102999
 10
1513.2791384961
 20
-934.1378434700001
 10
1514.790998391
 20
-936.268047567
  0
LINE
  5
29E
330
21E
100
AcDbEntity
  8
DATUM_AXIS
  6
Continuous
 62
     7
100
AcDbLine
 10
1510.5553579741
 20
-929.4920541174001
 30
0.0
 11
1511.8630168139
 21
-931.8783599102999
 31
0.0
  0
LWPOLYLINE
  5
29F
330
21E
100
AcDbEntity
  8
DATUM_AXIS
  6
Continuous
 62
     7
100
AcDbPolyline
 90
        3
 70
     0
 43
0.0
 10
1508.3075390779
 20
-924.3266553872999
 10
1509.3656095991
 20
-926.9743320147
 10
1510.5553579741
 20
-929.4920541174001
  0
LINE
  5
2A0
330
21E
100
AcDbEntity
  8
DATUM_AXIS
  6
Continuous
 62
     7
100
AcDbLine
 10
1478.2325445419
 20
-598.5701056601
 30
0.0
 11
1505.7065664434
 21
-912.5984800472
 31
0.0
  0
LWPOLYLINE
  5
2A1
330
21E
100
AcDbEntity
  8
DATUM_AXIS
  6
Continuous
 62
     7
100
AcDbPolyline
 90
       23
 70
     0
 43
0.0
 10
1528.4768655988
 20
-948.3638559060999
 10
1528.6555180228
 20
-948.5141581671999
 10
1528.8819312104
 20
-948.7169185264999
 10
1529.113255049
 20
-948.9383851484999
 10
1529.3448621738
 20
-949.1759993888999
 10
1529.5782755118
 20
-949.4333252552999
 10
1529.8091871128
 20
-949.7077622505001
 10
1530.0365527355
 20
-950.0000589030001
 10
1530.258650693
 20
-950.3101484888
 10
1530.4710610167
 20
-950.6335527644001
 10
1530.6722530855
 20
-950.9690117096001
 10
1530.8620000009
 20
-951.3173024513001
 10
1531.0385861575
 20
-951.6764486211
 10
1531.2011373735
 20
-952.0456324241999
 10
1531.3491311158
 20
-952.4247264832
 10
1531.4816765036
 20
-952.8125897036
 10
1531.598242504
 20
-953.2088880526
 10
1531.6981501803
 20
-953.6127209261
 10
1531.7805798139
 20
-954.0219639464998
 10
1531.8451859615
 20
-954.4358664185999
 10
1531.8916546971
 20
-954.8536555594999
 10
1531.9196397964
 20
-955.2730736227001
 10
1531.9287272448
 20
-955.6141169623
  0
LWPOLYLINE
  5
2A2
330
21E
100
AcDbEntity
  8
DATUM_AXIS
  6
Continuous
 62
     7
100
AcDbPolyline
 90
       12
 70
     0
 43
0.0
 10
1518.058420656
 20
-940.1417979689
 10
1519.7977168659
 20
-941.8909647619999
 10
1521.5935244868
 20
-943.5147765475999
 10
1523.4419926226
 20
-945.0187103294
 10
1525.3408156619
 20
-946.4078011280001
 10
1527.2758741205
 20
-947.6782551113
 10
1529.2258474286
 20
-948.8243381678998
 10
1531.1951581343
 20
-949.8565899352
 10
1533.1640226774
 20
-950.7721778328999
 10
1535.0718474803
 20
-951.5555514372
 10
1536.9131772419
 20
-952.2202027567999
 10
1538.6792361522
 20
-952.7775056866001
  0
LINE
  5
2A3
330
21E
100
AcDbEntity
  8
DATUM_AXIS
  6
Continuous
 62
     7
100
AcDbLine
 10
1507.9095697377
 20
-923.1873792821001
 30
0.0
 11
1508.3075390779
 21
-924.3266553872999
 31
0.0
  0
LINE
  5
2A4
330
21E
100
AcDbEntity
  8
DATUM_AXIS
  6
Continuous
 62
     7
100
AcDbLine
 10
1417.6257665089
 20
-560.7473283352
 30
0.0
 11
1417.7918970224
 21
-561.3044876824
 31
0.0
  0
LINE
  5
2A5
330
21E
100
AcDbEntity
  8
DATUM_AXIS
  6
Continuous
 62
     7
100
AcDbLine
 10
1505.706549613
 20
-912.5982876706
 30
0.0
 11
1505.7080450158
 21
-912.6036161749
 31
0.0
  0
LINE
  5
2A6
330
21E
100
AcDbEntity
  8
DATUM_AXIS
  6
Continuous
 62
     7
100
AcDbLine
 10
1532.0985106515
 20
-975.069370489
 30
0.0
 11
1531.928727235
 21
-955.6141158358999
 31
0.0
  0
LWPOLYLINE
  5
2A9
330
21E
100
AcDbEntity
  8
0
  6
Continuous
 62
     7
100
AcDbPolyline
 90
        5
 70
     0
 43
0.0
 10
2060.8689004756
 20
-953.8472481952
 10
2062.4165073704
 20
-953.5205630116999
 10
2064.065350906901
 20
-953.1138643383998
 10
2065.8203699303
 20
-952.6113453877
 10
2067.6769181087
 20
-951.9979838507
  0
LWPOLYLINE
  5
2AA
330
21E
100
AcDbEntity
  8
DATUM_AXIS
  6
Continuous
 62
     7
100
AcDbPolyline
 90
       13
 70
     0
 43
0.0
 10
1543.0624039063
 20
-953.8441917017999
 10
1544.2307445035
 20
-954.0576152460999
 10
1545.2453304761
 20
-954.2208230086
 10
1546.127783903
 20
-954.3471415194998
 10
1546.9422301817
 20
-954.4518418128999
 10
1547.6956462651
 20
-954.5395012130999
 10
1548.3876656491
 20
-954.6130875113
 10
1549.0686140636
 20
-954.6798122762
 10
1549.7515011991
 20
-954.7418223864999
 10
1550.4302869301
 20
-954.7992903934
 10
1551.1241356603
 20
-954.8543817630999
 10
1551.8377574876
 20
-954.9077990749999
 10
1553.3274988127
 20
-955.0108845136
  0
LWPOLYLINE
  5
2AB
330
21E
100
AcDbEntity
  8
DATUM_AXIS
  6
Continuous
 62
     7
100
AcDbPolyline
 90
        4
 70
     0
 43
0.0
 10
1538.6792361522
 20
-952.7775056866001
 10
1540.3026047049
 20
-953.2236006925998
 10
1541.7560364269
 20
-953.5714263577999
 10
1543.0624039063
 20
-953.8441917017999
  0
LINE
  5
2AC
330
21E
100
AcDbEntity
  8
DATUM_AXIS
  6
Continuous
 62
     7
100
AcDbLine
 10
1417.8032094407
 20
-561.3424266465
 30
0.0
 11
1418.0654376702
 21
-561.8514808451
 31
0.0
  0
LINE
  5
2AD
330
21E
100
AcDbEntity
  8
DATUM_AXIS
  6
Continuous
 62
     7
100
AcDbLine
 10
1538.4485106516
 20
-975.069370489
 30
0.0
 11
1539.6150331399
 21
-962.9545713663
 31
0.0
  0
LWPOLYLINE
  5
2AE
330
21E
100
AcDbEntity
  8
DATUM_AXIS
  6
Continuous
 62
     7
100
AcDbPolyline
 90
        5
 70
     0
 43
0.0
 10
1539.6151231931
 20
-962.953636611
 10
1539.6829351856
 20
-962.4127380702999
 10
1539.7964448205
 20
-961.8083308341001
 10
1539.9464441641
 20
-961.2203985095
 10
1540.1307903782
 20
-960.6509830603
  0
LINE
  5
2AF
330
21E
100
AcDbEntity
  8
0
  6
Continuous
 62
     7
100
AcDbLine
 10
1890.6085482294
 20
-959.5039235186
 30
0.0
 11
1890.0790073312
 21
-959.5478442251
 31
0.0
  0
LWPOLYLINE
  5
2B0
330
21E
100
AcDbEntity
  8
0
  6
Continuous
 62
     7
100
AcDbPolyline
 90
       10
 70
     0
 43
0.0
 10
2052.0275591964
 20
-954.9137297274
 10
2052.885343238
 20
-954.8495578868999
 10
2053.7330660677
 20
-954.7813873192
 10
2054.5631345584
 20
-954.7090071202999
 10
2055.3904261784
 20
-954.6301337995
 10
2056.2829417046
 20
-954.5359937811999
 10
2057.2497723943
 20
-954.4214826286999
 10
2058.293562329
 20
-954.2809836152999
 10
2059.4825319936
 20
-954.0969909971
 10
2060.8689004756
 20
-953.8472481952
  0
LINE
  5
2B1
330
21E
100
AcDbEntity
  8
0
  6
Continuous
 62
     7
100
AcDbLine
 10
2050.188949058
 20
-955.0389422192999
 30
0.0
 11
2052.0275591964
 21
-954.9137297274
 31
0.0
  0
LINE
  5
2B2
330
21E
100
AcDbEntity
  8
0
  6
Continuous
 62
     7
100
AcDbLine
 10
2048.1657735761
 20
-955.1628085247999
 30
0.0
 11
2050.188949058
 21
-955.0389422192999
 31
0.0
  0
LINE
  5
2B3
330
21E
100
AcDbEntity
  8
0
  6
Continuous
 62
     7
100
AcDbLine
 10
2044.7065706214
 20
-955.3526805409999
 30
0.0
 11
2048.1657735761
 21
-955.1628085247999
 31
0.0
  0
LINE
  5
2B4
330
21E
100
AcDbEntity
  8
0
  6
Continuous
 62
     7
100
AcDbLine
 10
2040.6723322505
 20
-955.5516127541
 30
0.0
 11
2044.7065706214
 21
-955.3526805409999
 31
0.0
  0
LINE
  5
2B5
330
21E
100
AcDbEntity
  8
0
  6
Continuous
 62
     7
100
AcDbLine
 10
2034.3158410694
 20
-955.8349799771001
 30
0.0
 11
2040.6723322505
 21
-955.5516127541
 31
0.0
  0
LINE
  5
2B6
330
21E
100
AcDbEntity
  8
DATUM_AXIS
  6
Continuous
 62
     7
100
AcDbLine
 10
1532.0985106515
 20
-975.069370489
 30
0.0
 11
1538.4485106506
 21
-975.069370489
 31
0.0
  0
LINE
  5
2B7
330
21E
100
AcDbEntity
  8
0
  6
Continuous
 62
     7
100
AcDbLine
 10
2065.4985106516
 20
-975.069370489
 30
0.0
 11
2071.8485106504
 21
-975.069370489
 31
0.0
  0
LINE
  5
2B8
330
21E
100
AcDbEntity
  8
DATUM_AXIS
  6
Continuous
 62
     7
100
AcDbLine
 10
1762.2860089477
 20
-970.8069190700999
 30
0.0
 11
1841.661016552
 21
-970.8069190700999
 31
0.0
  0
LINE
  5
2B9
330
21E
100
AcDbEntity
  8
DATUM_AXIS
  6
Continuous
 62
     7
100
AcDbLine
 10
1563.923056601
 20
-955.5819518793999
 30
0.0
 11
1570.4768714662
 21
-955.8707002375999
 31
0.0
  0
LINE
  5
2BA
330
21E
100
AcDbEntity
  8
DATUM_AXIS
  6
Continuous
 62
     7
100
AcDbLine
 10
1559.5039183572
 20
-955.3662987348999
 30
0.0
 11
1563.923056601
 21
-955.5819518793999
 31
0.0
  0
LINE
  5
2BB
330
21E
100
AcDbEntity
  8
DATUM_AXIS
  6
Continuous
 62
     7
100
AcDbLine
 10
1556.6360693154
 20
-955.2119131265
 30
0.0
 11
1559.5039183572
 21
-955.3662987348999
 31
0.0
  0
LINE
  5
2BC
330
21E
100
AcDbEntity
  8
DATUM_AXIS
  6
Continuous
 62
     7
100
AcDbLine
 10
1554.9153971608
 20
-955.1112494119001
 30
0.0
 11
1556.6360693154
 21
-955.2119131265
 31
0.0
  0
LINE
  5
2BD
330
21E
100
AcDbEntity
  8
DATUM_AXIS
  6
Continuous
 62
     7
100
AcDbLine
 10
1553.3274988127
 20
-955.0108845136
 30
0.0
 11
1554.9153971608
 21
-955.1112494119001
 31
0.0
  0
LINE
  5
2BE
330
21E
100
AcDbEntity
  8
DATUM_AXIS
  6
Continuous
 62
     7
100
AcDbLine
 10
1713.3384800426
 20
-959.5039235186
 30
0.0
 11
1713.8680209278
 21
-959.5478442251
 31
0.0
  0
LINE
  5
2BF
330
21E
100
AcDbEntity
  8
0
  6
Continuous
 62
     7
100
AcDbLine
 10
2022.5454830045
 20
-956.3042424114
 30
0.0
 11
2034.3158410694
 21
-955.8349799771001
 31
0.0
  0
LINE
  5
2C0
330
21E
100
AcDbEntity
  8
DATUM_AXIS
  6
Continuous
 62
     7
100
AcDbLine
 10
2010.0938267289
 20
-956.7557732960999
 30
0.0
 11
2010.0533369427
 21
-956.7571878525999
 31
0.0
  0
LINE
  5
2C1
330
21E
100
AcDbEntity
  8
0
  6
Continuous
 62
     7
100
AcDbLine
 10
1866.5265663189
 20
-961.7693516634
 30
0.0
 11
2022.5454830045
 21
-956.3042424114
 31
0.0
  0
LINE
  5
2C2
330
21E
100
AcDbEntity
  8
DATUM_AXIS
  6
Continuous
 62
     7
100
AcDbLine
 10
1737.4204591342
 20
-961.7693516594
 30
0.0
 11
1866.5265663655
 21
-961.7693516594
 31
0.0
  0
LINE
  5
2C3
330
21E
100
AcDbEntity
  8
DATUM_AXIS
  6
Continuous
 62
     7
100
AcDbLine
 10
1713.3382291322
 20
-959.5039235297001
 30
0.0
 11
1700.1010602465
 21
-959.5039231699001
 31
0.0
  0
LINE
  5
2C4
330
21E
100
AcDbEntity
  8
0
  6
Continuous
 62
     7
100
AcDbLine
 10
1890.6087991398
 20
-959.5039235297001
 30
0.0
 11
1903.8459678019
 21
-959.5039231699001
 31
0.0
  0
LINE
  5
2C5
330
21E
100
AcDbEntity
  8
DATUM_AXIS
  6
Continuous
 62
     7
100
AcDbLine
 10
1574.9757112109
 20
-956.0548483228998
 30
0.0
 11
1737.4204591808
 21
-961.7693516634
 31
0.0
  0
LINE
  5
2C6
330
21E
100
AcDbEntity
  8
DATUM_AXIS
  6
Continuous
 62
     7
100
AcDbLine
 10
1570.4768714662
 20
-955.8707002375999
 30
0.0
 11
1574.9757112109
 21
-956.0548483228998
 31
0.0
  0
LWPOLYLINE
  5
2C7
330
21E
100
AcDbEntity
  8
DATUM_AXIS
  6
Continuous
 62
     7
100
AcDbPolyline
 90
        4
 70
     0
 43
0.0
 10
1540.1307903782
 20
-960.6509830603
 10
1540.3472763802
 20
-960.1018555636001
 10
1540.5936428058
 20
-959.5745671372998
 10
1540.8675743065
 20
-959.0704912300999
  0
LWPOLYLINE
  5
2C8
330
21E
100
AcDbEntity
  8
0
  6
Continuous
 62
     7
100
AcDbPolyline
 90
        3
 70
     0
 43
0.0
 10
2056.5580044906
 20
-954.5034154228998
 10
2056.6572690451
 20
-954.5200300805001
 10
2057.0929026628
 20
-954.6139579311999
  0
LWPOLYLINE
  5
2C9
330
21E
100
AcDbEntity
  8
0
  6
Continuous
 62
     7
100
AcDbPolyline
 90
       10
 70
     0
 43
0.0
 10
2057.0929026628
 20
-954.6139579311999
 10
2057.5349394066
 20
-954.731705434
 10
2057.9908526125
 20
-954.8776676033998
 10
2058.4475577563
 20
-955.0500143939
 10
2058.9001201275
 20
-955.2481037510998
 10
2059.3498948882
 20
-955.4737893486
 10
2059.7940477874
 20
-955.7271683330998
 10
2060.230612646
 20
-956.0086092274
 10
2060.6575664009
 20
-956.3183698735999
 10
2061.0720816382
 20
-956.6559471755999
  0
LWPOLYLINE
  5
2CB
330
21E
100
AcDbEntity
  8
DATUM_AXIS
  6
Continuous
 62
     7
100
AcDbPolyline
 90
        6
 70
     0
 43
0.0
 10
1540.8675743065
 20
-959.0704912300999
 10
1541.1667577526
 20
-958.590744404
 10
1541.4888829133
 20
-958.1362384428999
 10
1541.8316260131
 20
-957.7077263975999
 10
1542.1927468923
 20
-957.3057043208999
 10
1542.569996595
 20
-956.9305538746
  0
LINE
  5
2CD
330
21E
100
AcDbEntity
  8
DATUM_AXIS
  6
Continuous
 62
     7
100
AcDbLine
 10
1454.3205654686
 20
-578.7866559678
 30
0.0
 11
1455.2582073112
 21
-579.528001773
 31
0.0
  0
LINE
  5
2CE
330
21E
100
AcDbEntity
  8
DATUM_AXIS
  6
Continuous
 62
     7
100
AcDbLine
 10
1455.1720695059
 20
-579.5214272896999
 30
0.0
 11
1511.5638055559
 21
-626.1027765935
 31
0.0
  0
LINE
  5
2D1
330
21E
100
AcDbEntity
  8
SURFACE
  6
Continuous
 62
     7
100
AcDbLine
 10
2154.3598698449
 20
-576.0209024591
 30
0.0
 11
2154.4509778049
 21
-575.9839832739999
 31
0.0
  0
LWPOLYLINE
  5
2D2
330
21E
100
AcDbEntity
  8
DATUM_AXIS
  6
Continuous
 62
     7
100
AcDbPolyline
 90
        3
 70
     0
 43
0.0
 10
1452.1032280839
 20
-577.2882565105999
 10
1453.2211698943
 20
-577.9999455755
 10
1454.3205654686
 20
-578.7866559678
  0
LWPOLYLINE
  5
2D7
330
21E
100
AcDbEntity
  8
DATUM_AXIS
  6
Continuous
 62
     7
100
AcDbPolyline
 90
        3
 70
     0
 43
0.0
 10
1542.569996595
 20
-956.9305538746
 10
1542.9610738582
 20
-956.5825691535001
 10
1543.3639886589
 20
-956.2616568136999
  0
LINE
  5
2D8
330
21E
100
AcDbEntity
  8
SURFACE
  6
Continuous
 62
     7
100
AcDbLine
 10
2152.9812167445
 20
-576.6525974229
 30
0.0
 11
2154.1377917198
 21
-576.0949739536
 31
0.0
  0
LINE
  5
2D9
330
21E
100
AcDbEntity
  8
SURFACE
  6
Continuous
 62
     7
100
AcDbLine
 10
2154.1377917198
 20
-576.0949739536
 30
0.0
 11
2154.3493295167
 21
-576.0024725541
 31
0.0
  0
LINE
  5
2DA
330
21E
100
AcDbEntity
  8
SURFACE
  6
Continuous
 62
     7
100
AcDbLine
 10
2154.4512648949
 20
-575.983859708
 30
0.0
 11
2184.5124097382
 21
-563.0428547998999
 31
0.0
  0
LINE
  5
2DB
330
21E
100
AcDbEntity
  8
DATUM_AXIS
  6
Continuous
 62
     7
100
AcDbLine
 10
1450.9658129864
 20
-576.6525973970999
 30
0.0
 11
1452.103203936
 21
-577.2882565419
 31
0.0
  0
LWPOLYLINE
  5
2DC
330
21E
100
AcDbEntity
  8
DATUM_AXIS
  6
Continuous
 62
     7
100
AcDbPolyline
 90
       11
 70
     0
 43
0.0
 10
1543.3639886589
 20
-956.2616568136999
 10
1543.7765667077
 20
-955.9677962247999
 10
1544.1962500073
 20
-955.7010705039001
 10
1544.6212170222
 20
-955.4609365636
 10
1545.0495097745
 20
-955.2468806929999
 10
1545.4783380558
 20
-955.0586431784999
 10
1545.9090222722
 20
-954.8942256457999
 10
1546.3369665546
 20
-954.7540144592
 10
1546.7499014206
 20
-954.6396579043999
 10
1547.1495004232
 20
-954.5479101072
 10
1547.3881032935
 20
-954.5037188173999
  0
LWPOLYLINE
  5
2DD
330
21E
100
AcDbEntity
  8
0
  6
Continuous
 62
     7
100
AcDbPolyline
 90
        8
 70
     0
 43
0.0
 10
2184.5120856234
 20
-563.0425931642999
 10
2184.9222731084
 20
-562.8260114471999
 10
2185.326041082
 20
-562.5193986104
 10
2185.6776664196
 20
-562.1449079146999
 10
2185.9707846039
 20
-561.7055430591999
 10
2186.1917005619
 20
-561.2151899302999
 10
2186.3303863009
 20
-560.6973836675
 10
2186.3864126333
 20
-560.1201309998
  0
LINE
  5
2DE
330
21E
100
AcDbEntity
  8
DATUM_AXIS
  6
Continuous
 62
     7
100
AcDbLine
 10
1449.5871599696
 20
-576.0209024333
 30
0.0
 11
1449.4960520068
 21
-575.9839832445
 31
0.0
  0
LINE
  5
2E0
330
21E
100
AcDbEntity
  8
DATUM_AXIS
  6
Continuous
 62
     7
100
AcDbLine
 10
1419.4346220181
 20
-563.0428547701
 30
0.0
 11
1449.4957649168
 21
-575.9838596784
 31
0.0
  0
LWPOLYLINE
  5
2E1
330
21E
100
AcDbEntity
  8
DATUM_AXIS
  6
Continuous
 62
     7
100
AcDbPolyline
 90
        3
 70
     0
 43
0.0
 10
1449.5977002994
 20
-576.0024725255999
 10
1449.8092380991
 20
-576.0949739323
 10
1450.9658129864
 20
-576.6525973970999
  0
LINE
  5
2E2
330
21E
100
AcDbEntity
  8
0
  6
Continuous
 62
     7
100
AcDbLine
 10
2061.0720816382
 20
-956.6559471755999
 30
0.0
 11
2061.4717918905
 21
-957.0209030446001
 31
0.0
  0
LWPOLYLINE
  5
2E3
330
21E
100
AcDbEntity
  8
SURFACE
  6
Continuous
 62
     7
100
AcDbPolyline
 90
        3
 70
     0
 43
0.0
 10
2150.7258596619
 20
-577.9999456135
 10
2151.8438015595
 20
-577.2882565419
 10
2152.9812167445
 20
-576.6525974229
  0
LWPOLYLINE
  5
2E4
330
21E
100
AcDbEntity
  8
0
  6
Continuous
 62
     7
100
AcDbPolyline
 90
        8
 70
     0
 43
0.0
 10
2061.4717918905
 20
-957.0209030446001
 10
2061.854914749201
 20
-957.4131928967
 10
2062.219493635
 20
-957.8325957019
 10
2062.5632700388
 20
-958.2784668724999
 10
2062.8840536206
 20
-958.7500916766
 10
2063.1798482271
 20
-959.2469670044
 10
2063.4483332361
 20
-959.7679963134
 10
2063.6871962008
 20
-960.3118627805001
  0
LINE
  5
2E7
330
21E
100
AcDbEntity
  8
SURFACE
  6
Continuous
 62
     7
100
AcDbLine
 10
2092.3832201313
 20
-626.1027766439999
 30
0.0
 11
2148.7749598748
 21
-579.5214273551001
 31
0.0
  0
LWPOLYLINE
  5
2E8
330
21E
100
AcDbEntity
  8
SURFACE
  6
Continuous
 62
     7
100
AcDbPolyline
 90
        3
 70
     0
 43
0.0
 10
2148.6888220638
 20
-579.5280018444999
 10
2149.6264640011
 20
-578.7866560141
 10
2150.7258596619
 20
-577.9999456135
  0
LWPOLYLINE
  5
2ED
330
21E
100
AcDbEntity
  8
0
  6
Continuous
 62
     7
100
AcDbPolyline
 90
        6
 70
     0
 43
0.0
 10
2063.6871962008
 20
-960.3118627805001
 10
2063.8943153251
 20
-960.8775098507001
 10
2064.0673719426
 20
-961.4632161556
 10
2064.2041125456
 20
-962.0670269179999
 10
2064.302431603
 20
-962.687242736
 10
2064.3318306892
 20
-962.9529371693999
  0
LINE
  5
2EF
330
21E
100
AcDbEntity
  8
0
  6
Continuous
 62
     7
100
AcDbLine
 10
2201.9949567748
 20
-558.2809976571
 30
0.0
 11
2192.000708017801
 21
-558.2900187098999
 31
0.0
  0
LINE
  5
2F0
330
21E
100
AcDbEntity
  8
DATUM_AXIS
  6
Continuous
 62
     7
100
AcDbLine
 10
1801.9735167213
 20
-558.6420667651
 30
0.0
 11
2192.000708017801
 21
-558.2900187098999
 31
0.0
  0
LINE
  5
2F2
330
21E
100
AcDbEntity
  8
0
  6
Continuous
 62
     7
100
AcDbLine
 10
2192.9816536735
 20
-543.2891332852
 30
0.0
 11
2191.9816520607
 21
-543.2900359111
 31
0.0
  0
LINE
  5
2F3
330
21E
100
AcDbEntity
  8
DATUM_AXIS
  6
Continuous
 62
     7
100
AcDbLine
 10
2191.9816520607
 20
-543.2900359111
 30
0.0
 11
1801.9735165563
 21
-543.6420667651
 31
0.0
  0
LINE
  5
2F4
330
21E
100
AcDbEntity
  8
DATUM_AXIS
  6
Continuous
 62
     7
100
AcDbLine
 10
1401.9520763007
 20
-558.2809976571
 30
0.0
 11
1801.9735167213
 21
-558.6420667651
 31
0.0
  0
LINE
  5
2F5
330
21E
100
AcDbEntity
  8
DATUM_AXIS
  6
Continuous
 62
     7
100
AcDbLine
 10
1410.9653794022
 20
-543.2891332852
 30
0.0
 11
1801.9735165587
 21
-543.6420667651
 31
0.0
  0
LINE
  5
2F7
330
21E
100
AcDbEntity
  8
0
  6
Continuous
 62
     7
100
AcDbLine
 10
2065.4985106516
 20
-975.069370489
 30
0.0
 11
2064.3319881866
 21
-962.9545713663
 31
0.0
  0
LINE
  5
2F9
330
21E
100
AcDbEntity
  8
0
  6
Continuous
 62
     7
100
AcDbLine
 10
2186.0509411637
 20
-561.5276246315
 30
0.0
 11
2186.1183333109
 21
-561.4037974931
 31
0.0
  0
LINE
  5
2FB
330
21E
100
AcDbEntity
  8
0
  6
Continuous
 62
     7
100
AcDbLine
 10
2071.8485106515
 20
-975.069370489
 30
0.0
 11
2072.0182941054
 21
-955.6141158358999
 31
0.0
  0
LWPOLYLINE
  5
2FC
330
21E
100
AcDbEntity
  8
0
  6
Continuous
 62
     7
100
AcDbPolyline
 90
        8
 70
     0
 43
0.0
 10
2072.0182940741
 20
-955.6141194028999
 10
2072.0307526346
 20
-955.2032239168999
 10
2072.0757297533
 20
-954.6496029225
 10
2072.1515727867
 20
-954.1074118262999
 10
2072.2565157672
 20
-953.5789322402001
 10
2072.3888781968
 20
-953.0652328377
 10
2072.5470061419
 20
-952.5672715967999
 10
2072.7290484704
 20
-952.0864441536
  0
LINE
  5
2FD
330
21E
100
AcDbEntity
  8
0
  6
Continuous
 62
     7
100
AcDbLine
 10
2067.6769181087
 20
-951.9979838507
 30
0.0
 11
2069.559001617
 21
-951.2861219560001
 31
0.0
  0
LINE
  5
2FE
330
21E
100
AcDbEntity
  8
0
  6
Continuous
 62
     7
100
AcDbLine
 10
2125.7144440928
 20
-598.5701381292
 30
0.0
 11
2098.2404553546
 21
-912.5984800472
 31
0.0
  0
LWPOLYLINE
  5
2FF
330
21E
100
AcDbEntity
  8
0
  6
Continuous
 62
     7
100
AcDbPolyline
 90
        3
 70
     0
 43
0.0
 10
2186.1183333109
 20
-561.4037974931
 10
2186.3118039101
 20
-560.7928016233
 10
2186.3857280113
 20
-560.1201367305
  0
LWPOLYLINE
  5
300
330
21E
100
AcDbEntity
  8
0
  6
Continuous
 62
     7
100
AcDbPolyline
 90
        7
 70
     0
 43
0.0
 10
2073.3471124792
 20
-949.5572520253999
 10
2075.2383732606
 20
-948.5328022942999
 10
2077.1014378823
 20
-947.4076599178998
 10
2078.9413215041
 20
-946.1733321278998
 10
2080.7641744408
 20
-944.8173035061
 10
2082.5654505982
 20
-943.3318976415
 10
2084.3299010513
 20
-941.7178841424
  0
LWPOLYLINE
  5
301
330
21E
100
AcDbEntity
  8
0
  6
Continuous
 62
     7
100
AcDbPolyline
 90
        3
 70
     0
 43
0.0
 10
2069.559001617
 20
-951.2861219560001
 10
2071.4452201315
 20
-950.4767116077999
 10
2073.3471124792
 20
-949.5572520253999
  0
LINE
  5
302
330
21E
100
AcDbEntity
  8
0
  6
Continuous
 62
     7
100
AcDbLine
 10
2098.2404721847
 20
-912.5982876706
 30
0.0
 11
2098.2389768023
 21
-912.6036161749
 31
0.0
  0
LWPOLYLINE
  5
303
330
21E
100
AcDbEntity
  8
0
  6
Continuous
 62
     7
100
AcDbPolyline
 90
        3
 70
     0
 43
0.0
 10
2094.6480137634
 20
-926.820825485
 10
2095.6822500855
 20
-924.2086962395999
 10
2096.0372128743
 20
-923.1880940058999
  0
LWPOLYLINE
  5
304
330
21E
100
AcDbEntity
  8
0
  6
Continuous
 62
     7
100
AcDbPolyline
 90
       12
 70
     0
 43
0.0
 10
2072.7290484704
 20
-952.0864441536
 10
2072.9329614648
 20
-951.6242131637
 10
2073.157494942
 20
-951.1801586719
 10
2073.4002807442
 20
-950.7561002761001
 10
2073.6569158645
 20
-950.3562696534
 10
2073.9254750371
 20
-949.9800261860999
 10
2074.2033098244
 20
-949.6277854197998
 10
2074.4836420786
 20
-949.3042882999001
 10
2074.7677271976
 20
-949.0044487532999
 10
2075.0491647889
 20
-948.7316874944999
 10
2075.3066267068
 20
-948.501082043
 10
2075.4998577285
 20
-948.3396279822001
  0
LWPOLYLINE
  5
305
330
21E
100
AcDbEntity
  8
0
  6
Continuous
 62
     7
100
AcDbPolyline
 90
        3
 70
     0
 43
0.0
 10
2092.1858197094
 20
-931.7040620807999
 10
2093.4783441649
 20
-929.3212579375
 10
2094.6480137634
 20
-926.820825485
  0
LINE
  5
306
330
21E
100
AcDbEntity
  8
0
  6
Continuous
 62
     7
100
AcDbLine
 10
2090.7839225007
 20
-933.9632383706
 30
0.0
 11
2092.1858197094
 21
-931.7040620807999
 31
0.0
  0
LWPOLYLINE
  5
307
330
21E
100
AcDbEntity
  8
0
  6
Continuous
 62
     7
100
AcDbPolyline
 90
        3
 70
     0
 43
0.0
 10
2087.7009226458
 20
-938.1007936987
 10
2089.2849262004
 20
-936.0960963610001
 10
2090.7839225007
 20
-933.9632383706
  0
LWPOLYLINE
  5
308
330
21E
100
AcDbEntity
  8
0
  6
Continuous
 62
     7
100
AcDbPolyline
 90
        3
 70
     0
 43
0.0
 10
2084.3299010513
 20
-941.7178841424
 10
2086.0453676961
 20
-939.9746252289999
 10
2087.7009226458
 20
-938.1007936987
  0
LINE
  5
30B
330
21E
100
AcDbEntity
  8
0
  6
Continuous
 62
     7
100
AcDbLine
 10
2191.9828448878
 20
-543.3669733422
 30
0.0
 11
2191.9816520607
 21
-543.2900359111
 31
0.0
  0
LINE
  5
30C
330
21E
100
AcDbEntity
  8
0
  6
Continuous
 62
     7
100
AcDbLine
 10
2201.9897497468
 20
-552.2728231289
 30
0.0
 11
2202.0005964391
 21
-558.2809925664999
 31
0.0
  0
LINE
  5
30F
330
21E
100
AcDbEntity
  8
0
  6
Continuous
 62
     7
100
AcDbLine
 10
2186.4076578302
 20
-558.2950671333999
 30
0.0
 11
2186.3864252448
 21
-560.1201224610999
 31
0.0
  0
ARC
  5
391
330
21E
100
AcDbEntity
  8
0
  6
Continuous
 62
     7
100
AcDbCircle
 10
-19993.585127753
 20
-657.9299237855
 30
0.0
 40
22083.1846294068
100
AcDbArc
 50
0.0923271196
 51
0.2231286919
  0
ARC
  5
392
330
21E
100
AcDbEntity
  8
DATUM_AXIS
  6
Continuous
 62
     7
100
AcDbCircle
 10
1318.9685417428
 20
-4826.6297905427
 30
0.0
 40
4264.828893470101
100
AcDbArc
 50
87.4147697124
 51
87.86400084669999
  0
ARC
  5
393
330
21E
100
AcDbEntity
  8
DATUM_AXIS
  6
Continuous
 62
     7
100
AcDbCircle
 10
-571.9428732887
 20
-687.1945500708
 30
0.0
 40
2302.1839304857
100
AcDbArc
 50
353.6039987087
 51
354.2345765451
  0
ARC
  5
394
330
21E
100
AcDbEntity
  8
DATUM_AXIS
  6
Continuous
 62
     7
100
AcDbCircle
 10
-417.6779284001999
 20
-938.8939676727
 30
0.0
 40
2117.763038669201
100
AcDbArc
 50
359.9537081075
 51
0.5619735175000001
  0
ARC
  5
395
330
21E
100
AcDbEntity
  8
DATUM_AXIS
  6
Continuous
 62
     7
100
AcDbCircle
 10
1801.7952618522
 20
-1953.0855000912
 30
0.0
 40
1366.1482795965
100
AcDbArc
 50
89.99252410489999
 51
90.61032901709998
  0
ARC
  5
397
330
21E
100
AcDbEntity
  8
DATUM_AXIS
  6
Continuous
 62
     7
100
AcDbCircle
 10
917.1147757933001
 20
-854.3797716783998
 30
0.0
 40
803.7700233222999
100
AcDbArc
 50
352.9866841325
 51
353.6228332232
  0
ARC
  5
398
330
21E
100
AcDbEntity
  8
DATUM_AXIS
  6
Continuous
 62
     7
100
AcDbCircle
 10
1652.4615147748
 20
-201.7327966633
 30
0.0
 40
398.3980993229
100
AcDbArc
 50
282.3584782613
 51
282.8310750516
  0
ARC
  5
399
330
21E
100
AcDbEntity
  8
DATUM_AXIS
  6
Continuous
 62
     7
100
AcDbCircle
 10
1801.7907525045
 20
-892.9150530346001
 30
0.0
 40
317.4878919773
100
AcDbArc
 50
89.9670175179
 51
92.764643626
  0
ARC
  5
39F
330
21E
100
AcDbEntity
  8
DATUM_AXIS
  6
Continuous
 62
     7
100
AcDbCircle
 10
1733.0989154666
 20
-1012.3852015518
 30
0.0
 40
50.8
100
AcDbArc
 50
54.9319395947
 51
85.11996690969999
  0
ARC
  5
3A0
330
21E
100
AcDbEntity
  8
DATUM_AXIS
  6
Continuous
 62
     7
100
AcDbCircle
 10
1551.7061364503
 20
-908.5411214528999
 30
0.0
 40
46.17877697429999
100
AcDbArc
 50
190.5640512352
 51
201.0898712468
  0
ARC
  5
3A3
330
21E
100
AcDbEntity
  8
DATUM_AXIS
  6
Continuous
 62
     7
100
AcDbCircle
 10
1551.3435032544
 20
-908.5981066172999
 30
0.0
 40
45.81193060899999
100
AcDbArc
 50
185.0093007172
 51
191.7101238789
  0
ARC
  5
3A6
330
21E
100
AcDbEntity
  8
DATUM_AXIS
  6
Continuous
 62
     7
100
AcDbCircle
 10
1801.9551956277
 20
-626.0435796583
 30
0.0
 40
31.89437714
100
AcDbArc
 50
270.0329100817
 51
282.0645270427
  0
ARC
  5
3A7
330
21E
100
AcDbEntity
  8
DATUM_AXIS
  6
Continuous
 62
     7
100
AcDbCircle
 10
1801.9478832092
 20
-626.2217996074999
 30
0.0
 40
31.7243692388
100
AcDbArc
 50
89.95734181080001
 51
257.9571254186
  0
ARC
  5
3A8
330
21E
100
AcDbEntity
  8
DATUM_AXIS
  6
Continuous
 62
     7
100
AcDbCircle
 10
1511.3174908741
 20
-942.6703946677999
 30
0.0
 40
30.0584770811
100
AcDbArc
 50
82.46297241790001
 51
83.199459903
  0
ARC
  5
3AB
330
21E
100
AcDbEntity
  8
DATUM_AXIS
  6
Continuous
 62
     7
100
AcDbCircle
 10
1410.8800058886
 20
-552.2899502133999
 30
0.0
 40
8.9227668696
100
AcDbArc
 50
89.94868378760001
 51
179.8805089961
  0
ARC
  5
3AC
330
21E
100
AcDbEntity
  8
DATUM_AXIS
  6
Continuous
 62
     7
100
AcDbCircle
 10
1693.4289680439
 20
-958.4950903296
 30
0.0
 40
6.3481262232
100
AcDbArc
 50
351.0948251793
 51
353.0628091156
  0
ARC
  5
3B1
330
21E
100
AcDbEntity
  8
DATUM_AXIS
  6
Continuous
 62
     7
100
AcDbCircle
 10
1531.2268086811
 20
9247.924053192701
 30
0.0
 40
9814.086552753801
100
AcDbArc
 50
269.8838722787
 51
270.2143863914
  0
ARC
  5
3B3
330
21E
100
AcDbEntity
  8
DATUM_AXIS
  6
Continuous
 62
     7
100
AcDbCircle
 10
23597.5334954053
 20
-657.9300594254
 30
0.0
 40
22083.1859713398
100
AcDbArc
 50
179.7768709697
 51
179.9076725341
  0
ARC
  5
3B5
330
21E
100
AcDbEntity
  8
0
  6
Continuous
 62
     7
100
AcDbCircle
 10
2284.9784951405
 20
-4826.6303106258
 30
0.0
 40
4264.8294134988
100
AcDbArc
 50
92.13599900540001
 51
92.5852301123
  0
ARC
  5
3B7
330
21E
100
AcDbEntity
  8
0
  6
Continuous
 62
     7
100
AcDbCircle
 10
4175.895879699299
 20
-687.1939505894
 30
0.0
 40
2302.1899371415
100
AcDbArc
 50
185.7654233568
 51
186.3959995469
  0
ARC
  5
3B8
330
21E
100
AcDbEntity
  8
0
  6
Continuous
 62
     7
100
AcDbCircle
 10
4021.629795029099
 20
-938.8940188389
 30
0.0
 40
2117.7678759968
100
AcDbArc
 50
179.4380263818
 51
180.0462904024
  0
ARC
  5
3B9
330
21E
100
AcDbEntity
  8
DATUM_AXIS
  6
Continuous
 62
     7
100
AcDbCircle
 10
1802.1517696423
 20
-1953.0854993641
 30
0.0
 40
1366.1482788667
100
AcDbArc
 50
89.3896710031
 51
90.0074759155
  0
ARC
  5
3BB
330
21E
100
AcDbEntity
  8
0
  6
Continuous
 62
     7
100
AcDbCircle
 10
2030.1075674857
 20
463.8674126358
 30
0.0
 40
1029.9780267487
100
AcDbArc
 50
270.3277024587
 51
270.7679465653
  0
ARC
  5
3BC
330
21E
100
AcDbEntity
  8
0
  6
Continuous
 62
     7
100
AcDbCircle
 10
2686.8340779168
 20
-854.3795917488001
 30
0.0
 40
803.7718563986999
100
AcDbArc
 50
186.3771650786
 51
187.0133127154
  0
ARC
  5
3BD
330
21E
100
AcDbEntity
  8
0
  6
Continuous
 62
     7
100
AcDbCircle
 10
1951.4855298689
 20
-201.7327381348
 30
0.0
 40
398.3981594274
100
AcDbArc
 50
257.168924899
 51
257.6415216165
  0
ARC
  5
3BE
330
21E
100
AcDbEntity
  8
DATUM_AXIS
  6
Continuous
 62
     7
100
AcDbCircle
 10
1802.156279039
 20
-892.9150521422998
 30
0.0
 40
317.4878911793
100
AcDbArc
 50
87.23535643319999
 51
90.03298254849999
  0
ARC
  5
3C4
330
21E
100
AcDbEntity
  8
AXIS
  6
Continuous
 62
     7
100
AcDbCircle
 10
1870.8481100331
 20
-1012.3852015518
 30
0.0
 40
50.8
100
AcDbArc
 50
94.88003309059999
 51
125.0680604053
  0
ARC
  5
3C5
330
21E
100
AcDbEntity
  8
0
  6
Continuous
 62
     7
100
AcDbCircle
 10
2052.2400405614
 20
-908.5409000625
 30
0.0
 40
46.17964914689999
100
AcDbArc
 50
338.931875156
 51
349.4359489102
  0
ARC
  5
3C6
330
21E
100
AcDbEntity
  8
0
  6
Continuous
 62
     7
100
AcDbCircle
 10
2052.4453237176
 20
-908.5547479467999
 30
0.0
 40
45.993364835
100
AcDbArc
 50
282.9185537393
 51
288.7841668395
  0
ARC
  5
3C8
330
21E
100
AcDbEntity
  8
0
  6
Continuous
 62
     7
100
AcDbCircle
 10
2052.603518538
 20
-908.5981065947999
 30
0.0
 40
45.8119306162
100
AcDbArc
 50
348.2904827615
 51
354.9906992553
  0
ARC
  5
3C9
330
21E
100
AcDbEntity
  8
0
  6
Continuous
 62
     7
100
AcDbCircle
 10
2052.5307089432
 20
-908.8124162229
 30
0.0
 40
45.7380098604
100
AcDbArc
 50
287.9922706643
 51
294.0360891664
  0
ARC
  5
3CB
330
21E
100
AcDbEntity
  8
DATUM_AXIS
  6
Continuous
 62
     7
100
AcDbCircle
 10
1801.9918352019
 20
-626.0435796770999
 30
0.0
 40
31.8943771212
100
AcDbArc
 50
257.9354729537
 51
269.9670899194
  0
ARC
  5
3CC
330
21E
100
AcDbEntity
  8
DATUM_AXIS
  6
Continuous
 62
     7
100
AcDbCircle
 10
1801.9991484687
 20
-626.2217996629
 30
0.0
 40
31.7243684456
100
AcDbArc
 50
282.0428743314
 51
90.04265860049999
  0
ARC
  5
3CD
330
21E
100
AcDbEntity
  8
0
  6
Continuous
 62
     7
100
AcDbCircle
 10
2092.629104523501
 20
-942.6669015046
 30
0.0
 40
30.054958636
100
AcDbArc
 50
96.80051772390001
 51
97.5359371268
  0
ARC
  5
3D0
330
21E
100
AcDbEntity
  8
0
  6
Continuous
 62
     7
100
AcDbCircle
 10
2192.9897139665
 20
-552.2876371236
 30
0.0
 40
9.000047850199999
100
AcDbArc
 50
0.0943083731
 51
90.05131620430001
  0
ARC
  5
3D1
330
21E
100
AcDbEntity
  8
0
  6
Continuous
 62
     7
100
AcDbCircle
 10
1910.518071211
 20
-958.4950905702999
 30
0.0
 40
6.3481372647
100
AcDbArc
 50
186.9371765676
 51
188.9051570069
  0
ARC
  5
3D3
330
21E
100
AcDbEntity
  8
0
  6
Continuous
 62
     7
100
AcDbCircle
 10
2072.7202167201
 20
9247.923354572199
 30
0.0
 40
9814.085854131899
100
AcDbArc
 50
269.7856136122
 51
270.1161277358
  0
LINE
  5
4E5
330
21E
100
AcDbEntity
  8
DATUM_AXIS
  6
Continuous
 62
     7
100
AcDbLine
 10
2013.9638694397
 20
-956.5212680051999
 30
0.0
 11
2013.6301633448
 21
-956.5364696721999
 31
0.0
  0
SPLINE
  5
4E6
330
21E
100
AcDbEntity
  8
DATUM_AXIS
  6
Continuous
 62
     7
100
AcDbSpline
210
0.0
220
0.0
230
1.0
 70
     8
 71
     3
 72
     8
 73
     4
 74
     2
 42
0.0000000001
 43
0.0000000001
 44
0.0000000001
 12
-0.9989570646954428
 22
-0.0456594228507649
 32
0.0
 13
-0.9988885625581875
 23
-0.0471342719307084
 33
0.0
 40
0.0
 40
0.0
 40
0.0
 40
0.0
 40
3.542743291330293
 40
3.542743291330293
 40
3.542743291330293
 40
3.542743291330293
 10
2013.6301633448
 20
-956.5364696721999
 30
0.0
 10
2012.450480531708
 20
-956.5903895435303
 30
0.0
 10
2011.27088297853
 20
-956.6461629211087
 30
0.0
 10
2010.0912810606
 20
-956.701824463
 30
0.0
 11
2013.6301633448
 21
-956.5364696721999
 31
0.0
 11
2010.0912810606
 21
-956.701824463
 31
0.0
  0
SPLINE
  5
503
330
21E
100
AcDbEntity
  8
0
  6
Continuous
 62
     7
100
AcDbSpline
210
0.0
220
0.0
230
1.0
 70
     8
 71
     3
 72
    10
 73
     6
 74
     4
 42
0.0000000001
 43
0.0000000001
 44
0.0000000001
 12
0.0013441041332965
 22
-0.9999990966916316
 32
0.0
 13
0.0159699470519314
 23
-0.9998724722639176
 33
0.0
 40
0.0
 40
0.0
 40
0.0
 40
0.0
 40
5.126353677854846
 40
9.196138632357238
 40
11.40908913686772
 40
11.40908913686772
 40
11.40908913686772
 40
11.40908913686772
 10
1903.8623255132
 20
-940.6050057667
 30
0.0
 10
1903.864622297589
 20
-942.3137887824255
 30
0.0
 10
1903.874239647976
 20
-945.3791643987619
 30
0.0
 10
1903.904555685311
 20
-949.1820919339724
 30
0.0
 10
1903.932122972271
 20
-951.2761642829858
 30
0.0
 10
1903.9439032064
 20
-952.0137203803001
 30
0.0
 11
1903.8623255132
 21
-940.6050057667
 31
0.0
 11
1903.8799493979
 21
-945.7313291499
 31
0.0
 11
1903.9140520109
 21
-949.8009712210999
 31
0.0
 11
1903.9439032064
 21
-952.0137203803001
 31
0.0
  0
SPLINE
  5
504
330
21E
100
AcDbEntity
  8
0
  6
Continuous
 62
     7
100
AcDbSpline
210
0.0
220
0.0
230
1.0
 70
     8
 71
     3
 72
    12
 73
     8
 74
     6
 42
0.0000000001
 43
0.0000000001
 44
0.0000000001
 12
0.0159699470443575
 22
-0.9998724722640385
 32
0.0
 13
0.1215046016871435
 23
-0.9925908682679127
 33
0.0
 40
0.0
 40
0.0
 40
0.0
 40
0.0
 40
0.9786379020573747
 40
3.458923093569207
 40
5.333805434095296
 40
6.654339386242602
 40
7.254826029938533
 40
7.254826029938533
 40
7.254826029938533
 40
7.254826029938533
 10
1903.9439032064
 20
-952.0137203803001
 30
0.0
 10
1903.94911280489
 20
-952.3398914131604
 30
0.0
 10
1903.968956385622
 20
-953.4926985618863
 30
0.0
 10
1904.008562415499
 20
-955.2701868339553
 30
0.0
 10
1904.071650045919
 20
-957.1611886574059
 30
0.0
 10
1904.140515856252
 20
-958.4245882392947
 30
0.0
 10
1904.192086875346
 20
-959.06314554515
 30
0.0
 10
1904.2164075055
 20
-959.2618247315
 30
0.0
 11
1903.9439032064
 21
-952.0137203803001
 31
0.0
 11
1903.9608090863
 21
-952.9922122477001
 31
0.0
 11
1904.0182699433
 21
-955.4718317510001
 31
0.0
 11
1904.0855417689
 21
-957.3455068275
 31
0.0
 11
1904.1614796689
 21
-958.66385555
 31
0.0
 11
1904.2164075055
 21
-959.2618247315
 31
0.0
  0
SPLINE
  5
505
330
21E
100
AcDbEntity
  8
0
  6
Continuous
 62
     7
100
AcDbSpline
210
0.0
220
0.0
230
1.0
 70
     8
 71
     3
 72
    12
 73
     8
 74
     6
 42
0.0000000001
 43
0.0000000001
 44
0.0000000001
 12
0.1231327183190613
 22
-0.9923902124060669
 32
0.0
 13
0.203889179315862
 23
-0.978993974730133
 33
0.0
 40
0.0
 40
0.0
 40
0.0
 40
0.0
 40
1.429554109290444
 40
3.307720144459625
 40
4.890020956446955
 40
6.167133887904678
 40
7.099991961919468
 40
7.099991961919468
 40
7.099991961919468
 40
7.099991961919468
 10
1889.0763750337
 20
-952.5200804385999
 30
0.0
 10
1889.135049994854
 20
-952.9929722739883
 30
0.0
 10
1889.272540309893
 20
-954.0869441800566
 30
0.0
 10
1889.483459862951
 20
-955.7032456619296
 30
0.0
 10
1889.70024358211
 20
-957.2675549476985
 30
0.0
 10
1889.890165049273
 20
-958.5172450526588
 30
0.0
 10
1890.015607103557
 20
-959.2434180198537
 30
0.0
 10
1890.0790069926
 20
-959.5478388310999
 30
0.0
 11
1889.0763750337
 21
-952.5200804385999
 31
0.0
 11
1889.2548607143
 21
-953.9384484491
 31
0.0
 11
1889.4988978594
 21
-955.8006926671
 31
0.0
 11
1889.7179935237
 21
-957.3677513608
 31
0.0
 11
1889.9123362529
 21
-958.6299907767999
 31
0.0
 11
1890.0790069926
 21
-959.5478388310999
 31
0.0
  0
SPLINE
  5
507
330
21E
100
AcDbEntity
  8
0
  6
Continuous
 62
     7
100
AcDbSpline
210
0.0
220
0.0
230
1.0
 70
     8
 71
     3
 72
    10
 73
     6
 74
     4
 42
0.0000000001
 43
0.0000000001
 44
0.0000000001
 12
-0.3390218269414307
 22
-0.9407785078631924
 32
0.0
 13
-0.9993210511948104
 23
-0.0368434069936411
 33
0.0
 40
0.0
 40
0.0
 40
0.0
 40
0.0
 40
2.956218392469268
 40
6.593457116429096
 40
9.597141926700995
 40
9.597141926700995
 40
9.597141926700995
 40
9.597141926700995
 10
2132.5024488233
 20
-558.3458502615
 30
0.0
 10
2132.168374636549
 20
-559.272899170895
 30
0.0
 10
2131.25877528048
 20
-561.2801169346862
 30
0.0
 10
2129.222289496579
 20
-563.8604632651517
 30
0.0
 10
2127.022133062153
 20
-564.7279375293514
 30
0.0
 10
2126.0215845748
 20
-564.76482619
 30
0.0
 11
2132.5024488233
 21
-558.3458502615
 31
0.0
 11
2131.2543217191
 21
-561.0256647916001
 31
0.0
 11
2128.8505785967
 21
-563.7554128636
 31
0.0
 11
2126.0215845748
 21
-564.76482619
 31
0.0
  0
SPLINE
  5
514
330
21E
100
AcDbEntity
  8
0
  6
Continuous
 62
     7
100
AcDbSpline
210
0.0
220
0.0
230
1.0
 70
     8
 71
     3
 72
    11
 73
     7
 74
     5
 42
0.0000000001
 43
0.0000000001
 44
0.0000000001
 12
-0.9989920126301232
 22
-0.0448882913599521
 32
0.0
 13
0.003869451141996
 23
-0.999992513645907
 33
0.0
 40
0.0
 40
0.0
 40
0.0
 40
0.0
 40
1.367294625977601
 40
3.025335089432338
 40
4.998432497612167
 40
7.149326554336523
 40
7.149326554336523
 40
7.149326554336523
 40
7.149326554336523
 10
2092.6113718121
 20
-566.1416618738
 30
0.0
 10
2092.156066342012
 20
-566.1621203803153
 30
0.0
 10
2091.161095581841
 20
-566.5940428600459
 30
0.0
 10
2090.164154080852
 20
-567.9854679446626
 30
0.0
 10
2089.555151916978
 20
-569.8327970958432
 30
0.0
 10
2089.429324266479
 20
-571.2139659664767
 30
0.0
 10
2089.4320985263
 20
-571.9309252846
 30
0.0
 11
2092.6113718121
 21
-566.1416618738
 31
0.0
 11
2091.3366959157
 21
-566.6363293918
 31
0.0
 11
2090.2982529091
 21
-567.9288982683
 31
0.0
 11
2089.6445056994
 21
-569.7905448426999
 31
0.0
 11
2089.4320985263
 21
-571.9309252846
 31
0.0
  0
SPLINE
  5
515
330
21E
100
AcDbEntity
  8
0
  6
Continuous
 62
     7
100
AcDbSpline
210
0.0
220
0.0
230
1.0
 70
     8
 71
     3
 72
    10
 73
     6
 74
     4
 42
0.0000000001
 43
0.0000000001
 44
0.0000000001
 12
-0.9999995694581917
 22
0.0009279458127808
 32
0.0
 13
-0.9999922650973914
 23
0.003933159720714
 33
0.0
 40
0.0
 40
0.0
 40
0.0
 40
0.0
 40
2.127515464865539
 40
4.076622311081575
 40
5.851147152425254
 40
5.851147152425254
 40
5.851147152425254
 40
5.851147152425254
 10
2035.9984639287
 20
-566.0937110016999
 30
0.0
 10
2035.289292412406
 20
-566.0930529286774
 30
0.0
 10
2033.930432972706
 20
-566.0845198359841
 30
0.0
 10
2031.980120249763
 20
-566.0685025538398
 30
0.0
 10
2030.738927075189
 20
-566.0613458903431
 30
0.0
 10
2030.14742337
 20
-566.0590193937999
 30
0.0
 11
2035.9984639287
 21
-566.0937110016999
 31
0.0
 11
2033.8709732999
 21
-566.0834310400999
 31
0.0
 11
2031.9219209442
 21
-566.0688566548
 31
0.0
 11
2030.14742337
 21
-566.0590193937999
 31
0.0
  0
SPLINE
  5
51B
330
21E
100
AcDbEntity
  8
DATUM_AXIS
  6
Continuous
 62
     7
100
AcDbSpline
210
0.0
220
0.0
230
1.0
 70
     8
 71
     3
 72
    16
 73
    12
 74
    10
 42
0.0000000001
 43
0.0000000001
 44
0.0000000001
 12
-0.9999923132495338
 22
0.0039208980918349
 32
0.0
 13
-0.9999999999939324
 23
-0.0000034835455797
 33
0.0
 40
0.0
 40
0.0
 40
0.0
 40
0.0
 40
19.18481170383492
 40
41.29531156985559
 40
67.01725437892993
 40
95.48713636148185
 40
124.7864938744633
 40
153.7849136220631
 40
181.1859574538186
 40
205.9874755012423
 40
228.1763742757886
 40
228.1763742757886
 40
228.1763742757886
 40
228.1763742757886
 10
2030.147424121
 20
-566.0588667988999
 30
0.0
 10
2023.752536042676
 20
-566.0337929016994
 30
0.0
 10
2009.987571194623
 20
-565.9712186681994
 30
0.0
 10
1987.648821726104
 20
-565.8484712642322
 30
0.0
 10
1962.215179498346
 20
-565.6944462688577
 30
0.0
 10
1934.385313416188
 20
-565.5230093870409
 30
0.0
 10
1905.463217346544
 20
-565.359953285326
 30
0.0
 10
1876.897249489918
 20
-565.226384441619
 30
0.0
 10
1849.830401079388
 20
-565.1350166563823
 30
0.0
 10
1825.033289329456
 20
-565.085580632437
 30
0.0
 10
1809.36981529677
 20
-565.0753512617532
 30
0.0
 10
1801.9735157053
 20
-565.0753770270999
 30
0.0
 11
2030.147424121
 21
-566.0588667988999
 31
0.0
 11
2010.9628053269
 21
-565.9728328715
 31
0.0
 11
1988.85262925
 21
-565.8531742997999
 31
0.0
 11
1963.131145091
 21
-565.6995691839999
 31
0.0
 11
1934.661785181
 21
-565.527155683
 31
0.0
 11
1905.3628813354
 21
-565.3641093098999
 31
0.0
 11
1876.3647700517
 21
-565.2303564177999
 31
0.0
 11
1848.9638794577
 21
-565.1387173135999
 31
0.0
 11
1824.1624098611
 21
-565.0896937927
 31
0.0
 11
1801.9735157053
 21
-565.0753770270999
 31
0.0
  0
LINE
  5
521
330
21E
100
AcDbEntity
  8
DATUM_AXIS
  6
Continuous
 62
     7
100
AcDbLine
 10
1712.2836818253
 20
-959.5452680211
 30
0.0
 11
1713.3381687108
 21
-959.5470518052
 31
0.0
  0
LINE
  5
522
330
21E
100
AcDbEntity
  8
DATUM_AXIS
  6
Continuous
 62
     7
100
AcDbLine
 10
1713.3381687108
 20
-959.5470518052
 30
0.0
 11
1713.8680209278
 21
-959.5478442251
 31
0.0
  0
SPLINE
  5
524
330
21E
100
AcDbEntity
  8
DATUM_AXIS
  6
Continuous
 62
     7
100
AcDbSpline
210
0.0
220
0.0
230
1.0
 70
     8
 71
     3
 72
    12
 73
     8
 74
     6
 42
0.0000000001
 43
0.0000000001
 44
0.0000000001
 12
-0.1231327751219837
 22
-0.992390205358134
 32
0.0
 13
-0.2038894029035545
 23
-0.978993928164844
 33
0.0
 40
0.0
 40
0.0
 40
0.0
 40
0.0
 40
1.429554120277604
 40
3.307720173221704
 40
4.89002100527287
 40
6.167133960332675
 40
7.099992064131216
 40
7.099992064131216
 40
7.099992064131216
 40
7.099992064131216
 10
1714.8706539168
 20
-952.5200804385999
 30
0.0
 10
1714.811978928128
 20
-952.9929722742643
 30
0.0
 10
1714.674488545413
 20
-954.0869441815095
 30
0.0
 10
1714.463568875362
 20
-955.7032456645254
 30
0.0
 10
1714.246785015414
 20
-957.2675549517351
 30
0.0
 10
1714.056863399652
 20
-958.5172450586743
 30
0.0
 10
1713.931421226992
 20
-959.2434180246138
 30
0.0
 10
1713.8680212664
 20
-959.5478388310999
 30
0.0
 11
1714.8706539168
 21
-952.5200804385999
 31
0.0
 11
1714.6921681482
 21
-953.9384484491
 31
0.0
 11
1714.4481308663
 21
-955.8006926671
 31
0.0
 11
1714.2290350571
 21
-957.3677513608
 31
0.0
 11
1714.0346921728
 21
-958.6299907767999
 31
0.0
 11
1713.8680212664
 21
-959.5478388310999
 31
0.0
  0
SPLINE
  5
525
330
21E
100
AcDbEntity
  8
DATUM_AXIS
  6
Continuous
 62
     7
100
AcDbSpline
210
0.0
220
0.0
230
1.0
 70
     8
 71
     3
 72
    12
 73
     8
 74
     6
 42
0.0000000001
 43
0.0000000001
 44
0.0000000001
 12
-0.001598242158309
 22
-0.9999987228101861
 32
0.0
 13
-0.7763507523203837
 23
0.6303011259482046
 33
0.0
 40
0.0
 40
0.0
 40
0.0
 40
0.0
 40
1.578000164035105
 40
3.013680313443735
 40
4.162537305123301
 40
5.007412447414089
 40
5.619116149940398
 40
5.619116149940398
 40
5.619116149940398
 40
5.619116149940398
 10
1514.3761807442
 20
-622.3448253527
 30
0.0
 10
1514.375340068737
 20
-622.8708247355764
 30
0.0
 10
1514.261959140097
 20
-623.8803035922799
 30
0.0
 10
1513.788801042515
 20
-625.1953705518038
 30
0.0
 10
1513.110227826884
 20
-626.1510965483571
 30
0.0
 10
1512.207315685954
 20
-626.4893228443014
 30
0.0
 10
1511.744058123251
 20
-626.244215609683
 30
0.0
 10
1511.5857592467
 20
-626.1156964322
 30
0.0
 11
1514.3761807442
 21
-622.3448253527
 31
0.0
 11
1514.1937688938
 21
-623.9122469407
 31
0.0
 11
1513.6890494296
 21
-625.2562840509999
 31
0.0
 11
1512.9516510983
 21
-626.1372585615999
 31
0.0
 11
1512.1404791984
 21
-626.3735087570999
 31
0.0
 11
1511.5857592467
 21
-626.1156964322
 31
0.0
  0
SPLINE
  5
527
330
21E
100
AcDbEntity
  8
DATUM_AXIS
  6
Continuous
 62
     7
100
AcDbSpline
210
0.0
220
0.0
230
1.0
 70
     8
 71
     3
 72
    10
 73
     6
 74
     4
 42
0.0000000001
 43
0.0000000001
 44
0.0000000001
 12
-0.0013441311990054
 22
-0.999999096655252
 32
0.0
 13
-0.0159700039842609
 23
-0.9998724713545938
 33
0.0
 40
0.0
 40
0.0
 40
0.0
 40
0.0
 40
5.126353678410758
 40
9.196138634338501
 40
11.40908914040296
 40
11.40908914040296
 40
11.40908914040296
 40
11.40908914040296
 10
1700.0847037469
 20
-940.6050057667
 30
0.0
 10
1700.082406916261
 20
-942.3137887825486
 30
0.0
 10
1700.072789470903
 20
-945.3791643992948
 30
0.0
 10
1700.042473277532
 20
-949.1820919345165
 30
0.0
 10
1700.014905882833
 20
-951.2761642831387
 30
0.0
 10
1700.0031256067
 20
-952.0137203803001
 30
0.0
 11
1700.0847037469
 21
-940.6050057667
 31
0.0
 11
1700.0670797005
 21
-945.7313291499
 31
0.0
 11
1700.0329769174
 21
-949.8009712210999
 31
0.0
 11
1700.0031256067
 21
-952.0137203803001
 31
0.0
  0
SPLINE
  5
528
330
21E
100
AcDbEntity
  8
DATUM_AXIS
  6
Continuous
 62
     7
100
AcDbSpline
210
0.0
220
0.0
230
1.0
 70
     8
 71
     3
 72
    12
 73
     8
 74
     6
 42
0.0000000001
 43
0.0000000001
 44
0.0000000001
 12
-0.0159700039852486
 22
-0.9998724713545779
 32
0.0
 13
-0.1215048509914482
 23
-0.9925908377501507
 33
0.0
 40
0.0
 40
0.0
 40
0.0
 40
0.0
 40
0.978637903064507
 40
3.458923098646806
 40
5.333805445573982
 40
6.654339408009006
 40
7.254826062898105
 40
7.254826062898105
 40
7.254826062898105
 40
7.254826062898105
 10
1700.0031256067
 20
-952.0137203803001
 30
0.0
 10
1699.997915989629
 20
-952.3398914131995
 30
0.0
 10
1699.97807234023
 20
-953.4926985624482
 30
0.0
 10
1699.938466187697
 20
-955.2701868356034
 30
0.0
 10
1699.875378385648
 20
-957.1611886608049
 30
0.0
 10
1699.806512411327
 20
-958.424588243001
 30
0.0
 10
1699.754941277708
 20
-959.0631455478552
 30
0.0
 10
1699.7306205972
 20
-959.2618247317998
 30
0.0
 11
1700.0031256067
 21
-952.0137203803001
 31
0.0
 11
1699.9862196685
 21
-952.9922122477001
 31
0.0
 11
1699.9287586358
 21
-955.4718317510001
 31
0.0
 11
1699.8614866318
 21
-957.3455068275
 31
0.0
 11
1699.7855485529
 21
-958.66385555
 31
0.0
 11
1699.7306205972
 21
-959.2618247317998
 31
0.0
  0
SPLINE
  5
52C
330
21E
100
AcDbEntity
  8
0
  6
Continuous
 62
     7
100
AcDbSpline
210
0.0
220
0.0
230
1.0
 70
     8
 71
     3
 72
    22
 73
    18
 74
    16
 42
0.0000000001
 43
0.0000000001
 44
0.0000000001
 12
0.5664892584567653
 22
0.8240691233465213
 32
0.0
 13
-0.9999421220392708
 23
0.010758836907387
 33
0.0
 40
0.0
 40
0.0
 40
0.0
 40
0.0
 40
0.4750282893521418
 40
1.532882496818222
 40
3.030522869860583
 40
4.913365467375398
 40
7.072341443353055
 40
9.486506252340163
 40
12.20371927150496
 40
15.23903674551715
 40
18.58865321910979
 40
22.27275169745347
 40
26.32465135776781
 40
30.77793716390888
 40
35.66503292703706
 40
41.0163665000978
 40
46.8583281296078
 40
46.8583281296078
 40
46.8583281296078
 40
46.8583281296078
 10
1863.0103227933
 20
-590.1825161082
 30
0.0
 10
1863.10002226776
 20
-590.0520307262096
 30
0.0
 10
1862.847624894078
 20
-589.4179383108216
 30
0.0
 10
1861.742844351101
 20
-589.364373822311
 30
0.0
 10
1860.353843242607
 20
-588.9635106333376
 30
0.0
 10
1858.50113443328
 20
-588.7476460976496
 30
0.0
 10
1856.369934241811
 20
-588.4973042600115
 30
0.0
 10
1853.946694993842
 20
-588.2864425228612
 30
0.0
 10
1851.232514659527
 20
-588.0855118948865
 30
0.0
 10
1848.203817592291
 20
-587.9005681886881
 30
0.0
 10
1844.851905437415
 20
-587.7286682810481
 30
0.0
 10
1841.160025987404
 20
-587.57053428636
 30
0.0
 10
1837.099479041321
 20
-587.4259974488705
 30
0.0
 10
1832.637254970189
 20
-587.2957959504811
 30
0.0
 10
1827.741331713164
 20
-587.1812595937707
 30
0.0
 10
1822.382053611736
 20
-587.084412500174
 30
0.0
 10
1818.651256249328
 20
-587.0356536646304
 30
0.0
 10
1816.7040484131
 20
-587.0147027605001
 30
0.0
 11
1863.0103227933
 21
-590.1825161082
 31
0.0
 11
1862.9141641646
 21
-589.7173221768
 31
0.0
 11
1861.9257628037
 21
-589.3403364025
 31
0.0
 11
1860.4601283263
 21
-589.0323716876
 31
0.0
 11
1858.5972994199
 21
-588.7585748423
 31
0.0
 11
1856.451854002
 21
-588.517242657
 31
0.0
 11
1854.0474732331
 21
-588.3001140244
 31
0.0
 11
1851.3377251648
 21
-588.0988380997
 31
0.0
 11
1848.3081858191
 21
-587.911638952
 31
0.0
 11
1844.9630285969
 21
-587.7388567801
 31
0.0
 11
1841.2823564551
 21
-587.5800040724999
 31
0.0
 11
1837.2330565567
 21
-587.4348793327999
 31
0.0
 11
1832.7816913658
 21
-587.3041031559999
 31
0.0
 11
1827.8959509083
 21
-587.1890154505999
 31
0.0
 11
1822.5455035137
 21
-587.091631223
 31
0.0
 11
1816.7040484131
 21
-587.0147027605001
 31
0.0
  0
SPLINE
  5
52F
330
21E
100
AcDbEntity
  8
0
  6
Continuous
 62
     7
100
AcDbSpline
210
0.0
220
0.0
230
1.0
 70
     8
 71
     3
 72
    22
 73
    18
 74
    16
 42
0.0000000001
 43
0.0000000001
 44
0.0000000001
 12
0.2331034048806157
 22
0.9724519538944139
 32
0.0
 13
-0.9988132227397706
 23
0.0487046823230939
 33
0.0
 40
0.0
 40
0.0
 40
0.0
 40
0.0
 40
2.220180381505414
 40
4.297849634340149
 40
6.428966970989032
 40
8.786101232398397
 40
11.32212689636678
 40
14.05789216796579
 40
17.06848941595758
 40
20.38091559222396
 40
23.99781877747411
 40
27.94582458411855
 40
32.26374188513528
 40
36.98964301787224
 40
42.15985287542589
 40
47.80830916077014
 40
53.96465171175297
 40
53.96465171175297
 40
53.96465171175297
 40
53.96465171175297
 10
1866.2173741507
 20
-590.8990654395999
 30
0.0
 10
1866.389884686159
 20
-590.1793925229356
 30
0.0
 10
1866.304263322219
 20
-588.6548820135852
 30
0.0
 10
1865.128203376698
 20
-586.8057212650838
 30
0.0
 10
1863.505317499145
 20
-585.3198982761426
 30
0.0
 10
1861.534814283436
 20
-584.0409641149242
 30
0.0
 10
1859.25843167311
 20
-582.9000914272556
 30
0.0
 10
1856.696571738653
 20
-581.8649063664617
 30
0.0
 10
1853.830286351074
 20
-580.9101004440237
 30
0.0
 10
1850.636489902578
 20
-580.0237905146442
 30
0.0
 10
1847.103784017276
 20
-579.2034711054511
 30
0.0
 10
1843.214702466301
 20
-578.4484206264503
 30
0.0
 10
1838.938705309322
 20
-577.7587691644453
 30
0.0
 10
1834.24101699211
 20
-577.137561810749
 30
0.0
 10
1829.087843854516
 20
-576.5911920133459
 30
0.0
 10
1823.447912674412
 20
-576.1292340440525
 30
0.0
 10
1819.519487536312
 20
-575.8965162963058
 30
0.0
 10
1817.4698087551
 20
-575.7965687268999
 30
0.0
 11
1866.2173741507
 21
-590.8990654395999
 31
0.0
 11
1866.1144687459
 21
-588.6812711741
 31
0.0
 11
1865.0720968836
 21
-586.8840036857
 31
0.0
 11
1863.5274252042
 21
-585.4157903138
 31
0.0
 11
1861.5647176361
 21
-584.1104700739999
 31
0.0
 11
1859.3047025261
 21
-582.9599233036
 31
0.0
 11
1856.7723399603
 21
-581.9247656071
 31
0.0
 11
1853.918763229
 21
-580.9651846422
 31
0.0
 11
1850.7288317178
 21
-580.0727138431999
 31
0.0
 11
1847.2069794333
 21
-579.2489753303
 31
0.0
 11
1843.3322922244
 21
-578.4916452288999
 31
0.0
 11
1839.0701672802
 21
-577.7997631736
 31
0.0
 11
1834.385573392
 21
-577.1762877377999
 31
0.0
 11
1829.2445599581
 21
-576.6276067343
 31
0.0
 11
1823.6152169848
 21
-576.1633265426
 31
0.0
 11
1817.4698087551
 21
-575.7965687268999
 31
0.0
  0
SPLINE
  5
531
330
21E
100
AcDbEntity
  8
DATUM_AXIS
  6
Continuous
 62
     7
100
AcDbSpline
210
0.0
220
0.0
230
1.0
 70
     8
 71
     3
 72
    23
 73
    19
 74
    17
 42
0.0000000001
 43
0.0000000001
 44
0.0000000001
 12
-0.2332144657778307
 22
-0.9724253251288558
 32
0.0
 13
-0.999999996727295
 23
0.0000809037072973
 33
0.0
 40
0.0
 40
0.0
 40
0.0
 40
0.0
 40
10.25985423461406
 40
19.29576882791763
 40
27.86097095548547
 40
36.85259707179812
 40
46.88274938127077
 40
58.07620952450106
 40
70.52785125261729
 40
83.59835093786498
 40
96.36839216029763
 40
107.976552570836
 40
118.1867631633815
 40
127.3365340693155
 40
135.6714293266595
 40
143.206564712008
 40
149.9305636634769
 40
156.2325463473364
 40
156.2325463473364
 40
156.2325463473364
 40
156.2325463473364
 10
1866.2173741507
 20
-590.8990654395999
 30
0.0
 10
1865.419792009272
 20
-594.2247128028896
 30
0.0
 10
1863.895245225726
 20
-600.4734344634978
 30
0.0
 10
1861.61997061168
 20
-609.4774941618311
 30
0.0
 10
1859.377192309454
 20
-618.0534322748631
 30
0.0
 10
1856.969034826037
 20
-626.9283225404115
 30
0.0
 10
1854.222715849216
 20
-636.6186858037149
 30
0.0
 10
1851.006468676615
 20
-647.3736584479247
 30
0.0
 10
1847.276421222972
 20
-659.0309642389181
 30
0.0
 10
1843.075536523391
 20
-671.0858871386258
 30
0.0
 10
1838.570093908774
 20
-682.7306874352275
 30
0.0
 10
1833.94416990545
 20
-693.2964357693519
 30
0.0
 10
1829.288007668489
 20
-702.5166428510016
 30
0.0
 10
1824.547863587169
 20
-710.4499950245999
 30
0.0
 10
1819.585388012438
 20
-717.1756402101493
 30
0.0
 10
1814.269586866068
 20
-722.5631039210114
 30
0.0
 10
1808.444296102641
 20
-726.326563835194
 30
0.0
 10
1804.074176231945
 20
-727.3143069048542
 30
0.0
 10
1801.9735153442
 20
-727.3141369536
 30
0.0
 11
1866.2173741507
 21
-590.8990654395999
 31
0.0
 11
1863.784053617
 21
-600.8661894027
 31
0.0
 11
1861.5691317496
 21
-609.6264333296
 31
0.0
 11
1859.4008071733
 21
-617.9126300456999
 31
0.0
 11
1857.0443958695
 21
-626.5899951978
 31
0.0
 11
1854.3065708985
 21
-636.2392578525
 31
0.0
 11
1851.0943894846
 21
-646.9619179955
 31
0.0
 11
1847.2900070196
 21
-658.8181423433
 31
0.0
 11
1842.9724711536
 21
-671.1549509284999
 31
0.0
 11
1838.3404552012
 21
-683.0553030677999
 31
0.0
 11
1833.6546146736
 21
-693.6756743733
 31
0.0
 11
1829.0165500372
 21
-702.7716491299001
 31
0.0
 11
1824.2782238082
 21
-710.5989457371999
 31
0.0
 11
1819.2650906863
 21
-717.2576975161
 31
0.0
 11
1813.887452126
 21
-722.5358855375999
 31
0.0
 11
1808.1436310083
 21
-726.0316945808999
 31
0.0
 11
1801.9735153442
 21
-727.3141369536
 31
0.0
  0
SPLINE
  5
533
330
21E
100
AcDbEntity
  8
DATUM_AXIS
  6
Continuous
 62
     7
100
AcDbSpline
210
0.0
220
0.0
230
1.0
 70
     8
 71
     3
 72
    10
 73
     6
 74
     4
 42
0.0000000001
 43
0.0000000001
 44
0.0000000001
 12
-0.999852539455235
 22
-0.0171726336046016
 32
0.0
 13
-0.9999999999994088
 23
-0.0000010873912148
 33
0.0
 40
0.0
 40
0.0
 40
0.0
 40
0.0
 40
29.7532496550162
 40
56.85185339559251
 40
83.38047867725761
 40
83.38047867725761
 40
83.38047867725761
 40
83.38047867725761
 10
1885.3491844549
 20
-918.4626470700999
 30
0.0
 10
1875.432897046695
 20
-918.6329609550572
 30
0.0
 10
1856.484419722539
 20
-918.9229750146353
 30
0.0
 10
1828.692188554111
 20
-919.202406615712
 30
0.0
 10
1810.816390083783
 20
-919.2660080091352
 30
0.0
 10
1801.9735149899
 20
-919.2660176247999
 30
0.0
 11
1885.3491844549
 21
-918.4626470700999
 31
0.0
 11
1855.599287066
 21
-918.909268144
 31
0.0
 11
1828.5019829885
 21
-919.1746667504
 31
0.0
 11
1801.9735149899
 21
-919.2660176247999
 31
0.0
  0
SPLINE
  5
534
330
21E
100
AcDbEntity
  8
0
  6
Continuous
 62
     7
100
AcDbSpline
210
0.0
220
0.0
230
1.0
 70
     8
 71
     3
 72
     8
 73
     4
 74
     2
 42
0.0000000001
 43
0.0000000001
 44
0.0000000001
 12
-0.389607952199276
 22
-0.920980805219678
 32
0.0
 13
-0.6754701204361752
 23
-0.7373873584473354
 33
0.0
 40
0.0
 40
0.0
 40
0.0
 40
0.0
 40
0.3448530175390163
 40
0.3448530175390163
 40
0.3448530175390163
 40
0.3448530175390163
 10
2098.2389768023
 20
-912.6036161749
 30
0.0
 10
2098.194190976309
 20
-912.7094838448252
 30
0.0
 10
2098.132355667863
 20
-912.8103475899481
 30
0.0
 10
2098.0547096981
 20
-912.8951110085001
 30
0.0
 11
2098.2389768023
 21
-912.6036161749
 31
0.0
 11
2098.0547096981
 21
-912.8951110085001
 31
0.0
  0
SPLINE
  5
535
330
21E
100
AcDbEntity
  8
0
  6
Continuous
 62
     7
100
AcDbSpline
210
0.0
220
0.0
230
1.0
 70
     8
 71
     3
 72
     9
 73
     5
 74
     3
 42
0.0000000001
 43
0.0000000001
 44
0.0000000001
 12
-0.6754701203862532
 22
-0.7373873584930656
 32
0.0
 13
-0.9929823893699463
 23
-0.1182623118375107
 33
0.0
 40
0.0
 40
0.0
 40
0.0
 40
0.0
 40
3.115759024542322
 40
8.987018951904845
 40
8.987018951904845
 40
8.987018951904845
 40
8.987018951904845
 10
2098.0547096981
 20
-912.8951110085001
 30
0.0
 10
2097.353175656966
 20
-913.6609514474361
 30
0.0
 10
2093.707618157501
 20
-912.4094960135392
 30
0.0
 10
2091.013561058528
 20
-912.591946797497
 30
0.0
 10
2089.0702084881
 20
-912.8233963882999
 30
0.0
 11
2098.0547096981
 21
-912.8951110085001
 31
0.0
 11
2094.9397471262
 21
-912.9655558428
 31
0.0
 11
2089.0702084881
 21
-912.8233963882999
 31
0.0
  0
SPLINE
  5
536
330
21E
100
AcDbEntity
  8
0
  6
Continuous
 62
     7
100
AcDbSpline
210
0.0
220
0.0
230
1.0
 70
     8
 71
     3
 72
     8
 73
     4
 74
     2
 42
0.0000000001
 43
0.0000000001
 44
0.0000000001
 12
-0.9913830804722964
 22
-0.1309946096343665
 32
0.0
 13
-0.989647009773518
 23
-0.1435228067114574
 33
0.0
 40
0.0
 40
0.0
 40
0.0
 40
0.0
 40
3.633560922994718
 40
3.633560922994718
 40
3.633560922994718
 40
3.633560922994718
 10
2088.6874561554
 20
-912.8715336303999
 30
0.0
 10
2087.48670588176
 20
-913.0301925952966
 30
0.0
 10
2086.296057195724
 20
-913.2583528986916
 30
0.0
 10
2085.0974096283
 20
-913.4321858527
 30
0.0
 11
2088.6874561554
 21
-912.8715336303999
 31
0.0
 11
2085.0974096283
 21
-913.4321858527
 31
0.0
  0
SPLINE
  5
537
330
21E
100
AcDbEntity
  8
0
  6
Continuous
 62
     7
100
AcDbSpline
210
0.0
220
0.0
230
1.0
 70
     8
 71
     3
 72
    13
 73
     9
 74
     7
 42
0.0000000001
 43
0.0000000001
 44
0.0000000001
 12
-0.9896470097725023
 22
-0.1435228067184609
 32
0.0
 13
-0.999814031027796
 23
-0.0192847960826443
 33
0.0
 40
0.0
 40
0.0
 40
0.0
 40
0.0
 40
16.87793622470213
 40
41.55810966243282
 40
74.55641435324889
 40
111.2967317209631
 40
147.5472740757771
 40
181.1966733702377
 40
181.1966733702377
 40
181.1966733702377
 40
181.1966733702377
 10
2085.0974096283
 20
-913.4321858527
 30
0.0
 10
2079.529676589664
 20
-914.2396421122283
 30
0.0
 10
2065.594006382188
 20
-913.7202365692145
 30
0.0
 10
2040.805188861152
 20
-915.0262831896187
 30
0.0
 10
2009.322752847691
 20
-915.6469421292499
 30
0.0
 10
1974.010939238243
 20
-916.6090484712892
 30
0.0
 10
1938.471896630063
 20
-917.414317713961
 30
0.0
 10
1915.177374237653
 20
-917.906371475901
 30
0.0
 10
1903.9629937209
 20
-918.1226787438001
 30
0.0
 11
2085.0974096283
 21
-913.4321858527
 31
0.0
 11
2068.2298347941
 21
-914.0234983063001
 31
0.0
 11
2043.560802724
 21
-914.7649951983
 31
0.0
 11
2010.5746768699
 21
-915.6614401800998
 31
0.0
 11
1973.8459761433
 21
-916.5852709092998
 31
0.0
 11
1937.6051457214
 21
-917.4243366690999
 31
0.0
 11
1903.9629937209
 21
-918.1226787438001
 31
0.0
  0
SPLINE
  5
53C
330
21E
100
AcDbEntity
  8
DATUM_AXIS
  6
Continuous
 62
     7
100
AcDbSpline
210
0.0
220
0.0
230
1.0
 70
     8
 71
     3
 72
     8
 73
     4
 74
     2
 42
0.0000000001
 43
0.0000000001
 44
0.0000000001
 12
0.3896109230454651
 22
-0.9209795484394106
 32
0.0
 13
0.675472315459624
 23
-0.7373853477304891
 33
0.0
 40
0.0
 40
0.0
 40
0.0
 40
0.0
 40
0.3448539146247366
 40
0.3448539146247366
 40
0.3448539146247366
 40
0.3448539146247366
 10
1505.7080450158
 20
-912.6036161749
 30
0.0
 10
1505.752831299797
 20
-912.7094839757562
 30
0.0
 10
1505.814667100031
 20
-912.8103477742827
 30
0.0
 10
1505.8923135241
 20
-912.8951111822001
 30
0.0
 11
1505.7080450158
 21
-912.6036161749
 31
0.0
 11
1505.8923135241
 21
-912.8951111822001
 31
0.0
  0
SPLINE
  5
53D
330
21E
100
AcDbEntity
  8
DATUM_AXIS
  6
Continuous
 62
     7
100
AcDbSpline
210
0.0
220
0.0
230
1.0
 70
     8
 71
     3
 72
     9
 73
     5
 74
     3
 42
0.0000000001
 43
0.0000000001
 44
0.0000000001
 12
0.675472315487947
 22
-0.7373853477045441
 32
0.0
 13
0.9929824006238096
 23
-0.1182622173450856
 33
0.0
 40
0.0
 40
0.0
 40
0.0
 40
0.0
 40
3.115758822365713
 40
8.987019386656815
 40
8.987019386656815
 40
8.987019386656815
 40
8.987019386656815
 10
1505.8923135241
 20
-912.8951111822001
 30
0.0
 10
1506.593849799515
 20
-913.6609494830645
 30
0.0
 10
1510.239403036482
 20
-912.4094974623581
 30
0.0
 10
1512.933462390527
 20
-912.5919478196188
 30
0.0
 10
1514.8768151938
 20
-912.8233972506
 30
0.0
 11
1505.8923135241
 21
-912.8951111822001
 31
0.0
 11
1509.0072758977
 21
-912.9655558428
 31
0.0
 11
1514.8768151938
 21
-912.8233972506
 31
0.0
  0
SPLINE
  5
53E
330
21E
100
AcDbEntity
  8
DATUM_AXIS
  6
Continuous
 62
     7
100
AcDbSpline
210
0.0
220
0.0
230
1.0
 70
     8
 71
     3
 72
     8
 73
     4
 74
     2
 42
0.0000000001
 43
0.0000000001
 44
0.0000000001
 12
0.9913806526639341
 22
-0.1310129822713468
 32
0.0
 13
0.9896470431639109
 23
-0.1435225764711903
 33
0.0
 40
0.0
 40
0.0
 40
0.0
 40
0.0
 40
3.632956001215775
 40
3.632956001215775
 40
3.632956001215775
 40
3.632956001215775
 10
1515.2601678116
 20
-912.8716137698999
 30
0.0
 10
1516.460715242128
 20
-913.03026856996
 30
0.0
 10
1517.651166545151
 20
-913.258382117533
 30
0.0
 10
1518.8496146
 20
-913.4321858527
 30
0.0
 11
1515.2601678116
 21
-912.8716137698999
 31
0.0
 11
1518.8496146
 21
-913.4321858527
 31
0.0
  0
SPLINE
  5
53F
330
21E
100
AcDbEntity
  8
DATUM_AXIS
  6
Continuous
 62
     7
100
AcDbSpline
210
0.0
220
0.0
230
1.0
 70
     8
 71
     3
 72
    13
 73
     9
 74
     7
 42
0.0000000001
 43
0.0000000001
 44
0.0000000001
 12
0.9896470431648028
 22
-0.1435225764650387
 32
0.0
 13
0.9998140310316113
 23
-0.0192847958848553
 33
0.0
 40
0.0
 40
0.0
 40
0.0
 40
0.0
 40
16.87793741736979
 40
41.55811201657591
 40
74.55641779678931
 40
111.2967360310297
 40
147.547279004978
 40
181.1966787133492
 40
181.1966787133492
 40
181.1966787133492
 40
181.1966787133492
 10
1518.8496146
 20
-913.4321858527
 30
0.0
 10
1524.41734821994
 20
-914.2396408738855
 30
0.0
 10
1538.353018903266
 20
-913.7202374149987
 30
0.0
 10
1563.141837752497
 20
-915.0262828187429
 30
0.0
 10
1594.624274733344
 20
-915.6469422494529
 30
0.0
 10
1629.936089224733
 20
-916.6090484337413
 30
0.0
 10
1665.475132459818
 20
-917.4143177212755
 30
0.0
 10
1688.76965519796
 20
-917.9063714754587
 30
0.0
 10
1699.9840358527
 20
-918.1226787438001
 30
0.0
 11
1518.8496146
 21
-913.4321858527
 31
0.0
 11
1535.7171906276
 21
-914.0234983063001
 31
0.0
 11
1560.3862238597
 21
-914.7649951983
 31
0.0
 11
1593.3723508036
 21
-915.6614401800998
 31
0.0
 11
1630.101052397
 21
-916.5852709092998
 31
0.0
 11
1666.3418834382
 21
-917.4243366690999
 31
0.0
 11
1699.9840358527
 21
-918.1226787438001
 31
0.0
  0
SPLINE
  5
540
330
21E
100
AcDbEntity
  8
DATUM_AXIS
  6
Continuous
 62
     7
100
AcDbSpline
210
0.0
220
0.0
230
1.0
 70
     8
 71
     3
 72
    10
 73
     6
 74
     4
 42
0.0000000001
 43
0.0000000001
 44
0.0000000001
 12
0.9998525394576713
 22
-0.0171726334627516
 32
0.0
 13
0.9999999999994088
 23
-0.0000010874080022
 33
0.0
 40
0.0
 40
0.0
 40
0.0
 40
0.0
 40
29.75324985339375
 40
56.85185369756639
 40
83.38047891173099
 40
83.38047891173099
 40
83.38047891173099
 40
83.38047891173099
 10
1718.5978452904
 20
-918.4626470700999
 30
0.0
 10
1728.514132764745
 20
-918.6329609547859
 30
0.0
 10
1747.462610189573
 20
-918.9229750140645
 30
0.0
 10
1775.254841436159
 20
-919.2024066153269
 30
0.0
 10
1793.130639918517
 20
-919.2660080088868
 30
0.0
 10
1801.9735149899
 20
-919.2660176247001
 30
0.0
 11
1718.5978452904
 21
-918.4626470700999
 31
0.0
 11
1748.3477428777
 21
-918.909268144
 31
0.0
 11
1775.4450470588
 21
-919.1746667505
 31
0.0
 11
1801.9735149899
 21
-919.2660176247001
 31
0.0
  0
SPLINE
  5
541
330
21E
100
AcDbEntity
  8
0
  6
Continuous
 62
     7
100
AcDbSpline
210
0.0
220
0.0
230
1.0
 70
     8
 71
     3
 72
    12
 73
     8
 74
     6
 42
0.0000000001
 43
0.0000000001
 44
0.0000000001
 12
0.001598236112031
 22
-0.9999987228198497
 32
0.0
 13
0.7763507679740166
 23
0.6303011066674045
 33
0.0
 40
0.0
 40
0.0
 40
0.0
 40
0.0
 40
1.57800016174627
 40
3.013680298041857
 40
4.162537258527187
 40
5.007412353004722
 40
5.619115944873091
 40
5.619115944873091
 40
5.619115944873091
 40
5.619115944873091
 10
2089.5708451903
 20
-622.3448253527
 30
0.0
 10
2089.571685862581
 20
-622.8708247348186
 30
0.0
 10
2089.685066777183
 20
-623.8803035870477
 30
0.0
 10
2090.158224838333
 20
-625.1953705409015
 30
0.0
 10
2090.836797995967
 20
-626.1510965387318
 30
0.0
 10
2091.739710070984
 20
-626.4893228350888
 30
0.0
 10
2092.202967583894
 20
-626.2442156357024
 30
0.0
 10
2092.361266435
 20
-626.1156964853999
 30
0.0
 11
2089.5708451903
 21
-622.3448253527
 31
0.0
 11
2089.7532570209
 21
-623.9122469407
 31
0.0
 11
2090.2579764478
 21
-625.2562840509999
 31
0.0
 11
2090.9953747305
 21
-626.1372585615999
 31
0.0
 11
2091.8065465806
 21
-626.3735087570999
 31
0.0
 11
2092.361266435
 21
-626.1156964853999
 31
0.0
  0
SPLINE
  5
544
330
21E
100
AcDbEntity
  8
DATUM_AXIS
  6
Continuous
 62
     7
100
AcDbSpline
210
0.0
220
0.0
230
1.0
 70
     8
 71
     3
 72
    23
 73
    19
 74
    17
 42
0.0000000001
 43
0.0000000001
 44
0.0000000001
 12
0.2332144640714327
 22
-0.9724253255380972
 32
0.0
 13
0.99999999672729
 23
0.0000809037681528
 33
0.0
 40
0.0
 40
0.0
 40
0.0
 40
0.0
 40
10.25985423022643
 40
19.29576881953442
 40
27.86097094322894
 40
36.85259705532241
 40
46.88274935988171
 40
58.07620949743003
 40
70.52785121882455
 40
83.59835089650777
 40
96.36839211096047
 40
107.9765525135464
 40
118.1867630984152
 40
127.3365339968401
 40
135.6714292467862
 40
143.2065646251406
 40
149.9305635710569
 40
156.2325462534483
 40
156.2325462534483
 40
156.2325462534483
 40
156.2325462534483
 10
1737.7296567988
 20
-590.8990654395999
 30
0.0
 10
1738.527238934051
 20
-594.2247128028671
 30
0.0
 10
1740.051785706011
 20
-600.4734344634252
 30
0.0
 10
1742.327060303245
 20
-609.4774941617933
 30
0.0
 10
1744.569838589687
 20
-618.0534322747886
 30
0.0
 10
1746.977996056635
 20
-626.9283225403131
 30
0.0
 10
1749.724315015288
 20
-636.6186858036337
 30
0.0
 10
1752.940562168113
 20
-647.373658447735
 30
0.0
 10
1756.67060960005
 20
-659.0309642386844
 30
0.0
 10
1760.871494277209
 20
-671.0858871383512
 30
0.0
 10
1765.37693687031
 20
-682.730687434886
 30
0.0
 10
1770.002860854004
 20
-693.2964357690211
 30
0.0
 10
1774.659023073815
 20
-702.516642850708
 30
0.0
 10
1779.399167140429
 20
-710.449995024354
 30
0.0
 10
1784.361642702808
 20
-717.1756402100053
 30
0.0
 10
1789.677443839471
 20
-722.5631039212396
 30
0.0
 10
1795.502734597291
 20
-726.3265638360556
 30
0.0
 10
1799.872854465944
 20
-727.314306904982
 30
0.0
 10
1801.9735153532
 20
-727.3141369536
 30
0.0
 11
1737.7296567988
 21
-590.8990654395999
 31
0.0
 11
1740.162977314
 21
-600.8661894027
 31
0.0
 11
1742.3778991651
 21
-609.6264333296
 31
0.0
 11
1744.5462237261
 21
-617.9126300456999
 31
0.0
 11
1746.9026350138
 21
-626.5899951978
 31
0.0
 11
1749.6404599668
 21
-636.2392578525
 31
0.0
 11
1752.8526413609
 21
-646.9619179955
 31
0.0
 11
1756.6570238039
 21
-658.8181423433
 31
0.0
 11
1760.974559647
 21
-671.1549509284999
 31
0.0
 11
1765.6065755774
 21
-683.0553030677999
 31
0.0
 11
1770.2924160853
 21
-693.6756743733
 31
0.0
 11
1774.9304807048
 21
-702.7716491299001
 31
0.0
 11
1779.6688069193
 21
-710.5989457371999
 31
0.0
 11
1784.6819400289
 21
-717.2576975161
 31
0.0
 11
1790.0595785794
 21
-722.5358855375999
 31
0.0
 11
1795.8033996906
 21
-726.0316945808999
 31
0.0
 11
1801.9735153532
 21
-727.3141369536
 31
0.0
  0
SPLINE
  5
545
330
21E
100
AcDbEntity
  8
DATUM_AXIS
  6
Continuous
 62
     7
100
AcDbSpline
210
0.0
220
0.0
230
1.0
 70
     8
 71
     3
 72
    22
 73
    18
 74
    16
 42
0.0000000001
 43
0.0000000001
 44
0.0000000001
 12
-0.2331034031734307
 22
0.9724519543036381
 32
0.0
 13
0.9988132227433952
 23
0.0487046822487616
 33
0.0
 40
0.0
 40
0.0
 40
0.0
 40
0.0
 40
2.220180381866936
 40
4.297849640621652
 40
6.428966986983287
 40
8.786101260882524
 40
11.32212693875316
 40
14.05789222534764
 40
17.06848948916855
 40
20.38091568199879
 40
23.99781888438628
 40
27.94582470810781
 40
32.26374202600346
 40
36.9896431749973
 40
42.15985304786356
 40
47.80830934696132
 40
53.96465190912446
 40
53.96465190912446
 40
53.96465190912446
 40
53.96465190912446
 10
1737.7296567988
 20
-590.8990654395999
 30
0.0
 10
1737.557146264576
 20
-590.1793925225156
 30
0.0
 10
1737.642767635106
 20
-588.6548820104092
 30
0.0
 10
1738.818827593692
 20
-586.8057212638562
 30
0.0
 10
1740.441713484434
 20
-585.3198982756635
 30
0.0
 10
1742.412216714733
 20
-584.040964114849
 30
0.0
 10
1744.688599340477
 20
-582.9000914272499
 30
0.0
 10
1747.250459291053
 20
-581.864906366588
 30
0.0
 10
1750.116744695258
 20
-580.9101004441401
 30
0.0
 10
1753.310541160878
 20
-580.0237905147513
 30
0.0
 10
1756.843247063561
 20
-579.203471105623
 30
0.0
 10
1760.732328631873
 20
-578.448420626596
 30
0.0
 10
1765.008325805801
 20
-577.7587691646026
 30
0.0
 10
1769.706014139298
 20
-577.1375618108873
 30
0.0
 10
1774.859187292079
 20
-576.5911920134795
 30
0.0
 10
1780.499118485641
 20
-576.1292340441843
 30
0.0
 10
1784.427543632058
 20
-575.8965162963348
 30
0.0
 10
1786.477222417
 20
-575.7965687268999
 30
0.0
 11
1737.7296567988
 21
-590.8990654395999
 31
0.0
 11
1737.8325622114
 21
-588.6812711741
 31
0.0
 11
1738.8749340855
 21
-586.8840036857
 31
0.0
 11
1740.4196057783
 21
-585.4157903138
 31
0.0
 11
1742.3823133614
 21
-584.1104700739999
 31
0.0
 11
1744.642328487
 21
-582.9599233036
 31
0.0
 11
1747.174691069
 21
-581.9247656071
 31
0.0
 11
1750.028267817
 21
-580.9651846422
 31
0.0
 11
1753.2181993454
 21
-580.0727138431999
 31
0.0
 11
1756.7400516475
 21
-579.2489753303
 31
0.0
 11
1760.6147388738
 21
-578.4916452288999
 31
0.0
 11
1764.8768638351
 21
-577.7997631736
 31
0.0
 11
1769.5614577397
 21
-577.1762877377999
 31
0.0
 11
1774.702471189
 21
-576.6276067343
 31
0.0
 11
1780.3318141761
 21
-576.1633265426
 31
0.0
 11
1786.477222417
 21
-575.7965687268999
 31
0.0
  0
SPLINE
  5
546
330
21E
100
AcDbEntity
  8
DATUM_AXIS
  6
Continuous
 62
     7
100
AcDbSpline
210
0.0
220
0.0
230
1.0
 70
     8
 71
     3
 72
    22
 73
    18
 74
    16
 42
0.0000000001
 43
0.0000000001
 44
0.0000000001
 12
-0.5664892573824973
 22
0.8240691240850047
 32
0.0
 13
0.9999421220393088
 23
0.0107588369038702
 33
0.0
 40
0.0
 40
0.0
 40
0.0
 40
0.0
 40
0.4750282896962827
 40
1.532882499404726
 40
3.030522875089669
 40
4.913365475671096
 40
7.072341454829206
 40
9.486506267002949
 40
12.20371928945878
 40
15.2390367669645
 40
18.58865324405244
 40
22.27275172589283
 40
26.32465138960513
 40
30.77793719904443
 40
35.66503296537178
 40
41.01636654113214
 40
46.85832817284224
 40
46.85832817284224
 40
46.85832817284224
 40
46.85832817284224
 10
1740.9367081672
 20
-590.1825161082
 30
0.0
 10
1740.847008692845
 20
-590.0520307259982
 30
0.0
 10
1741.099406069958
 20
-589.4179383104509
 30
0.0
 10
1742.204186613092
 20
-589.3643738225311
 30
0.0
 10
1743.593187725068
 20
-588.9635106332916
 30
0.0
 10
1745.445896537084
 20
-588.7476460976886
 30
0.0
 10
1747.577096731819
 20
-588.4973042600235
 30
0.0
 10
1750.000335982986
 20
-588.2864425228737
 30
0.0
 10
1752.714516320643
 20
-588.0855118948909
 30
0.0
 10
1755.743213391309
 20
-587.9005681886988
 30
0.0
 10
1759.095125549686
 20
-587.7286682810554
 30
0.0
 10
1762.787005003164
 20
-587.5705342863686
 30
0.0
 10
1766.847551952646
 20
-587.425997448877
 30
0.0
 10
1771.309776027079
 20
-587.295795950486
 30
0.0
 10
1776.205699287169
 20
-587.1812595937792
 30
0.0
 10
1781.564977391298
 20
-587.0844125001793
 30
0.0
 10
1785.295774755338
 20
-587.0356536646315
 30
0.0
 10
1787.2429825923
 20
-587.0147027605001
 30
0.0
 11
1740.9367081672
 21
-590.1825161082
 31
0.0
 11
1741.0328667976
 21
-589.7173221768
 31
0.0
 11
1742.0212681609
 21
-589.3403364025
 31
0.0
 11
1743.486902641
 21
-589.0323716876
 31
0.0
 11
1745.3497315505
 21
-588.7585748423
 31
0.0
 11
1747.4951769716
 21
-588.517242657
 31
0.0
 11
1749.8995577437
 21
-588.3001140244
 31
0.0
 11
1752.6093058153
 21
-588.0988380997
 31
0.0
 11
1755.6388451645
 21
-587.911638952
 31
0.0
 11
1758.9840023902
 21
-587.7388567801
 31
0.0
 11
1762.6646745355
 21
-587.5800040724999
 31
0.0
 11
1766.7139744373
 21
-587.4348793327999
 31
0.0
 11
1771.1653396315
 21
-587.3041031559999
 31
0.0
 11
1776.0510800922
 21
-587.1890154505999
 31
0.0
 11
1781.4015274895
 21
-587.091631223
 31
0.0
 11
1787.2429825923
 21
-587.0147027605001
 31
0.0
  0
SPLINE
  5
547
330
21E
100
AcDbEntity
  8
DATUM_AXIS
  6
Continuous
 62
     7
100
AcDbSpline
210
0.0
220
0.0
230
1.0
 70
     8
 71
     3
 72
    16
 73
    12
 74
    10
 42
0.0000000001
 43
0.0000000001
 44
0.0000000001
 12
0.9999923132499546
 22
0.0039208979844537
 32
0.0
 13
0.9999999999939324
 23
-0.0000034835459778
 33
0.0
 40
0.0
 40
0.0
 40
0.0
 40
0.0
 40
19.18481219022984
 40
41.2953125321437
 40
67.01725580010972
 40
95.48713818965421
 40
124.7864960254305
 40
153.7849160063281
 40
181.1859599855825
 40
205.9874781083058
 40
228.1763769033526
 40
228.1763769033526
 40
228.1763769033526
 40
228.1763769033526
 10
1573.799604662
 20
-566.0588667988999
 30
0.0
 10
1580.194492902458
 20
-566.0337929017503
 30
0.0
 10
1593.959458071276
 20
-565.9712186683999
 30
0.0
 10
1616.298208013529
 20
-565.8484712644888
 30
0.0
 10
1641.731850688556
 20
-565.6944462691549
 30
0.0
 10
1669.561717166947
 20
-565.5230093873234
 30
0.0
 10
1698.483813557625
 20
-565.3599532855507
 30
0.0
 10
1727.049781648782
 20
-565.2263844417701
 30
0.0
 10
1754.116630211347
 20
-565.1350166564625
 30
0.0
 10
1778.913742042375
 20
-565.0855806324703
 30
0.0
 10
1794.577216106996
 20
-565.0753512617503
 30
0.0
 10
1801.9735157053
 20
-565.0753770270999
 30
0.0
 11
1573.799604662
 21
-566.0588667988999
 31
0.0
 11
1592.9842239425
 21
-565.9728328715
 31
0.0
 11
1615.0944004953
 21
-565.8531742997999
 31
0.0
 11
1640.8158851132
 21
-565.6995691839999
 31
0.0
 11
1669.2852454302
 21
-565.527155683
 31
0.0
 11
1698.5841495986
 21
-565.3641093098999
 31
0.0
 11
1727.5822611156
 21
-565.2303564177999
 31
0.0
 11
1754.9831518571
 21
-565.1387173135999
 31
0.0
 11
1779.784621529
 21
-565.0896937927
 31
0.0
 11
1801.9735157053
 21
-565.0753770270999
 31
0.0
  0
SPLINE
  5
54D
330
21E
100
AcDbEntity
  8
DATUM_AXIS
  6
Continuous
 62
     7
100
AcDbSpline
210
0.0
220
0.0
230
1.0
 70
     8
 71
     3
 72
    10
 73
     6
 74
     4
 42
0.0000000001
 43
0.0000000001
 44
0.0000000001
 12
0.3390218036158779
 22
-0.9407785162688597
 32
0.0
 13
0.9993210511121699
 23
-0.0368434092351369
 33
0.0
 40
0.0
 40
0.0
 40
0.0
 40
0.0
 40
2.956218358079594
 40
6.593456974449582
 40
9.597141616980014
 40
9.597141616980014
 40
9.597141616980014
 40
9.597141616980014
 10
1471.4445801107
 20
-558.3458502571
 30
0.0
 10
1471.778654270579
 20
-559.2728991639936
 30
0.0
 10
1472.688253549565
 20
-561.2801169085291
 30
0.0
 10
1474.724739163697
 20
-563.8604632359827
 30
0.0
 10
1476.924895496006
 20
-564.7279375291673
 30
0.0
 10
1477.9254439274
 20
-564.76482619
 30
0.0
 11
1471.4445801107
 21
-558.3458502571
 31
0.0
 11
1472.692707124
 21
-561.0256647916001
 31
0.0
 11
1475.0964500836
 21
-563.7554128636
 31
0.0
 11
1477.9254439274
 21
-564.76482619
 31
0.0
  0
SPLINE
  5
54F
330
21E
100
AcDbEntity
  8
DATUM_AXIS
  6
Continuous
 62
     7
100
AcDbSpline
210
0.0
220
0.0
230
1.0
 70
     8
 71
     3
 72
    10
 73
     6
 74
     4
 42
0.0000000001
 43
0.0000000001
 44
0.0000000001
 12
0.9999995694582137
 22
0.0009279457889761
 32
0.0
 13
0.9999922650977879
 23
0.0039331596198843
 33
0.0
 40
0.0
 40
0.0
 40
0.0
 40
0.0
 40
2.127515517264782
 40
4.076622413579842
 40
5.85114730252256
 40
5.85114730252256
 40
5.85114730252256
 40
5.85114730252256
 10
1567.9485647043
 20
-566.0937110016999
 30
0.0
 10
1568.65773623806
 20
-566.0930529286781
 30
0.0
 10
1570.016595711926
 20
-566.084519835975
 30
0.0
 10
1571.966908484904
 20
-566.0685025538302
 30
0.0
 10
1573.208101692044
 20
-566.0613458903458
 30
0.0
 10
1573.7996054131
 20
-566.0590193937999
 30
0.0
 11
1567.9485647043
 21
-566.0937110016999
 31
0.0
 11
1570.0760553855
 21
-566.0834310400999
 31
0.0
 11
1572.0251077913
 21
-566.0688566548
 31
0.0
 11
1573.7996054131
 21
-566.0590193937999
 31
0.0
  0
SPLINE
  5
550
330
21E
100
AcDbEntity
  8
DATUM_AXIS
  6
Continuous
 62
     7
100
AcDbSpline
210
0.0
220
0.0
230
1.0
 70
     8
 71
     3
 72
    11
 73
     7
 74
     5
 42
0.0000000001
 43
0.0000000001
 44
0.0000000001
 12
0.9989920125072998
 22
-0.0448882940933927
 32
0.0
 13
-0.0038694570499109
 23
-0.9999925136230466
 33
0.0
 40
0.0
 40
0.0
 40
0.0
 40
0.0
 40
1.367294550837667
 40
3.025334969824481
 40
4.998432361073188
 40
7.149326415220158
 40
7.149326415220158
 40
7.149326415220158
 40
7.149326415220158
 10
1511.3356546524
 20
-566.1416618738
 30
0.0
 10
1511.79096009741
 20
-566.1621203804367
 30
0.0
 10
1512.785930811464
 20
-566.5940428752556
 30
0.0
 10
1513.782872228744
 20
-567.9854679601019
 30
0.0
 10
1514.391874340553
 20
-569.832797102846
 30
0.0
 10
1514.517701973454
 20
-571.2139659673522
 30
0.0
 10
1514.5149277094
 20
-571.9309252846
 30
0.0
 11
1511.3356546524
 21
-566.1416618738
 31
0.0
 11
1512.6103304682
 21
-566.6363293918
 31
0.0
 11
1513.6487734038
 21
-567.9288982683
 31
0.0
 11
1514.3025205624
 21
-569.7905448426999
 31
0.0
 11
1514.5149277094
 21
-571.9309252846
 31
0.0
  0
ENDSEC
  0
SECTION
  2
OBJECTS
  0
DICTIONARY
  5
C
330
0
100
AcDbDictionary
281
     1
  3
ACAD_COLOR
350
57F
  3
ACAD_GROUP
350
D
  3
ACAD_LAYOUT
350
1A
  3
ACAD_MATERIAL
350
555
  3
ACAD_MLEADERSTYLE
350
5A4
  3
ACAD_MLINESTYLE
350
17
  3
ACAD_PLOTSETTINGS
350
19
  3
ACAD_PLOTSTYLENAME
350
E
  3
ACAD_SCALELIST
350
582
  3
ACAD_TABLESTYLE
350
580
  3
ACAD_VISUALSTYLE
350
56E
  3
ACDB_RECOMPOSE_DATA
350
5A9
  3
AcDbVariableDictionary
350
5AA
  3
AcmDictionary
350
60C
  3
AMG
350
5EB
  3
AMGSNAPSETTINGS
350
64C
  3
DWGPROPS
350
679
  0
DICTIONARY
  5
57F
102
{ACAD_REACTORS
330
C
102
}
330
C
100
AcDbDictionary
281
     1
  0
DICTIONARY
  5
D
102
{ACAD_REACTORS
330
C
102
}
330
C
100
AcDbDictionary
281
     1
  0
DICTIONARY
  5
1A
102
{ACAD_REACTORS
330
C
102
}
330
C
100
AcDbDictionary
281
     1
  3
Layout1
350
552
  3
Model
350
551
  0
DICTIONARY
  5
555
102
{ACAD_REACTORS
330
C
102
}
330
C
100
AcDbDictionary
281
     1
  3
ByBlock
350
55E
  3
ByLayer
350
556
  3
Global
350
566
  0
DICTIONARY
  5
5A4
102
{ACAD_REACTORS
330
C
102
}
330
C
100
AcDbDictionary
281
     1
  3
Standard
350
5A5
  0
DICTIONARY
  5
17
102
{ACAD_REACTORS
330
C
102
}
330
C
100
AcDbDictionary
281
     1
  3
Standard
350
18
  0
DICTIONARY
  5
19
102
{ACAD_REACTORS
330
C
102
}
330
C
100
AcDbDictionary
281
     1
  0
ACDBDICTIONARYWDFLT
  5
E
102
{ACAD_REACTORS
330
C
102
}
330
C
100
AcDbDictionary
281
     1
  3
Normal
350
F
100
AcDbDictionaryWithDefault
340
F
  0
DICTIONARY
  5
582
102
{ACAD_REACTORS
330
C
102
}
330
C
100
AcDbDictionary
281
     1
  3
A0
350
583
  3
A1
350
584
  3
A2
350
585
  3
A3
350
586
  3
A4
350
587
  3
A5
350
588
  3
A6
350
589
  3
A7
350
58A
  3
A8
350
58B
  3
A9
350
58C
  3
B0
350
58D
  3
B1
350
58E
  3
B2
350
58F
  3
B3
350
590
  3
B4
350
591
  3
B5
350
592
  3
B6
350
593
  3
B7
350
594
  3
B8
350
595
  3
B9
350
596
  3
C0
350
597
  3
C1
350
598
  3
C2
350
599
  3
C3
350
59A
  3
C4
350
59B
  3
C5
350
59C
  3
C6
350
59D
  3
C7
350
59E
  3
C8
350
59F
  3
C9
350
5A0
  3
D0
350
5A1
  3
D1
350
5A2
  3
D2
350
5A3
  0
DICTIONARY
  5
580
102
{ACAD_REACTORS
330
C
102
}
330
C
100
AcDbDictionary
281
     1
  3
Standard
350
581
  0
DICTIONARY
  5
56E
102
{ACAD_REACTORS
330
C
102
}
330
C
100
AcDbDictionary
281
     1
  3
2dWireframe
350
574
  3
3D Hidden
350
576
  3
3dWireframe
350
575
  3
Basic
350
573
  3
Brighten
350
57A
  3
ColorChange
350
57E
  3
Conceptual
350
577
  3
Dim
350
579
  3
Facepattern
350
57D
  3
Flat
350
56F
  3
FlatWithEdges
350
570
  3
Gouraud
350
571
  3
GouraudWithEdges
350
572
  3
Linepattern
350
57C
  3
Realistic
350
578
  3
Thicken
350
57B
  0
XRECORD
  5
5A9
102
{ACAD_REACTORS
330
C
102
}
330
C
100
AcDbXrecord
280
     1
 90
        1
330
581
  0
DICTIONARY
  5
5AA
102
{ACAD_REACTORS
330
C
102
}
330
C
100
AcDbDictionary
281
     1
  3
CANNOSCALE
350
5AD
  3
CMLEADERSTYLE
350
5AC
  3
CTABLESTYLE
350
5AB
  3
DIMASSOC
350
678
  3
HIDETEXT
350
677
  3
INDEXCTL
350
676
  3
SORTENTS
350
675
  0
DICTIONARY
  5
60C
102
{ACAD_REACTORS
330
C
102
}
330
C
100
AcDbDictionary
281
     1
  3
AcmStdDictionary
350
617
  3
AMDTSECTSYM_ARROWCOLOR
350
636
  0
DICTIONARY
  5
5EB
102
{ACAD_REACTORS
330
C
102
}
330
C
100
AcDbDictionary
281
     1
  0
DICTIONARY
  5
64C
102
{ACAD_REACTORS
330
C
102
}
330
C
100
AcDbDictionary
281
     1
  0
XRECORD
  5
679
102
{ACAD_REACTORS
330
C
102
}
330
C
100
AcDbXrecord
280
     1
  1
DWGPROPS COOKIE
  2

  3

  4

  6

  7

  8
ko27558
  9

300
=
301
=
302
=
303
=
304
=
305
=
306
=
307
=
308
=
309
=
 40
0.0004021296296296
 41
2455694.697428947
 42
2455694.697830521
  1

 90
        0
  0
LAYOUT
  5
552
102
{ACAD_XDICTIONARY
360
67C
102
}
102
{ACAD_REACTORS
330
1A
102
}
330
1A
100
AcDbPlotSettings
  1

  2
none_device
  4
ANSI_D_(34.00_x_22.00_Inches)
  6

 40
0.0
 41
0.0
 42
0.0
 43
0.0
 44
863.6000000000001
 45
558.8
 46
0.0
 47
0.0
 48
0.0
 49
0.0
140
0.0
141
0.0
142
1.0
143
1.0
 70
     0
 72
     1
 73
     0
 74
     0
  7

 75
     0
147
1.0
148
0.0
149
0.0
100
AcDbLayout
  1
Layout1
 70
     1
 71
     1
 10
0.0
 20
0.0
 11
12.0
 21
9.0
 12
0.0
 22
0.0
 32
0.0
 14
1.000000000000000E+20
 24
1.000000000000000E+20
 34
1.000000000000000E+20
 15
-1.000000000000000E+20
 25
-1.000000000000000E+20
 35
-1.000000000000000E+20
146
0.0
 13
0.0
 23
0.0
 33
0.0
 16
1.0
 26
0.0
 36
0.0
 17
0.0
 27
1.0
 37
0.0
 76
     0
330
21F
  0
LAYOUT
  5
551
102
{ACAD_XDICTIONARY
360
67A
102
}
102
{ACAD_REACTORS
330
1A
102
}
330
1A
100
AcDbPlotSettings
  1

  2
none_device
  4
ANSI_D_(34.00_x_22.00_Inches)
  6

 40
0.0
 41
0.0
 42
0.0
 43
0.0
 44
863.6000000000001
 45
558.8
 46
0.0
 47
0.0
 48
0.0
 49
0.0
140
0.0
141
0.0
142
1.0
143
1.0
 70
  1024
 72
     1
 73
     0
 74
     0
  7

 75
     0
147
1.0
148
0.0
149
0.0
100
AcDbLayout
  1
Model
 70
     0
 71
     0
 10
0.0
 20
0.0
 11
863.6000000000001
 21
558.8
 12
0.0
 22
0.0
 32
0.0
 14
0.0
 24
0.0
 34
0.0
 15
0.0
 25
0.0
 35
0.0
146
0.0
 13
0.0
 23
0.0
 33
0.0
 16
1.0
 26
0.0
 36
0.0
 17
0.0
 27
1.0
 37
0.0
 76
     0
330
21E
331
1F4
  0
MATERIAL
  5
55E
102
{ACAD_XDICTIONARY
360
55F
102
}
102
{ACAD_REACTORS
330
555
102
}
330
555
100
AcDbMaterial
  1
ByBlock
 72
     0
 73
     2
 43
0.0008202099737533
 43
0.0
 43
0.0
 43
0.0
 43
0.0
 43
0.0008202099737533
 43
0.0
 43
0.0
 43
0.0
 43
0.0
 43
1.0
 43
0.0
 43
0.0
 43
0.0
 43
0.0
 43
1.0
 77
     0
 78
     2
 47
0.0008202099737533
 47
0.0
 47
0.0
 47
0.0
 47
0.0
 47
0.0008202099737533
 47
0.0
 47
0.0
 47
0.0
 47
0.0
 47
1.0
 47
0.0
 47
0.0
 47
0.0
 47
0.0
 47
1.0
171
     0
172
     2
 49
0.0008202099737533
 49
0.0
 49
0.0
 49
0.0
 49
0.0
 49
0.0008202099737533
 49
0.0
 49
0.0
 49
0.0
 49
0.0
 49
1.0
 49
0.0
 49
0.0
 49
0.0
 49
0.0
 49
1.0
175
     0
176
     2
142
0.0008202099737533
142
0.0
142
0.0
142
0.0
142
0.0
142
0.0008202099737533
142
0.0
142
0.0
142
0.0
142
0.0
142
1.0
142
0.0
142
0.0
142
0.0
142
0.0
142
1.0
179
     0
270
     2
144
0.0008202099737533
144
0.0
144
0.0
144
0.0
144
0.0
144
0.0008202099737533
144
0.0
144
0.0
144
0.0
144
0.0
144
1.0
144
0.0
144
0.0
144
0.0
144
0.0
144
1.0
274
     2
147
0.0008202099737533
147
0.0
147
0.0
147
0.0
147
0.0
147
0.0008202099737533
147
0.0
147
0.0
147
0.0
147
0.0
147
1.0
147
0.0
147
0.0
147
0.0
147
0.0
147
1.0
  0
MATERIAL
  5
556
102
{ACAD_XDICTIONARY
360
557
102
}
102
{ACAD_REACTORS
330
555
102
}
330
555
100
AcDbMaterial
  1
ByLayer
 72
     0
 73
     2
 43
0.0008202099737533
 43
0.0
 43
0.0
 43
0.0
 43
0.0
 43
0.0008202099737533
 43
0.0
 43
0.0
 43
0.0
 43
0.0
 43
1.0
 43
0.0
 43
0.0
 43
0.0
 43
0.0
 43
1.0
 77
     0
 78
     2
 47
0.0008202099737533
 47
0.0
 47
0.0
 47
0.0
 47
0.0
 47
0.0008202099737533
 47
0.0
 47
0.0
 47
0.0
 47
0.0
 47
1.0
 47
0.0
 47
0.0
 47
0.0
 47
0.0
 47
1.0
171
     0
172
     2
 49
0.0008202099737533
 49
0.0
 49
0.0
 49
0.0
 49
0.0
 49
0.0008202099737533
 49
0.0
 49
0.0
 49
0.0
 49
0.0
 49
1.0
 49
0.0
 49
0.0
 49
0.0
 49
0.0
 49
1.0
175
     0
176
     2
142
0.0008202099737533
142
0.0
142
0.0
142
0.0
142
0.0
142
0.0008202099737533
142
0.0
142
0.0
142
0.0
142
0.0
142
1.0
142
0.0
142
0.0
142
0.0
142
0.0
142
1.0
179
     0
270
     2
144
0.0008202099737533
144
0.0
144
0.0
144
0.0
144
0.0
144
0.0008202099737533
144
0.0
144
0.0
144
0.0
144
0.0
144
1.0
144
0.0
144
0.0
144
0.0
144
0.0
144
1.0
274
     2
147
0.0008202099737533
147
0.0
147
0.0
147
0.0
147
0.0
147
0.0008202099737533
147
0.0
147
0.0
147
0.0
147
0.0
147
1.0
147
0.0
147
0.0
147
0.0
147
0.0
147
1.0
  0
MATERIAL
  5
566
102
{ACAD_XDICTIONARY
360
567
102
}
102
{ACAD_REACTORS
330
555
102
}
330
555
100
AcDbMaterial
  1
Global
 72
     0
 73
     2
 43
0.0008202099737533
 43
0.0
 43
0.0
 43
0.0
 43
0.0
 43
0.0008202099737533
 43
0.0
 43
0.0
 43
0.0
 43
0.0
 43
1.0
 43
0.0
 43
0.0
 43
0.0
 43
0.0
 43
1.0
 77
     0
 78
     2
 47
0.0008202099737533
 47
0.0
 47
0.0
 47
0.0
 47
0.0
 47
0.0008202099737533
 47
0.0
 47
0.0
 47
0.0
 47
0.0
 47
1.0
 47
0.0
 47
0.0
 47
0.0
 47
0.0
 47
1.0
171
     0
172
     2
 49
0.0008202099737533
 49
0.0
 49
0.0
 49
0.0
 49
0.0
 49
0.0008202099737533
 49
0.0
 49
0.0
 49
0.0
 49
0.0
 49
1.0
 49
0.0
 49
0.0
 49
0.0
 49
0.0
 49
1.0
175
     0
176
     2
142
0.0008202099737533
142
0.0
142
0.0
142
0.0
142
0.0
142
0.0008202099737533
142
0.0
142
0.0
142
0.0
142
0.0
142
1.0
142
0.0
142
0.0
142
0.0
142
0.0
142
1.0
179
     0
270
     2
144
0.0008202099737533
144
0.0
144
0.0
144
0.0
144
0.0
144
0.0008202099737533
144
0.0
144
0.0
144
0.0
144
0.0
144
1.0
144
0.0
144
0.0
144
0.0
144
0.0
144
1.0
274
     2
147
0.0008202099737533
147
0.0
147
0.0
147
0.0
147
0.0
147
0.0008202099737533
147
0.0
147
0.0
147
0.0
147
0.0
147
1.0
147
0.0
147
0.0
147
0.0
147
0.0
147
1.0
  0
ACAD_PROXY_OBJECT
  5
5A5
102
{ACAD_REACTORS
330
5A4
102
}
330
5A4
100
AcDbProxyObject
 90
      499
 91
      507
 95
    65563
 70
     0
 93
      817
310
40901902A40600000030400FEFFFFFF8000000000000008102B5E8DC0F42B5CFC0000000000001040405064068000000C1000000000000000410000000000000004102000000304015D90000000000000C03F4214C01D0018401B80190018401C80190028C00CC
340
14
340
0
340
11
340
0
 94
        0
1001
ACAD_MLEADERVER
1070
     2
1001
ACAD
1000
AcRTDxfName
1000
MLEADERSTYLE
  0
MLINESTYLE
  5
18
102
{ACAD_REACTORS
330
17
102
}
330
17
100
AcDbMlineStyle
  2
STANDARD
 70
     0
  3

 62
   256
 51
90.0
 52
90.0
 71
     2
 49
0.5
 62
   256
  6
BYLAYER
 49
-0.5
 62
   256
  6
BYLAYER
  0
ACDBPLACEHOLDER
  5
F
102
{ACAD_REACTORS
330
E
102
}
330
E
  0
ACAD_PROXY_OBJECT
  5
583
102
{ACAD_REACTORS
330
582
102
}
330
582
100
AcDbProxyObject
 90
      499
 91
      506
 95
    65563
 70
     0
 93
       82
310
968198801D0018801D004C
 94
        0
1001
ACAD
1000
AcRTDxfName
1000
SCALE
  0
ACAD_PROXY_OBJECT
  5
584
102
{ACAD_REACTORS
330
582
102
}
330
582
100
AcDbProxyObject
 90
      499
 91
      506
 95
    65563
 70
     0
 93
      146
310
9000000000000001008198801D0019001D004C
 94
        0
1001
ACAD
1000
AcRTDxfName
1000
SCALE
  0
ACAD_PROXY_OBJECT
  5
585
102
{ACAD_REACTORS
330
582
102
}
330
582
100
AcDbProxyObject
 90
      499
 91
      506
 95
    65563
 70
     0
 93
      146
310
9000000000000041008198801D001A001D004C
 94
        0
1001
ACAD
1000
AcRTDxfName
1000
SCALE
  0
ACAD_PROXY_OBJECT
  5
586
102
{ACAD_REACTORS
330
582
102
}
330
582
100
AcDbProxyObject
 90
      499
 91
      506
 95
    65563
 70
     0
 93
      146
310
9000000000000051008198801D001A801D004C
 94
        0
1001
ACAD
1000
AcRTDxfName
1000
SCALE
  0
ACAD_PROXY_OBJECT
  5
587
102
{ACAD_REACTORS
330
582
102
}
330
582
100
AcDbProxyObject
 90
      499
 91
      506
 95
    65563
 70
     0
 93
      146
310
9000000000000081008198801D001C001D004C
 94
        0
1001
ACAD
1000
AcRTDxfName
1000
SCALE
  0
ACAD_PROXY_OBJECT
  5
588
102
{ACAD_REACTORS
330
582
102
}
330
582
100
AcDbProxyObject
 90
      499
 91
      506
 95
    65563
 70
     0
 93
      162
310
9000000000000091008218801D001880180025004C
 94
        0
1001
ACAD
1000
AcRTDxfName
1000
SCALE
  0
ACAD_PROXY_OBJECT
  5
589
102
{ACAD_REACTORS
330
582
102
}
330
582
100
AcDbProxyObject
 90
      499
 91
      506
 95
    65563
 70
     0
 93
      162
310
90000000000000C1008218801D0018801B0025004C
 94
        0
1001
ACAD
1000
AcRTDxfName
1000
SCALE
  0
ACAD_PROXY_OBJECT
  5
58A
102
{ACAD_REACTORS
330
582
102
}
330
582
100
AcDbProxyObject
 90
      499
 91
      506
 95
    65563
 70
     0
 93
      162
310
90000000000000D1008218801D001900180025004C
 94
        0
1001
ACAD
1000
AcRTDxfName
1000
SCALE
  0
ACAD_PROXY_OBJECT
  5
58B
102
{ACAD_REACTORS
330
582
102
}
330
582
100
AcDbProxyObject
 90
      499
 91
      506
 95
    65563
 70
     0
 93
      162
310
90000000000000F9008218801D001980180025004C
 94
        0
1001
ACAD
1000
AcRTDxfName
1000
SCALE
  0
ACAD_PROXY_OBJECT
  5
58C
102
{ACAD_REACTORS
330
582
102
}
330
582
100
AcDbProxyObject
 90
      499
 91
      506
 95
    65563
 70
     0
 93
      162
310
9000000000000111008218801D001A00180025004C
 94
        0
1001
ACAD
1000
AcRTDxfName
1000
SCALE
  0
ACAD_PROXY_OBJECT
  5
58D
102
{ACAD_REACTORS
330
582
102
}
330
582
100
AcDbProxyObject
 90
      499
 91
      506
 95
    65563
 70
     0
 93
      162
310
9000000000000125008218801D001A80180025004C
 94
        0
1001
ACAD
1000
AcRTDxfName
1000
SCALE
  0
ACAD_PROXY_OBJECT
  5
58E
102
{ACAD_REACTORS
330
582
102
}
330
582
100
AcDbProxyObject
 90
      499
 91
      506
 95
    65563
 70
     0
 93
      178
310
9000000000000165008298801D001880180018002D004C
 94
        0
1001
ACAD
1000
AcRTDxfName
1000
SCALE
  0
ACAD_PROXY_OBJECT
  5
58F
102
{ACAD_REACTORS
330
582
102
}
330
582
100
AcDbProxyObject
 90
      499
 91
      506
 95
    65563
 70
     0
 93
      146
310
8000000000000004048199001D0018801D004C
 94
        0
1001
ACAD
1000
AcRTDxfName
1000
SCALE
  0
ACAD_PROXY_OBJECT
  5
590
102
{ACAD_REACTORS
330
582
102
}
330
582
100
AcDbProxyObject
 90
      499
 91
      506
 95
    65563
 70
     0
 93
      146
310
800000000000010404819A001D0018801D004C
 94
        0
1001
ACAD
1000
AcRTDxfName
1000
SCALE
  0
ACAD_PROXY_OBJECT
  5
591
102
{ACAD_REACTORS
330
582
102
}
330
582
100
AcDbProxyObject
 90
      499
 91
      506
 95
    65563
 70
     0
 93
      146
310
800000000000020404819C001D0018801D004C
 94
        0
1001
ACAD
1000
AcRTDxfName
1000
SCALE
  0
ACAD_PROXY_OBJECT
  5
592
102
{ACAD_REACTORS
330
582
102
}
330
582
100
AcDbProxyObject
 90
      499
 91
      506
 95
    65563
 70
     0
 93
      162
310
80000000000002440482188018001D00188025004C
 94
        0
1001
ACAD
1000
AcRTDxfName
1000
SCALE
  0
ACAD_PROXY_OBJECT
  5
593
102
{ACAD_REACTORS
330
582
102
}
330
582
100
AcDbProxyObject
 90
      499
 91
      506
 95
    65563
 70
     0
 93
      178
310
800000000000059404829880180018001D0018802D004C
 94
        0
1001
ACAD
1000
AcRTDxfName
1000
SCALE
  0
ACAD_PROXY_OBJECT
  5
594
102
{ACAD_REACTORS
330
582
102
}
330
582
100
AcDbProxyObject
 90
      499
 91
      506
 95
    65563
 70
     0
 93
      386
310
8000000000000803F0000000000000A1008718801780188019001C00110010001E8010001880138016801800110075004C
 94
        0
1001
ACAD
1000
AcRTDxfName
1000
SCALE
  0
ACAD_PROXY_OBJECT
  5
595
102
{ACAD_REACTORS
330
582
102
}
330
582
100
AcDbProxyObject
 90
      499
 91
      506
 95
    65563
 70
     0
 93
      370
310
8000000000000903F0000000000000A10086988017801B001A00110010001E801000188013801680180011006D004C
 94
        0
1001
ACAD
1000
AcRTDxfName
1000
SCALE
  0
ACAD_PROXY_OBJECT
  5
596
102
{ACAD_REACTORS
330
582
102
}
330
582
100
AcDbProxyObject
 90
      499
 91
      506
 95
    65563
 70
     0
 93
      370
310
8000000000000A03F0000000000000A100869880178019801900110010001E801000188013801680180011006D004C
 94
        0
1001
ACAD
1000
AcRTDxfName
1000
SCALE
  0
ACAD_PROXY_OBJECT
  5
597
102
{ACAD_REACTORS
330
582
102
}
330
582
100
AcDbProxyObject
 90
      499
 91
      506
 95
    65563
 70
     0
 93
      370
310
8000000000000B03F0000000000000A100869880178018801B00110010001E801000188013801680180011006D004C
 94
        0
1001
ACAD
1000
AcRTDxfName
1000
SCALE
  0
ACAD_PROXY_OBJECT
  5
598
102
{ACAD_REACTORS
330
582
102
}
330
582
100
AcDbProxyObject
 90
      499
 91
      506
 95
    65563
 70
     0
 93
      370
310
8000000000000B83F0000000000000A100869980178019801900110010001E801000188013801680180011006D004C
 94
        0
1001
ACAD
1000
AcRTDxfName
1000
SCALE
  0
ACAD_PROXY_OBJECT
  5
599
102
{ACAD_REACTORS
330
582
102
}
330
582
100
AcDbProxyObject
 90
      499
 91
      506
 95
    65563
 70
     0
 93
      354
310
8000000000000C03F0000000000000A10086188017801C00110010001E8010001880138016801800110065004C
 94
        0
1001
ACAD
1000
AcRTDxfName
1000
SCALE
  0
ACAD_PROXY_OBJECT
  5
59A
102
{ACAD_REACTORS
330
582
102
}
330
582
100
AcDbProxyObject
 90
      499
 91
      506
 95
    65563
 70
     0
 93
      370
310
8000000000000C83F0000000000000A100869980178018801B00110010001E801000188013801680180011006D004C
 94
        0
1001
ACAD
1000
AcRTDxfName
1000
SCALE
  0
ACAD_PROXY_OBJECT
  5
59B
102
{ACAD_REACTORS
330
582
102
}
330
582
100
AcDbProxyObject
 90
      499
 91
      506
 95
    65563
 70
     0
 93
      354
310
8000000000000D03F0000000000000A10086188017801A00110010001E8010001880138016801800110065004C
 94
        0
1001
ACAD
1000
AcRTDxfName
1000
SCALE
  0
ACAD_PROXY_OBJECT
  5
59C
102
{ACAD_REACTORS
330
582
102
}
330
582
100
AcDbProxyObject
 90
      499
 91
      506
 95
    65563
 70
     0
 93
      354
310
8000000000000D83F0000000000000A10086198017801C00110010001E8010001880138016801800110065004C
 94
        0
1001
ACAD
1000
AcRTDxfName
1000
SCALE
  0
ACAD_PROXY_OBJECT
  5
59D
102
{ACAD_REACTORS
330
582
102
}
330
582
100
AcDbProxyObject
 90
      499
 91
      506
 95
    65563
 70
     0
 93
      354
310
8000000000000E03F0000000000000A10086188017801900110010001E8010001880138016801800110065004C
 94
        0
1001
ACAD
1000
AcRTDxfName
1000
SCALE
  0
ACAD_PROXY_OBJECT
  5
59E
102
{ACAD_REACTORS
330
582
102
}
330
582
100
AcDbProxyObject
 90
      499
 91
      506
 95
    65563
 70
     0
 93
      354
310
8000000000000E83F0000000000000A10086198017801A00110010001E8010001880138016801800110065004C
 94
        0
1001
ACAD
1000
AcRTDxfName
1000
SCALE
  0
ACAD_PROXY_OBJECT
  5
59F
102
{ACAD_REACTORS
330
582
102
}
330
582
100
AcDbProxyObject
 90
      499
 91
      506
 95
    65563
 70
     0
 93
      258
310
90000000000000A100851880110010001E8010001880138016801800110055004C
 94
        0
1001
ACAD
1000
AcRTDxfName
1000
SCALE
  0
ACAD_PROXY_OBJECT
  5
5A0
102
{ACAD_REACTORS
330
582
102
}
330
582
100
AcDbProxyObject
 90
      499
 91
      506
 95
    65563
 70
     0
 93
      386
310
8000000000000F83F0000000000000A1008718801680188017801900110010001E8010001880138016801800110075004C
 94
        0
1001
ACAD
1000
AcRTDxfName
1000
SCALE
  0
ACAD_PROXY_OBJECT
  5
5A1
102
{ACAD_REACTORS
330
582
102
}
330
582
100
AcDbProxyObject
 90
      499
 91
      506
 95
    65563
 70
     0
 93
      322
310
800000000000008400000000000000A100851980110010001E8010001880138016801800110055004C
 94
        0
1001
ACAD
1000
AcRTDxfName
1000
SCALE
  0
ACAD_PROXY_OBJECT
  5
5A2
102
{ACAD_REACTORS
330
582
102
}
330
582
100
AcDbProxyObject
 90
      499
 91
      506
 95
    65563
 70
     0
 93
      322
310
800000000000018400000000000000A100851B00110010001E8010001880138016801800110055004C
 94
        0
1001
ACAD
1000
AcRTDxfName
1000
SCALE
  0
ACAD_PROXY_OBJECT
  5
5A3
102
{ACAD_REACTORS
330
582
102
}
330
582
100
AcDbProxyObject
 90
      499
 91
      506
 95
    65563
 70
     0
 93
      370
310
800000000000028400000000000000A100869880138016801800110010001E801000188013801680180011006D004C
 94
        0
1001
ACAD
1000
AcRTDxfName
1000
SCALE
  0
TABLESTYLE
  5
581
102
{ACAD_XDICTIONARY
360
5A7
102
}
102
{ACAD_REACTORS
330
580
102
}
330
580
100
AcDbTableStyle
  3
Standard
 70
     0
 71
     0
 40
1.5
 41
1.5
280
     0
281
     0
  7
STANDARD
140
4.5
170
     2
 62
     0
 63
     7
283
     0
274
    -2
284
     1
 64
     0
275
    -2
285
     1
 65
     0
276
    -2
286
     1
 66
     0
277
    -2
287
     1
 67
     0
278
    -2
288
     1
 68
     0
279
    -2
289
     1
 69
     0
  7
STANDARD
140
6.0
170
     5
 62
     0
 63
     7
283
     0
274
    -2
284
     1
 64
     0
275
    -2
285
     1
 65
     0
276
    -2
286
     1
 66
     0
277
    -2
287
     1
 67
     0
278
    -2
288
     1
 68
     0
279
    -2
289
     1
 69
     0
  7
STANDARD
140
4.5
170
     5
 62
     0
 63
     7
283
     0
274
    -2
284
     1
 64
     0
275
    -2
285
     1
 65
     0
276
    -2
286
     1
 66
     0
277
    -2
287
     1
 67
     0
278
    -2
288
     1
 68
     0
279
    -2
289
     1
 69
     0
  0
VISUALSTYLE
  5
574
102
{ACAD_REACTORS
330
56E
102
}
330
56E
100
AcDbVisualStyle
  2
2dWireframe
 70
     4
 71
     0
 72
     2
 73
     0
 90
        0
 40
-0.6
 41
-30.0
 62
     5
 63
     7
 74
     1
 91
        4
 64
     7
 65
   257
 75
     1
175
     1
 42
1.0
 92
        0
 66
   257
 43
1.0
 76
     1
 77
     6
 78
     2
 67
     7
 79
     5
170
     0
171
     0
290
     0
174
     0
 93
        1
 44
0.0
173
     0
291
     0
 45
0.0
1001
ACAD
1000
AcDbSavedByObjectVersion
1070
     0
  0
VISUALSTYLE
  5
576
102
{ACAD_REACTORS
330
56E
102
}
330
56E
100
AcDbVisualStyle
  2
3D Hidden
 70
     6
 71
     1
 72
     2
 73
     2
 90
        0
 40
-0.6
 41
-30.0
 62
     5
 63
     7
 74
     2
 91
        2
 64
     7
 65
   257
 75
     2
175
     1
 42
40.0
 92
        0
 66
   257
 43
1.0
 76
     1
 77
     6
 78
     2
 67
     7
 79
     3
170
     0
171
     0
290
     0
174
     0
 93
        1
 44
0.0
173
     0
291
     0
 45
0.0
1001
ACAD
1000
AcDbSavedByObjectVersion
1070
     0
  0
VISUALSTYLE
  5
575
102
{ACAD_REACTORS
330
56E
102
}
330
56E
100
AcDbVisualStyle
  2
3dWireframe
 70
     5
 71
     0
 72
     2
 73
     0
 90
        0
 40
-0.6
 41
-30.0
 62
     5
 63
     7
 74
     1
 91
        4
 64
     7
 65
   257
 75
     1
175
     1
 42
1.0
 92
        0
 66
   257
 43
1.0
 76
     1
 77
     6
 78
     2
 67
     7
 79
     5
170
     0
171
     0
290
     0
174
     0
 93
        1
 44
0.0
173
     0
291
     0
 45
0.0
1001
ACAD
1000
AcDbSavedByObjectVersion
1070
     0
  0
VISUALSTYLE
  5
573
102
{ACAD_REACTORS
330
56E
102
}
330
56E
100
AcDbVisualStyle
  2
Basic
 70
     7
 71
     1
 72
     0
 73
     1
 90
        0
 40
-0.6
 41
-30.0
 62
     5
 63
     7
 74
     0
 91
        4
 64
     7
 65
   257
 75
     1
175
     1
 42
1.0
 92
        8
 66
     7
 43
1.0
 76
     1
 77
     6
 78
     2
 67
     7
 79
     5
170
     0
171
     0
290
     0
174
     0
 93
        1
 44
0.0
173
     0
291
     1
 45
0.0
1001
ACAD
1000
AcDbSavedByObjectVersion
1070
     0
  0
VISUALSTYLE
  5
57A
102
{ACAD_REACTORS
330
56E
102
}
330
56E
100
AcDbVisualStyle
  2
Brighten
 70
    12
 71
     2
 72
     2
 73
     0
 90
        0
 40
-0.6
 41
-30.0
 62
     5
 63
     7
 74
     1
 91
        4
 64
     7
 65
   257
 75
     1
175
     1
 42
1.0
 92
        8
 66
     7
 43
1.0
 76
     1
 77
     6
 78
     2
 67
     7
 79
     5
170
     0
171
     0
290
     0
174
     0
 93
        1
 44
50.0
173
     0
291
     1
 45
0.0
1001
ACAD
1000
AcDbSavedByObjectVersion
1070
     0
  0
VISUALSTYLE
  5
57E
102
{ACAD_REACTORS
330
56E
102
}
330
56E
100
AcDbVisualStyle
  2
ColorChange
 70
    16
 71
     2
 72
     2
 73
     3
 90
        0
 40
-0.6
 41
-30.0
 62
     5
 63
     8
 74
     1
 91
        4
 64
     7
 65
   257
 75
     1
175
     1
 42
1.0
 92
        8
 66
     8
 43
1.0
 76
     1
 77
     6
 78
     2
 67
     7
 79
     5
170
     0
171
     0
290
     0
174
     0
 93
        1
 44
0.0
173
     0
291
     1
 45
0.0
1001
ACAD
1000
AcDbSavedByObjectVersion
1070
     0
  0
VISUALSTYLE
  5
577
102
{ACAD_REACTORS
330
56E
102
}
330
56E
100
AcDbVisualStyle
  2
Conceptual
 70
     9
 71
     3
 72
     2
 73
     0
 90
        0
 40
-0.6
 41
-30.0
 62
     5
 63
     7
 74
     2
 91
        2
 64
     7
 65
   257
 75
     1
175
     1
 42
40.0
 92
        8
 66
     7
 43
1.0
 76
     1
 77
     6
 78
     2
 67
     7
 79
     3
170
     0
171
     0
290
     0
174
     0
 93
        1
 44
0.0
173
     0
291
     0
 45
0.0
1001
ACAD
1000
AcDbSavedByObjectVersion
1070
     0
  0
VISUALSTYLE
  5
579
102
{ACAD_REACTORS
330
56E
102
}
330
56E
100
AcDbVisualStyle
  2
Dim
 70
    11
 71
     2
 72
     2
 73
     0
 90
        0
 40
-0.6
 41
-30.0
 62
     5
 63
     7
 74
     1
 91
        4
 64
     7
 65
   257
 75
     1
175
     1
 42
1.0
 92
        8
 66
     7
 43
1.0
 76
     1
 77
     6
 78
     2
 67
     7
 79
     5
170
     0
171
     0
290
     0
174
     0
 93
        1
 44
-50.0
173
     0
291
     1
 45
0.0
1001
ACAD
1000
AcDbSavedByObjectVersion
1070
     0
  0
VISUALSTYLE
  5
57D
102
{ACAD_REACTORS
330
56E
102
}
330
56E
100
AcDbVisualStyle
  2
Facepattern
 70
    15
 71
     2
 72
     2
 73
     0
 90
        0
 40
-0.6
 41
-30.0
 62
     5
 63
     7
 74
     1
 91
        4
 64
     7
 65
   257
 75
     1
175
     1
 42
1.0
 92
        8
 66
     7
 43
1.0
 76
     1
 77
     6
 78
     2
 67
     7
 79
     5
170
     0
171
     0
290
     0
174
     0
 93
        1
 44
0.0
173
     0
291
     1
 45
0.0
1001
ACAD
1000
AcDbSavedByObjectVersion
1070
     0
  0
VISUALSTYLE
  5
56F
102
{ACAD_REACTORS
330
56E
102
}
330
56E
100
AcDbVisualStyle
  2
Flat
 70
     0
 71
     2
 72
     1
 73
     1
 90
        2
 40
-0.6
 41
30.0
 62
     5
 63
     7
 74
     0
 91
        4
 64
     7
 65
   257
 75
     1
175
     1
 42
1.0
 92
        8
 66
     7
 43
1.0
 76
     1
 77
     6
 78
     2
 67
     7
 79
     5
170
     0
171
     0
290
     0
174
     0
 93
       13
 44
0.0
173
     0
291
     1
 45
0.0
1001
ACAD
1000
AcDbSavedByObjectVersion
1070
     0
  0
VISUALSTYLE
  5
570
102
{ACAD_REACTORS
330
56E
102
}
330
56E
100
AcDbVisualStyle
  2
FlatWithEdges
 70
     1
 71
     2
 72
     1
 73
     1
 90
        2
 40
-0.6
 41
30.0
 62
     5
 63
     7
 74
     1
 91
        4
 64
     7
 65
   257
 75
     1
175
     1
 42
1.0
 92
        0
 66
   257
 43
1.0
 76
     1
 77
     6
 78
     2
 67
     7
 79
     5
170
     0
171
     0
290
     0
174
     0
 93
       13
 44
0.0
173
     0
291
     1
 45
0.0
1001
ACAD
1000
AcDbSavedByObjectVersion
1070
     0
  0
VISUALSTYLE
  5
571
102
{ACAD_REACTORS
330
56E
102
}
330
56E
100
AcDbVisualStyle
  2
Gouraud
 70
     2
 71
     2
 72
     2
 73
     1
 90
        2
 40
-0.6
 41
30.0
 62
     5
 63
     7
 74
     0
 91
        4
 64
     7
 65
   257
 75
     1
175
     1
 42
1.0
 92
        0
 66
     7
 43
1.0
 76
     1
 77
     6
 78
     2
 67
     7
 79
     5
170
     0
171
     0
290
     0
174
     0
 93
       13
 44
0.0
173
     0
291
     1
 45
0.0
1001
ACAD
1000
AcDbSavedByObjectVersion
1070
     0
  0
VISUALSTYLE
  5
572
102
{ACAD_REACTORS
330
56E
102
}
330
56E
100
AcDbVisualStyle
  2
GouraudWithEdges
 70
     3
 71
     2
 72
     2
 73
     1
 90
        2
 40
-0.6
 41
30.0
 62
     5
 63
     7
 74
     1
 91
        4
 64
     7
 65
   257
 75
     1
175
     1
 42
1.0
 92
        0
 66
   257
 43
1.0
 76
     1
 77
     6
 78
     2
 67
     7
 79
     5
170
     0
171
     0
290
     0
174
     0
 93
       13
 44
0.0
173
     0
291
     1
 45
0.0
1001
ACAD
1000
AcDbSavedByObjectVersion
1070
     0
  0
VISUALSTYLE
  5
57C
102
{ACAD_REACTORS
330
56E
102
}
330
56E
100
AcDbVisualStyle
  2
Linepattern
 70
    14
 71
     2
 72
     2
 73
     0
 90
        0
 40
-0.6
 41
-30.0
 62
     5
 63
     7
 74
     1
 91
        4
 64
     7
 65
   257
 75
     7
175
     7
 42
1.0
 92
        8
 66
     7
 43
1.0
 76
     1
 77
     6
 78
     2
 67
     7
 79
     5
170
     0
171
     0
290
     0
174
     0
 93
        1
 44
0.0
173
     0
291
     1
 45
0.0
1001
ACAD
1000
AcDbSavedByObjectVersion
1070
     0
  0
VISUALSTYLE
  5
578
102
{ACAD_REACTORS
330
56E
102
}
330
56E
100
AcDbVisualStyle
  2
Realistic
 70
     8
 71
     2
 72
     2
 73
     0
 90
        0
 40
-0.6
 41
-30.0
 62
     5
 63
     7
 74
     1
 91
        0
 64
     7
 65
   257
 75
     1
175
     1
 42
1.0
 92
        8
 66
     8
 43
1.0
 76
     1
 77
     6
 78
     2
 67
     7
 79
     5
170
     0
171
     0
290
     0
174
     0
 93
       13
 44
0.0
173
     0
291
     0
 45
0.0
1001
ACAD
1000
AcDbSavedByObjectVersion
1070
     0
  0
VISUALSTYLE
  5
57B
102
{ACAD_REACTORS
330
56E
102
}
330
56E
100
AcDbVisualStyle
  2
Thicken
 70
    13
 71
     2
 72
     2
 73
     0
 90
        0
 40
-0.6
 41
-30.0
 62
     5
 63
     7
 74
     1
 91
        4
 64
     7
 65
   257
 75
     1
175
     1
 42
1.0
 92
       12
 66
     7
 43
1.0
 76
     1
 77
     6
 78
     2
 67
     7
 79
     5
170
     0
171
     0
290
     0
174
     0
 93
        1
 44
0.0
173
     0
291
     1
 45
0.0
1001
ACAD
1000
AcDbSavedByObjectVersion
1070
     0
  0
DICTIONARYVAR
  5
5AD
102
{ACAD_REACTORS
330
5AA
102
}
330
5AA
100
DictionaryVariables
280
     0
  1
1:1
  0
DICTIONARYVAR
  5
5AC
102
{ACAD_REACTORS
330
5AA
102
}
330
5AA
100
DictionaryVariables
280
     0
  1
STANDARD
  0
DICTIONARYVAR
  5
5AB
102
{ACAD_REACTORS
330
5AA
102
}
330
5AA
100
DictionaryVariables
280
     0
  1
STANDARD
  0
DICTIONARYVAR
  5
678
102
{ACAD_REACTORS
330
5AA
102
}
330
5AA
100
DictionaryVariables
280
     0
  1
2
  0
DICTIONARYVAR
  5
677
102
{ACAD_REACTORS
330
5AA
102
}
330
5AA
100
DictionaryVariables
280
     0
  1
1
  0
DICTIONARYVAR
  5
676
102
{ACAD_REACTORS
330
5AA
102
}
330
5AA
100
DictionaryVariables
280
     0
  1
0
  0
DICTIONARYVAR
  5
675
102
{ACAD_REACTORS
330
5AA
102
}
330
5AA
100
DictionaryVariables
280
     0
  1
127
  0
DICTIONARY
  5
617
102
{ACAD_REACTORS
330
60C
102
}
330
60C
100
AcDbDictionary
281
     1
  0
XRECORD
  5
636
102
{ACAD_REACTORS
330
60C
102
}
330
60C
100
AcDbXrecord
280
     1
 90
-1023410169
  0
DICTIONARY
  5
67C
330
552
100
AcDbDictionary
280
     1
281
     1
  3
ACAD_XREC_ROUNDTRIP
360
67D
  0
DICTIONARY
  5
67A
330
551
100
AcDbDictionary
280
     1
281
     1
  3
ACAD_XREC_ROUNDTRIP
360
67B
  0
DICTIONARY
  5
55F
330
55E
100
AcDbDictionary
280
     1
281
     1
  3
ACAD_XREC_ROUNDTRIP
360
67F
  3
BUMPTILE
360
561
  3
DIFFUSETILE
360
560
  3
OPACITYTILE
360
564
  3
REFLECTIONTILE
360
563
  3
REFRACTIONTILE
360
565
  3
SPECULARTILE
360
562
  0
DICTIONARY
  5
557
330
556
100
AcDbDictionary
280
     1
281
     1
  3
ACAD_XREC_ROUNDTRIP
360
67E
  3
BUMPTILE
360
559
  3
DIFFUSETILE
360
558
  3
OPACITYTILE
360
55C
  3
REFLECTIONTILE
360
55B
  3
REFRACTIONTILE
360
55D
  3
SPECULARTILE
360
55A
  0
DICTIONARY
  5
567
330
566
100
AcDbDictionary
280
     1
281
     1
  3
ACAD_XREC_ROUNDTRIP
360
680
  3
BUMPTILE
360
569
  3
DIFFUSETILE
360
568
  3
OPACITYTILE
360
56C
  3
REFLECTIONTILE
360
56B
  3
REFRACTIONTILE
360
56D
  3
SPECULARTILE
360
56A
  0
DICTIONARY
  5
5A7
330
581
100
AcDbDictionary
280
     1
281
     1
  3
ACAD_ROUNDTRIP_2008_TABLESTYLE_CELLSTYLEMAP
360
5A8
  3
ACAD_XREC_ROUNDTRIP
360
681
  0
XRECORD
  5
67D
102
{ACAD_REACTORS
330
67C
102
}
330
67C
100
AcDbXrecord
280
     1
102
SHADEPLOT
 70
     0
102
SHADEPLOTRESLEVEL
 70
     2
102
SHADEPLOTCUSTOMDPI
 70
   300
  0
XRECORD
  5
67B
102
{ACAD_REACTORS
330
67A
102
}
330
67A
100
AcDbXrecord
280
     1
102
SHADEPLOT
 70
     0
102
SHADEPLOTRESLEVEL
 70
     2
102
SHADEPLOTCUSTOMDPI
 70
   300
  0
XRECORD
  5
67F
102
{ACAD_REACTORS
330
55F
102
}
330
55F
100
AcDbXrecord
280
     1
102
MATERIAL
148
0.0
149
0.0
149
0.0
 93
        0
 94
      127
282
     0
 72
     0
 77
     0
171
     0
175
     0
179
     0
273
     0
  0
XRECORD
  5
561
102
{ACAD_REACTORS
330
55F
102
}
330
55F
100
AcDbXrecord
280
     1
270
     1
271
     1
  0
XRECORD
  5
560
102
{ACAD_REACTORS
330
55F
102
}
330
55F
100
AcDbXrecord
280
     1
270
     1
271
     1
  0
XRECORD
  5
564
102
{ACAD_REACTORS
330
55F
102
}
330
55F
100
AcDbXrecord
280
     1
270
     1
271
     1
  0
XRECORD
  5
563
102
{ACAD_REACTORS
330
55F
102
}
330
55F
100
AcDbXrecord
280
     1
270
     1
271
     1
  0
XRECORD
  5
565
102
{ACAD_REACTORS
330
55F
102
}
330
55F
100
AcDbXrecord
280
     1
270
     1
271
     1
  0
XRECORD
  5
562
102
{ACAD_REACTORS
330
55F
102
}
330
55F
100
AcDbXrecord
280
     1
270
     1
271
     1
  0
XRECORD
  5
67E
102
{ACAD_REACTORS
330
557
102
}
330
557
100
AcDbXrecord
280
     1
102
MATERIAL
148
0.0
149
0.0
149
0.0
 93
        0
 94
      127
282
     0
 72
     0
 77
     0
171
     0
175
     0
179
     0
273
     0
  0
XRECORD
  5
559
102
{ACAD_REACTORS
330
557
102
}
330
557
100
AcDbXrecord
280
     1
270
     1
271
     1
  0
XRECORD
  5
558
102
{ACAD_REACTORS
330
557
102
}
330
557
100
AcDbXrecord
280
     1
270
     1
271
     1
  0
XRECORD
  5
55C
102
{ACAD_REACTORS
330
557
102
}
330
557
100
AcDbXrecord
280
     1
270
     1
271
     1
  0
XRECORD
  5
55B
102
{ACAD_REACTORS
330
557
102
}
330
557
100
AcDbXrecord
280
     1
270
     1
271
     1
  0
XRECORD
  5
55D
102
{ACAD_REACTORS
330
557
102
}
330
557
100
AcDbXrecord
280
     1
270
     1
271
     1
  0
XRECORD
  5
55A
102
{ACAD_REACTORS
330
557
102
}
330
557
100
AcDbXrecord
280
     1
270
     1
271
     1
  0
XRECORD
  5
680
102
{ACAD_REACTORS
330
567
102
}
330
567
100
AcDbXrecord
280
     1
102
MATERIAL
148
0.0
149
0.0
149
0.0
 93
        0
 94
      127
282
     0
 72
     0
 77
     0
171
     0
175
     0
179
     0
273
     0
  0
XRECORD
  5
569
102
{ACAD_REACTORS
330
567
102
}
330
567
100
AcDbXrecord
280
     1
270
     1
271
     1
  0
XRECORD
  5
568
102
{ACAD_REACTORS
330
567
102
}
330
567
100
AcDbXrecord
280
     1
270
     1
271
     1
  0
XRECORD
  5
56C
102
{ACAD_REACTORS
330
567
102
}
330
567
100
AcDbXrecord
280
     1
270
     1
271
     1
  0
XRECORD
  5
56B
102
{ACAD_REACTORS
330
567
102
}
330
567
100
AcDbXrecord
280
     1
270
     1
271
     1
  0
XRECORD
  5
56D
102
{ACAD_REACTORS
330
567
102
}
330
567
100
AcDbXrecord
280
     1
270
     1
271
     1
  0
XRECORD
  5
56A
102
{ACAD_REACTORS
330
567
102
}
330
567
100
AcDbXrecord
280
     1
270
     1
271
     1
  0
ACAD_PROXY_OBJECT
  5
5A8
102
{ACAD_REACTORS
330
5A7
102
}
330
5A7
100
AcDbProxyObject
 90
      499
 91
      508
 95
    65563
 70
     0
 93
     5441
310
40D054060020000020000003200101A0000800029416000000304000000000000001840404000000000000F83F0000000000003E0FC000000000000F83F0000000000003E0FC0000000000001240000000000000049010640640600000030400FEFFFFFF8000000000000F23F40A40600000030400FEFFFFFF800000000000
310
0F23F41240600000030400FEFFFFFF8000000000000F23F42240600000030400FEFFFFFF8000000000000F23F44240600000030400FEFFFFFF8000000000000F23F48240600000030400FEFFFFFF8000000000000F23F4050141501A8000000C800406800020000A5058000000C10000000000000004901010000000000003
310
E0FC000000000000F83F0000000000003E0FC000000000000F83F000000000000049000000000000001240419019018000000C1003FBFFFFFE0000000000003C8FD029018000000C1003FBFFFFFE0000000000003C8FD049018000000C1003FBFFFFFE0000000000003C8FD089018000000C1003FBFFFFFE0000000000003C
310
8FD109018000000C1003FBFFFFFE0000000000003C8FD209018000000C1003FBFFFFFE0000000000003C8FD0240505406A0000003200101A000080002940A000000304000000000000001240404000000000000F83F0000000000003E0FC000000000000F83F0000000000003E0FC000000000000124000000000000004901
310
0640640600000030400FEFFFFFF8000000000000F23F40A40600000030400FEFFFFFF8000000000000F23F41240600000030400FEFFFFFF8000000000000F23F42240600000030400FEFFFFFF8000000000000F23F44240600000030400FEFFFFFF8000000000000F23F48240600000030400FEFFFFFF8000000000000F23F
310
40D029065F005400490054004C0045009075F004800450041004400450052009055F0044004100540041004401CC
340
11
340
0
340
0
340
0
340
0
340
0
340
0
340
11
340
0
340
0
340
0
340
0
340
0
340
0
340
11
340
0
340
0
340
0
340
0
340
0
340
0
 94
        0
1001
ACAD
1000
AcRTDxfName
1000
CELLSTYLEMAP
  0
XRECORD
  5
681
102
{ACAD_REACTORS
330
5A7
102
}
330
5A7
100
AcDbXrecord
280
     1
102
ACAD_ROUNDTRIP_PRE2007_TABLESTYLE
 90
      512
 91
        0
  1

 92
      512
 93
        0
  2

 94
      512
 95
        0
  3

  0
ENDSEC
  0
EOF
