  0
SECTION
  2
HEADER
  9
$ACADVER
  1
AC1015
  9
$ACADMAINTVER
 70
    20
  9
$DWGCODEPAGE
  3
ANSI_936
  9
$INSBASE
 10
0.0
 20
0.0
 30
0.0
  9
$EXTMIN
 10
2.448231477795985
 20
5.819215958272706
 30
0.0
  9
$EXTMAX
 10
1526.459394940896
 20
805.8621240153726
 30
0.0
  9
$LIMMIN
 10
0.0
 20
0.0
  9
$LIMMAX
 10
17.0
 20
11.0
  9
$ORTHOMODE
 70
     0
  9
$REGENMODE
 70
     1
  9
$FILLMODE
 70
     1
  9
$QTEXTMODE
 70
     0
  9
$MIRRTEXT
 70
     1
  9
$LTSCALE
 40
1.0
  9
$ATTMODE
 70
     1
  9
$TEXTSIZE
 40
0.2
  9
$TRACEWID
 40
0.05
  9
$TEXTSTYLE
  7
STANDARD
  9
$CLAYER
  8
0
  9
$CELTYPE
  6
ByLayer
  9
$CECOLOR
 62
   256
  9
$CELTSCALE
 40
1.0
  9
$DISPSILH
 70
     0
  9
$DIMSCALE
 40
1.0
  9
$DIMASZ
 40
0.1
  9
$DIMEXO
 40
0.05
  9
$DIMDLI
 40
0.5
  9
$DIMRND
 40
0.0
  9
$DIMDLE
 40
0.0
  9
$DIMEXE
 40
0.1
  9
$DIMTP
 40
0.1
  9
$DIMTM
 40
0.1
  9
$DIMTXT
 40
0.12
  9
$DIMCEN
 40
0.0
  9
$DIMTSZ
 40
0.0
  9
$DIMTOL
 70
     0
  9
$DIMLIM
 70
     0
  9
$DIMTIH
 70
     1
  9
$DIMTOH
 70
     1
  9
$DIMSE1
 70
     0
  9
$DIMSE2
 70
     0
  9
$DIMTAD
 70
     0
  9
$DIMZIN
 70
     7
  9
$DIMBLK
  1

  9
$DIMASO
 70
     1
  9
$DIMSHO
 70
     1
  9
$DIMPOST
  1

  9
$DIMAPOST
  1
mm
  9
$DIMALT
 70
     0
  9
$DIMALTD
 70
     2
  9
$DIMALTF
 40
25.4
  9
$DIMLFAC
 40
1.0
  9
$DIMTOFL
 70
     0
  9
$DIMTVP
 40
0.0
  9
$DIMTIX
 70
     0
  9
$DIMSOXD
 70
     0
  9
$DIMSAH
 70
     0
  9
$DIMBLK1
  1

  9
$DIMBLK2
  1

  9
$DIMSTYLE
  2
AM_ANSI
  9
$DIMCLRD
 70
   256
  9
$DIMCLRE
 70
   256
  9
$DIMCLRT
 70
     2
  9
$DIMTFAC
 40
0.71
  9
$DIMGAP
 40
0.06
  9
$DIMJUST
 70
     0
  9
$DIMSD1
 70
     0
  9
$DIMSD2
 70
     0
  9
$DIMTOLJ
 70
     1
  9
$DIMTZIN
 70
     7
  9
$DIMALTZ
 70
     0
  9
$DIMALTTZ
 70
     0
  9
$DIMUPT
 70
     0
  9
$DIMDEC
 70
     4
  9
$DIMTDEC
 70
     4
  9
$DIMALTU
 70
     2
  9
$DIMALTTD
 70
     4
  9
$DIMTXSTY
  7
STANDARD
  9
$DIMAUNIT
 70
     0
  9
$DIMADEC
 70
     0
  9
$DIMALTRND
 40
0.0
  9
$DIMAZIN
 70
     2
  9
$DIMDSEP
 70
    46
  9
$DIMATFIT
 70
     3
  9
$DIMFRAC
 70
     0
  9
$DIMLDRBLK
  1

  9
$DIMLUNIT
 70
     2
  9
$DIMLWD
 70
    -1
  9
$DIMLWE
 70
    -1
  9
$DIMTMOVE
 70
     0
  9
$LUNITS
 70
     2
  9
$LUPREC
 70
     4
  9
$SKETCHINC
 40
0.1
  9
$FILLETRAD
 40
0.125
  9
$AUNITS
 70
     0
  9
$AUPREC
 70
     0
  9
$MENU
  1
.
  9
$ELEVATION
 40
0.0
  9
$PELEVATION
 40
0.0
  9
$THICKNESS
 40
0.0
  9
$LIMCHECK
 70
     0
  9
$CHAMFERA
 40
0.125
  9
$CHAMFERB
 40
0.125
  9
$CHAMFERC
 40
1.0
  9
$CHAMFERD
 40
0.0
  9
$SKPOLY
 70
     0
  9
$TDCREATE
 40
2455694.689362998
  9
$TDUCREATE
 40
2455694.356029664
  9
$TDUPDATE
 40
2455694.689968716
  9
$TDUUPDATE
 40
2455694.356635382
  9
$TDINDWG
 40
0.0006062616
  9
$TDUSRTIMER
 40
0.0006062616
  9
$USRTIMER
 70
     1
  9
$ANGBASE
 50
0.0
  9
$ANGDIR
 70
     0
  9
$PDMODE
 70
     0
  9
$PDSIZE
 40
0.0
  9
$PLINEWID
 40
0.0
  9
$SPLFRAME
 70
     0
  9
$SPLINETYPE
 70
     6
  9
$SPLINESEGS
 70
     8
  9
$HANDSEED
  5
3C9
  9
$SURFTAB1
 70
     6
  9
$SURFTAB2
 70
     6
  9
$SURFTYPE
 70
     6
  9
$SURFU
 70
     6
  9
$SURFV
 70
     6
  9
$UCSBASE
  2

  9
$UCSNAME
  2

  9
$UCSORG
 10
0.0
 20
0.0
 30
0.0
  9
$UCSXDIR
 10
1.0
 20
0.0
 30
0.0
  9
$UCSYDIR
 10
0.0
 20
1.0
 30
0.0
  9
$UCSORTHOREF
  2

  9
$UCSORTHOVIEW
 70
     0
  9
$UCSORGTOP
 10
0.0
 20
0.0
 30
0.0
  9
$UCSORGBOTTOM
 10
0.0
 20
0.0
 30
0.0
  9
$UCSORGLEFT
 10
0.0
 20
0.0
 30
0.0
  9
$UCSORGRIGHT
 10
0.0
 20
0.0
 30
0.0
  9
$UCSORGFRONT
 10
0.0
 20
0.0
 30
0.0
  9
$UCSORGBACK
 10
0.0
 20
0.0
 30
0.0
  9
$PUCSBASE
  2

  9
$PUCSNAME
  2

  9
$PUCSORG
 10
0.0
 20
0.0
 30
0.0
  9
$PUCSXDIR
 10
1.0
 20
0.0
 30
0.0
  9
$PUCSYDIR
 10
0.0
 20
1.0
 30
0.0
  9
$PUCSORTHOREF
  2

  9
$PUCSORTHOVIEW
 70
     0
  9
$PUCSORGTOP
 10
0.0
 20
0.0
 30
0.0
  9
$PUCSORGBOTTOM
 10
0.0
 20
0.0
 30
0.0
  9
$PUCSORGLEFT
 10
0.0
 20
0.0
 30
0.0
  9
$PUCSORGRIGHT
 10
0.0
 20
0.0
 30
0.0
  9
$PUCSORGFRONT
 10
0.0
 20
0.0
 30
0.0
  9
$PUCSORGBACK
 10
0.0
 20
0.0
 30
0.0
  9
$USERI1
 70
     0
  9
$USERI2
 70
     0
  9
$USERI3
 70
     0
  9
$USERI4
 70
     0
  9
$USERI5
 70
     0
  9
$USERR1
 40
0.0
  9
$USERR2
 40
0.0
  9
$USERR3
 40
0.0
  9
$USERR4
 40
0.0
  9
$USERR5
 40
0.0
  9
$WORLDVIEW
 70
     1
  9
$SHADEDGE
 70
     3
  9
$SHADEDIF
 70
    70
  9
$TILEMODE
 70
     1
  9
$MAXACTVP
 70
    64
  9
$PINSBASE
 10
0.0
 20
0.0
 30
0.0
  9
$PLIMCHECK
 70
     0
  9
$PEXTMIN
 10
1.000000000000000E+20
 20
1.000000000000000E+20
 30
1.000000000000000E+20
  9
$PEXTMAX
 10
-1.000000000000000E+20
 20
-1.000000000000000E+20
 30
-1.000000000000000E+20
  9
$PLIMMIN
 10
0.0
 20
0.0
  9
$PLIMMAX
 10
12.0
 20
9.0
  9
$UNITMODE
 70
     0
  9
$VISRETAIN
 70
     1
  9
$PLINEGEN
 70
     0
  9
$PSLTSCALE
 70
     1
  9
$TREEDEPTH
 70
  3020
  9
$CMLSTYLE
  2
Standard
  9
$CMLJUST
 70
     0
  9
$CMLSCALE
 40
1.0
  9
$PROXYGRAPHICS
 70
     1
  9
$MEASUREMENT
 70
     0
  9
$CELWEIGHT
370
    -1
  9
$ENDCAPS
280
     0
  9
$JOINSTYLE
280
     0
  9
$LWDISPLAY
290
     0
  9
$INSUNITS
 70
     1
  9
$HYPERLINKBASE
  1

  9
$STYLESHEET
  1

  9
$XEDIT
290
     1
  9
$CEPSNTYPE
380
     0
  9
$PSTYLEMODE
290
     1
  9
$FINGERPRINTGUID
  2
{4AF39FC0-4944-416C-A022-41526596EBD5}
  9
$VERSIONGUID
  2
{FEF75F78-EBBC-40FE-8D22-51F63DF2756B}
  9
$EXTNAMES
290
     1
  9
$PSVPSCALE
 40
0.0
  9
$OLESTARTUP
290
     0
  0
ENDSEC
  0
SECTION
  2
CLASSES
  0
CLASS
  1
ACDBDICTIONARYWDFLT
  2
AcDbDictionaryWithDefault
  3
ObjectDBX Classes
 90
        0
280
     0
281
     0
  0
CLASS
  1
ACDBPLACEHOLDER
  2
AcDbPlaceHolder
  3
ObjectDBX Classes
 90
        0
280
     0
281
     0
  0
CLASS
  1
LAYOUT
  2
AcDbLayout
  3
ObjectDBX Classes
 90
        0
280
     0
281
     0
  0
CLASS
  1
ACME_DOCUMENT
  2
AcMeDbDoc
  3
AcMeServices
 90
        0
280
     0
281
     0
  0
CLASS
  1
AMGSETTINGSOBJ
  2
AmgSettingsObj
  3
"AcadM|Product Description: AutoCAD Mechanical|Company: Autodesk"
 90
        0
280
     0
281
     0
  0
CLASS
  1
ACMESCOPE
  2
AcMeScope
  3
AcMeServices
 90
        0
280
     0
281
     0
  0
CLASS
  1
ACMECOMMANDHISTORY
  2
AcMeCommandHistory
  3
AcMeServices
 90
        0
280
     0
281
     0
  0
CLASS
  1
ACIMSYSVARMAN
  2
AcImSysVarManager
  3
AcMeServices
 90
        0
280
     0
281
     0
  0
CLASS
  1
ACIMREALSYSVAR
  2
AcImRealSysVar
  3
AcMeServices
 90
        0
280
     0
281
     0
  0
CLASS
  1
ACIMINTSYSVAR
  2
AcImIntSysVar
  3
AcMeServices
 90
        0
280
     0
281
     0
  0
CLASS
  1
ACMEDRAWINGMAN
  2
AcMeDrawingMan
  3
AcMeServices
 90
        0
280
     0
281
     0
  0
CLASS
  1
ACMEVIEW
  2
AcMeView
  3
AcMeServices
 90
        0
280
     0
281
     0
  0
CLASS
  1
ACDBENTITYCACHE
  2
AcMeEntityCache
  3
AcMeServices
 90
        0
280
     0
281
     0
  0
CLASS
  1
GSMANAGER
  2
AcMeGSManager
  3
AcMeServices
 90
        0
280
     0
281
     0
  0
CLASS
  1
AMDTINTERNALREACTOR
  2
AmdtInternalReactor
  3
AcMeServices
 90
        0
280
     0
281
     0
  0
CLASS
  1
ACMESTATEMGR
  2
AcMeStateMgr
  3
AcMeServices
 90
        0
280
     0
281
     0
  0
CLASS
  1
ACGREFMASTER
  2
AcGrefMaster
  3
AcAttribServices
 90
        0
280
     0
281
     0
  0
CLASS
  1
ACME_DATABASE
  2
AcMeDbDatabase
  3
AcMeServices
 90
        0
280
     0
281
     0
  0
CLASS
  1
ACRFINSADJUSTERMGR
  2
AcRfInsAdjusterMgr
  3
AcMeServices
 90
        0
280
     0
281
     0
  0
CLASS
  1
ACGREFACADMASTER
  2
AcGrefacadMaster
  3
AcGrefServices
 90
        0
280
     0
281
     0
  0
CLASS
  1
AMIMASTER
  2
AmiMaster
  3
AmiServices
 90
        0
280
     0
281
     0
  0
CLASS
  1
ACMDATADICTIONARY
  2
AcmDataDictionary
  3
"AcmSymBB|Product Description: AutoCAD Mechanical|Company: Autodesk"
 90
        0
280
     0
281
     0
  0
CLASS
  1
ACMDATAENTRYBLOCK
  2
AcmDataEntryBlock
  3
"AcmSymBB|Product Description: AutoCAD Mechanical|Company: Autodesk"
 90
        0
280
     0
281
     0
  0
CLASS
  1
ACIMSTRSYSVAR
  2
AcImStrSysVar
  3
AcMeServices
 90
        0
280
     0
281
     0
  0
CLASS
  1
ACMSTANDARDANSI
  2
AcmStandardANSI
  3
"Amdt_StdImp|Product Description: AutoCAD Mechanical|Company: Autodesk"
 90
        0
280
     0
281
     0
  0
CLASS
  1
AMGOBJPROPCFG
  2
AmgObjPropCfg
  3
"AmgLay|Product Description: AutoCAD Mechanical|Company: Autodesk"
 90
        1
280
     0
281
     0
  0
CLASS
  1
ACMSURFSTANDARDANSI
  2
AcmSurfTextStdANSI
  3
"Amdt_StdImp|Product Description: AutoCAD Mechanical|Company: Autodesk"
 90
        0
280
     0
281
     0
  0
CLASS
  1
ACMFCFSTANDARDANSI
  2
AcmFCFStdANSI
  3
"Amdt_StdImp|Product Description: AutoCAD Mechanical|Company: Autodesk"
 90
        0
280
     0
281
     0
  0
CLASS
  1
ACMWELDSTANDARDANSI
  2
AcmWeldingStdANSI
  3
"Amdt_StdImp|Product Description: AutoCAD Mechanical|Company: Autodesk"
 90
        0
280
     0
281
     0
  0
CLASS
  1
ACMIDSTANDARDANSI
  2
AcmIdStdANSI
  3
"Amdt_StdImp|Product Description: AutoCAD Mechanical|Company: Autodesk"
 90
        0
280
     0
281
     0
  0
CLASS
  1
ACMDATUMSTANDARDANSI
  2
AcmDatumStdANSI
  3
"Amdt_StdImp|Product Description: AutoCAD Mechanical|Company: Autodesk"
 90
        0
280
     0
281
     0
  0
CLASS
  1
ACMBOMSTANDARDANSI
  2
AcmBOMStdANSI
  3
"Amdt_StdImp|Product Description: AutoCAD Mechanical|Company: Autodesk"
 90
        0
280
     0
281
     0
  0
CLASS
  1
ACMDETAILSTANDARDANSI
  2
AmdtDetailSymStdANSI
  3
"Amdt_StdImp|Product Description: AutoCAD Mechanical|Company: Autodesk"
 90
        0
280
     0
281
     0
  0
CLASS
  1
ACMSECTIONSTANDARDANSI
  2
AmdtSectionSymStdANSI
  3
"Amdt_StdImp|Product Description: AutoCAD Mechanical|Company: Autodesk"
 90
        0
280
     0
281
     0
  0
CLASS
  1
ACMCENTERLINESTANDARDANSI
  2
AmdtCenterLineStdANSI
  3
"Amdt_StdImp|Product Description: AutoCAD Mechanical|Company: Autodesk"
 90
        0
280
     0
281
     0
  0
CLASS
  1
ACMNOTESTANDARDANSI
  2
AmdtNoteStdANSI
  3
"Amdt_StdImp|Product Description: AutoCAD Mechanical|Company: Autodesk"
 90
        0
280
     0
281
     0
  0
CLASS
  1
ACAMGLAYSTD
  2
AcAmgLayStd
  3
"AmgLay|Product Description: AutoCAD Mechanical|Company: Autodesk"
 90
        0
280
     0
281
     0
  0
CLASS
  1
ACAMGDIMSTD
  2
AcAmgDimStd
  3
"AmgDim|Product Description: AutoCAD Mechanical|Company: Autodesk"
 90
        0
280
     0
281
     0
  0
CLASS
  1
ACAMGHOLECHARTSTDANSI
  2
AcAmgHoleChartStdANSI
  3
ACMSYMBB_MODULE_NAME
 90
        0
280
     0
281
     0
  0
CLASS
  1
ACAMGTITLESTD
  2
AcAmgTitleStd
  3
"AmgTitle|Product Description: AutoCAD Mechanical|Company: Autodesk"
 90
        0
280
     0
281
     0
  0
CLASS
  1
LAYER_INDEX
  2
AcDbLayerIndex
  3
ObjectDBX Classes
 90
    32768
280
     0
281
     0
  0
CLASS
  1
IDBUFFER
  2
AcDbIdBuffer
  3
ObjectDBX Classes
 90
    32768
280
     0
281
     0
  0
CLASS
  1
DICTIONARYVAR
  2
AcDbDictionaryVar
  3
ObjectDBX Classes
 90
        0
280
     0
281
     0
  0
CLASS
  1
AM_DRAWING_MGR
  2
AcDmDwgMgr
  3
AcMechDwgViewMgmt
 90
        0
280
     0
281
     0
  0
CLASS
  1
AM_DWG_DOCUMENT
  2
AcDmDwgDocument
  3
AcMechDwgViewMgmt
 90
        0
280
     0
281
     0
  0
CLASS
  1
AM_DWG_SHEET
  2
AcDmSheet
  3
AcMechDwgViewMgmt
 90
        0
280
     0
281
     0
  0
CLASS
  1
AM_VIEWDIMPARMAP
  2
AcDmViewDimParMap
  3
AcMechDwgViewMgmt
 90
        0
280
     0
281
     0
  0
CLASS
  1
AM_DWGMGR_NAME
  2
AcDmDwgMgrName
  3
AcMechDwgViewMgmt
 90
        0
280
     0
281
     0
  0
CLASS
  1
AMDTMENUSTATEMGR
  2
AmdtMenuStateMgr
  3
McadcomServices
 90
        0
280
     0
281
     0
  0
CLASS
  1
AMDTMCOMMENUSTATE
  2
AmdtMcomMenuState
  3
McadcomServices
 90
        0
280
     0
281
     0
  0
CLASS
  1
MAPIAMMOUDLE
  2
MApiAmModule
  3
MApiAmServices
 90
        0
280
     0
281
     0
  0
CLASS
  1
AMDTADMENUSTATE
  2
AmdtAdMenuState
  3
DesignerServices
 90
        0
280
     0
281
     0
  0
CLASS
  1
ADAPPL
  2
AcAdAppl
  3
DesignerServices
 90
        0
280
     0
281
     0
  0
CLASS
  1
DEPMGR
  2
AcAdDepMgr
  3
DesignerServices
 90
        0
280
     0
281
     0
  0
CLASS
  1
PARAMMGR
  2
AcAdParamMgr
  3
DesignerServices
 90
        0
280
     0
281
     0
  0
CLASS
  1
PARAMSCOPE
  2
AcAdParamScope
  3
DesignerServices
 90
        0
280
     0
281
     0
  0
CLASS
  1
NAMEDAPPL
  2
AcAdNamedAppl
  3
DesignerServices
 90
        0
280
     0
281
     0
  0
CLASS
  1
AMDTDMMENUSTATE
  2
AmdtDmMenuState
  3
AcMechDwgViewMgmt
 90
        0
280
     0
281
     0
  0
CLASS
  1
AMDTAMMENUSTATE
  2
AmdtAmMenuState
  3
DesignerAssemblies
 90
        0
280
     0
281
     0
  0
CLASS
  1
ACAMPROJECT
  2
AcAmProject
  3
DesignerAssemblies
 90
        0
280
     0
281
     0
  0
CLASS
  1
ACAMGRCOMPDEF
  2
AcAmGrCompDef
  3
DesignerAssemblies
 90
        0
280
     0
281
     0
  0
CLASS
  1
ACCMCONTEXT
  2
AcCmContext
  3
DesignerAssemblies
 90
        0
280
     0
281
     0
  0
CLASS
  1
ACAMCOMPDEF
  2
AcAmCompDef
  3
DesignerAssemblies
 90
        0
280
     0
281
     0
  0
CLASS
  1
ACAMCOMPDEFMGR
  2
AcAmCompDefMgr
  3
DesignerAssemblies
 90
        0
280
     0
281
     0
  0
CLASS
  1
AMCONTEXTMGR
  2
AcAmContextMgr
  3
DesignerAssemblies
 90
        0
280
     0
281
     0
  0
CLASS
  1
ACAMCONTEXTMODELER
  2
AcAmContextModeler
  3
DesignerAssemblies
 90
        0
280
     0
281
     0
  0
CLASS
  1
ACMTHREADLINESTANDARDANSI
  2
AmdtThreadLineStdANSI
  3
"Amdt_StdImp|Product Description: AutoCAD Mechanical|Company: Autodesk"
 90
        0
280
     0
281
     0
  0
CLASS
  1
CATALOGSTATE
  2
AcAmCatalogState
  3
DesignerAssemblies
 90
        0
280
     0
281
     0
  0
CLASS
  1
ACAMGRCOMPDEFSET
  2
AcAmGrCompDefSet
  3
DesignerAssemblies
 90
        0
280
     0
281
     0
  0
CLASS
  1
AMDTBROWSERDBTAB
  2
AmdtBrowserDbTab
  3
McadcomServices
 90
        0
280
     0
281
     0
  0
CLASS
  1
CBROWSERAPPOBJECT
  2
CBrowserAppObject
  3
McadcomServices
 90
        0
280
     0
281
     0
  0
CLASS
  1
DM_PLACEHOLDER
  2
AcDmSelsetPlaceholder
  3
AcMechDwgViewMgmt
 90
        0
280
     0
281
     0
  0
CLASS
  1
TABLESTYLE
  2
AcDbTableStyle
  3
ObjectDBX Classes
 90
     4095
280
     0
281
     0
  0
CLASS
  1
AMDTNOTETEMPLATEDB
  2
AmdtNoteTemplateDB
  3
AMDT_STDIMP_MODULE_NAME
 90
        0
280
     0
281
     0
  0
CLASS
  1
MATERIAL
  2
AcDbMaterial
  3
ObjectDBX Classes
 90
     1024
280
     0
281
     0
  0
CLASS
  1
VISUALSTYLE
  2
AcDbVisualStyle
  3
ObjectDBX Classes
 90
     4095
280
     0
281
     0
  0
CLASS
  1
ACRFATTGENMGR
  2
AcRfAttGeneralMgr
  3
AcAttribServices
 90
        0
280
     0
281
     0
  0
CLASS
  1
ACRFOBJATTMGR
  2
AcRfObjAttGroupMgr
  3
AcAttribServices
 90
        0
280
     0
281
     0
  0
CLASS
  1
ACRFMCADAPIATTHOLDER
  2
AcRfMCADAPIAttHolder
  3
AcAttribServices
 90
        0
280
     0
281
     0
  0
CLASS
  1
AMDTSYSATTR
  2
AmdtSystemAttribute
  3
AcAttribServices
 90
        0
280
     0
281
     0
  0
CLASS
  1
ACMTAPERSTANDARDANSI
  2
AcmTaperStdANSI
  3
"Amdt_StdImp|Product Description: AutoCAD Mechanical|Company: Autodesk"
 90
        0
280
     0
281
     0
  0
CLASS
  1
CAMSSTRUCTBTNSTATE
  2
StructBtnState
  3
L"DesignerAssemblies"
 90
        0
280
     0
281
     0
  0
CLASS
  1
ACMSTANDARDISO
  2
AcmStandardISO
  3
"Amdt_StdImp|Product Description: AutoCAD Mechanical|Company: Autodesk"
 90
        0
280
     0
281
     0
  0
CLASS
  1
AMDTEDGESTANDARDISO13715
  2
AmdtEdgeStdISO13715
  3
"Amdt_StdImp|Product Description: AutoCAD Mechanical|Company: Autodesk"
 90
        0
280
     0
281
     0
  0
CLASS
  1
ACMSURFSTANDARDISO
  2
AcmSurfTextStdISO
  3
"Amdt_StdImp|Product Description: AutoCAD Mechanical|Company: Autodesk"
 90
        0
280
     0
281
     0
  0
CLASS
  1
ACMFCFSTANDARDISO
  2
AcmFCFStdISO
  3
"Amdt_StdImp|Product Description: AutoCAD Mechanical|Company: Autodesk"
 90
        0
280
     0
281
     0
  0
CLASS
  1
ACMWELDSTANDARDISO
  2
AcmWeldingStdISO
  3
"Amdt_StdImp|Product Description: AutoCAD Mechanical|Company: Autodesk"
 90
        0
280
     0
281
     0
  0
CLASS
  1
ACMIDSTANDARDISO
  2
AcmIdStdISO
  3
"Amdt_StdImp|Product Description: AutoCAD Mechanical|Company: Autodesk"
 90
        0
280
     0
281
     0
  0
CLASS
  1
ACMDATUMSTANDARDISO
  2
AcmDatumStdISO
  3
"Amdt_StdImp|Product Description: AutoCAD Mechanical|Company: Autodesk"
 90
        0
280
     0
281
     0
  0
CLASS
  1
ACMBOMSTANDARDISO
  2
AcmBOMStdISO
  3
"Amdt_StdImp|Product Description: AutoCAD Mechanical|Company: Autodesk"
 90
        0
280
     0
281
     0
  0
CLASS
  1
ACMDETAILSTANDARDISO
  2
AmdtDetailSymStdISO
  3
"Amdt_StdImp|Product Description: AutoCAD Mechanical|Company: Autodesk"
 90
        0
280
     0
281
     0
  0
CLASS
  1
ACMSECTIONSTANDARDISO
  2
AmdtSectionSymStdISO
  3
"Amdt_StdImp|Product Description: AutoCAD Mechanical|Company: Autodesk"
 90
        0
280
     0
281
     0
  0
CLASS
  1
ACMCENTERLINESTANDARDISO
  2
AmdtCenterLineStdISO
  3
"Amdt_StdImp|Product Description: AutoCAD Mechanical|Company: Autodesk"
 90
        0
280
     0
281
     0
  0
CLASS
  1
ACMTHREADLINESTANDARDISO
  2
AmdtThreadLineStdISO
  3
"Amdt_StdImp|Product Description: AutoCAD Mechanical|Company: Autodesk"
 90
        0
280
     0
281
     0
  0
CLASS
  1
ACMNOTESTANDARDISO
  2
AmdtNoteStdISO
  3
"Amdt_StdImp|Product Description: AutoCAD Mechanical|Company: Autodesk"
 90
        0
280
     0
281
     0
  0
CLASS
  1
ACMTAPERSTANDARDISO
  2
AcmTaperStdISO
  3
"Amdt_StdImp|Product Description: AutoCAD Mechanical|Company: Autodesk"
 90
        0
280
     0
281
     0
  0
CLASS
  1
ACAMGHOLECHARTSTDISO
  2
AcAmgHoleChartStdISO
  3
ACMSYMBB_MODULE_NAME
 90
        0
280
     0
281
     0
  0
CLASS
  1
ACAMGFILTERDAT
  2
AcAmgFilterDat
  3
"AcadM|Product Description: AutoCAD Mechanical|Company: Autodesk"
 90
        0
280
     0
281
     0
  0
ENDSEC
  0
SECTION
  2
TABLES
  0
TABLE
  2
VPORT
  5
8
330
0
100
AcDbSymbolTable
 70
     1
  0
VPORT
  5
291
330
8
100
AcDbSymbolTableRecord
100
AcDbViewportTableRecord
  2
*Active
 70
     0
 10
0.0
 20
0.0
 11
1.0
 21
1.0
 12
764.4538132093458
 22
405.8406699868227
 13
0.0
 23
0.0
 14
0.125
 24
0.125
 15
1.0
 25
1.0
 16
0.0
 26
0.0
 36
1.0
 17
0.0
 27
0.0
 37
0.0
 40
1155.543102481046
 41
1.329690346083788
 42
50.0
 43
0.0
 44
0.0
 50
0.0
 51
0.0
 71
     0
 72
   100
 73
     1
 74
     3
 75
     0
 76
     0
 77
     0
 78
     0
281
     0
 65
     1
110
0.0
120
0.0
130
0.0
111
1.0
121
0.0
131
0.0
112
0.0
122
1.0
132
0.0
 79
     0
146
0.0
  0
ENDTAB
  0
TABLE
  2
LTYPE
  5
5
330
0
100
AcDbSymbolTable
 70
    19
  0
LTYPE
  5
14
330
5
100
AcDbSymbolTableRecord
100
AcDbLinetypeTableRecord
  2
ByBlock
 70
     0
  3

 72
    65
 73
     0
 40
0.0
  0
LTYPE
  5
15
330
5
100
AcDbSymbolTableRecord
100
AcDbLinetypeTableRecord
  2
ByLayer
 70
     0
  3

 72
    65
 73
     0
 40
0.0
  0
LTYPE
  5
16
330
5
100
AcDbSymbolTableRecord
100
AcDbLinetypeTableRecord
  2
Continuous
 70
     0
  3
Solid line
 72
    65
 73
     0
 40
0.0
  0
LTYPE
  5
6C
330
5
100
AcDbSymbolTableRecord
100
AcDbLinetypeTableRecord
  2
AM_ISO02W050
 70
     0
  3
__ __ __ __ __ __ __ __ __ __ __ __ __ __ __
 72
    65
 73
     2
 40
7.5
 49
6.0
 74
     0
 49
-1.5
 74
     0
  0
LTYPE
  5
6D
330
5
100
AcDbSymbolTableRecord
100
AcDbLinetypeTableRecord
  2
AM_ISO08W050
 70
     0
  3
____ . ____ . ____ . ____ . ____ . ____ . ____
 72
    65
 73
     4
 40
18.0
 49
12.0
 74
     0
 49
-1.5
 74
     0
 49
3.0
 74
     0
 49
-1.5
 74
     0
  0
LTYPE
  5
6E
330
5
100
AcDbSymbolTableRecord
100
AcDbLinetypeTableRecord
  2
AM_ISO09W050
 70
     0
  3
_____ . . _____ . . _____ . . ____ .. ____
 72
    65
 73
     6
 40
22.5
 49
12.0
 74
     0
 49
-1.5
 74
     0
 49
3.0
 74
     0
 49
-1.5
 74
     0
 49
3.0
 74
     0
 49
-1.5
 74
     0
  0
LTYPE
  5
6F
330
5
100
AcDbSymbolTableRecord
100
AcDbLinetypeTableRecord
  2
Amconstr
 70
     0
  3
_______________________
 72
    65
 73
     2
 40
9999.0
 49
9999.0
 74
     0
 49
0.0
 74
     0
  0
LTYPE
  5
70
330
5
100
AcDbSymbolTableRecord
100
AcDbLinetypeTableRecord
  2
AM_ISO08W050x2
 70
     0
  3
__ . __ . __ . __ . __ . __
 72
    65
 73
     4
 40
9.0
 49
6.0
 74
     0
 49
-0.75
 74
     0
 49
1.5
 74
     0
 49
-0.75
 74
     0
  0
LTYPE
  5
71
330
5
100
AcDbSymbolTableRecord
100
AcDbLinetypeTableRecord
  2
AM_ISO02W050x2
 70
     0
  3
 _ _ _ _ _ _ _ _ _ _ _ _
 72
    65
 73
     2
 40
3.75
 49
3.0
 74
     0
 49
-0.75
 74
     0
  0
LTYPE
  5
74
330
5
100
AcDbSymbolTableRecord
100
AcDbLinetypeTableRecord
  2
Amzigzag
 70
     0
  3
/\/-/\/-/\/-/\/-/\/-/\/
 72
    65
 73
     2
 40
11.0001
 49
0.0001
 74
     4
 75
   136
340
254
 46
0.04
 50
0.0
 44
0.0
 45
0.0
 49
-11.0
 74
     0
  0
LTYPE
  5
75
330
5
100
AcDbSymbolTableRecord
100
AcDbLinetypeTableRecord
  2
HIDDEN
 70
     0
  3
Hidden __ __ __ __ __ __ __ __ __ __ __ __ __ _
 72
    65
 73
     2
 40
0.375
 49
0.25
 74
     0
 49
-0.125
 74
     0
  0
LTYPE
  5
76
330
5
100
AcDbSymbolTableRecord
100
AcDbLinetypeTableRecord
  2
CENTER
 70
     0
  3
Center ____ _ ____ _ ____ _ ____ _ ____ _ ____
 72
    65
 73
     4
 40
2.0
 49
1.25
 74
     0
 49
-0.25
 74
     0
 49
0.25
 74
     0
 49
-0.25
 74
     0
  0
LTYPE
  5
77
330
5
100
AcDbSymbolTableRecord
100
AcDbLinetypeTableRecord
  2
PHANTOM2
 70
     0
  3
Phantom (.5x) ___ _ _ ___ _ _ ___ _ _ ___ _ _
 72
    65
 73
     6
 40
1.25
 49
0.625
 74
     0
 49
-0.125
 74
     0
 49
0.125
 74
     0
 49
-0.125
 74
     0
 49
0.125
 74
     0
 49
-0.125
 74
     0
  0
LTYPE
  5
78
330
5
100
AcDbSymbolTableRecord
100
AcDbLinetypeTableRecord
  2
CENTER2
 70
     0
  3
Center (.5x) ___ _ ___ _ ___ _ ___ _ ___ _ ___
 72
    65
 73
     4
 40
1.125
 49
0.75
 74
     0
 49
-0.125
 74
     0
 49
0.125
 74
     0
 49
-0.125
 74
     0
  0
LTYPE
  5
79
330
5
100
AcDbSymbolTableRecord
100
AcDbLinetypeTableRecord
  2
HIDDEN2
 70
     0
  3
Hidden (.5x) _ _ _ _ _ _ _ _ _ _ _ _ _ _ _ _ _
 72
    65
 73
     2
 40
0.1875
 49
0.125
 74
     0
 49
-0.0625
 74
     0
  0
LTYPE
  5
7A
330
5
100
AcDbSymbolTableRecord
100
AcDbLinetypeTableRecord
  2
Amzigzag2
 70
     0
  3
/\/-/\/-/\/-/\/-/\/-/\/
 72
    65
 73
     2
 40
0.4401
 49
0.0001
 74
     4
 75
   136
340
254
 46
0.0016
 50
0.0
 44
0.0
 45
0.0
 49
-0.4400000000000001
 74
     0
  0
LTYPE
  5
87
330
5
100
AcDbSymbolTableRecord
100
AcDbLinetypeTableRecord
  2
ACANSTGB
 70
     0
  3
__ . . __ . .
 72
    65
 73
     6
 40
0.35433070866
 49
0.15748031496
 74
     0
 49
-0.03937007874
 74
     0
 49
0.03937007874
 74
     0
 49
-0.03937007874
 74
     0
 49
0.03937007874
 74
     0
 49
-0.03937007874
 74
     0
  0
LTYPE
  5
88
330
5
100
AcDbSymbolTableRecord
100
AcDbLinetypeTableRecord
  2
ACANSTGL
 70
     0
  3
_ _ _ _ _
 72
    65
 73
     2
 40
0.11811023622
 49
0.07874015748
 74
     0
 49
-0.03937007874
 74
     0
  0
LTYPE
  5
2E6
330
5
100
AcDbSymbolTableRecord
100
AcDbLinetypeTableRecord
  2
ACISOWELD
 70
     0
  3
_ _ _ _ _
 72
    65
 73
     2
 40
2.0
 49
2.0
 74
     0
 49
-1.0
 74
     0
  0
LTYPE
  5
2E7
330
5
100
AcDbSymbolTableRecord
100
AcDbLinetypeTableRecord
  2
ACISOTGB
 70
     0
  3
__ . . __ . .
 72
    65
 73
     6
 40
9.0
 49
4.0
 74
     0
 49
-1.0
 74
     0
 49
1.0
 74
     0
 49
-1.0
 74
     0
 49
1.0
 74
     0
 49
-1.0
 74
     0
  0
LTYPE
  5
2E8
330
5
100
AcDbSymbolTableRecord
100
AcDbLinetypeTableRecord
  2
ACISOTGL
 70
     0
  3
_ _ _ _ _
 72
    65
 73
     2
 40
3.0
 49
2.0
 74
     0
 49
-1.0
 74
     0
  0
ENDTAB
  0
TABLE
  2
LAYER
  5
2
330
0
100
AcDbSymbolTable
 70
     2
  0
LAYER
  5
10
330
2
100
AcDbSymbolTableRecord
100
AcDbLayerTableRecord
  2
0
 70
     0
 62
     7
  6
Continuous
370
    -3
390
F
  0
LAYER
  5
2E9
330
2
100
AcDbSymbolTableRecord
100
AcDbLayerTableRecord
  2
DATUM_AXIS
 70
     0
 62
     7
  6
Continuous
370
    -3
390
F
  0
ENDTAB
  0
TABLE
  2
STYLE
  5
3
330
0
100
AcDbSymbolTable
 70
    10
  0
STYLE
  5
11
330
3
100
AcDbSymbolTableRecord
100
AcDbTextStyleTableRecord
  2
STANDARD
 70
     0
 40
0.0
 41
1.0
 50
0.0
 71
     0
 42
0.2
  3
ROMANS.SHX
  4

  0
STYLE
  5
73
330
3
100
AcDbSymbolTableRecord
100
AcDbTextStyleTableRecord
  2

 70
     1
 40
0.0
 41
1.0
 50
0.0
 71
     0
 42
0.2
  3
ltypeshp.shx
  4

  0
STYLE
  5
7B
330
3
100
AcDbSymbolTableRecord
100
AcDbTextStyleTableRecord
  2
ACANSTS
 70
     0
 40
1.0
 41
1.0
 50
0.0
 71
     0
 42
0.2
  3
romans.shx
  4

  0
STYLE
  5
86
330
3
100
AcDbSymbolTableRecord
100
AcDbTextStyleTableRecord
  2
ACANSGDT
 70
     0
 40
0.0
 41
1.0
 50
0.0
 71
     0
 42
0.2
  3
AMGDT
  4

  0
STYLE
  5
13F
330
3
100
AcDbSymbolTableRecord
100
AcDbTextStyleTableRecord
  2
USER1
 70
     0
 40
0.0
 41
1.0
 50
0.0
 71
     0
 42
0.2
  3
TXT.SHX
  4

  0
STYLE
  5
140
330
3
100
AcDbSymbolTableRecord
100
AcDbTextStyleTableRecord
  2
USER2
 70
     0
 40
0.0
 41
1.0
 50
0.0
 71
     0
 42
0.2
  3
SIMPLEX.SHX
  4

  0
STYLE
  5
141
330
3
100
AcDbSymbolTableRecord
100
AcDbTextStyleTableRecord
  2
USER3
 70
     0
 40
0.0
 41
1.0
 50
0.0
 71
     0
 42
0.2
  3
ITALIC.SHX
  4

  0
STYLE
  5
254
330
3
100
AcDbSymbolTableRecord
100
AcDbTextStyleTableRecord
  2

 70
     1
 40
0.0
 41
1.0
 50
0.0
 71
     0
 42
0.2
  3
genltshp.shx
  4

  0
STYLE
  5
2EA
330
3
100
AcDbSymbolTableRecord
100
AcDbTextStyleTableRecord
  2
ACISOTS
 70
     0
 40
1.0
 41
1.0
 50
0.0
 71
     0
 42
0.2
  3
isocp.shx
  4

  0
STYLE
  5
2EB
330
3
100
AcDbSymbolTableRecord
100
AcDbTextStyleTableRecord
  2
ACISOGDT
 70
     0
 40
0.0
 41
1.0
 50
0.0
 71
     0
 42
0.2
  3
amgdt.shx
  4

  0
ENDTAB
  0
TABLE
  2
VIEW
  5
6
330
0
100
AcDbSymbolTable
 70
     0
  0
ENDTAB
  0
TABLE
  2
UCS
  5
7
330
0
100
AcDbSymbolTable
 70
     0
  0
ENDTAB
  0
TABLE
  2
APPID
  5
9
330
0
100
AcDbSymbolTable
 70
    10
  0
APPID
  5
12
330
9
100
AcDbSymbolTableRecord
100
AcDbRegAppTableRecord
  2
ACAD
 70
     0
  0
APPID
  5
4E
330
9
100
AcDbSymbolTableRecord
100
AcDbRegAppTableRecord
  2
MCAD_NO_VIS
 70
     0
  0
APPID
  5
4F
330
9
100
AcDbSymbolTableRecord
100
AcDbRegAppTableRecord
  2
ACAD_TEMP_GRAPHIC
 70
     0
  0
APPID
  5
60
330
9
100
AcDbSymbolTableRecord
100
AcDbRegAppTableRecord
  2
ACATTRIBSERVICES
 70
     0
  0
APPID
  5
F7
330
9
100
AcDbSymbolTableRecord
100
AcDbRegAppTableRecord
  2
AD_DRAW
 70
     0
  0
APPID
  5
115
330
9
100
AcDbSymbolTableRecord
100
AcDbRegAppTableRecord
  2
DESIGNERASSEMBLIES
 70
     0
  0
APPID
  5
11A
330
9
100
AcDbSymbolTableRecord
100
AcDbRegAppTableRecord
  2
ACADM_DIM_EDIT
 70
     0
  0
APPID
  5
11B
330
9
100
AcDbSymbolTableRecord
100
AcDbRegAppTableRecord
  2
AMDT_DM_ADJ
 70
     0
  0
APPID
  5
1D3
330
9
100
AcDbSymbolTableRecord
100
AcDbRegAppTableRecord
  2
ACAD_DSTYLE_DIMARC_LENGTH_SYMBOL
 70
     0
  0
APPID
  5
1D4
330
9
100
AcDbSymbolTableRecord
100
AcDbRegAppTableRecord
  2
ACAD_DSTYLE_DIMJOGGED_JOGANGLE_SYMBOL
 70
     0
  0
ENDTAB
  0
TABLE
  2
DIMSTYLE
  5
A
330
0
100
AcDbSymbolTable
 70
    14
100
AcDbDimStyleTable
 71
     1
340
8C
  0
DIMSTYLE
105
27
330
A
100
AcDbSymbolTableRecord
100
AcDbDimStyleTableRecord
  2
Standard
 70
     0
340
11
  0
DIMSTYLE
105
8C
330
A
100
AcDbSymbolTableRecord
100
AcDbDimStyleTableRecord
  2
AM_ANSI
 70
     0
  4
mm
 41
0.1
 42
0.05
 43
0.5
 44
0.1
 47
0.1
 48
0.1
 78
     7
 79
     2
140
0.12
141
0.0
146
0.71
147
0.06
176
   256
177
   256
178
     2
274
     4
284
     7
340
11
371
    -1
372
    -1
1001
ACAD_DSTYLE_DIMJOGGED_JOGANGLE_SYMBOL
1070
   384
1040
0.7853981633974483
1001
ACAD_DSTYLE_DIMARC_LENGTH_SYMBOL
1070
   379
1070
     1
  0
DIMSTYLE
105
8D
330
A
100
AcDbSymbolTableRecord
100
AcDbDimStyleTableRecord
  2
AM_ANSI$3
 70
     0
  4
mm
 41
0.1
 42
0.05
 43
0.5
 44
0.1
 47
0.1
 48
0.1
 78
     7
 79
     2
140
0.12
141
0.0
146
0.71
147
0.06
176
   256
177
   256
178
     2
274
     4
284
     7
288
     1
289
     0
340
11
371
    -1
372
    -1
1001
ACAD_DSTYLE_DIMJOGGED_JOGANGLE_SYMBOL
1070
   384
1040
0.7853981633974483
1001
ACAD_DSTYLE_DIMARC_LENGTH_SYMBOL
1070
   379
1070
     1
  0
DIMSTYLE
105
8E
330
A
100
AcDbSymbolTableRecord
100
AcDbDimStyleTableRecord
  2
AM_ANSI$4
 70
     0
  4
mm
 41
0.1
 42
0.05
 43
0.5
 44
0.1
 47
0.1
 48
0.1
 78
     7
 79
     2
140
0.12
141
0.0
146
0.71
147
0.06
176
   256
177
   256
178
     2
274
     4
284
     7
288
     1
289
     0
340
11
371
    -1
372
    -1
1001
ACAD_DSTYLE_DIMJOGGED_JOGANGLE_SYMBOL
1070
   384
1040
0.7853981633974483
1001
ACAD_DSTYLE_DIMARC_LENGTH_SYMBOL
1070
   379
1070
     1
  0
DIMSTYLE
105
8F
330
A
100
AcDbSymbolTableRecord
100
AcDbDimStyleTableRecord
  2
AM_ANSI$7
 70
     0
  4
mm
 41
0.1
 42
0.05
 43
0.5
 44
0.1
 47
0.1
 48
0.1
 78
     7
 79
     2
140
0.24
141
0.0
146
0.71
147
0.06
176
   256
177
   256
178
     2
274
     4
284
     7
340
11
371
    -1
372
    -1
1001
ACAD_DSTYLE_DIMJOGGED_JOGANGLE_SYMBOL
1070
   384
1040
0.7853981633974483
1001
ACAD_DSTYLE_DIMARC_LENGTH_SYMBOL
1070
   379
1070
     1
  0
DIMSTYLE
105
90
330
A
100
AcDbSymbolTableRecord
100
AcDbDimStyleTableRecord
  2
AM_ANSI$SF
 70
     0
  4
mm
 41
0.1
 42
0.05
 43
0.5
 44
0.1
 47
0.1
 48
0.1
 75
     1
 76
     1
 78
     7
 79
     2
140
0.12
141
0.0
146
0.71
147
0.06
176
   256
177
   256
178
     2
274
     4
284
     7
340
11
371
    -1
372
    -1
1001
ACAD_DSTYLE_DIMJOGGED_JOGANGLE_SYMBOL
1070
   384
1040
0.7853981633974483
1001
ACAD_DSTYLE_DIMARC_LENGTH_SYMBOL
1070
   379
1070
     1
  0
DIMSTYLE
105
95
330
A
100
AcDbSymbolTableRecord
100
AcDbDimStyleTableRecord
  2
AM_ANSI$SH
 70
     0
  4
mm
 41
0.1
 42
0.05
 43
0.5
 44
0.1
 47
0.1
 48
0.1
 75
     1
 76
     1
 78
     7
 79
     2
140
0.12
141
0.0
146
0.71
147
0.06
173
     1
176
   256
177
   256
178
     2
274
     4
284
     7
340
11
343
91
371
    -1
372
    -1
1001
ACAD_DSTYLE_DIMJOGGED_JOGANGLE_SYMBOL
1070
   384
1040
0.7853981633974483
1001
ACAD_DSTYLE_DIMARC_LENGTH_SYMBOL
1070
   379
1070
     1
  0
DIMSTYLE
105
2EC
330
A
100
AcDbSymbolTableRecord
100
AcDbDimStyleTableRecord
  2
AM_ISO
 70
     0
  4
"
 41
2.5
 42
1.0
 43
10.0
 44
1.0
 47
0.1
 48
0.1
 73
     0
 74
     0
 77
     1
 78
     8
 79
     2
140
3.5
141
0.0
143
0.0393701
146
0.71
147
1.5
172
     1
176
   256
177
   256
178
     2
271
     2
272
     3
274
     4
283
     0
284
     8
340
11
371
    -1
372
    -1
1001
ACAD_DSTYLE_DIMARC_LENGTH_SYMBOL
1070
   379
1070
     1
  0
DIMSTYLE
105
2ED
330
A
100
AcDbSymbolTableRecord
100
AcDbDimStyleTableRecord
  2
AM_ISO$3
 70
     0
  4
"
 41
2.5
 42
1.0
 43
10.0
 44
1.0
 47
0.1
 48
0.1
 73
     0
 77
     1
 78
     8
 79
     2
140
3.5
141
0.0
143
0.0393701
146
0.71
147
1.5
176
   256
177
   256
178
     2
271
     2
272
     3
274
     4
283
     0
284
     8
288
     1
289
     0
340
11
371
    -1
372
    -1
1001
ACAD_DSTYLE_DIMARC_LENGTH_SYMBOL
1070
   379
1070
     1
  0
DIMSTYLE
105
2EE
330
A
100
AcDbSymbolTableRecord
100
AcDbDimStyleTableRecord
  2
AM_ISO$4
 70
     0
  4
"
 41
2.5
 42
1.0
 43
10.0
 44
1.0
 47
0.1
 48
0.1
 73
     0
 77
     1
 78
     8
 79
     2
140
3.5
141
0.0
143
0.0393701
146
0.71
147
1.5
176
   256
177
   256
178
     2
271
     2
272
     3
274
     4
283
     0
284
     8
288
     1
289
     0
340
11
371
    -1
372
    -1
1001
ACAD_DSTYLE_DIMARC_LENGTH_SYMBOL
1070
   379
1070
     1
  0
DIMSTYLE
105
2EF
330
A
100
AcDbSymbolTableRecord
100
AcDbDimStyleTableRecord
  2
AM_ISO$6
 70
     0
  4
"
 41
2.5
 42
1.0
 43
10.0
 44
1.0
 47
0.1
 48
0.1
 73
     0
 74
     0
 78
     8
 79
     2
140
3.5
141
0.0
143
0.0393701
146
0.71
147
1.5
172
     1
176
   256
177
   256
178
     2
271
     2
272
     3
274
     4
283
     0
284
     8
340
11
371
    -1
372
    -1
1001
ACAD_DSTYLE_DIMARC_LENGTH_SYMBOL
1070
   379
1070
     1
  0
DIMSTYLE
105
2F0
330
A
100
AcDbSymbolTableRecord
100
AcDbDimStyleTableRecord
  2
AM_ISO$7
 70
     0
  4
"
 41
2.5
 42
1.0
 43
10.0
 44
1.0
 47
0.1
 48
0.1
 73
     0
 74
     0
 77
     1
 78
     8
 79
     2
140
5.0
141
0.0
143
0.0393701
146
0.71
147
1.5
172
     1
176
   256
177
   256
178
     2
271
     2
272
     3
274
     4
283
     0
284
     8
340
11
371
    -1
372
    -1
1001
ACAD_DSTYLE_DIMARC_LENGTH_SYMBOL
1070
   379
1070
     1
  0
DIMSTYLE
105
2F1
330
A
100
AcDbSymbolTableRecord
100
AcDbDimStyleTableRecord
  2
AM_ISO$SF
 70
     0
  4
"
 41
2.5
 42
1.0
 43
10.0
 44
1.0
 47
0.1
 48
0.1
 73
     0
 74
     0
 75
     1
 76
     1
 77
     1
 78
     8
 79
     2
140
3.5
141
0.0
143
0.0393701
146
0.71
147
1.5
172
     1
176
   256
177
   256
178
     2
271
     2
272
     3
274
     4
283
     0
284
     8
340
11
371
    -1
372
    -1
1001
ACAD_DSTYLE_DIMARC_LENGTH_SYMBOL
1070
   379
1070
     1
  0
DIMSTYLE
105
2F2
330
A
100
AcDbSymbolTableRecord
100
AcDbDimStyleTableRecord
  2
AM_ISO$SH
 70
     0
  4
"
 41
2.5
 42
1.0
 43
10.0
 44
1.0
 47
0.1
 48
0.1
 73
     0
 74
     0
 75
     1
 76
     1
 77
     1
 78
     8
 79
     2
140
3.5
141
0.0
143
0.0393701
144
2.0
146
0.71
147
1.5
172
     1
173
     1
176
   256
177
   256
178
     2
271
     2
272
     3
274
     4
283
     0
284
     8
340
11
343
91
371
    -1
372
    -1
1001
ACAD_DSTYLE_DIMARC_LENGTH_SYMBOL
1070
   379
1070
     1
  0
ENDTAB
  0
TABLE
  2
BLOCK_RECORD
  5
1
330
0
100
AcDbSymbolTable
 70
     4
  0
BLOCK_RECORD
  5
1F
102
{ACAD_XDICTIONARY
360
99
102
}
330
1
100
AcDbSymbolTableRecord
100
AcDbBlockTableRecord
  2
*Model_Space
340
22
  0
BLOCK_RECORD
  5
1B
330
1
100
AcDbSymbolTableRecord
100
AcDbBlockTableRecord
  2
*Paper_Space
340
1E
  0
BLOCK_RECORD
  5
23
330
1
100
AcDbSymbolTableRecord
100
AcDbBlockTableRecord
  2
*Paper_Space0
340
26
  0
BLOCK_RECORD
  5
91
330
1
100
AcDbSymbolTableRecord
100
AcDbBlockTableRecord
  2
GENAXEH
340
0
  0
ENDTAB
  0
ENDSEC
  0
SECTION
  2
BLOCKS
  0
BLOCK
  5
20
330
1F
100
AcDbEntity
  8
0
100
AcDbBlockBegin
  2
*Model_Space
 70
     0
 10
0.0
 20
0.0
 30
0.0
  3
*Model_Space
  1

  0
ENDBLK
  5
21
330
1F
100
AcDbEntity
  8
0
100
AcDbBlockEnd
  0
BLOCK
  5
1C
330
1B
100
AcDbEntity
 67
     1
  8
0
100
AcDbBlockBegin
  2
*Paper_Space
 70
     0
 10
0.0
 20
0.0
 30
0.0
  3
*Paper_Space
  1

  0
ENDBLK
  5
1D
330
1B
100
AcDbEntity
 67
     1
  8
0
100
AcDbBlockEnd
  0
BLOCK
  5
24
330
23
100
AcDbEntity
 67
     1
  8
0
100
AcDbBlockBegin
  2
*Paper_Space0
 70
     0
 10
0.0
 20
0.0
 30
0.0
  3
*Paper_Space0
  1

  0
ENDBLK
  5
25
330
23
100
AcDbEntity
 67
     1
  8
0
100
AcDbBlockEnd
  0
BLOCK
  5
93
330
91
100
AcDbEntity
  8
0
100
AcDbBlockBegin
  2
GENAXEH
 70
     0
 10
0.0
 20
0.0
 30
0.0
  3
GENAXEH
  1

  0
LINE
  5
92
330
91
100
AcDbEntity
  8
0
100
AcDbLine
 10
-1.0
 20
0.0
 30
0.0
 11
1.0
 21
0.0
 31
0.0
  0
ENDBLK
  5
94
330
91
100
AcDbEntity
  8
0
100
AcDbBlockEnd
  0
ENDSEC
  0
SECTION
  2
ENTITIES
  0
LINE
  5
367
330
1F
100
AcDbEntity
  8
DATUM_AXIS
  6
Continuous
 62
     7
100
AcDbLine
 10
2.448231477795985
 20
15.82429673287271
 30
0.0
 11
2.456906424795903
 21
795.8570153903729
 31
0.0
  0
LINE
  5
368
330
1F
100
AcDbEntity
  8
DATUM_AXIS
  6
Continuous
 62
     7
100
AcDbLine
 10
1516.450679011596
 20
5.840683776872708
 30
0.0
 11
12.45694698889602
 21
5.840656196672711
 31
0.0
  0
LINE
  5
369
330
1F
100
AcDbEntity
  8
DATUM_AXIS
  6
Continuous
 62
     7
100
AcDbLine
 10
1443.767912086096
 20
405.8406824385727
 30
0.0
 11
1443.736988693596
 21
405.8406824484727
 31
0.0
  0
LINE
  5
36A
330
1F
100
AcDbEntity
  8
0
  6
Continuous
 62
     7
100
AcDbLine
 10
1516.450664341196
 20
805.8406837768727
 30
0.0
 11
12.45693231849603
 21
805.8406561966727
 31
0.0
  0
LINE
  5
36B
330
1F
100
AcDbEntity
  8
DATUM_AXIS
  6
Continuous
 62
     7
100
AcDbLine
 10
1451.263803549196
 20
343.3100369058727
 30
0.0
 11
1451.263801255896
 21
468.3713282571726
 31
0.0
  0
LINE
  5
36C
330
1F
100
AcDbEntity
  8
DATUM_AXIS
  6
Continuous
 62
     7
100
AcDbLine
 10
1526.459394940896
 20
15.82432468027272
 30
0.0
 11
1526.450691385296
 21
795.8570433372728
 31
0.0
  0
ARC
  5
36D
330
1F
100
AcDbEntity
  8
DATUM_AXIS
  6
Continuous
 62
     7
100
AcDbCircle
 10
286.534599072396
 20
405.8212999649727
 30
0.0
 40
1166.6335426233
100
AcDbArc
 50
359.2587254912999
 51
0.0009519219999157
  0
ARC
  5
36E
330
1F
100
AcDbEntity
  8
DATUM_AXIS
  6
Continuous
 62
     7
100
AcDbCircle
 10
400.0865881785959
 20
405.5334978963727
 30
0.0
 40
332.4998754246
100
AcDbArc
 50
179.9470725799003
 51
217.9935697185008
  0
ARC
  5
36F
330
1F
100
AcDbEntity
  8
DATUM_AXIS
  6
Continuous
 62
     7
100
AcDbCircle
 10
116.5259019595959
 20
183.9916660441727
 30
0.0
 40
27.3559288137
100
AcDbArc
 50
0.0464416817999797
 51
38.07806125330076
  0
ARC
  5
370
330
1F
100
AcDbEntity
  8
DATUM_AXIS
  6
Continuous
 62
     7
100
AcDbCircle
 10
154.784968068896
 20
88.2009422182727
 30
0.0
 40
10.8244847957
100
AcDbArc
 50
180.0698370273006
 51
269.9082062955001
  0
ARC
  5
371
330
1F
100
AcDbEntity
  8
DATUM_AXIS
  6
Continuous
 62
     7
100
AcDbCircle
 10
286.534599058996
 20
405.8600236480727
 30
0.0
 40
1166.6335426284
100
AcDbArc
 50
359.9990501220995
 51
0.7412765527002123
  0
ARC
  5
372
330
1F
100
AcDbEntity
  8
DATUM_AXIS
  6
Continuous
 62
     7
100
AcDbCircle
 10
400.0865904312958
 20
406.1478342361727
 30
0.0
 40
332.4998757656
100
AcDbArc
 50
142.0064333730002
 51
180.0529304727006
  0
ARC
  5
373
330
1F
100
AcDbEntity
  8
0
  6
Continuous
 62
     7
100
AcDbCircle
 10
116.525891310496
 20
627.6896429138726
 30
0.0
 40
27.3559288137
100
AcDbArc
 50
321.9219560502999
 51
359.9535756131994
  0
ARC
  5
374
330
1F
100
AcDbEntity
  8
0
  6
Continuous
 62
     7
100
AcDbCircle
 10
154.7851432344959
 20
723.4801826597727
 30
0.0
 40
10.8247219577
100
AcDbArc
 50
90.09278303009816
 51
179.9291461195995
  0
ARC
  5
375
330
1F
100
AcDbEntity
  8
DATUM_AXIS
  6
Continuous
 62
     7
100
AcDbCircle
 10
1082.440053303796
 20
405.8247146844726
 30
0.0
 40
374.9290396619
100
AcDbArc
 50
357.6182534108993
 51
0.0024401937005678
  0
ARC
  5
376
330
1F
100
AcDbEntity
  8
DATUM_AXIS
  6
Continuous
 62
     7
100
AcDbCircle
 10
1726.341225945796
 20
405.7258581881726
 30
0.0
 40
282.6050365322
100
AcDbArc
 50
173.4023651991994
 51
179.9767202884005
  0
ARC
  5
377
330
1F
100
AcDbEntity
  8
DATUM_AXIS
  6
Continuous
 62
     7
100
AcDbCircle
 10
1208.517113119196
 20
282.0738629491727
 30
0.0
 40
128.0012743439
100
AcDbArc
 50
269.9701374168975
 51
270.1292500648003
  0
ARC
  5
378
330
1F
100
AcDbEntity
  8
DATUM_AXIS
  6
Continuous
 62
     7
100
AcDbCircle
 10
1208.867421951296
 20
221.9985820828727
 30
0.0
 40
104.6477529324
100
AcDbArc
 50
270.0436549775011
 51
270.2957415882031
  0
ARC
  5
379
330
1F
100
AcDbEntity
  8
DATUM_AXIS
  6
Continuous
 62
     7
100
AcDbCircle
 10
1418.718651290196
 20
163.5934176834727
 30
0.0
 40
27.3555802689
100
AcDbArc
 50
143.3177886121002
 51
179.9507226917997
  0
ARC
  5
37A
330
1F
100
AcDbEntity
  8
DATUM_AXIS
  6
Continuous
 62
     7
100
AcDbCircle
 10
1439.110421658596
 20
343.4527654005727
 30
0.0
 40
12.1542167273
100
AcDbArc
 50
349.7222221113
 51
359.3271531732995
  0
ARC
  5
37B
330
1F
100
AcDbEntity
  8
DATUM_AXIS
  6
Continuous
 62
     7
100
AcDbCircle
 10
1380.473511972096
 20
88.20741356677268
 30
0.0
 40
10.8246464444
100
AcDbArc
 50
270.091991059803
 51
359.9287258524004
  0
ARC
  5
37C
330
1F
100
AcDbEntity
  8
DATUM_AXIS
  6
Continuous
 62
     7
100
AcDbCircle
 10
1082.440053282896
 20
405.8566380499727
 30
0.0
 40
374.9290396594
100
AcDbArc
 50
359.9975617400001
 51
2.381748522600756
  0
ARC
  5
37D
330
1F
100
AcDbEntity
  8
DATUM_AXIS
  6
Continuous
 62
     7
100
AcDbCircle
 10
1726.341225720196
 20
405.9555208657727
 30
0.0
 40
282.6050365319
100
AcDbArc
 50
180.0232825836994
 51
186.5976376731002
  0
ARC
  5
37E
330
1F
100
AcDbEntity
  8
0
  6
Continuous
 62
     7
100
AcDbCircle
 10
1208.517108579896
 20
529.6074932560727
 30
0.0
 40
128.0012743987
100
AcDbArc
 50
89.87075203660131
 51
90.02986468440132
  0
ARC
  5
37F
330
1F
100
AcDbEntity
  8
0
  6
Continuous
 62
     7
100
AcDbCircle
 10
1208.867415208496
 20
589.6827741129727
 30
0.0
 40
104.6477530094
100
AcDbArc
 50
89.70426051329928
 51
89.95634712379809
  0
CIRCLE
  5
380
330
1F
100
AcDbEntity
  8
DATUM_AXIS
  6
Continuous
 62
     7
100
AcDbCircle
 10
1309.886227689096
 20
405.8406799889726
 30
0.0
 40
56.5414154673
  0
CIRCLE
  5
381
330
1F
100
AcDbEntity
  8
DATUM_AXIS
  6
Continuous
 62
     7
100
AcDbCircle
 10
1309.886226824596
 20
405.8406799889726
 30
0.0
 40
28.9395491738
  0
ARC
  5
382
330
1F
100
AcDbEntity
  8
0
  6
Continuous
 62
     7
100
AcDbCircle
 10
1309.886226763496
 20
405.8406799889726
 30
0.0
 40
28.5749999889
100
AcDbArc
 50
0.0000010506997504
 51
180.0000010506997
  0
CIRCLE
  5
383
330
1F
100
AcDbEntity
  8
DATUM_AXIS
  6
Continuous
 62
     7
100
AcDbCircle
 10
1309.886226763496
 20
405.8406799889726
 30
0.0
 40
28.5749999889
  0
ARC
  5
384
330
1F
100
AcDbEntity
  8
0
  6
Continuous
 62
     7
100
AcDbCircle
 10
1418.718643863996
 20
648.0879416310727
 30
0.0
 40
27.3555802689
100
AcDbArc
 50
180.0492696573002
 51
216.6822038456987
  0
ARC
  5
385
330
1F
100
AcDbEntity
  8
0
  6
Continuous
 62
     7
100
AcDbCircle
 10
1439.110419361396
 20
468.2285994113725
 30
0.0
 40
12.1542167273
100
AcDbArc
 50
0.6728484811995971
 51
10.27777954319992
  0
ARC
  5
386
330
1F
100
AcDbEntity
  8
0
  6
Continuous
 62
     7
100
AcDbCircle
 10
1380.473500088996
 20
723.4739506581727
 30
0.0
 40
10.8246456509
100
AcDbArc
 50
0.0712674707004363
 51
89.90800979079956
  0
SPLINE
  5
387
330
1F
100
AcDbEntity
  8
DATUM_AXIS
  6
Continuous
 62
     7
100
AcDbSpline
210
0.0
220
0.0
230
1.0
 70
     8
 71
     3
 72
    12
 73
     8
 74
     6
 42
0.0000000001
 43
0.0000000001
 44
0.0000000001
 12
0.9999999999999998
 22
0.0000000183427467
 32
0.0
 13
-0.0000000183373028
 23
0.9999999999999998
 33
0.0
 40
0.0
 40
0.0
 40
0.0
 40
0.0
 40
1.63659495588114
 40
6.170077196628863
 40
13.20379812885996
 40
22.0578367034183
 40
31.86946334008655
 40
31.86946334008655
 40
31.86946334008655
 40
31.86946334008655
 10
1449.027886150996
 20
374.0906825404727
 30
0.0
 10
1449.573417802956
 20
374.0906825504792
 30
0.0
 10
1449.445613370871
 20
377.2255890955801
 30
0.0
 10
1450.259531572254
 20
380.6159631354022
 30
0.0
 10
1450.359583199287
 20
387.9332409591632
 30
0.0
 10
1450.66324637468
 20
396.2959159776801
 30
0.0
 10
1450.689552239369
 20
402.57014035875
 30
0.0
 10
1450.689552179396
 20
405.8406825709727
 30
0.0
 11
1449.027886150996
 21
374.0906825404727
 31
0.0
 11
1449.541369344196
 21
375.6446381575727
 31
0.0
 11
1450.004589167796
 21
380.1543929870728
 31
0.0
 11
1450.372202437996
 21
387.1785008048727
 31
0.0
 11
1450.608224606696
 21
396.0293929980728
 31
0.0
 11
1450.689552179396
 21
405.8406825709727
 31
0.0
  0
SPLINE
  5
388
330
1F
100
AcDbEntity
  8
DATUM_AXIS
  6
Continuous
 62
     7
100
AcDbSpline
210
0.0
220
0.0
230
1.0
 70
     8
 71
     3
 72
    12
 73
     8
 74
     6
 42
0.0000000001
 43
0.0000000001
 44
0.0000000001
 12
0.9999999999999998
 22
0.0000000183335937
 32
0.0
 13
0.0000000183373028
 23
-0.9999999999999998
 33
0.0
 40
0.0
 40
0.0
 40
0.0
 40
0.0
 40
1.636594955819228
 40
6.170077196456496
 40
13.20379812877451
 40
22.05783670338605
 40
31.86946334003751
 40
31.86946334003751
 40
31.86946334003751
 40
31.86946334003751
 10
1449.027884986496
 20
437.5906825404726
 30
0.0
 10
1449.573416638435
 20
437.5906825504741
 30
0.0
 10
1449.445612321393
 20
434.4557760007962
 30
0.0
 10
1450.259530647053
 20
431.0654019908272
 30
0.0
 10
1450.359582542651
 20
423.7481241707326
 30
0.0
 10
1450.663246024459
 20
415.3854491633041
 30
0.0
 10
1450.689552119423
 20
409.1112247831899
 30
0.0
 10
1450.689552179396
 20
405.8406825709727
 30
0.0
 11
1449.027884986496
 21
437.5906825404726
 31
0.0
 11
1449.541368236696
 21
436.0367269422726
 31
0.0
 11
1450.004588225696
 21
431.5269721298727
 31
0.0
 11
1450.372201753596
 21
424.5028643254726
 31
0.0
 11
1450.608224246796
 21
415.6519721408726
 31
0.0
 11
1450.689552179396
 21
405.8406825709727
 31
0.0
  0
SPLINE
  5
389
330
1F
100
AcDbEntity
  8
DATUM_AXIS
  6
Continuous
 62
     7
100
AcDbSpline
210
0.0
220
0.0
230
1.0
 70
     8
 71
     3
 72
    12
 73
     8
 74
     6
 42
0.0000000001
 43
0.0000000001
 44
0.0000000001
 12
0.9999999999999998
 22
0.000000018337341
 32
0.0
 13
0.0000111212705791
 23
0.9999999999381588
 33
0.0
 40
0.0
 40
0.0
 40
0.0
 40
0.0
 40
3.111793708383273
 40
6.226357099244966
 40
9.345313333519275
 40
12.4598738233396
 40
15.60749725186777
 40
15.60749725186777
 40
15.60749725186777
 40
15.60749725186777
 10
1516.486093611296
 20
5.819243539772685
 30
0.0
 10
1517.523358180757
 20
5.819243558793359
 30
0.0
 10
1519.613370565138
 20
6.15242967665827
 30
0.0
 10
1522.429847226602
 20
7.594140769447329
 30
0.0
 10
1524.670350645617
 20
9.834240187795447
 30
0.0
 10
1526.116530203673
 20
12.66193800816703
 30
0.0
 10
1526.450693960872
 20
14.7642848543282
 30
0.0
 10
1526.450705629396
 20
15.8134926637727
 30
0.0
 11
1516.486093611296
 21
5.819243539772685
 31
0.0
 11
1519.559107810196
 21
6.308982058672711
 31
0.0
 11
1522.332501663896
 21
7.726300529572739
 31
0.0
 11
1524.537948167596
 21
9.931724232772722
 31
0.0
 11
1525.955294397696
 21
12.70510064227269
 31
0.0
 11
1526.450705629396
 21
15.8134926637727
 31
0.0
  0
SPLINE
  5
38A
330
1F
100
AcDbEntity
  8
DATUM_AXIS
  6
Continuous
 62
     7
100
AcDbSpline
210
0.0
220
0.0
230
1.0
 70
     8
 71
     3
 72
    12
 73
     8
 74
     6
 42
0.0000000001
 43
0.0000000001
 44
0.0000000001
 12
0.0000111579452612
 22
-0.9999999999377502
 32
0.0
 13
0.9999999999999998
 23
0.000000018337341
 33
0.0
 40
0.0
 40
0.0
 40
0.0
 40
0.0
 40
3.147623428596485
 40
6.262183918304733
 40
9.381140152508994
 40
12.49570354339484
 40
15.60749725181717
 40
15.60749725181717
 40
15.60749725181717
 40
15.60749725181717
 10
2.456920789495967
 20
15.8134647167727
 30
0.0
 10
2.456932496499273
 20
14.76425690730585
 30
0.0
 10
2.791096330760494
 20
12.66191007339952
 30
0.0
 10
4.237275992588248
 20
9.834212306149614
 30
0.0
 10
6.477779493646911
 20
7.594112969946836
 30
0.0
 10
9.294256208004039
 20
6.152401980466674
 30
0.0
 10
11.38426860462192
 20
5.819215939252033
 30
0.0
 10
12.42153317409602
 20
5.819215958272707
 30
0.0
 11
2.456920789495967
 21
15.8134647167727
 31
0.0
 11
2.95233213519603
 21
12.70507271337268
 31
0.0
 11
4.369678466995907
 21
9.931696355972718
 31
0.0
 11
6.575125051495916
 21
7.726272733672715
 31
0.0
 11
9.348518957196034
 21
6.308954364472697
 31
0.0
 11
12.42153317409602
 21
5.819215958272707
 31
0.0
  0
SPLINE
  5
38B
330
1F
100
AcDbEntity
  8
0
  6
Continuous
 62
     7
100
AcDbSpline
210
0.0
220
0.0
230
1.0
 70
     8
 71
     3
 72
    12
 73
     8
 74
     6
 42
0.0000000001
 43
0.0000000001
 44
0.0000000001
 12
0.0000111212705791
 22
0.9999999999381588
 32
0.0
 13
0.9999999999999998
 23
0.000000018337341
 33
0.0
 40
0.0
 40
0.0
 40
0.0
 40
0.0
 40
3.147623428512285
 40
6.262183918378188
 40
9.381140152511134
 40
12.49570354337271
 40
15.60749725175623
 40
15.60749725175623
 40
15.60749725175623
 40
15.60749725175623
 10
2.456906484895995
 20
795.8678473098728
 30
0.0
 10
2.456918153419938
 20
796.9170551193119
 30
0.0
 10
2.791081910449709
 20
799.01940196552
 30
0.0
 10
4.237261468681316
 20
801.8470997857816
 30
0.0
 10
6.477764887617385
 20
804.0871992041282
 30
0.0
 10
9.294241549058327
 20
805.5289102968847
 30
0.0
 10
11.38425393343473
 20
805.8620964147522
 30
0.0
 10
12.4215185028959
 20
805.8620964337729
 30
0.0
 11
2.456906484895995
 21
795.8678473098728
 31
0.0
 11
2.952317716495969
 21
798.9762393313726
 31
0.0
 11
4.369663946695965
 21
801.7496157408727
 31
0.0
 11
6.575110450295966
 21
803.9550394439727
 31
0.0
 11
9.348504303995952
 21
805.3723579148726
 31
0.0
 11
12.4215185028959
 21
805.8620964337729
 31
0.0
  0
SPLINE
  5
38C
330
1F
100
AcDbEntity
  8
0
  6
Continuous
 62
     7
100
AcDbSpline
210
0.0
220
0.0
230
1.0
 70
     8
 71
     3
 72
    12
 73
     8
 74
     6
 42
0.0000000001
 43
0.0000000001
 44
0.0000000001
 12
0.9999999999999998
 22
0.000000018337341
 32
0.0
 13
0.0000111579452612
 23
-0.9999999999377502
 33
0.0
 40
0.0
 40
0.0
 40
0.0
 40
0.0
 40
3.111793708422344
 40
6.226357099308014
 40
9.345313333512216
 40
12.45987382335518
 40
15.6074972518371
 40
15.6074972518371
 40
15.6074972518371
 40
15.6074972518371
 10
1516.486078940096
 20
805.8621240153726
 30
0.0
 10
1517.52334350957
 20
805.8621240343935
 30
0.0
 10
1519.613355906186
 20
805.5289379931778
 30
0.0
 10
1522.429832620552
 20
804.0872270037018
 30
0.0
 10
1524.670336121607
 20
801.8471276674517
 30
0.0
 10
1526.116515783558
 20
799.0194299002389
 30
0.0
 10
1526.450679617693
 20
796.9170830663015
 30
0.0
 10
1526.450691324696
 20
795.8678752568728
 30
0.0
 11
1516.486078940096
 21
805.8621240153726
 31
0.0
 11
1519.559093156996
 21
805.3723856091727
 31
0.0
 11
1522.332487062696
 21
803.9550672399727
 31
0.0
 11
1524.537933647196
 21
801.7496436176728
 31
0.0
 11
1525.955279979096
 21
798.9762672601727
 31
0.0
 11
1526.450691324696
 21
795.8678752568728
 31
0.0
  0
SPLINE
  5
38D
330
1F
100
AcDbEntity
  8
DATUM_AXIS
  6
Continuous
 62
     7
100
AcDbSpline
210
0.0
220
0.0
230
1.0
 70
     8
 71
     3
 72
    16
 73
    12
 74
    10
 42
0.0000000001
 43
0.0000000001
 44
0.0000000001
 12
0.9999997518881242
 22
0.0007044314659341
 32
0.0
 13
-0.0000061793684701
 23
-0.9999999999809077
 33
0.0
 40
0.0
 40
0.0
 40
0.0
 40
0.0
 40
39.87793180455423
 40
82.42219068585379
 40
127.8741837858959
 40
177.7148081580928
 40
234.0305963034651
 40
294.0063949671768
 40
351.0015695919917
 40
401.5183322586787
 40
446.9681025428378
 40
446.9681025428378
 40
446.9681025428378
 40
446.9681025428378
 10
1208.953404001096
 20
724.5822453765726
 30
0.0
 10
1222.246044637884
 20
724.5916091332258
 30
0.0
 10
1249.801308967562
 20
721.7509949496066
 30
0.0
 10
1290.658200392181
 20
708.5938028292027
 30
0.0
 10
1330.855731639153
 20
685.6925522898514
 30
0.0
 10
1369.182448912978
 20
652.2650124022277
 30
0.0
 10
1403.352025316793
 20
608.2554999455883
 30
0.0
 10
1429.997452489842
 20
556.6632785588328
 30
0.0
 10
1447.275279478995
 20
503.3474579018119
 30
0.0
 10
1456.161540330473
 20
453.0070351966621
 30
0.0
 10
1457.946673672855
 20
420.9906061380364
 30
0.0
 10
1457.946580055896
 20
405.8406827102727
 30
0.0
 11
1208.953404001096
 21
724.5822453765726
 31
0.0
 11
1248.624163237896
 21
720.5226509898728
 31
0.0
 11
1289.155739503896
 21
707.5918625702727
 31
0.0
 11
1328.734050497296
 21
685.2436864550727
 31
0.0
 11
1366.442815067296
 21
652.6532444142726
 31
0.0
 11
1401.183515271596
 21
608.3299802773726
 31
0.0
 11
1428.899524709995
 21
555.1423948258728
 31
0.0
 11
1446.581982898196
 21
500.9595506504726
 31
0.0
 11
1455.405705844496
 21
451.2193734926726
 31
0.0
 11
1457.946580055896
 21
405.8406827102727
 31
0.0
  0
SPLINE
  5
38E
330
1F
100
AcDbEntity
  8
0
  6
Continuous
 62
     7
100
AcDbSpline
210
0.0
220
0.0
230
1.0
 70
     8
 71
     3
 72
    10
 73
     6
 74
     4
 42
0.0000000001
 43
0.0000000001
 44
0.0000000001
 12
0.9240301641368462
 22
0.3823195728251867
 32
0.0
 13
0.9999999487900751
 23
-0.0003200310098331
 33
0.0
 40
0.0
 40
0.0
 40
0.0
 40
0.0
 40
33.37275554921926
 40
66.23993614468202
 40
98.77300551750742
 40
98.77300551750742
 40
98.77300551750742
 40
98.77300551750742
 10
285.8879519664959
 20
705.2609756752726
 30
0.0
 10
296.1670962291106
 20
709.5139948904647
 30
0.0
 10
317.1382397312811
 20
716.6567713550143
 30
0.0
 10
349.5093267909358
 20
723.1302544719806
 30
0.0
 10
371.3394482414262
 20
724.5326339975206
 30
0.0
 10
382.183804143696
 20
724.5291634671725
 30
0.0
 11
285.8879519664959
 21
705.2609756752726
 31
0.0
 11
317.485580859096
 21
716.0001870668727
 31
0.0
 11
349.718930426396
 21
722.4237947733727
 31
0.0
 11
382.183804143696
 21
724.5291634671725
 31
0.0
  0
SPLINE
  5
38F
330
1F
100
AcDbEntity
  8
0
  6
Continuous
 62
     7
100
AcDbSpline
210
0.0
220
0.0
230
1.0
 70
     8
 71
     3
 72
     9
 73
     5
 74
     3
 42
0.0000000001
 43
0.0000000001
 44
0.0000000001
 12
0.9999998285100229
 22
-0.000585644879246
 32
0.0
 13
0.9999997690637384
 23
0.0006796119995233
 33
0.0
 40
0.0
 40
0.0
 40
0.0
 40
0.0
 40
413.2394575545805
 40
826.7700401024006
 40
826.7700401024006
 40
826.7700401024006
 40
826.7700401024006
 10
382.1838003232959
 20
724.5427052765726
 30
0.0
 10
519.9302625526811
 20
724.4620347524996
 30
0.0
 10
795.5202866745988
 20
724.3875821786046
 30
0.0
 10
1071.110302303725
 20
724.4883712126161
 30
0.0
 10
1208.953797986596
 20
724.5820513279727
 30
0.0
 11
382.1838003232959
 21
724.5427052765726
 31
0.0
 11
795.4232428846959
 21
724.4313879491726
 31
0.0
 11
1208.953797986596
 21
724.5820513279727
 31
0.0
  0
SPLINE
  5
390
330
1F
100
AcDbEntity
  8
0
  6
Continuous
 62
     7
100
AcDbSpline
210
0.0
220
0.0
230
1.0
 70
     8
 71
     3
 72
     9
 73
     5
 74
     3
 42
0.0000000001
 43
0.0000000001
 44
0.0000000001
 12
-0.0007451727793744
 22
0.9999997223587261
 32
0.0
 13
-0.0009779518799381
 23
0.9999995218049459
 33
0.0
 40
0.0
 40
0.0
 40
0.0
 40
0.0
 40
37.7148514702421
 40
75.42302490868085
 40
75.42302490868085
 40
75.42302490868085
 40
75.42302490868085
 10
1391.363120804596
 20
648.0644181258728
 30
0.0
 10
1391.353752777698
 20
660.6360317922203
 30
0.0
 10
1391.333556546835
 20
685.7770320469078
 30
0.0
 10
1391.310434104397
 20
710.9180297807472
 30
0.0
 10
1391.298141844696
 20
723.4874149162727
 30
0.0
 11
1391.363120804596
 21
648.0644181258728
 31
0.0
 11
1391.332823076196
 21
685.7792574264727
 31
0.0
 11
1391.298141844696
 21
723.4874149162727
 31
0.0
  0
SPLINE
  5
391
330
1F
100
AcDbEntity
  8
0
  6
Continuous
 62
     7
100
AcDbSpline
210
0.0
220
0.0
230
1.0
 70
     8
 71
     3
 72
     9
 73
     5
 74
     3
 42
0.0000000001
 43
0.0000000001
 44
0.0000000001
 12
-0.9999995061558704
 22
0.0009938249418229
 32
0.0
 13
-0.9999995163076658
 23
-0.0009835570316713
 33
0.0
 40
0.0
 40
0.0
 40
0.0
 40
0.0
 40
612.8719086188056
 40
1225.723366698387
 40
1225.723366698387
 40
1225.723366698387
 40
1225.723366698387
 10
1380.490855039096
 20
734.2981850879728
 30
0.0
 10
1176.200319720559
 20
734.5012142176154
 30
0.0
 10
767.6258400343973
 20
734.7045693387647
 30
0.0
 10
359.0513583319391
 20
734.5053617048606
 30
0.0
 10
154.767637782596
 20
734.3044369178726
 30
0.0
 11
1380.490855039096
 21
734.2981850879728
 31
0.0
 11
767.6190226834959
 21
734.6039286845727
 31
0.0
 11
154.767637782596
 21
734.3044369178726
 31
0.0
  0
SPLINE
  5
392
330
1F
100
AcDbEntity
  8
0
  6
Continuous
 62
     7
100
AcDbSpline
210
0.0
220
0.0
230
1.0
 70
     8
 71
     3
 72
     9
 73
     5
 74
     3
 42
0.0000000001
 43
0.0000000001
 44
0.0000000001
 12
-0.0009680621036369
 22
-0.999999531427772
 32
0.0
 13
-0.0006753909928312
 23
-0.9999997719234773
 33
0.0
 40
0.0
 40
0.0
 40
0.0
 40
0.0
 40
47.6187408250892
 40
95.82612381114138
 40
95.82612381114138
 40
95.82612381114138
 40
95.82612381114138
 10
143.960460746696
 20
723.4935688297728
 30
0.0
 10
143.9450947805574
 20
707.6206626590162
 30
0.0
 10
143.9164984154201
 20
675.6786340628334
 30
0.0
 10
143.8925764392815
 20
643.7366016200992
 30
0.0
 10
143.881723495196
 20
627.6674776230727
 30
0.0
 11
143.960460746696
 21
723.4935688297728
 31
0.0
 11
143.9178283619959
 21
675.8748470887726
 31
0.0
 11
143.881723495196
 21
627.6674776230727
 31
0.0
  0
SPLINE
  5
393
330
1F
100
AcDbEntity
  8
DATUM_AXIS
  6
Continuous
 62
     7
100
AcDbSpline
210
0.0
220
0.0
230
1.0
 70
     8
 71
     3
 72
    12
 73
     8
 74
     6
 42
0.0000000001
 43
0.0000000001
 44
0.0000000001
 12
0.0000122403113829
 22
0.9999999999250874
 32
0.0
 13
-0.597339932015734
 23
0.8019881580294301
 33
0.0
 40
0.0
 40
0.0
 40
0.0
 40
0.0
 40
50.94662187481852
 40
102.9523044876125
 40
152.8847974555837
 40
199.0144498864153
 40
240.6226041035984
 40
240.6226041035984
 40
240.6226041035984
 40
240.6226041035984
 10
1467.684292810396
 20
405.8406828856726
 30
0.0
 10
1467.684500677901
 20
422.8228901760067
 30
0.0
 10
1465.590491010454
 20
457.177707963419
 30
0.0
 10
1456.138723420041
 20
507.3912781582024
 30
0.0
 10
1440.81875088452
 20
554.4609447574976
 30
0.0
 10
1420.993449472088
 20
595.985123911729
 30
0.0
 10
1405.065176290326
 20
620.6232227872915
 30
0.0
 10
1396.780438953196
 20
631.7463051071727
 30
0.0
 11
1467.684292810396
 21
405.8406828856726
 31
0.0
 11
1464.566187781596
 21
456.6917959657726
 31
0.0
 11
1454.905691593996
 21
507.7923423173727
 31
0.0
 11
1439.373094003596
 21
555.2475029017728
 31
0.0
 11
1419.431893385596
 21
596.8442978660725
 31
0.0
 11
1396.780438953196
 21
631.7463051071727
 31
0.0
  0
SPLINE
  5
394
330
1F
100
AcDbEntity
  8
DATUM_AXIS
  6
Continuous
 62
     7
100
AcDbSpline
210
0.0
220
0.0
230
1.0
 70
     8
 71
     3
 72
    19
 73
    15
 74
    13
 42
0.0000000001
 43
0.0000000001
 44
0.0000000001
 12
-0.2174373989492603
 22
0.9760742684540867
 32
0.0
 13
-0.1141852674764565
 23
0.9934594730995977
 33
0.0
 40
0.0
 40
0.0
 40
0.0
 40
0.0
 40
2.001711419681371
 40
3.889337740153513
 40
5.657646254698856
 40
7.487859517269153
 40
9.505113047923645
 40
11.83159029008105
 40
14.57565436445429
 40
17.75038354030282
 40
21.37072214606351
 40
25.19756545333291
 40
28.98853884692744
 40
32.67592757341578
 40
32.67592757341578
 40
32.67592757341578
 40
32.67592757341578
 10
1451.069628331996
 20
341.2842004197727
 30
0.0
 10
1450.924546023815
 20
341.9354734229799
 30
0.0
 10
1450.646415657321
 20
343.2017432940451
 30
0.0
 10
1450.252581237865
 20
345.0460540092204
 30
0.0
 10
1449.880574580249
 20
346.8365415283991
 30
0.0
 10
1449.509818254349
 20
348.6713928951332
 30
0.0
 10
1449.11413302573
 20
350.6909906114181
 30
0.0
 10
1448.675540899279
 20
353.0125430131536
 30
0.0
 10
1448.186909095529
 20
355.7172170111737
 30
0.0
 10
1447.651191087877
 20
358.8515296367241
 30
0.0
 10
1447.093074170703
 20
362.3479850315681
 30
0.0
 10
1446.547906363151
 20
366.054258297028
 30
0.0
 10
1446.04687117635
 20
369.7893012890613
 30
0.0
 10
1445.746641559937
 20
372.2640201969293
 30
0.0
 10
1445.606293070596
 20
373.4851106173727
 30
0.0
 11
1451.069628331996
 21
341.2842004197727
 31
0.0
 11
1450.640214707296
 21
343.2393097636727
 31
0.0
 11
1450.246032297496
 21
345.0853198810727
 31
0.0
 11
1449.886325777396
 21
346.8166564231728
 31
0.0
 11
1449.523847884996
 21
348.6106158329727
 31
0.0
 11
1449.136021062396
 21
350.5902375550726
 31
0.0
 11
1448.704175523996
 21
352.8762834402727
 31
0.0
 11
1448.216377606796
 21
355.5766428304727
 31
0.0
 11
1447.681580191996
 21
358.7060033186727
 31
0.0
 11
1447.111023580996
 21
362.2811000689726
 31
0.0
 11
1446.554224081096
 21
366.0672199845728
 31
0.0
 11
1446.050298955196
 21
369.8245513165727
 31
0.0
 11
1445.606293070596
 21
373.4851106173727
 31
0.0
  0
SPLINE
  5
395
330
1F
100
AcDbEntity
  8
DATUM_AXIS
  6
Continuous
 62
     7
100
AcDbSpline
210
0.0
220
0.0
230
1.0
 70
     8
 71
     3
 72
    28
 73
    24
 74
    22
 42
0.0000000001
 43
0.0000000001
 44
0.0000000001
 12
-0.2284410481910447
 22
0.9735577473891197
 32
0.0
 13
0.0000047101426796
 23
0.9999999999889073
 33
0.0
 40
0.0
 40
0.0
 40
0.0
 40
0.0
 40
1.946561945178843
 40
3.781734206259488
 40
5.50051500721862
 40
7.279074930564668
 40
9.238939521495787
 40
11.49864413948132
 40
14.16315826920023
 40
17.24481025029665
 40
20.75768638128109
 40
24.46947494539916
 40
28.14519850822094
 40
31.71940512386956
 40
35.1874021247107
 40
38.59947578797241
 40
42.04835564752841
 40
45.57108466361706
 40
49.07714097336834
 40
52.53601766834873
 40
55.99163089533992
 40
59.51840942912869
 40
63.11931935423793
 40
63.11931935423793
 40
63.11931935423793
 40
63.11931935423793
 10
1451.263803549196
 20
343.3100369058727
 30
0.0
 10
1451.115578665487
 20
343.9417337267065
 30
0.0
 10
1450.831411746364
 20
345.1698748883004
 30
0.0
 10
1450.428953701954
 20
346.958674882549
 30
0.0
 10
1450.04878609576
 20
348.6950582764571
 30
0.0
 10
1449.669884366093
 20
350.4742380609052
 30
0.0
 10
1449.265495461088
 20
352.4323064138569
 30
0.0
 10
1448.817240711514
 20
354.682815523799
 30
0.0
 10
1448.317817231212
 20
357.3043274594319
 30
0.0
 10
1447.770224270602
 20
360.3417676914308
 30
0.0
 10
1447.199680102318
 20
363.7295879519798
 30
0.0
 10
1446.642292063888
 20
367.3201525036964
 30
0.0
 10
1446.129999275729
 20
370.9380778367034
 30
0.0
 10
1445.676106542161
 20
374.4818743668627
 30
0.0
 10
1445.278549070624
 20
377.9439792731352
 30
0.0
 10
1444.929901482575
 20
381.3693597728181
 30
0.0
 10
1444.62414876295
 20
384.817155700967
 30
0.0
 10
1444.361956710556
 20
388.2999620469426
 30
0.0
 10
1444.14667534593
 20
391.7893215616175
 30
0.0
 10
1443.979544378546
 20
395.2589178719325
 30
0.0
 10
1443.858879474413
 20
398.7373550869468
 30
0.0
 10
1443.784688763865
 20
402.2644484093294
 30
0.0
 10
1443.767906432496
 20
404.6403791357162
 30
0.0
 10
1443.767912086096
 20
405.8406824440726
 30
0.0
 11
1451.263803549196
 21
343.3100369058727
 31
0.0
 11
1450.825020175996
 21
345.2065000765727
 31
0.0
 11
1450.422214417296
 21
346.9969203480727
 31
0.0
 11
1450.054619824096
 21
348.6759324554727
 31
0.0
 11
1449.684175314096
 21
350.4154859228727
 31
0.0
 11
1449.287808222796
 21
352.3348510115726
 31
0.0
 11
1448.846433268996
 21
354.5510308577727
 31
0.0
 11
1448.347843251996
 21
357.1684806743727
 31
0.0
 11
1447.801174887396
 21
360.2012570643727
 31
0.0
 11
1447.217906546096
 21
363.6653726446727
 31
0.0
 11
1446.648653657596
 21
367.3332501635727
 31
0.0
 11
1446.133428243596
 21
370.9726850761727
 31
0.0
 11
1445.679446701696
 21
374.5179429921727
 31
0.0
 11
1445.283893416396
 21
377.9633081101727
 31
0.0
 11
1444.938455570796
 21
381.3578506976727
 31
0.0
 11
1444.633867301896
 21
384.7932543525727
 31
0.0
 11
1444.369478774296
 21
388.3060478886727
 31
0.0
 11
1444.153628665796
 21
391.8054534921727
 31
0.0
 11
1443.987247146496
 21
395.2603261643726
 31
0.0
 11
1443.867477085596
 21
398.7138631783727
 31
0.0
 11
1443.793332758596
 21
402.2398622488727
 31
0.0
 11
1443.767912086096
 21
405.8406824440726
 31
0.0
  0
SPLINE
  5
396
330
1F
100
AcDbEntity
  8
DATUM_AXIS
  6
Continuous
 62
     7
100
AcDbSpline
210
0.0
220
0.0
230
1.0
 70
     8
 71
     3
 72
    22
 73
    18
 74
    16
 42
0.0000000001
 43
0.0000000001
 44
0.0000000001
 12
0.2174847502034779
 22
-0.9760637189389486
 32
0.0
 13
0.0415961710651477
 23
0.999134504735333
 33
0.0
 40
0.0
 40
0.0
 40
0.0
 40
0.0
 40
0.3967792327287308
 40
1.719007359484059
 40
3.467282419925277
 40
5.583288502712093
 40
7.945887108175433
 40
10.55494985566772
 40
13.46549200562066
 40
16.68758732269425
 40
20.21558483106637
 40
24.06999488515417
 40
28.28282732734062
 40
32.89035198924209
 40
37.92970461917057
 40
43.43646445488367
 40
49.44320008389135
 40
49.44320008389135
 40
49.44320008389135
 40
49.44320008389135
 10
1451.069628331996
 20
341.2842004197727
 30
0.0
 10
1451.098392809434
 20
341.155106481941
 30
0.0
 10
1451.621156611723
 20
342.2001311302965
 30
0.0
 10
1451.585785947756
 20
342.8556879962227
 30
0.0
 10
1452.09640492159
 20
344.7610148641089
 30
0.0
 10
1452.441433871566
 20
346.7217823800791
 30
0.0
 10
1452.875941667176
 20
349.0718680342903
 30
0.0
 10
1453.302895267874
 20
351.6558330792654
 30
0.0
 10
1453.750418065751
 20
354.5378998557311
 30
0.0
 10
1454.206286007011
 20
357.7249251538201
 30
0.0
 10
1454.667110899122
 20
361.2299251711274
 30
0.0
 10
1455.125513197388
 20
365.0677422921713
 30
0.0
 10
1455.575101335436
 20
369.2688107146576
 30
0.0
 10
1456.007325505912
 20
373.868579331412
 30
0.0
 10
1456.41094483408
 20
378.9038140497884
 30
0.0
 10
1456.771328739996
 20
384.4098459492557
 30
0.0
 10
1456.96192278694
 20
388.2431450982512
 30
0.0
 10
1457.045208521196
 20
390.2436573741728
 30
0.0
 11
1451.069628331996
 21
341.2842004197727
 31
0.0
 11
1451.310934517096
 21
341.5991688063727
 31
0.0
 11
1451.651996950896
 21
342.8766521273727
 31
0.0
 11
1452.026157268696
 21
344.5844196008727
 31
0.0
 11
1452.433663959896
 21
346.6608155262727
 31
0.0
 11
1452.852818155996
 21
348.9859352931727
 31
0.0
 11
1453.282898858996
 21
351.5593064302727
 31
0.0
 11
1453.728934999296
 21
354.4354683464726
 31
0.0
 11
1454.186110138896
 21
357.6249650346727
 31
0.0
 11
1454.646314071196
 21
361.1228184849727
 31
0.0
 11
1455.103861942596
 21
364.9499749764727
 31
0.0
 11
1455.552478140896
 21
369.1388531905726
 31
0.0
 11
1455.983844635696
 21
373.7261406741728
 31
0.0
 11
1456.386784220296
 21
378.7493582306727
 31
0.0
 11
1456.746700834996
 21
384.2443435735727
 31
0.0
 11
1457.045208521196
 21
390.2436573741728
 31
0.0
  0
SPLINE
  5
397
330
1F
100
AcDbEntity
  8
DATUM_AXIS
  6
Continuous
 62
     7
100
AcDbSpline
210
0.0
220
0.0
230
1.0
 70
     8
 71
     3
 72
    22
 73
    18
 74
    16
 42
0.0000000001
 43
0.0000000001
 44
0.0000000001
 12
0.2385163734179802
 22
-0.9711384760226188
 32
0.0
 13
0.0129512255108994
 23
0.9999161293617408
 33
0.0
 40
0.0
 40
0.0
 40
0.0
 40
0.0
 40
0.3129340844322646
 40
1.553426971984706
 40
3.210282298351044
 40
5.224128302538384
 40
7.478786147545172
 40
9.973843431610761
 40
12.76217668721607
 40
15.85397934307429
 40
19.24438786191559
 40
22.95366115156355
 40
27.01330747292149
 40
31.458932384087
 40
36.32687482945897
 40
41.65183231650033
 40
47.46531406481974
 40
47.46531406481974
 40
47.46531406481974
 40
47.46531406481974
 10
1451.263803549196
 20
343.3100369058727
 30
0.0
 10
1451.288683516842
 20
343.2087361292556
 30
0.0
 10
1451.425136978941
 20
344.3009626192499
 30
0.0
 10
1451.426004512782
 20
344.7872231877496
 30
0.0
 10
1451.575712022363
 20
346.6962323600842
 30
0.0
 10
1451.68169309159
 20
348.5688603698481
 30
0.0
 10
1451.812546719713
 20
350.8518266758542
 30
0.0
 10
1451.941686978175
 20
353.3511022768565
 30
0.0
 10
1452.076781843532
 20
356.1427419262301
 30
0.0
 10
1452.21439826771
 20
359.2288740624036
 30
0.0
 10
1452.353445250718
 20
362.6235015343887
 30
0.0
 10
1452.491728927218
 20
366.3406218172241
 30
0.0
 10
1452.627322055819
 20
370.4099175099537
 30
0.0
 10
1452.757655713547
 20
374.8657537782197
 30
0.0
 10
1452.879345504664
 20
379.7437633507872
 30
0.0
 10
1452.987984002835
 20
385.0781356380168
 30
0.0
 10
1453.045411613387
 20
388.7905238334412
 30
0.0
 10
1453.070508851096
 20
390.7281885560728
 30
0.0
 11
1451.263803549196
 21
343.3100369058727
 31
0.0
 11
1451.338139553796
 21
343.6140137135728
 31
0.0
 11
1451.441938376996
 21
344.8501562653727
 31
0.0
 11
1451.555409194296
 21
346.5031214634727
 31
0.0
 11
1451.678773893096
 21
348.5131853628728
 31
0.0
 11
1451.805525028096
 21
350.7642775750726
 31
0.0
 11
1451.935482669796
 21
353.2559480713727
 31
0.0
 11
1452.070186568296
 21
356.0410256652727
 31
0.0
 11
1452.208194467396
 21
359.1297466760728
 31
0.0
 11
1452.347068262696
 21
362.5173098110727
 31
0.0
 11
1452.485101191396
 21
366.2240139060728
 31
0.0
 11
1452.620411570796
 21
370.2814046138728
 31
0.0
 11
1452.750499233096
 21
374.7251258079727
 31
0.0
 11
1452.871999145696
 21
379.5915517472727
 31
0.0
 11
1452.980515242396
 21
384.9154034070727
 31
0.0
 11
1453.070508851096
 21
390.7281885560728
 31
0.0
  0
SPLINE
  5
398
330
1F
100
AcDbEntity
  8
DATUM_AXIS
  6
Continuous
 62
     7
100
AcDbSpline
210
0.0
220
0.0
230
1.0
 70
     8
 71
     3
 72
    12
 73
     8
 74
     6
 42
0.0000000001
 43
0.0000000001
 44
0.0000000001
 12
0.0000000183373028
 22
-0.9999999999999998
 32
0.0
 13
0.9999999999999998
 23
0.0000000183335937
 33
0.0
 40
0.0
 40
0.0
 40
0.0
 40
0.0
 40
9.811626636651453
 40
18.66566521126576
 40
25.69938614358368
 40
30.23286838422104
 40
31.86946334013533
 40
31.86946334013533
 40
31.86946334013533
 40
31.86946334013533
 10
1447.366218957996
 20
405.8406825100727
 30
0.0
 10
1447.366219017969
 20
402.5701402978555
 30
0.0
 10
1447.392525112884
 20
396.2959159177389
 30
0.0
 10
1447.696188594878
 20
387.9332409103156
 30
0.0
 10
1447.796240490413
 20
380.6159630902152
 30
0.0
 10
1448.610158816141
 20
377.2255890802294
 30
0.0
 10
1448.482354499024
 20
374.0906825304711
 30
0.0
 10
1449.027886150996
 20
374.0906825404727
 30
0.0
 11
1447.366218957996
 21
405.8406825100727
 31
0.0
 11
1447.447546890596
 21
396.0293929401727
 31
0.0
 11
1447.683569383896
 21
387.1785007555727
 31
0.0
 11
1448.051182911796
 21
380.1543929511727
 31
0.0
 11
1448.514402900796
 21
375.6446381387727
 31
0.0
 11
1449.027886150996
 21
374.0906825404727
 31
0.0
  0
SPLINE
  5
399
330
1F
100
AcDbEntity
  8
DATUM_AXIS
  6
Continuous
 62
     7
100
AcDbSpline
210
0.0
220
0.0
230
1.0
 70
     8
 71
     3
 72
    12
 73
     8
 74
     6
 42
0.0000000001
 43
0.0000000001
 44
0.0000000001
 12
0.0000122770020337
 22
-0.9999999999246377
 32
0.0
 13
-0.5973399026020358
 23
-0.8019881799374541
 33
0.0
 40
0.0
 40
0.0
 40
0.0
 40
0.0
 40
50.94662188084861
 40
102.9523044936462
 40
152.8847974616006
 40
199.0144498923768
 40
240.6226041097095
 40
240.6226041097095
 40
240.6226041097095
 40
240.6226041097095
 10
1467.684292810396
 20
405.8406828856726
 30
0.0
 10
1467.684501300989
 20
388.8584755933363
 30
0.0
 10
1465.59049289368
 20
354.5036577270602
 30
0.0
 10
1456.138727144358
 20
304.2900871836963
 30
0.0
 10
1440.818756335439
 20
257.220420022458
 30
0.0
 10
1420.993456445815
 20
215.6962401411415
 30
0.0
 10
1405.065184167706
 20
191.0581406813445
 30
0.0
 10
1396.780447238496
 20
179.9350580575727
 30
0.0
 11
1467.684292810396
 21
405.8406828856726
 31
0.0
 11
1464.566189646596
 21
354.9895696851728
 31
0.0
 11
1454.905695333096
 21
303.8890229792727
 31
0.0
 11
1439.373099483296
 21
256.4338618251727
 31
0.0
 11
1419.431900390896
 21
214.8370661295727
 31
0.0
 11
1396.780447238496
 21
179.9350580575727
 31
0.0
  0
SPLINE
  5
39A
330
1F
100
AcDbEntity
  8
DATUM_AXIS
  6
Continuous
 62
     7
100
AcDbSpline
210
0.0
220
0.0
230
1.0
 70
     8
 71
     3
 72
     9
 73
     5
 74
     3
 42
0.0000000001
 43
0.0000000001
 44
0.0000000001
 12
-0.000968098780483
 22
0.9999995313922658
 32
0.0
 13
-0.0006754276686339
 23
0.9999997718987062
 33
0.0
 40
0.0
 40
0.0
 40
0.0
 40
0.0
 40
47.6187408251529
 40
95.82612381112927
 40
95.82612381112927
 40
95.82612381112927
 40
95.82612381112927
 10
143.9604723969959
 20
88.18774838657271
 30
0.0
 10
143.9451058486889
 20
104.0606545567869
 30
0.0
 10
143.9165083118374
 20
136.0026831519167
 30
0.0
 10
143.8925851643297
 20
167.9447155937694
 30
0.0
 10
143.881731630896
 20
184.0138395903727
 30
0.0
 11
143.9604723969959
 21
88.18774838657271
 31
0.0
 11
143.917838265696
 21
135.8064701260727
 31
0.0
 11
143.881731630896
 21
184.0138395903727
 31
0.0
  0
SPLINE
  5
39B
330
1F
100
AcDbEntity
  8
DATUM_AXIS
  6
Continuous
 62
     7
100
AcDbSpline
210
0.0
220
0.0
230
1.0
 70
     8
 71
     3
 72
     9
 73
     5
 74
     3
 42
0.0000000001
 43
0.0000000001
 44
0.0000000001
 12
-0.9999995061194203
 22
-0.0009938616177983
 32
0.0
 13
-0.9999995163437381
 23
0.0009835203556959
 33
0.0
 40
0.0
 40
0.0
 40
0.0
 40
0.0
 40
612.8719086188193
 40
1225.723366698417
 40
1225.723366698417
 40
1225.723366698417
 40
1225.723366698417
 10
1380.490867085596
 20
77.3831774793727
 30
0.0
 10
1176.2003317745
 20
77.18014085717169
 30
0.0
 10
767.6258520957873
 20
76.97677075130568
 30
0.0
 10
359.0513703860136
 20
77.175963400193
 30
0.0
 10
154.7676498292959
 20
77.37688069487274
 30
0.0
 11
1380.490867085596
 21
77.3831774793727
 31
0.0
 11
767.6190347411959
 21
77.07741140517271
 31
0.0
 11
154.7676498292959
 21
77.37688069487274
 31
0.0
  0
SPLINE
  5
39C
330
1F
100
AcDbEntity
  8
DATUM_AXIS
  6
Continuous
 62
     7
100
AcDbSpline
210
0.0
220
0.0
230
1.0
 70
     8
 71
     3
 72
     9
 73
     5
 74
     3
 42
0.0000000001
 43
0.0000000001
 44
0.0000000001
 12
-0.0007451361022452
 22
-0.999999722386056
 32
0.0
 13
-0.0009779152028093
 23
-0.9999995218408137
 33
0.0
 40
0.0
 40
0.0
 40
0.0
 40
0.0
 40
37.7148514702309
 40
75.42302490869776
 40
75.42302490869776
 40
75.42302490869776
 40
75.42302490869776
 10
1391.363129688396
 20
163.6169448402727
 30
0.0
 10
1391.353762122589
 20
151.0453311735853
 30
0.0
 10
1391.333566813881
 20
125.9043309181514
 30
0.0
 10
1391.310445293488
 20
100.7633331834585
 30
0.0
 10
1391.298153494796
 20
88.1939480474727
 30
0.0
 11
1391.363129688396
 21
163.6169448402727
 31
0.0
 11
1391.332833343296
 21
125.9021055385727
 31
0.0
 11
1391.298153494796
 21
88.1939480474727
 31
0.0
  0
SPLINE
  5
39D
330
1F
100
AcDbEntity
  8
DATUM_AXIS
  6
Continuous
 62
     7
100
AcDbSpline
210
0.0
220
0.0
230
1.0
 70
     8
 71
     3
 72
     9
 73
     5
 74
     3
 42
0.0000000001
 43
0.0000000001
 44
0.0000000001
 12
0.9999998284885432
 22
0.0005856815552242
 32
0.0
 13
0.9999997690886633
 23
-0.0006795753235451
 33
0.0
 40
0.0
 40
0.0
 40
0.0
 40
0.0
 40
413.2394575545635
 40
826.770040102458
 40
826.770040102458
 40
826.770040102458
 40
826.770040102458
 10
382.183812011996
 20
87.13862067687273
 30
0.0
 10
519.9302742384166
 20
87.21929625293292
 30
0.0
 10
795.520298357623
 20
87.29375893443865
 30
0.0
 10
1071.110313990464
 20
87.19298000788295
 30
0.0
 10
1208.953809676796
 20
87.0993049480727
 30
0.0
 11
382.183812011996
 21
87.13862067687273
 31
0.0
 11
795.423254569296
 21
87.24995316027269
 31
0.0
 11
1208.953809676796
 21
87.0993049480727
 31
0.0
  0
SPLINE
  5
39E
330
1F
100
AcDbEntity
  8
DATUM_AXIS
  6
Continuous
 62
     7
100
AcDbSpline
210
0.0
220
0.0
230
1.0
 70
     8
 71
     3
 72
    10
 73
     6
 74
     4
 42
0.0000000001
 43
0.0000000001
 44
0.0000000001
 12
0.9240301781584888
 22
-0.3823195389362043
 32
0.0
 13
0.999999948778337
 23
0.0003200676858455
 33
0.0
 40
0.0
 40
0.0
 40
0.0
 40
0.0
 40
33.37275554933287
 40
66.2399361447229
 40
98.77300551753069
 40
98.77300551753069
 40
98.77300551753069
 40
98.77300551753069
 10
285.887962947996
 20
106.4203467464727
 30
0.0
 10
296.1671073666259
 20
102.1673279082555
 30
0.0
 10
317.1382511308216
 20
95.02455221298436
 30
0.0
 10
349.5093384278522
 20
88.55107028301732
 30
0.0
 10
371.3394599297594
 20
87.14869155819682
 30
0.0
 10
382.183815831896
 20
87.15216248627269
 30
0.0
 11
285.887962947996
 21
106.4203467464727
 31
0.0
 11
317.485592234596
 21
95.68113651377268
 31
0.0
 11
349.718942037396
 21
89.25752998937269
 31
0.0
 11
382.183815831896
 21
87.15216248627269
 31
0.0
  0
SPLINE
  5
39F
330
1F
100
AcDbEntity
  8
DATUM_AXIS
  6
Continuous
 62
     7
100
AcDbSpline
210
0.0
220
0.0
230
1.0
 70
     8
 71
     3
 72
    16
 73
    12
 74
    10
 42
0.0000000001
 43
0.0000000001
 44
0.0000000001
 12
0.9999997519139592
 22
-0.0007043947899096
 32
0.0
 13
-0.0000062160675092
 23
0.9999999999806801
 33
0.0
 40
0.0
 40
0.0
 40
0.0
 40
0.0
 40
39.87793180454762
 40
82.4221906859138
 40
127.8741837858689
 40
177.7148081580517
 40
234.0305963034634
 40
294.0063949671218
 40
351.0015695919499
 40
401.5183322586132
 40
446.9681025613547
 40
446.9681025613547
 40
446.9681025613547
 40
446.9681025613547
 10
1208.953415691296
 20
87.09911089947269
 30
0.0
 10
1222.246056328426
 20
87.08974763034087
 30
0.0
 10
1249.801320553942
 20
89.93036282461549
 30
0.0
 10
1290.658211495969
 20
103.0875564435498
 30
0.0
 10
1330.855741903045
 20
125.9888084571064
 30
0.0
 10
1369.182457950848
 20
159.4163497504137
 30
0.0
 10
1403.352032740567
 20
203.4258634602536
 30
0.0
 10
1429.99745802128
 20
255.0180858243249
 30
0.0
 10
1447.275283055166
 20
308.3339071149366
 30
0.0
 10
1456.161542061572
 20
358.6743301521229
 30
0.0
 10
1457.946674228843
 20
390.6907592825182
 30
0.0
 10
1457.946580055896
 20
405.8406827164727
 30
0.0
 11
1208.953415691296
 21
87.09911089947269
 31
0.0
 11
1248.624174779196
 21
91.15870674117275
 31
0.0
 11
1289.155750570996
 21
104.0894966473727
 31
0.0
 11
1328.734060744696
 21
126.4376742140727
 31
0.0
 11
1366.442824119396
 21
159.0281176378727
 31
0.0
 11
1401.183522698096
 21
203.3513830489726
 31
0.0
 11
1428.899530185696
 21
256.5389695169727
 31
0.0
 11
1446.581986386796
 21
310.7218143408728
 31
0.0
 11
1455.405707508796
 21
360.4619918222726
 31
0.0
 11
1457.946580055896
 21
405.8406827164727
 31
0.0
  0
SPLINE
  5
3A0
330
1F
100
AcDbEntity
  8
DATUM_AXIS
  6
Continuous
 62
     7
100
AcDbSpline
210
0.0
220
0.0
230
1.0
 70
     8
 71
     3
 72
    20
 73
    16
 74
    14
 42
0.0000000001
 43
0.0000000001
 44
0.0000000001
 12
0.9968841638661769
 22
-0.0788794259159722
 32
0.0
 13
0.9999998702503464
 23
-0.0005094107286923
 33
0.0
 40
0.0
 40
0.0
 40
0.0
 40
0.0
 40
128.6351367573855
 40
257.5574964678831
 40
374.1345396215539
 40
471.1192604898169
 40
547.6560620742978
 40
607.6384863310724
 40
656.0295362516888
 40
695.9706187953331
 40
729.6228166256958
 40
758.5142696899327
 40
783.8160827144695
 40
806.4336487865343
 40
827.07683381849
 40
827.07683381849
 40
827.07683381849
 40
827.07683381849
 10
382.018233799196
 20
168.7319597795727
 30
0.0
 10
424.7630107159284
 20
165.3497378662243
 30
0.0
 10
510.4042896925306
 20
159.2660026671039
 30
0.0
 10
634.9466549580837
 20
152.6302514880432
 30
0.0
 10
749.0530309024977
 20
148.8357751177806
 30
0.0
 10
845.7493897570349
 20
147.5275551834298
 30
0.0
 10
923.5865243867992
 20
147.8104842807243
 30
0.0
 10
985.2157317431307
 20
148.8508437703712
 30
0.0
 10
1034.637751925319
 20
150.1275247293393
 30
0.0
 10
1075.280974525981
 20
151.3447979070065
 30
0.0
 10
1109.427211133775
 20
152.3687546845399
 30
0.0
 10
1138.698622633431
 20
153.1529698917468
 30
0.0
 10
1164.296709808076
 20
153.693910547979
 30
0.0
 10
1187.148990794484
 20
154.0065754584791
 30
0.0
 10
1201.569338248893
 20
154.0759791362159
 30
0.0
 10
1208.450399033396
 20
154.0724738495727
 30
0.0
 11
382.018233799196
 21
168.7319597795727
 31
0.0
 11
510.332425669196
 21
159.6508489807726
 31
0.0
 11
639.0759156066959
 21
152.8619881016727
 31
0.0
 11
755.5901840118959
 21
149.0367758913727
 31
0.0
 11
852.5663079807959
 21
147.7454735009727
 31
0.0
 11
929.1026173306958
 21
148.0199691814727
 31
0.0
 11
989.076787094196
 21
149.0150475193726
 31
0.0
 11
1037.452416342596
 21
150.2366068674727
 31
0.0
 11
1077.376323070896
 21
151.4078226068727
 31
0.0
 11
1111.013978183496
 21
152.3970532875727
 31
0.0
 11
1139.895461547396
 21
153.1559860011726
 31
0.0
 11
1165.191854870896
 21
153.6796530245727
 31
0.0
 11
1187.807418336196
 21
153.9806250684727
 31
0.0
 11
1208.450399033396
 21
154.0724738495727
 31
0.0
  0
SPLINE
  5
3A1
330
1F
100
AcDbEntity
  8
DATUM_AXIS
  6
Continuous
 62
     7
100
AcDbSpline
210
0.0
220
0.0
230
1.0
 70
     8
 71
     3
 72
    20
 73
    16
 74
    14
 42
0.0000000001
 43
0.0000000001
 44
0.0000000001
 12
0.9999490589619233
 22
0.0100935366033888
 32
0.0
 13
0.9999993517271851
 23
0.0011386593914588
 33
0.0
 40
0.0
 40
0.0
 40
0.0
 40
0.0
 40
127.9497272714124
 40
256.4101887841392
 40
372.7465554191976
 40
469.6318301861252
 40
546.1267154239791
 40
606.0770823681721
 40
654.4278758282903
 40
694.316997265074
 40
727.9082643823828
 40
756.732167629983
 40
781.9612384823103
 40
804.5014096972884
 40
825.069050891852
 40
825.069050891852
 40
825.069050891852
 40
825.069050891852
 10
383.897229416196
 20
113.8603857726727
 30
0.0
 10
426.5449658760238
 20
114.2908741912086
 30
0.0
 10
512.01132475222
 20
115.0906331067372
 30
0.0
 10
636.2565045274302
 20
116.0539120203782
 30
0.0
 10
750.1486139782866
 20
116.727805808759
 30
0.0
 10
846.7200362940277
 20
117.1218062319013
 30
0.0
 10
924.496676152731
 20
117.3113914418461
 30
0.0
 10
986.0953329458743
 20
117.3800502338276
 30
0.0
 10
1035.492097579587
 20
117.3874165210138
 30
0.0
 10
1076.102488928036
 20
117.3707304187693
 30
0.0
 10
1110.203912982285
 20
117.3496810233018
 30
0.0
 10
1139.418655888562
 20
117.3338305313069
 30
0.0
 10
1164.94970413947
 20
117.3274099946617
 30
0.0
 10
1187.728665671349
 20
117.3319357926495
 30
0.0
 10
1202.097933346489
 20
117.3430660521706
 30
0.0
 10
1208.953809300196
 20
117.3508725647727
 30
0.0
 11
383.897229416196
 21
113.8603857726727
 31
0.0
 11
511.8413807316959
 21
115.0548952892727
 31
0.0
 11
640.298034377596
 21
116.0439888945727
 31
0.0
 11
756.6323942454959
 21
116.7273013945727
 31
0.0
 11
853.516873571996
 21
117.1198982565727
 31
0.0
 11
930.011532617296
 21
117.3059227058727
 31
0.0
 11
989.9618612712959
 21
117.3736797776727
 31
0.0
 11
1038.312653853896
 21
117.3828915853727
 31
0.0
 11
1078.201772650396
 21
117.3683782403727
 31
0.0
 11
1111.793034264596
 21
117.3491503240727
 31
0.0
 11
1140.616933875796
 21
117.3346717025727
 31
0.0
 11
1165.846004131296
 21
117.3291840065727
 31
0.0
 11
1188.386174759096
 21
117.3343289235727
 31
0.0
 11
1208.953809300196
 21
117.3508725647727
 31
0.0
  0
SPLINE
  5
3A2
330
1F
100
AcDbEntity
  8
DATUM_AXIS
  6
Continuous
 62
     7
100
AcDbSpline
210
0.0
220
0.0
230
1.0
 70
     8
 71
     3
 72
    10
 73
     6
 74
     4
 42
0.0000000001
 43
0.0000000001
 44
0.0000000001
 12
0.998728693124973
 22
-0.0504083081335183
 32
0.0
 13
0.9969412264191012
 23
-0.0781549170940546
 33
0.0
 40
0.0
 40
0.0
 40
0.0
 40
0.0
 40
0.5718582489233949
 40
1.143386132638576
 40
1.713768380575458
 40
1.713768380575458
 40
1.713768380575458
 40
1.713768380575458
 10
380.309811300296
 20
168.8663374526727
 30
0.0
 10
380.5001883808293
 20
168.8567286503992
 30
0.0
 10
380.8804803750744
 20
168.8305483089563
 30
0.0
 10
381.4495355467434
 20
168.7805150020704
 30
0.0
 10
381.8286879399339
 20
168.7468191720058
 30
0.0
 10
382.018233799196
 20
168.7319597795727
 30
0.0
 11
380.309811300296
 21
168.8663374526727
 31
0.0
 11
380.8804322364959
 21
168.8287395267727
 31
0.0
 11
381.4499114982961
 21
168.7803919079726
 31
0.0
 11
382.018233799196
 21
168.7319597795727
 31
0.0
  0
SPLINE
  5
3A3
330
1F
100
AcDbEntity
  8
DATUM_AXIS
  6
Continuous
 62
     7
100
AcDbSpline
210
0.0
220
0.0
230
1.0
 70
     8
 71
     3
 72
    10
 73
     6
 74
     4
 42
0.0000000001
 43
0.0000000001
 44
0.0000000001
 12
0.9999670014046669
 22
0.0081237984809311
 32
0.0
 13
0.9999434304080743
 23
0.0106365400263773
 33
0.0
 40
0.0
 40
0.0
 40
0.0
 40
0.0
 40
0.5795274451635459
 40
1.147095938590974
 40
1.713504641025497
 40
1.713504641025497
 40
1.713504641025497
 40
1.713504641025497
 10
382.183811695396
 20
113.8431806079726
 30
0.0
 10
382.3769811359199
 20
113.8447499293655
 30
0.0
 10
382.7593321859012
 20
113.8480923796341
 30
0.0
 10
383.3304654961442
 20
113.854424158547
 30
0.0
 10
383.7084371958876
 20
113.8583775630611
 30
0.0
 10
383.897229416196
 20
113.8603857726727
 30
0.0
 11
382.183811695396
 21
113.8431806079726
 31
0.0
 11
382.7633160309959
 21
113.8483560034727
 31
0.0
 11
383.330852670696
 21
113.8543690999727
 31
0.0
 11
383.897229416196
 21
113.8603857726727
 31
0.0
  0
SPLINE
  5
3A4
330
1F
100
AcDbEntity
  8
DATUM_AXIS
  6
Continuous
 62
     7
100
AcDbSpline
210
0.0
220
0.0
230
1.0
 70
     8
 71
     3
 72
    29
 73
    25
 74
    23
 42
0.0000000001
 43
0.0000000001
 44
0.0000000001
 12
-0.0000070399740623
 22
-0.9999999999752194
 32
0.0
 13
0.9999926475278153
 23
-0.0038346955955608
 33
0.0
 40
0.0
 40
0.0
 40
0.0
 40
0.0
 40
25.86749440266014
 40
53.06937913618842
 40
81.13672879209811
 40
109.7568972274484
 40
138.6277366698884
 40
167.4062075330979
 40
195.1148154855241
 40
219.4580461758629
 40
239.6901043440551
 40
256.5961244486958
 40
270.8585146278974
 40
283.0042900617869
 40
293.4649868432305
 40
302.550726332691
 40
310.4905451493732
 40
317.4750379350152
 40
323.658151884851
 40
329.1290846714971
 40
333.9456132229257
 40
338.1922128258186
 40
341.9178368504885
 40
345.1651495446041
 40
345.1651495446041
 40
345.1651495446041
 40
345.1651495446041
 10
249.687451484496
 20
405.8406604491727
 30
0.0
 10
249.6873907823327
 20
397.2181623151664
 30
0.0
 10
250.04333537074
 20
379.5263485988495
 30
0.0
 10
251.7117778098408
 20
352.5242088463167
 30
0.0
 10
254.683496744295
 20
324.7092131778122
 30
0.0
 10
259.0836356542388
 20
296.5189427778065
 30
0.0
 10
265.0274909889174
 20
268.3679628009739
 30
0.0
 10
272.5614425426169
 20
240.9109945620514
 30
0.0
 10
281.4416197952454
 20
215.447797614403
 30
0.0
 10
291.0678280315788
 20
193.3330162430054
 30
0.0
 10
300.7095045991982
 20
175.2245730655393
 30
0.0
 10
309.9635478621825
 20
160.7826112450534
 30
0.0
 10
318.7439971311164
 20
149.2999327633908
 30
0.0
 10
327.0244864621887
 20
140.1980663056377
 30
0.0
 10
334.7986190942845
 20
133.0252292871603
 30
0.0
 10
342.0693773634043
 20
127.4293898320897
 30
0.0
 10
348.8408106662469
 20
123.1432832288256
 30
0.0
 10
355.1055776794092
 20
119.9186168874362
 30
0.0
 10
360.870656352819
 20
117.5862116855034
 30
0.0
 10
366.106933539862
 20
115.91010783335
 30
0.0
 10
370.8452303325473
 20
114.8822447402622
 30
0.0
 10
375.0541576824647
 20
114.1813967160925
 30
0.0
 10
378.7879654119098
 20
113.9124901098875
 30
0.0
 10
381.1118035119829
 20
113.8475324034345
 30
0.0
 10
382.194233118096
 20
113.8433815848727
 30
0.0
 11
249.687451484496
 21
405.8406604491727
 31
0.0
 11
250.209091675396
 21
379.9784262420728
 31
0.0
 11
251.892938200596
 21
352.8287081231727
 31
0.0
 11
254.886321892996
 21
324.9214371928727
 31
0.0
 11
259.319653919296
 21
296.6467204230728
 31
0.0
 11
265.313835626196
 21
268.4049932135728
 31
0.0
 11
272.9725500620959
 21
240.6643285060728
 31
0.0
 11
282.155174224396
 21
214.5215213087727
 31
0.0
 11
291.929738627496
 21
192.2268858290727
 31
0.0
 11
301.4869818428959
 21
174.3944636760727
 31
0.0
 11
310.6474514705959
 21
160.1853359062727
 31
0.0
 11
319.3415860544959
 21
148.8792403175727
 31
0.0
 11
327.5380747703959
 21
139.9161251436726
 31
0.0
 11
335.243509566996
 21
132.8413494052727
 31
0.0
 11
342.457358651396
 21
127.3176691594727
 31
0.0
 11
349.172663332996
 21
123.0814673376727
 31
0.0
 11
355.389760746996
 21
119.8985694100727
 31
0.0
 11
361.119177582596
 21
117.5737724639726
 31
0.0
 11
366.3385354948959
 21
115.9338308371726
 31
0.0
 11
371.038965671596
 21
114.8826869646727
 31
0.0
 11
375.233949183596
 21
114.2225949094727
 31
0.0
 11
378.948080990496
 21
113.9301922860727
 31
0.0
 11
382.194233118096
 21
113.8433815848727
 31
0.0
  0
SPLINE
  5
3A5
330
1F
100
AcDbEntity
  8
DATUM_AXIS
  6
Continuous
 62
     7
100
AcDbSpline
210
0.0
220
0.0
230
1.0
 70
     8
 71
     3
 72
    28
 73
    24
 74
    22
 42
0.0000000001
 43
0.0000000001
 44
0.0000000001
 12
-0.000032660223139
 22
-0.999999999466655
 32
0.0
 13
0.9997589204810532
 23
-0.0219567966370148
 33
0.0
 40
0.0
 40
0.0
 40
0.0
 40
0.0
 40
23.40338806734409
 40
47.96568091691763
 40
73.1977681616468
 40
98.73721743710005
 40
124.2005611827745
 40
149.1356781058676
 40
172.5108866946426
 40
192.2715630596703
 40
207.8709386618482
 40
220.062443494291
 40
229.502632965763
 40
236.740141430241
 40
242.197382988701
 40
246.2003420789886
 40
249.0493763340558
 40
251.0836433839699
 40
252.5130971654361
 40
253.4573494446224
 40
254.0010981830221
 40
254.3367808769443
 40
254.9054262298836
 40
254.9054262298836
 40
254.9054262298836
 40
254.9054262298836
 10
310.012589144396
 20
405.8406616392726
 30
0.0
 10
310.0123343577706
 20
398.039532287652
 30
0.0
 10
310.308871158988
 20
382.0494318819226
 30
0.0
 10
311.6906377584941
 20
357.6832664454863
 30
0.0
 10
314.1322359366371
 20
332.6834007637592
 30
0.0
 10
317.7117376986006
 20
307.5161362031703
 30
0.0
 10
322.4837544782041
 20
282.6462021285142
 30
0.0
 10
328.4233039906039
 20
258.7688795123415
 30
0.0
 10
335.2558870163254
 20
237.114037821136
 30
0.0
 10
342.426389531027
 20
218.8777400320195
 30
0.0
 10
349.29390201884
 20
204.5761438378601
 30
0.0
 10
355.4973953657017
 20
193.8136651055792
 30
0.0
 10
360.9386145467086
 20
185.8645842800746
 30
0.0
 10
365.5830833631527
 20
180.1213709685048
 30
0.0
 10
369.4236212670694
 20
176.0842798805367
 30
0.0
 10
372.4866231127498
 20
173.3477424926165
 30
0.0
 10
374.8470416939659
 20
171.5528750978573
 30
0.0
 10
376.6214348464392
 20
170.4179900481314
 30
0.0
 10
377.9155843988966
 20
169.7191803240791
 30
0.0
 10
378.8020280306014
 20
169.318280427473
 30
0.0
 10
379.3652716279327
 20
169.0889782009335
 30
0.0
 10
379.8192325377531
 20
168.9253401025736
 30
0.0
 10
380.1203083479657
 20
168.8705769981637
 30
0.0
 10
380.309811102696
 20
168.8664151213727
 30
0.0
 11
310.012589144396
 21
405.8406616392726
 31
0.0
 11
310.4466691322961
 21
382.4412995198727
 31
0.0
 11
311.841961676996
 21
357.9186693847727
 31
0.0
 11
314.304641295696
 21
332.8070498467727
 31
0.0
 11
317.9184920678959
 21
307.5245746536727
 31
0.0
 11
322.744267512196
 21
282.5226994025726
 31
0.0
 11
328.8045442033961
 21
258.3352418595727
 31
0.0
 11
335.893659778596
 21
236.0609334094727
 31
0.0
 11
343.181118969496
 21
217.6931009585727
 31
0.0
 11
349.980451988996
 21
203.6535286834727
 31
0.0
 11
356.106003755996
 21
193.1126366135727
 31
0.0
 11
361.4678392195959
 21
185.3429585173727
 31
0.0
 11
366.039890139296
 21
179.7324434642727
 31
0.0
 11
369.817402317796
 21
175.7939301446727
 31
0.0
 11
372.813022415296
 21
173.1387575118727
 31
0.0
 11
375.089153948296
 21
171.4252168992727
 31
0.0
 11
376.8063850251961
 21
170.3346391354727
 31
0.0
 11
378.066858276796
 21
169.6604393910727
 31
0.0
 11
378.926718374996
 21
169.2702433143727
 31
0.0
 11
379.431093631296
 21
169.0670973290727
 31
0.0
 11
379.748622262696
 21
168.9582008679726
 31
0.0
 11
380.309811102696
 21
168.8664151213727
 31
0.0
  0
SPLINE
  5
3A6
330
1F
100
AcDbEntity
  8
DATUM_AXIS
  6
Continuous
 62
     7
100
AcDbSpline
210
0.0
220
0.0
230
1.0
 70
     8
 71
     3
 72
    17
 73
    13
 74
    11
 42
0.0000000001
 43
0.0000000001
 44
0.0000000001
 12
0.0000071510985955
 22
-0.9999999999744309
 32
0.0
 13
-0.9999975234420162
 23
-0.0022255583196343
 33
0.0
 40
0.0
 40
0.0
 40
0.0
 40
0.0
 40
31.94559767286142
 40
63.18564589847425
 40
95.3588859648182
 40
131.5684823588191
 40
171.8497724056043
 40
213.1052049761774
 40
250.8677009655192
 40
284.0223401537979
 40
313.8907194293111
 40
341.4174853546845
 40
341.4174853546845
 40
341.4174853546845
 40
341.4174853546845
 10
1390.384822046596
 20
405.8406814506727
 30
0.0
 10
1390.384898195302
 20
395.1921488933246
 30
0.0
 10
1389.361456810558
 20
374.1162155799298
 30
0.0
 10
1384.816336709121
 20
342.6127446272602
 30
0.0
 10
1376.951358812137
 20
310.2938082409138
 30
0.0
 10
1364.573054707346
 20
276.1625564658071
 30
0.0
 10
1346.410447806647
 20
241.2118145213908
 30
0.0
 10
1322.554891351573
 20
209.1328860283705
 30
0.0
 10
1294.887792452837
 20
183.6266464465865
 30
0.0
 10
1265.929647657019
 20
166.1239162823514
 30
0.0
 10
1237.168153277542
 20
156.2444149087985
 30
0.0
 10
1217.98142908321
 20
154.093335099812
 30
0.0
 10
1208.805863165296
 20
154.0729142921727
 30
0.0
 11
1390.384822046596
 21
405.8406814506727
 31
0.0
 11
1388.841817497396
 21
373.9323698745728
 31
0.0
 11
1384.379347011896
 21
343.0126840691727
 31
0.0
 11
1376.740736445696
 21
311.7593801640727
 31
0.0
 11
1364.345429346295
 21
277.7374573358727
 31
0.0
 11
1345.651040620996
 21
242.0569001930727
 31
0.0
 11
1320.850886303396
 21
209.0877773292727
 31
0.0
 11
1292.933343171996
 21
183.6591145871727
 31
0.0
 11
1264.456812069596
 21
166.6792065756727
 31
0.0
 11
1236.165429188096
 21
157.1022689023727
 31
0.0
 11
1208.805863165296
 21
154.0729142921727
 31
0.0
  0
SPLINE
  5
3A7
330
1F
100
AcDbEntity
  8
DATUM_AXIS
  6
Continuous
 62
     7
100
AcDbSpline
210
0.0
220
0.0
230
1.0
 70
     8
 71
     3
 72
    15
 73
    11
 74
     9
 42
0.0000000001
 43
0.0000000001
 44
0.0000000001
 12
0.9999931989707009
 22
0.0036880906095481
 32
0.0
 13
-0.0000066335392789
 23
0.9999999999779982
 33
0.0
 40
0.0
 40
0.0
 40
0.0
 40
0.0
 40
36.27898740540983
 40
74.45808720813343
 40
116.1831005221673
 40
162.3728214106019
 40
214.6696974654257
 40
273.0005631786569
 40
333.2819396661989
 40
398.5155267592213
 40
398.5155267592213
 40
398.5155267592213
 40
398.5155267592213
 10
1209.407577081196
 20
117.3520407320727
 30
0.0
 10
1221.50049063818
 20
117.3966407963306
 30
0.0
 10
1246.392091020502
 20
120.2733241140855
 30
0.0
 10
1283.223473514121
 20
133.1606839447227
 30
0.0
 10
1319.288380686835
 20
155.3556512619373
 30
0.0
 10
1353.475233567063
 20
187.67639562775
 30
0.0
 10
1383.950256468225
 20
230.5387983656284
 30
0.0
 10
1407.882205927345
 20
282.5992636337027
 30
0.0
 10
1423.427462287391
 20
342.1611165272739
 30
0.0
 10
1427.010323939283
 20
384.0961530609437
 30
0.0
 10
1427.010179696096
 20
405.8406820914727
 30
0.0
 11
1209.407577081196
 21
117.3520407320727
 31
0.0
 11
1245.451213450596
 21
121.4777169714726
 31
0.0
 11
1281.533952535096
 21
133.9548801869727
 31
0.0
 11
1317.175849362596
 21
155.6489329801727
 31
0.0
 11
1350.914101558796
 21
187.1960509863727
 31
0.0
 11
1381.435054625596
 21
229.6629165286727
 31
0.0
 11
1406.017838148396
 21
282.5607108978728
 31
0.0
 11
1421.387132319696
 21
340.8498964120727
 31
0.0
 11
1427.010179696096
 21
405.8406820914727
 31
0.0
  0
SPLINE
  5
3A8
330
1F
100
AcDbEntity
  8
DATUM_AXIS
  6
Continuous
 62
     7
100
AcDbSpline
210
0.0
220
0.0
230
1.0
 70
     8
 71
     3
 72
    14
 73
    10
 74
     8
 42
0.0000000001
 43
0.0000000001
 44
0.0000000001
 12
-0.9217685421881926
 22
0.3877405764583512
 32
0.0
 13
0.0000025430180646
 23
0.9999999999967664
 33
0.0
 40
0.0
 40
0.0
 40
0.0
 40
0.0
 40
44.99258989589209
 40
92.40452168830257
 40
142.8854044500191
 40
196.5514493072763
 40
253.0457085147868
 40
310.8875928392009
 40
368.1687570461325
 40
368.1687570461325
 40
368.1687570461325
 40
368.1687570461325
 10
285.886971272596
 20
106.4179527242727
 30
0.0
 10
272.0627199400601
 20
112.2331036384685
 30
0.0
 10
244.6909450014748
 20
126.7696892422
 30
0.0
 10
207.0810051226359
 20
156.3857712970611
 30
0.0
 10
173.3715440438544
 20
194.3695547449482
 30
0.0
 10
145.1251450590106
 20
240.1636652489953
 30
0.0
 10
123.9804402664646
 20
292.2990852130224
 30
0.0
 10
111.261102094729
 20
348.3094226507331
 30
0.0
 10
108.5209529898176
 20
386.7469365562239
 30
0.0
 10
108.521001545496
 20
405.8406579584727
 30
0.0
 11
285.886971272596
 21
106.4179527242727
 31
0.0
 11
246.130520830896
 21
127.4835121475727
 31
0.0
 11
208.8256704162959
 21
156.7450810021727
 31
0.0
 11
175.2197970269959
 21
194.4142301582727
 31
0.0
 11
146.929014561596
 21
240.0176949182727
 31
0.0
 11
125.5944763097959
 21
292.3286765663728
 31
0.0
 11
112.6817203116959
 21
348.7108041843726
 31
0.0
 11
108.521001545496
 21
405.8406579584727
 31
0.0
  0
SPLINE
  5
3A9
330
1F
100
AcDbEntity
  8
DATUM_AXIS
  6
Continuous
 62
     7
100
AcDbSpline
210
0.0
220
0.0
230
1.0
 70
     8
 71
     3
 72
    12
 73
     8
 74
     6
 42
0.0000000001
 43
0.0000000001
 44
0.0000000001
 12
-0.0000000183373028
 22
0.9999999999999998
 32
0.0
 13
0.9999999999999998
 23
0.0000000183335937
 33
0.0
 40
0.0
 40
0.0
 40
0.0
 40
0.0
 40
9.811626636669082
 40
18.66566521122742
 40
25.69938614345851
 40
30.23286838420621
 40
31.86946333999232
 40
31.86946333999232
 40
31.86946333999232
 40
31.86946333999232
 10
1447.366218957996
 20
405.8406825100727
 30
0.0
 10
1447.366218898023
 20
409.1112247222956
 30
0.0
 10
1447.392524762857
 20
415.3854491033648
 30
0.0
 10
1447.696187938187
 20
423.7481241218818
 30
0.0
 10
1447.79623956526
 20
431.0654019456443
 30
0.0
 10
1448.610157766578
 20
434.4557759854391
 30
0.0
 10
1448.482353334567
 20
437.5906825304711
 30
0.0
 10
1449.027884986496
 20
437.5906825404726
 30
0.0
 11
1447.366218957996
 21
405.8406825100727
 31
0.0
 11
1447.447546530796
 21
415.6519720829726
 31
0.0
 11
1447.683568699496
 21
424.5028642761726
 31
0.0
 11
1448.051181969696
 21
431.5269720939727
 31
0.0
 11
1448.514401793296
 21
436.0367269234727
 31
0.0
 11
1449.027884986496
 21
437.5906825404726
 31
0.0
  0
SPLINE
  5
3AA
330
1F
100
AcDbEntity
  8
0
  6
Continuous
 62
     7
100
AcDbSpline
210
0.0
220
0.0
230
1.0
 70
     8
 71
     3
 72
    22
 73
    18
 74
    16
 42
0.0000000001
 43
0.0000000001
 44
0.0000000001
 12
0.2385163378029628
 22
0.9711384847698411
 32
0.0
 13
0.0129512621840097
 23
-0.9999161288867387
 33
0.0
 40
0.0
 40
0.0
 40
0.0
 40
0.0
 40
0.3129340844462229
 40
1.553426972002517
 40
3.210282298329005
 40
5.22412830254548
 40
7.478786147497844
 40
9.973843431530511
 40
12.76217668727389
 40
15.85397934309443
 40
19.24438786193156
 40
22.95366115154019
 40
27.01330747296042
 40
31.45893238409783
 40
36.32687482942636
 40
41.65183231654644
 40
47.46531406486652
 40
47.46531406486652
 40
47.46531406486652
 40
47.46531406486652
 10
1451.263801255896
 20
468.3713282571726
 30
0.0
 10
1451.288681219828
 20
468.4726290347066
 30
0.0
 10
1451.425134721837
 20
467.3804025496645
 30
0.0
 10
1451.426002273617
 20
466.8941419812309
 30
0.0
 10
1451.575709853098
 20
464.9851328143762
 30
0.0
 10
1451.681690991191
 20
463.1125048085364
 30
0.0
 10
1451.812544702879
 20
460.8295385073388
 30
0.0
 10
1451.941685053103
 20
458.3302629110615
 30
0.0
 10
1452.076780020731
 20
455.5386232666143
 30
0.0
 10
1452.214396558141
 20
452.4524911354582
 30
0.0
 10
1452.353443665744
 20
449.0578636686034
 30
0.0
 10
1452.491727478477
 20
445.3407433908298
 30
0.0
 10
1452.62732075633
 20
441.2714477030753
 30
0.0
 10
1452.757654577501
 20
436.8156114395932
 30
0.0
 10
1452.879344547574
 20
431.9376018714874
 30
0.0
 10
1452.987983241271
 20
426.6032295882279
 30
0.0
 10
1453.045410988021
 20
422.8908413948841
 30
0.0
 10
1453.070508296796
 20
420.9531766731728
 30
0.0
 11
1451.263801255896
 21
468.3713282571726
 31
0.0
 11
1451.338137271596
 21
468.0673514521727
 31
0.0
 11
1451.441936140096
 21
466.8312089041727
 31
0.0
 11
1451.555407017996
 21
465.1782437102726
 31
0.0
 11
1451.678771790596
 21
463.1681798153727
 31
0.0
 11
1451.805523008096
 21
460.9170876078727
 31
0.0
 11
1451.935480741196
 21
458.4254171163727
 31
0.0
 11
1452.070184741796
 21
455.6403395272726
 31
0.0
 11
1452.208192754196
 21
452.5516185215727
 31
0.0
 11
1452.347066673796
 21
449.1640553916727
 31
0.0
 11
1452.485099738396
 21
445.4573513017726
 31
0.0
 11
1452.620410266596
 21
441.3999605988727
 31
0.0
 11
1452.750498091896
 21
436.9562394095726
 31
0.0
 11
1452.871998182996
 21
432.0898134747727
 31
0.0
 11
1452.980514474896
 21
426.7659618188727
 31
0.0
 11
1453.070508296796
 21
420.9531766731728
 31
0.0
  0
SPLINE
  5
3AB
330
1F
100
AcDbEntity
  8
0
  6
Continuous
 62
     7
100
AcDbSpline
210
0.0
220
0.0
230
1.0
 70
     8
 71
     3
 72
    22
 73
    18
 74
    16
 42
0.0000000001
 43
0.0000000001
 44
0.0000000001
 12
0.2174847144047734
 22
0.9760637269155504
 32
0.0
 13
0.0415962077092754
 23
-0.9991345032097564
 33
0.0
 40
0.0
 40
0.0
 40
0.0
 40
0.0
 40
0.3967792327980097
 40
1.719007359451558
 40
3.467282419929138
 40
5.583288502750329
 40
7.945887108289666
 40
10.5549498557591
 40
13.46549200565818
 40
16.68758732280152
 40
20.215584831167
 40
24.06999488522832
 40
28.28282732736521
 40
32.89035198919299
 40
37.92970461919685
 40
43.43646445490809
 40
49.44320008386735
 40
49.44320008386735
 40
49.44320008386735
 40
49.44320008386735
 10
1451.069625964296
 20
470.3971647361727
 30
0.0
 10
1451.098390437005
 20
470.5262586750819
 30
0.0
 10
1451.621154277644
 20
469.4812340459163
 30
0.0
 10
1451.58578363766
 20
468.8256771786334
 30
0.0
 10
1452.09640268152
 20
466.9203503295256
 30
0.0
 10
1452.441431703267
 20
464.9595828261301
 30
0.0
 10
1452.875939585124
 20
462.6094971878369
 30
0.0
 10
1453.302893280641
 20
460.0255321585276
 30
0.0
 10
1453.750416184086
 20
457.1434653984569
 30
0.0
 10
1454.206284242247
 20
453.9564401170874
 30
0.0
 10
1454.667109263108
 20
450.4514401166949
 30
0.0
 10
1455.125511701982
 20
446.6136230124724
 30
0.0
 10
1455.575099994081
 20
442.4125546065238
 30
0.0
 10
1456.007324333373
 20
437.8127860056481
 30
0.0
 10
1456.410943846138
 20
432.777551302068
 30
0.0
 10
1456.771327953926
 20
427.2715194158068
 30
0.0
 10
1456.96192214157
 20
423.4382202738236
 30
0.0
 10
1457.045207949196
 20
421.4377080009726
 30
0.0
 11
1451.069625964296
 21
470.3971647361727
 31
0.0
 11
1451.310932160996
 21
470.0821963583727
 31
0.0
 11
1451.651994641595
 21
468.8047130499726
 31
0.0
 11
1452.026155022096
 21
467.0969455901726
 31
0.0
 11
1452.433661789396
 21
465.0205496796727
 31
0.0
 11
1452.852816070796
 21
462.6954299280726
 31
0.0
 11
1453.282896868196
 21
460.1220588067727
 31
0.0
 11
1453.728933113896
 21
457.2458969069727
 31
0.0
 11
1454.186108370496
 21
454.0564002354726
 31
0.0
 11
1454.646312431196
 21
450.5585468020727
 31
0.0
 11
1455.103860442896
 21
446.7313903273726
 31
0.0
 11
1455.552476794796
 21
442.5425121297727
 31
0.0
 11
1455.983843457896
 21
437.9552246620726
 31
0.0
 11
1456.386783226696
 21
432.9320071202728
 31
0.0
 11
1456.746700042896
 21
427.4370217905727
 31
0.0
 11
1457.045207949196
 21
421.4377080009726
 31
0.0
  0
SPLINE
  5
3AC
330
1F
100
AcDbEntity
  8
DATUM_AXIS
  6
Continuous
 62
     7
100
AcDbSpline
210
0.0
220
0.0
230
1.0
 70
     8
 71
     3
 72
    19
 73
    15
 74
    13
 42
0.0000000001
 43
0.0000000001
 44
0.0000000001
 12
-0.2174373631520763
 22
-0.9760742764285268
 32
0.0
 13
-0.1141852310402329
 23
-0.9934594772874676
 33
0.0
 40
0.0
 40
0.0
 40
0.0
 40
0.0
 40
2.001711419732341
 40
3.889337740149569
 40
5.657646254799601
 40
7.487859517256969
 40
9.505113047908196
 40
11.83159029011545
 40
14.57565436438856
 40
17.75038354033402
 40
21.37072214607245
 40
25.19756545331506
 40
28.98853884692801
 40
32.67592757343832
 40
32.67592757343832
 40
32.67592757343832
 40
32.67592757343832
 10
1451.069625964296
 20
470.3971647361727
 30
0.0
 10
1450.924543679996
 20
469.7458917276281
 30
0.0
 10
1450.64641335996
 20
468.4796218463604
 30
0.0
 10
1450.25257900811
 20
466.635311116714
 30
0.0
 10
1449.880572416166
 20
464.8448235839119
 30
0.0
 10
1449.509816157738
 20
463.0099722035482
 30
0.0
 10
1449.11413100295
 20
460.9903744728212
 30
0.0
 10
1448.675538961817
 20
458.6688220549844
 30
0.0
 10
1448.186907257291
 20
455.9641480390235
 30
0.0
 10
1447.651189364506
 20
452.8298353938484
 30
0.0
 10
1447.093072575543
 20
449.3333799785223
 30
0.0
 10
1446.547904903981
 20
445.6271066930696
 30
0.0
 10
1446.046869854178
 20
441.8920636826546
 30
0.0
 10
1445.746640328453
 20
439.417344763771
 30
0.0
 10
1445.606291883896
 20
438.1962543381727
 30
0.0
 11
1451.069625964296
 21
470.3971647361727
 31
0.0
 11
1450.640212411296
 21
468.4420553764727
 31
0.0
 11
1450.246030069196
 21
466.5960452446726
 31
0.0
 11
1449.886323612596
 21
464.8647086892727
 31
0.0
 11
1449.523845786096
 21
463.0707492662726
 31
0.0
 11
1449.136019035996
 21
461.0911275299726
 31
0.0
 11
1448.704173581496
 21
458.8050816288726
 31
0.0
 11
1448.216375763396
 21
456.1047222208728
 31
0.0
 11
1447.681578463296
 21
452.9753617129726
 31
0.0
 11
1447.111021983396
 21
449.4002649417727
 31
0.0
 11
1446.554222622396
 21
445.6141450057726
 31
0.0
 11
1446.050297634296
 21
441.8568136552726
 31
0.0
 11
1445.606291883896
 21
438.1962543381727
 31
0.0
  0
SPLINE
  5
3AD
330
1F
100
AcDbEntity
  8
DATUM_AXIS
  6
Continuous
 62
     7
100
AcDbSpline
210
0.0
220
0.0
230
1.0
 70
     8
 71
     3
 72
    28
 73
    24
 74
    22
 42
0.0000000001
 43
0.0000000001
 44
0.0000000001
 12
-0.2284410124857265
 22
-0.9735577557672151
 32
0.0
 13
0.0000047468176632
 23
-0.9999999999887339
 33
0.0
 40
0.0
 40
0.0
 40
0.0
 40
0.0
 40
1.946561945198057
 40
3.7817342063192
 40
5.500515007291623
 40
7.27907493053222
 40
9.238939521544009
 40
11.49864413943969
 40
14.16315826926982
 40
17.24481025032281
 40
20.75768638130686
 40
24.4694749453514
 40
28.14519850827305
 40
31.71940512397425
 40
35.18740212481517
 40
38.59947578799769
 40
42.04835564759115
 40
45.57108466367821
 40
49.07714097340953
 40
52.53601766839305
 40
55.99163089538678
 40
59.51840942905658
 40
63.11931935423404
 40
63.11931935423404
 40
63.11931935423404
 40
63.11931935423404
 10
1451.263801255896
 20
468.3713282571726
 30
0.0
 10
1451.115576395354
 20
467.7396314308963
 30
0.0
 10
1450.83140952122
 20
466.5114902588722
 30
0.0
 10
1450.42895154234
 20
464.7226902498557
 30
0.0
 10
1450.048783999849
 20
462.9863068420174
 30
0.0
 10
1449.669882335588
 20
461.2071270436443
 30
0.0
 10
1449.265493502233
 20
459.2490586759343
 30
0.0
 10
1448.81723883524
 20
456.9985495495088
 30
0.0
 10
1448.317815451124
 20
454.3770375955592
 30
0.0
 10
1447.770222601816
 20
451.3395973434717
 30
0.0
 10
1447.199678557916
 20
447.9517770620145
 30
0.0
 10
1446.642290651068
 20
444.3612124898634
 30
0.0
 10
1446.129997995677
 20
440.7432871380293
 30
0.0
 10
1445.676105392065
 20
437.1994905911755
 30
0.0
 10
1445.278548047354
 20
433.7373856703468
 30
0.0
 10
1444.929900585171
 20
430.3120051578675
 30
0.0
 10
1444.624147991768
 20
426.8642092185406
 30
0.0
 10
1444.361956067235
 20
423.3814028629318
 30
0.0
 10
1444.146674830703
 20
419.8920433403623
 30
0.0
 10
1443.9795439903
 20
416.4224470239343
 30
0.0
 10
1443.85887921404
 20
412.9440098045212
 30
0.0
 10
1443.784688632767
 20
409.4169164794372
 30
0.0
 10
1443.767906388475
 20
407.0409857524516
 30
0.0
 10
1443.767912086096
 20
405.8406824440726
 30
0.0
 11
1451.263801255896
 21
468.3713282571726
 31
0.0
 11
1450.825017952196
 21
466.4748650703727
 31
0.0
 11
1450.422212259096
 21
464.6844447840726
 31
0.0
 11
1450.054617727496
 21
463.0054326631727
 31
0.0
 11
1449.684173281396
 21
461.2658791822727
 31
0.0
 11
1449.287806260396
 21
459.3465140789728
 31
0.0
 11
1448.846431387896
 21
457.1303342166727
 31
0.0
 11
1448.347841466896
 21
454.5128843816726
 31
0.0
 11
1447.801173213496
 21
451.4801079716726
 31
0.0
 11
1447.217904999296
 21
448.0159923699726
 31
0.0
 11
1446.648652245296
 21
444.3481148302727
 31
0.0
 11
1446.133426964796
 21
440.7086798986726
 31
0.0
 11
1445.679445552896
 21
437.1634219659727
 31
0.0
 11
1445.283892393896
 21
433.7180568334727
 31
0.0
 11
1444.938454672896
 21
430.3235142333726
 31
0.0
 11
1444.633866529896
 21
426.8881105672726
 31
0.0
 11
1444.369478131196
 21
423.3753170214726
 31
0.0
 11
1444.153628151096
 21
419.8759114100726
 31
0.0
 11
1443.987246758396
 21
416.4210387317727
 31
0.0
 11
1443.867476824296
 21
412.9675017133726
 31
0.0
 11
1443.793332626596
 21
409.4415026402727
 31
0.0
 11
1443.767912086096
 21
405.8406824440726
 31
0.0
  0
SPLINE
  5
3AE
330
1F
100
AcDbEntity
  8
DATUM_AXIS
  6
Continuous
 62
     7
100
AcDbSpline
210
0.0
220
0.0
230
1.0
 70
     8
 71
     3
 72
    17
 73
    13
 74
    11
 42
0.0000000001
 43
0.0000000001
 44
0.0000000001
 12
0.0000071145038084
 22
0.9999999999746918
 32
0.0
 13
-0.9999975235236398
 23
0.002225521643821
 33
0.0
 40
0.0
 40
0.0
 40
0.0
 40
0.0
 40
31.94559770172031
 40
63.18564592739666
 40
95.35888599370835
 40
131.5684823876886
 40
171.8497724344074
 40
213.1052050050517
 40
250.8677009943125
 40
284.0223401826841
 40
313.8907194581283
 40
341.4174853836008
 40
341.4174853836008
 40
341.4174853836008
 40
341.4174853836008
 10
1390.384822046596
 20
405.8406814506727
 30
0.0
 10
1390.384897805621
 20
416.4892140176434
 30
0.0
 10
1389.361455648376
 20
437.5651473032662
 30
0.0
 10
1384.816334390189
 20
469.0686180987878
 30
0.0
 10
1376.951355307731
 20
501.3875541966434
 30
0.0
 10
1364.57304995134
 20
535.5188055177918
 30
0.0
 10
1346.410441768699
 20
570.4695467960261
 30
0.0
 10
1322.554884137192
 20
602.5484744141679
 30
0.0
 10
1294.887784302868
 20
628.0547129811252
 30
0.0
 10
1265.929638865225
 20
645.5574420834423
 30
0.0
 10
1237.168144123313
 20
655.4369424019946
 30
0.0
 10
1217.981419850092
 20
657.5880215073555
 30
0.0
 10
1208.805853931396
 20
657.6084419784726
 30
0.0
 11
1390.384822046596
 21
405.8406814506727
 31
0.0
 11
1388.841816327096
 21
437.7489929990726
 31
0.0
 11
1384.379344707596
 21
468.6686786408727
 31
0.0
 11
1376.740732995096
 21
499.9219822657726
 31
0.0
 11
1364.345424647996
 21
533.9439046393727
 31
0.0
 11
1345.651034614096
 21
569.6244610964726
 31
0.0
 11
1320.850879087296
 21
602.5935830507726
 31
0.0
 11
1292.933335023296
 21
628.0222447688727
 31
0.0
 11
1264.456803298096
 21
645.0021517360726
 31
0.0
 11
1236.165420065396
 21
654.5790883716726
 31
0.0
 11
1208.805853931396
 21
657.6084419784726
 31
0.0
  0
SPLINE
  5
3AF
330
1F
100
AcDbEntity
  8
DATUM_AXIS
  6
Continuous
 62
     7
100
AcDbSpline
210
0.0
220
0.0
230
1.0
 70
     8
 71
     3
 72
    15
 73
    11
 74
     9
 42
0.0000000001
 43
0.0000000001
 44
0.0000000001
 12
0.9999931991059645
 22
-0.0036880539338563
 32
0.0
 13
-0.0000065969770884
 23
-0.9999999999782399
 33
0.0
 40
0.0
 40
0.0
 40
0.0
 40
0.0
 40
36.27898740548872
 40
74.45808720822381
 40
116.1831005222152
 40
162.3728214107643
 40
214.6696974655686
 40
273.0005631787159
 40
333.2819396662392
 40
398.5155268495463
 40
398.5155268495463
 40
398.5155268495463
 40
398.5155268495463
 10
1209.407566500496
 20
694.3293155606727
 30
0.0
 10
1221.500480059142
 20
694.2847159399336
 30
0.0
 10
1246.392080547019
 20
691.4080335352321
 30
0.0
 10
1283.22346351327
 20
678.5206750552649
 30
0.0
 10
1319.288371500023
 20
656.3257090607598
 30
0.0
 10
1353.47522556564
 20
624.0049659487599
 30
0.0
 10
1383.950250038888
 20
581.1425643285795
 30
0.0
 10
1407.882201407091
 20
529.0820999382879
 30
0.0
 10
1423.427459960695
 20
469.5202475857307
 30
0.0
 10
1427.010323144156
 20
427.5852111521019
 30
0.0
 10
1427.010179695996
 20
405.8406820914727
 30
0.0
 11
1209.407566500496
 21
694.3293155606727
 31
0.0
 11
1245.451203021296
 21
690.2036406432726
 31
0.0
 11
1281.533942563396
 21
677.7264787510725
 31
0.0
 11
1317.175840186496
 21
656.0324272650728
 31
0.0
 11
1350.914093539796
 21
624.4853104961728
 31
0.0
 11
1381.435048164096
 21
582.0184460732725
 31
0.0
 11
1406.017833626996
 21
529.1206526057727
 31
0.0
 11
1421.387129936096
 21
470.8314676552726
 31
0.0
 11
1427.010179695996
 21
405.8406820914727
 31
0.0
  0
SPLINE
  5
3B0
330
1F
100
AcDbEntity
  8
DATUM_AXIS
  6
Continuous
 62
     7
100
AcDbSpline
210
0.0
220
0.0
230
1.0
 70
     8
 71
     3
 72
    29
 73
    25
 74
    23
 42
0.0000000001
 43
0.0000000001
 44
0.0000000001
 12
-0.0000070768091791
 22
0.9999999999749594
 32
0.0
 13
0.9999926473871738
 23
0.0038347322711921
 33
0.0
 40
0.0
 40
0.0
 40
0.0
 40
0.0
 40
25.86749459828717
 40
53.06937933185503
 40
81.1367289877822
 40
109.7568974230374
 40
138.6277368655322
 40
167.4062077287549
 40
195.1148156812025
 40
219.4580463714483
 40
239.6901045397201
 40
256.596124644405
 40
270.8585148235314
 40
283.004290257505
 40
293.4649870388593
 40
302.5507265283241
 40
310.4905453449834
 40
317.4750381306491
 40
323.6581520804396
 40
329.1290848670572
 40
333.9456134185378
 40
338.1922130214316
 40
341.9178370461318
 40
345.1651497402298
 40
345.1651497402298
 40
345.1651497402298
 40
345.1651497402298
 10
249.687451484596
 20
405.8406604491727
 30
0.0
 10
249.6873904648216
 20
414.4631586483859
 30
0.0
 10
250.0433344010122
 20
432.1549724431372
 30
0.0
 10
251.7117758545262
 20
459.1571123219753
 30
0.0
 10
254.683493768663
 20
486.9721080994583
 30
0.0
 10
259.0836316447857
 20
515.1623786608292
 30
0.0
 10
265.0274859469398
 20
543.3133588556593
 30
0.0
 10
272.5614364936721
 20
570.7703273709169
 30
0.0
 10
281.441612812395
 20
596.2335246442405
 30
0.0
 10
291.0678202376843
 20
618.3483063686747
 30
0.0
 10
300.7094961411306
 20
636.4567498997839
 30
0.0
 10
309.9635388744592
 20
650.8987120596832
 30
0.0
 10
318.7439877222997
 20
662.3813908633589
 30
0.0
 10
327.0244767194608
 20
671.4832576248588
 30
0.0
 10
334.7986090885719
 20
678.6560949283669
 30
0.0
 10
342.0693671523934
 20
684.2519346501194
 30
0.0
 10
348.8408002980208
 20
688.5380415017682
 30
0.0
 10
355.1055671929229
 20
691.7627080728827
 30
0.0
 10
360.8706457807921
 20
694.0951134861945
 30
0.0
 10
366.1069229063105
 20
695.7712175305246
 30
0.0
 10
370.8452196613119
 20
696.7990807974054
 30
0.0
 10
375.0541469855688
 20
697.4999289758009
 30
0.0
 10
378.7879547051411
 20
697.7688357191436
 30
0.0
 10
381.1117928028409
 20
697.8337935107117
 30
0.0
 10
382.1942224087959
 20
697.8379443689727
 30
0.0
 11
249.687451484596
 21
405.8406604491727
 31
0.0
 11
250.209090726896
 21
431.7028948710727
 31
0.0
 11
251.892936256296
 21
458.8526130517727
 31
0.0
 11
254.886318925196
 21
486.7598840918727
 31
0.0
 11
259.3196499144959
 21
515.0346010241726
 31
0.0
 11
265.3138305855959
 21
543.2763284535726
 31
0.0
 11
272.972544004096
 21
571.0169934419727
 31
0.0
 11
282.155167207596
 21
597.1598009760725
 31
0.0
 11
291.929730792996
 21
619.4544368141726
 31
0.0
 11
301.486973354396
 21
637.2868593177727
 31
0.0
 11
310.647442460996
 21
651.4959874235726
 31
0.0
 11
319.3415766301961
 21
662.8020833310727
 31
0.0
 11
327.538065017396
 21
671.7651988056728
 31
0.0
 11
335.243499554496
 21
678.8399748265726
 31
0.0
 11
342.457348436296
 21
684.3636553369726
 31
0.0
 11
349.1726529624959
 21
688.5998574050727
 31
0.0
 11
355.389750259796
 21
691.7827555606727
 31
0.0
 11
361.119167010096
 21
694.1075527168727
 31
0.0
 11
366.338524862196
 21
695.7474945351727
 31
0.0
 11
371.038955000396
 21
696.7986385800728
 31
0.0
 11
375.233938488196
 21
697.4587307890726
 31
0.0
 11
378.948070284396
 21
697.7511335487727
 31
0.0
 11
382.1942224087959
 21
697.8379443689727
 31
0.0
  0
SPLINE
  5
3B1
330
1F
100
AcDbEntity
  8
DATUM_AXIS
  6
Continuous
 62
     7
100
AcDbSpline
210
0.0
220
0.0
230
1.0
 70
     8
 71
     3
 72
    28
 73
    24
 74
    22
 42
0.0000000001
 43
0.0000000001
 44
0.0000000001
 12
-0.0000326969402826
 22
0.9999999994654549
 32
0.0
 13
0.9997589196757671
 23
0.0219568333040804
 33
0.0
 40
0.0
 40
0.0
 40
0.0
 40
0.0
 40
23.40338809311937
 40
47.9656809426188
 40
73.19776818742579
 40
98.73721746283209
 40
124.2005612086275
 40
149.1356781316559
 40
172.51088672041
 40
192.2715630854828
 40
207.8709386876021
 40
220.0624435200779
 40
229.502632991568
 40
236.7401414560399
 40
242.1973830145019
 40
246.2003421047308
 40
249.0493763599071
 40
251.083643409776
 40
252.513097191164
 40
253.4573494704364
 40
254.0010982088281
 40
254.3367809027297
 40
254.9054262556387
 40
254.9054262556387
 40
254.9054262556387
 40
254.9054262556387
 10
310.012589144396
 20
405.8406616414726
 30
0.0
 10
310.0123340713351
 20
413.6417910016756
 30
0.0
 10
310.3088702859284
 20
429.6318914268655
 30
0.0
 10
311.6906359922641
 20
453.9980569225594
 30
0.0
 10
314.1322332535077
 20
478.9979226938201
 30
0.0
 10
317.7117340923761
 20
504.1651873857509
 30
0.0
 10
322.4837499599261
 20
529.0351216354165
 30
0.0
 10
328.4232985966404
 20
552.9124444694262
 30
0.0
 10
335.2558808280263
 20
574.5672864112491
 30
0.0
 10
342.4263826739556
 20
592.8035844633182
 30
0.0
 10
349.2938946373028
 20
607.1051809093271
 30
0.0
 10
355.497387589421
 20
617.8676598691331
 30
0.0
 10
360.93860647884
 20
625.8167408942495
 30
0.0
 10
365.5830750846018
 20
631.5599543762004
 30
0.0
 10
369.4236128404885
 20
635.5970456049772
 30
0.0
 10
372.486614585897
 20
638.3335831051365
 30
0.0
 10
374.8470331011666
 20
640.1284505866435
 30
0.0
 10
376.6214262121165
 20
641.2633357012652
 30
0.0
 10
377.9155757388606
 20
641.9621454729336
 30
0.0
 10
378.8020193559747
 20
642.3630454017864
 30
0.0
 10
379.365262944814
 20
642.5923476492428
 30
0.0
 10
379.8192238486581
 20
642.7559857641206
 30
0.0
 10
380.1202996568284
 20
642.8107488796317
 30
0.0
 10
380.309802411396
 20
642.8149107633728
 30
0.0
 11
310.012589144396
 21
405.8406616414726
 31
0.0
 11
310.4466682740961
 21
429.2400238025726
 31
0.0
 11
311.841959919396
 21
453.7626539887726
 31
0.0
 11
314.304638617096
 21
478.8742736171727
 31
0.0
 11
317.9184884619959
 21
504.1567489427726
 31
0.0
 11
322.744262989396
 21
529.1586243709728
 31
0.0
 11
328.8045387934959
 21
553.3460821361727
 31
0.0
 11
335.893653551696
 21
575.6203908462728
 31
0.0
 11
343.1811120689959
 21
593.9882235644727
 31
0.0
 11
349.9804445735959
 21
608.0277960888727
 31
0.0
 11
356.105995953996
 21
618.5686883834728
 31
0.0
 11
361.467831132596
 21
626.3383666763727
 31
0.0
 11
366.039881846496
 21
631.9488818971726
 31
0.0
 11
369.817393880596
 21
635.8873953552727
 31
0.0
 11
372.813013880696
 21
638.5425680978728
 31
0.0
 11
375.089145350896
 21
640.2561087940726
 31
0.0
 11
376.8063763877959
 21
641.3466866207727
 31
0.0
 11
378.066849614596
 21
642.0208864113726
 31
0.0
 11
378.926709698596
 21
642.4110825195728
 31
0.0
 11
379.4310849473959
 21
642.6142285234727
 31
0.0
 11
379.748613574796
 21
642.7231249961728
 31
0.0
 11
380.309802411396
 21
642.8149107633728
 31
0.0
  0
SPLINE
  5
3B2
330
1F
100
AcDbEntity
  8
0
  6
Continuous
 62
     7
100
AcDbSpline
210
0.0
220
0.0
230
1.0
 70
     8
 71
     3
 72
    10
 73
     6
 74
     4
 42
0.0000000001
 43
0.0000000001
 44
0.0000000001
 12
0.9999670017024172
 22
-0.0081237618304733
 32
0.0
 13
0.9999434307985481
 23
-0.0106365033177934
 33
0.0
 40
0.0
 40
0.0
 40
0.0
 40
0.0
 40
0.5795274451733531
 40
1.147095938680418
 40
1.713504641093957
 40
1.713504641093957
 40
1.713504641093957
 40
1.713504641093957
 10
382.183800986096
 20
697.8381453454726
 30
0.0
 10
382.3769704266807
 20
697.8365760311596
 30
0.0
 10
382.7593214768151
 20
697.8332335949967
 30
0.0
 10
383.3304547873126
 20
697.8269018369626
 30
0.0
 10
383.7084264872208
 20
697.8229484463536
 30
0.0
 10
383.897218707596
 20
697.8209402436728
 30
0.0
 11
382.183800986096
 21
697.8381453454726
 31
0.0
 11
382.763305321896
 21
697.8329699712726
 31
0.0
 11
383.330841961896
 21
697.8269568955727
 31
0.0
 11
383.897218707596
 21
697.8209402436728
 31
0.0
  0
SPLINE
  5
3B3
330
1F
100
AcDbEntity
  8
0
  6
Continuous
 62
     7
100
AcDbSpline
210
0.0
220
0.0
230
1.0
 70
     8
 71
     3
 72
    10
 73
     6
 74
     4
 42
0.0000000001
 43
0.0000000001
 44
0.0000000001
 12
0.9987286912753942
 22
0.050408344778801
 32
0.0
 13
0.9969412235555497
 23
0.0781549536214031
 33
0.0
 40
0.0
 40
0.0
 40
0.0
 40
0.0
 40
0.5718582489005324
 40
1.14338613268979
 40
1.713768380607949
 40
1.713768380607949
 40
1.713768380607949
 40
1.713768380607949
 10
380.3098026089959
 20
642.8149884320728
 30
0.0
 10
380.5001796891692
 20
642.824597241331
 30
0.0
 10
380.8804716824733
 20
642.8507775966852
 30
0.0
 10
381.4495268523192
 20
642.900810924435
 30
0.0
 10
381.8286792442847
 20
642.9345067684951
 30
0.0
 10
382.018225102996
 20
642.9493661678727
 30
0.0
 11
380.3098026089959
 21
642.8149884320728
 31
0.0
 11
380.8804235437959
 21
642.8525863788727
 31
0.0
 11
381.449902803896
 21
642.9009340185725
 31
0.0
 11
382.018225102996
 21
642.9493661678727
 31
0.0
  0
SPLINE
  5
3B4
330
1F
100
AcDbEntity
  8
DATUM_AXIS
  6
Continuous
 62
     7
100
AcDbSpline
210
0.0
220
0.0
230
1.0
 70
     8
 71
     3
 72
    14
 73
    10
 74
     8
 42
0.0000000001
 43
0.0000000001
 44
0.0000000001
 12
-0.9217685279674123
 22
-0.3877406102651482
 32
0.0
 13
0.00000257966213
 23
-0.9999999999966727
 33
0.0
 40
0.0
 40
0.0
 40
0.0
 40
0.0
 40
44.99258989588896
 40
92.4045216883635
 40
142.8854044500275
 40
196.5514493073187
 40
253.0457085147526
 40
310.8875928391941
 40
368.1687570458275
 40
368.1687570458275
 40
368.1687570458275
 40
368.1687570458275
 10
285.886960290996
 20
705.2633696974726
 30
0.0
 10
272.0627091717377
 20
699.4482182762587
 30
0.0
 10
244.6909347662568
 20
684.9116316686623
 30
0.0
 10
207.0809959736992
 20
655.2955482343011
 30
0.0
 10
173.3715362880161
 20
617.3117635500834
 30
0.0
 10
145.1251389826393
 20
571.5176520101344
 30
0.0
 10
123.9804361023756
 20
519.382231270584
 30
0.0
 10
111.2610999844217
 20
463.3718933665228
 30
0.0
 10
108.520952290146
 20
424.9343793606203
 30
0.0
 10
108.521001545496
 20
405.8406579584727
 30
0.0
 11
285.886960290996
 21
705.2633696974726
 31
0.0
 11
246.130510621896
 21
684.1978088160726
 31
0.0
 11
208.825661280496
 21
654.9362385931726
 31
0.0
 11
175.219789272796
 21
617.2670882045727
 31
0.0
 11
146.929008479896
 21
571.6636224069727
 31
0.0
 11
125.5944721466959
 21
519.3526399764728
 31
0.0
 11
112.6817182163959
 21
462.9705118848726
 31
0.0
 11
108.521001545496
 21
405.8406579584727
 31
0.0
  0
SPLINE
  5
3B5
330
1F
100
AcDbEntity
  8
0
  6
Continuous
 62
     7
100
AcDbSpline
210
0.0
220
0.0
230
1.0
 70
     8
 71
     3
 72
    20
 73
    16
 74
    14
 42
0.0000000001
 43
0.0000000001
 44
0.0000000001
 12
0.9999490593321134
 22
-0.0100934999292466
 32
0.0
 13
0.9999993517689457
 23
-0.0011386227154983
 33
0.0
 40
0.0
 40
0.0
 40
0.0
 40
0.0
 40
127.9497272713024
 40
256.410188784054
 40
372.7465554190511
 40
469.63183018608
 40
546.1267154239114
 40
606.0770823681194
 40
654.4278758282996
 40
694.3169972650156
 40
727.9082643823296
 40
756.732167629961
 40
781.9612384821899
 40
804.5014096972789
 40
825.0690508918358
 40
825.0690508918358
 40
825.0690508918358
 40
825.0690508918358
 10
383.897218707596
 20
697.8209402436728
 30
0.0
 10
426.5449551831758
 20
697.3904533892859
 30
0.0
 10
512.011314088676
 20
696.5906976083833
 30
0.0
 10
636.2564938991651
 20
695.6274232514008
 30
0.0
 10
750.1486033747596
 20
694.9535336402082
 30
0.0
 10
846.7200257049565
 20
694.55953675887
 30
0.0
 10
924.4966655706443
 20
694.3699544014084
 30
0.0
 10
986.0953223663241
 20
694.301297868714
 30
0.0
 10
1035.49208700031
 20
694.2939333932302
 30
0.0
 10
1076.102478348147
 20
694.3106209847087
 30
0.0
 10
1110.203902401614
 20
694.3316716311158
 30
0.0
 10
1139.418645307288
 20
694.3475231944731
 30
0.0
 10
1164.949693557975
 20
694.3539446675022
 30
0.0
 10
1187.728655090022
 20
694.3494197050053
 30
0.0
 10
1202.097922765605
 20
694.3382899724288
 30
0.0
 10
1208.953798719596
 20
694.3304837112727
 30
0.0
 11
383.897218707596
 21
697.8209402436728
 31
0.0
 11
511.841370066796
 21
696.6264354195727
 31
0.0
 11
640.298023748996
 21
695.6373465254726
 31
0.0
 11
756.632383641896
 21
694.9540382921727
 31
0.0
 11
853.5168629828959
 21
694.5614449834727
 31
0.0
 11
930.011522034996
 21
694.3754233396726
 31
0.0
 11
989.961850691496
 21
694.3076684666725
 31
0.0
 11
1038.312643274496
 21
694.2984584322728
 31
0.0
 11
1078.201762070396
 21
694.3129732401725
 31
0.0
 11
1111.793023683896
 21
694.3322023885725
 31
0.0
 11
1140.616923294596
 21
694.3466820671726
 31
0.0
 11
1165.845993549796
 21
694.3521706884728
 31
0.0
 11
1188.386164177896
 21
694.3470265981727
 31
0.0
 11
1208.953798719596
 21
694.3304837112727
 31
0.0
  0
SPLINE
  5
3B6
330
1F
100
AcDbEntity
  8
0
  6
Continuous
 62
     7
100
AcDbSpline
210
0.0
220
0.0
230
1.0
 70
     8
 71
     3
 72
    20
 73
    16
 74
    14
 42
0.0000000001
 43
0.0000000001
 44
0.0000000001
 12
0.9968841609731999
 22
0.0788794624776284
 32
0.0
 13
0.9999998702316625
 23
0.0005094474046077
 33
0.0
 40
0.0
 40
0.0
 40
0.0
 40
0.0
 40
128.6351367573407
 40
257.5574964679268
 40
374.1345396215919
 40
471.1192604898135
 40
547.656062074327
 40
607.638486331006
 40
656.0295362517213
 40
695.9706187953086
 40
729.6228166256899
 40
758.514269689894
 40
783.8160827145241
 40
806.4336487865512
 40
827.0768338184378
 40
827.0768338184378
 40
827.0768338184378
 40
827.0768338184378
 10
382.018225102996
 20
642.9493661678727
 30
0.0
 10
424.7630018956674
 20
646.3315896489243
 30
0.0
 10
510.4042806491614
 20
652.4153279889672
 30
0.0
 10
634.9466456713533
 20
659.051083735734
 30
0.0
 10
749.0530214766131
 20
662.8455642910673
 30
0.0
 10
845.7493802831676
 20
664.1537877716436
 30
0.0
 10
923.5865149232736
 20
663.8708615292339
 30
0.0
 10
985.2157223177735
 20
662.8305042998733
 30
0.0
 10
1034.637742546766
 20
661.5538251534549
 30
0.0
 10
1075.280965192095
 20
660.3365534664906
 30
0.0
 10
1109.427201837421
 20
659.3125979413419
 30
0.0
 10
1138.698613365861
 20
658.5283838075595
 30
0.0
 10
1164.296700560356
 20
657.9874440902874
 30
0.0
 10
1187.148981558225
 20
657.6747800177474
 30
0.0
 10
1201.569329015144
 20
657.6053768690601
 30
0.0
 10
1208.450389799496
 20
657.6088824080725
 30
0.0
 11
382.018225102996
 21
642.9493661678727
 31
0.0
 11
510.332416639896
 21
652.0304816726727
 31
0.0
 11
639.075906328496
 21
658.8193472735727
 31
0.0
 11
755.590174593396
 21
662.6445637571726
 31
0.0
 11
852.566298514896
 21
663.9358697041725
 31
0.0
 11
929.1026078748959
 21
663.6613768307727
 31
0.0
 11
989.076777674796
 21
662.6663006924728
 31
0.0
 11
1037.452406968096
 21
661.4447431185726
 31
0.0
 11
1077.376313739296
 21
660.2735288434728
 31
0.0
 11
1111.013968888196
 21
659.2842993964727
 31
0.0
 11
1139.895452279896
 21
658.5253677420728
 31
0.0
 11
1165.191845622696
 21
658.0017016464728
 31
0.0
 11
1187.807409098996
 21
657.7007304319727
 31
0.0
 11
1208.450389799496
 21
657.6088824080725
 31
0.0
  0
ENDSEC
  0
SECTION
  2
OBJECTS
  0
DICTIONARY
  5
C
330
0
100
AcDbDictionary
281
     1
  3
ACAD_2007HEADERVARS_RT
350
3B9
  3
ACAD_COLOR
350
C9
  3
ACAD_GROUP
350
D
  3
ACAD_LAYOUT
350
1A
  3
ACAD_MATERIAL
350
C8
  3
ACAD_MLINESTYLE
350
17
  3
ACAD_PLOTSETTINGS
350
19
  3
ACAD_PLOTSTYLENAME
350
E
  3
ACAD_TABLESTYLE
350
123
  3
ACAD_VISUALSTYLE
350
296
  3
AcDbVariableDictionary
350
9E
  3
AcmDictionary
350
63
  3
AMG
350
49
  3
AMGSNAPSETTINGS
350
35F
  3
DWGPROPS
350
3B8
  0
DICTIONARY
  5
99
330
1F
100
AcDbDictionary
280
     1
281
     1
  0
DICTIONARY
  5
3B9
102
{ACAD_REACTORS
330
C
102
}
330
C
100
AcDbDictionary
281
     1
  3
DIMARCSYM
350
3BA
  0
DICTIONARY
  5
C9
102
{ACAD_REACTORS
330
C
102
}
330
C
100
AcDbDictionary
281
     1
  0
DICTIONARY
  5
D
102
{ACAD_REACTORS
330
C
102
}
330
C
100
AcDbDictionary
281
     1
  0
DICTIONARY
  5
1A
102
{ACAD_REACTORS
330
C
102
}
330
C
100
AcDbDictionary
281
     1
  3
Layout1
350
1E
  3
Layout2
350
26
  3
Model
350
22
  0
DICTIONARY
  5
C8
102
{ACAD_REACTORS
330
C
102
}
330
C
100
AcDbDictionary
281
     1
  3
ByBlock
350
294
  3
ByLayer
350
293
  3
Global
350
295
  0
DICTIONARY
  5
17
102
{ACAD_REACTORS
330
C
102
}
330
C
100
AcDbDictionary
281
     1
  3
Standard
350
18
  0
DICTIONARY
  5
19
102
{ACAD_REACTORS
330
C
102
}
330
C
100
AcDbDictionary
281
     1
  0
ACDBDICTIONARYWDFLT
  5
E
102
{ACAD_REACTORS
330
C
102
}
330
C
100
AcDbDictionary
281
     1
  3
Normal
350
F
100
AcDbDictionaryWithDefault
340
F
  0
DICTIONARY
  5
123
102
{ACAD_REACTORS
330
C
102
}
330
C
100
AcDbDictionary
281
     1
  3
Standard
350
124
  0
DICTIONARY
  5
296
102
{ACAD_REACTORS
330
C
102
}
330
C
100
AcDbDictionary
281
     1
  3
2dWireframe
350
29C
  3
3D Hidden
350
29E
  3
3dWireframe
350
29D
  3
Basic
350
29B
  3
Brighten
350
2A2
  3
ColorChange
350
2A6
  3
Conceptual
350
29F
  3
Dim
350
2A1
  3
Facepattern
350
2A5
  3
Flat
350
297
  3
FlatWithEdges
350
298
  3
Gouraud
350
299
  3
GouraudWithEdges
350
29A
  3
Linepattern
350
2A4
  3
Realistic
350
2A0
  3
Thicken
350
2A3
  0
DICTIONARY
  5
9E
102
{ACAD_REACTORS
330
C
102
}
330
C
100
AcDbDictionary
281
     1
  3
CTABLESTYLE
350
144
  3
DIMASSOC
350
A0
  3
INDEXCTL
350
9F
  3
SORTENTS
350
3B7
  0
DICTIONARY
  5
63
102
{ACAD_REACTORS
330
C
102
}
330
C
100
AcDbDictionary
281
     1
  3
AcmStdDictionary
350
69
  3
AMDTSECTSYM_ARROWCOLOR
350
12C
  0
DICTIONARY
  5
49
102
{ACAD_REACTORS
330
C
102
}
330
C
100
AcDbDictionary
281
     1
  0
DICTIONARY
  5
35F
102
{ACAD_REACTORS
330
C
102
}
330
C
100
AcDbDictionary
281
     1
  0
XRECORD
  5
3B8
102
{ACAD_REACTORS
330
C
102
}
330
C
100
AcDbXrecord
280
     1
  1
DWGPROPS COOKIE
  2

  3

  4

  6

  7

  8
ko27558
  9

300
AmdtFileType=84
301
=
302
=
303
=
304
=
305
=
306
=
307
=
308
=
309
=
 40
0.0006060763888889
 41
2455694.689362998
 42
2455694.689968716
  1

 90
        1
  0
XRECORD
  5
3BA
102
{ACAD_REACTORS
330
3B9
102
}
330
3B9
100
AcDbXrecord
280
     1
 70
     1
  0
LAYOUT
  5
1E
102
{ACAD_XDICTIONARY
360
3BB
102
}
102
{ACAD_REACTORS
330
1A
102
}
330
1A
100
AcDbPlotSettings
  1

  2

  4

  6

 40
0.0
 41
0.0
 42
0.0
 43
0.0
 44
0.0
 45
0.0
 46
0.0
 47
0.0
 48
0.0
 49
0.0
140
0.0
141
0.0
142
1.0
143
1.0
 70
   688
 72
     0
 73
     0
 74
     5
  7

 75
    16
147
1.0
148
0.0
149
0.0
100
AcDbLayout
  1
Layout1
 70
     1
 71
     1
 10
0.0
 20
0.0
 11
12.0
 21
9.0
 12
0.0
 22
0.0
 32
0.0
 14
1.000000000000000E+20
 24
1.000000000000000E+20
 34
1.000000000000000E+20
 15
-1.000000000000000E+20
 25
-1.000000000000000E+20
 35
-1.000000000000000E+20
146
0.0
 13
0.0
 23
0.0
 33
0.0
 16
1.0
 26
0.0
 36
0.0
 17
0.0
 27
1.0
 37
0.0
 76
     0
330
1B
  0
LAYOUT
  5
26
102
{ACAD_XDICTIONARY
360
3BF
102
}
102
{ACAD_REACTORS
330
1A
102
}
330
1A
100
AcDbPlotSettings
  1

  2

  4

  6

 40
0.0
 41
0.0
 42
0.0
 43
0.0
 44
0.0
 45
0.0
 46
0.0
 47
0.0
 48
0.0
 49
0.0
140
0.0
141
0.0
142
1.0
143
1.0
 70
   688
 72
     0
 73
     0
 74
     5
  7

 75
    16
147
1.0
148
0.0
149
0.0
100
AcDbLayout
  1
Layout2
 70
     1
 71
     2
 10
0.0
 20
0.0
 11
12.0
 21
9.0
 12
0.0
 22
0.0
 32
0.0
 14
0.0
 24
0.0
 34
0.0
 15
0.0
 25
0.0
 35
0.0
146
0.0
 13
0.0
 23
0.0
 33
0.0
 16
1.0
 26
0.0
 36
0.0
 17
0.0
 27
1.0
 37
0.0
 76
     0
330
23
  0
LAYOUT
  5
22
102
{ACAD_XDICTIONARY
360
3BD
102
}
102
{ACAD_REACTORS
330
1A
102
}
330
1A
100
AcDbPlotSettings
  1

  2

  4

  6

 40
0.0
 41
0.0
 42
0.0
 43
0.0
 44
0.0
 45
0.0
 46
0.0
 47
0.0
 48
0.0
 49
0.0
140
0.0
141
0.0
142
1.0
143
1.0
 70
  1712
 72
     0
 73
     0
 74
     0
  7

 75
     0
147
1.0
148
0.0
149
0.0
100
AcDbLayout
  1
Model
 70
     1
 71
     0
 10
0.0
 20
0.0
 11
12.0
 21
9.0
 12
0.0
 22
0.0
 32
0.0
 14
0.0
 24
0.0
 34
0.0
 15
0.0
 25
0.0
 35
0.0
146
0.0
 13
0.0
 23
0.0
 33
0.0
 16
1.0
 26
0.0
 36
0.0
 17
0.0
 27
1.0
 37
0.0
 76
     0
330
1F
331
291
  0
MATERIAL
  5
294
102
{ACAD_XDICTIONARY
360
3C5
102
}
102
{ACAD_REACTORS
330
C8
102
}
330
C8
100
AcDbMaterial
  1
ByBlock
  0
MATERIAL
  5
293
102
{ACAD_XDICTIONARY
360
3C3
102
}
102
{ACAD_REACTORS
330
C8
102
}
330
C8
100
AcDbMaterial
  1
ByLayer
  0
MATERIAL
  5
295
102
{ACAD_XDICTIONARY
360
3C7
102
}
102
{ACAD_REACTORS
330
C8
102
}
330
C8
100
AcDbMaterial
  1
Global
  0
MLINESTYLE
  5
18
102
{ACAD_REACTORS
330
17
102
}
330
17
100
AcDbMlineStyle
  2
STANDARD
 70
     0
  3

 62
   256
 51
90.0
 52
90.0
 71
     2
 49
0.5
 62
   256
  6
BYLAYER
 49
-0.5
 62
   256
  6
BYLAYER
  0
ACDBPLACEHOLDER
  5
F
102
{ACAD_REACTORS
330
E
102
}
330
E
  0
TABLESTYLE
  5
124
102
{ACAD_XDICTIONARY
360
3C1
102
}
102
{ACAD_REACTORS
330
123
102
}
330
123
100
AcDbTableStyle
  3
Standard
 70
     0
 71
     0
 40
0.06
 41
0.06
280
     0
281
     0
  7
STANDARD
140
0.18
170
     2
 62
     0
 63
     7
283
     0
274
    -2
284
     1
 64
     0
275
    -2
285
     1
 65
     0
276
    -2
286
     1
 66
     0
277
    -2
287
     1
 67
     0
278
    -2
288
     1
 68
     0
279
    -2
289
     1
 69
     0
  7
STANDARD
140
0.25
170
     5
 62
     0
 63
     7
283
     0
274
    -2
284
     1
 64
     0
275
    -2
285
     1
 65
     0
276
    -2
286
     1
 66
     0
277
    -2
287
     1
 67
     0
278
    -2
288
     1
 68
     0
279
    -2
289
     1
 69
     0
  7
STANDARD
140
0.18
170
     5
 62
     0
 63
     7
283
     0
274
    -2
284
     1
 64
     0
275
    -2
285
     1
 65
     0
276
    -2
286
     1
 66
     0
277
    -2
287
     1
 67
     0
278
    -2
288
     1
 68
     0
279
    -2
289
     1
 69
     0
  0
VISUALSTYLE
  5
29C
102
{ACAD_REACTORS
330
296
102
}
330
296
100
AcDbVisualStyle
  2
2dWireframe
 70
     4
 71
     0
 72
     2
 73
     0
 90
        0
 40
-0.6
 41
-30.0
 62
     5
 63
     7
 74
     1
 91
        4
 64
     7
 65
   257
 75
     1
175
     1
 42
1.0
 92
        0
 66
   257
 43
1.0
 76
     1
 77
     6
 78
     2
 67
     7
 79
     5
170
     0
171
     0
290
     0
174
     0
 93
        1
 44
0.0
173
     0
291
     0
 45
0.0
1001
ACAD
1000
AcDbSavedByObjectVersion
1070
     0
  0
VISUALSTYLE
  5
29E
102
{ACAD_REACTORS
330
296
102
}
330
296
100
AcDbVisualStyle
  2
3D Hidden
 70
     6
 71
     1
 72
     2
 73
     2
 90
        0
 40
-0.6
 41
-30.0
 62
     5
 63
     7
 74
     2
 91
        2
 64
     7
 65
   257
 75
     2
175
     1
 42
40.0
 92
        0
 66
   257
 43
1.0
 76
     1
 77
     6
 78
     2
 67
     7
 79
     3
170
     0
171
     0
290
     0
174
     0
 93
        1
 44
0.0
173
     0
291
     0
 45
0.0
1001
ACAD
1000
AcDbSavedByObjectVersion
1070
     0
  0
VISUALSTYLE
  5
29D
102
{ACAD_REACTORS
330
296
102
}
330
296
100
AcDbVisualStyle
  2
3dWireframe
 70
     5
 71
     0
 72
     2
 73
     0
 90
        0
 40
-0.6
 41
-30.0
 62
     5
 63
     7
 74
     1
 91
        4
 64
     7
 65
   257
 75
     1
175
     1
 42
1.0
 92
        0
 66
   257
 43
1.0
 76
     1
 77
     6
 78
     2
 67
     7
 79
     5
170
     0
171
     0
290
     0
174
     0
 93
        1
 44
0.0
173
     0
291
     0
 45
0.0
1001
ACAD
1000
AcDbSavedByObjectVersion
1070
     0
  0
VISUALSTYLE
  5
29B
102
{ACAD_REACTORS
330
296
102
}
330
296
100
AcDbVisualStyle
  2
Basic
 70
     7
 71
     1
 72
     0
 73
     1
 90
        0
 40
-0.6
 41
-30.0
 62
     5
 63
     7
 74
     0
 91
        4
 64
     7
 65
   257
 75
     1
175
     1
 42
1.0
 92
        8
 66
     7
 43
1.0
 76
     1
 77
     6
 78
     2
 67
     7
 79
     5
170
     0
171
     0
290
     0
174
     0
 93
        1
 44
0.0
173
     0
291
     1
 45
0.0
1001
ACAD
1000
AcDbSavedByObjectVersion
1070
     0
  0
VISUALSTYLE
  5
2A2
102
{ACAD_REACTORS
330
296
102
}
330
296
100
AcDbVisualStyle
  2
Brighten
 70
    12
 71
     2
 72
     2
 73
     0
 90
        0
 40
-0.6
 41
-30.0
 62
     5
 63
     7
 74
     1
 91
        4
 64
     7
 65
   257
 75
     1
175
     1
 42
1.0
 92
        8
 66
     7
 43
1.0
 76
     1
 77
     6
 78
     2
 67
     7
 79
     5
170
     0
171
     0
290
     0
174
     0
 93
        1
 44
50.0
173
     0
291
     1
 45
0.0
1001
ACAD
1000
AcDbSavedByObjectVersion
1070
     0
  0
VISUALSTYLE
  5
2A6
102
{ACAD_REACTORS
330
296
102
}
330
296
100
AcDbVisualStyle
  2
ColorChange
 70
    16
 71
     2
 72
     2
 73
     3
 90
        0
 40
-0.6
 41
-30.0
 62
     5
 63
     8
 74
     1
 91
        4
 64
     7
 65
   257
 75
     1
175
     1
 42
1.0
 92
        8
 66
     8
 43
1.0
 76
     1
 77
     6
 78
     2
 67
     7
 79
     5
170
     0
171
     0
290
     0
174
     0
 93
        1
 44
0.0
173
     0
291
     1
 45
0.0
1001
ACAD
1000
AcDbSavedByObjectVersion
1070
     0
  0
VISUALSTYLE
  5
29F
102
{ACAD_REACTORS
330
296
102
}
330
296
100
AcDbVisualStyle
  2
Conceptual
 70
     9
 71
     3
 72
     2
 73
     0
 90
        0
 40
-0.6
 41
-30.0
 62
     5
 63
     7
 74
     2
 91
        2
 64
     7
 65
   257
 75
     1
175
     1
 42
40.0
 92
        8
 66
     7
 43
1.0
 76
     1
 77
     6
 78
     2
 67
     7
 79
     3
170
     0
171
     0
290
     0
174
     0
 93
        1
 44
0.0
173
     0
291
     0
 45
0.0
1001
ACAD
1000
AcDbSavedByObjectVersion
1070
     0
  0
VISUALSTYLE
  5
2A1
102
{ACAD_REACTORS
330
296
102
}
330
296
100
AcDbVisualStyle
  2
Dim
 70
    11
 71
     2
 72
     2
 73
     0
 90
        0
 40
-0.6
 41
-30.0
 62
     5
 63
     7
 74
     1
 91
        4
 64
     7
 65
   257
 75
     1
175
     1
 42
1.0
 92
        8
 66
     7
 43
1.0
 76
     1
 77
     6
 78
     2
 67
     7
 79
     5
170
     0
171
     0
290
     0
174
     0
 93
        1
 44
-50.0
173
     0
291
     1
 45
0.0
1001
ACAD
1000
AcDbSavedByObjectVersion
1070
     0
  0
VISUALSTYLE
  5
2A5
102
{ACAD_REACTORS
330
296
102
}
330
296
100
AcDbVisualStyle
  2
Facepattern
 70
    15
 71
     2
 72
     2
 73
     0
 90
        0
 40
-0.6
 41
-30.0
 62
     5
 63
     7
 74
     1
 91
        4
 64
     7
 65
   257
 75
     1
175
     1
 42
1.0
 92
        8
 66
     7
 43
1.0
 76
     1
 77
     6
 78
     2
 67
     7
 79
     5
170
     0
171
     0
290
     0
174
     0
 93
        1
 44
0.0
173
     0
291
     1
 45
0.0
1001
ACAD
1000
AcDbSavedByObjectVersion
1070
     0
  0
VISUALSTYLE
  5
297
102
{ACAD_REACTORS
330
296
102
}
330
296
100
AcDbVisualStyle
  2
Flat
 70
     0
 71
     2
 72
     1
 73
     1
 90
        2
 40
-0.6
 41
30.0
 62
     5
 63
     7
 74
     0
 91
        4
 64
     7
 65
   257
 75
     1
175
     1
 42
1.0
 92
        8
 66
     7
 43
1.0
 76
     1
 77
     6
 78
     2
 67
     7
 79
     5
170
     0
171
     0
290
     0
174
     0
 93
       13
 44
0.0
173
     0
291
     1
 45
0.0
1001
ACAD
1000
AcDbSavedByObjectVersion
1070
     0
  0
VISUALSTYLE
  5
298
102
{ACAD_REACTORS
330
296
102
}
330
296
100
AcDbVisualStyle
  2
FlatWithEdges
 70
     1
 71
     2
 72
     1
 73
     1
 90
        2
 40
-0.6
 41
30.0
 62
     5
 63
     7
 74
     1
 91
        4
 64
     7
 65
   257
 75
     1
175
     1
 42
1.0
 92
        0
 66
   257
 43
1.0
 76
     1
 77
     6
 78
     2
 67
     7
 79
     5
170
     0
171
     0
290
     0
174
     0
 93
       13
 44
0.0
173
     0
291
     1
 45
0.0
1001
ACAD
1000
AcDbSavedByObjectVersion
1070
     0
  0
VISUALSTYLE
  5
299
102
{ACAD_REACTORS
330
296
102
}
330
296
100
AcDbVisualStyle
  2
Gouraud
 70
     2
 71
     2
 72
     2
 73
     1
 90
        2
 40
-0.6
 41
30.0
 62
     5
 63
     7
 74
     0
 91
        4
 64
     7
 65
   257
 75
     1
175
     1
 42
1.0
 92
        0
 66
     7
 43
1.0
 76
     1
 77
     6
 78
     2
 67
     7
 79
     5
170
     0
171
     0
290
     0
174
     0
 93
       13
 44
0.0
173
     0
291
     1
 45
0.0
1001
ACAD
1000
AcDbSavedByObjectVersion
1070
     0
  0
VISUALSTYLE
  5
29A
102
{ACAD_REACTORS
330
296
102
}
330
296
100
AcDbVisualStyle
  2
GouraudWithEdges
 70
     3
 71
     2
 72
     2
 73
     1
 90
        2
 40
-0.6
 41
30.0
 62
     5
 63
     7
 74
     1
 91
        4
 64
     7
 65
   257
 75
     1
175
     1
 42
1.0
 92
        0
 66
   257
 43
1.0
 76
     1
 77
     6
 78
     2
 67
     7
 79
     5
170
     0
171
     0
290
     0
174
     0
 93
       13
 44
0.0
173
     0
291
     1
 45
0.0
1001
ACAD
1000
AcDbSavedByObjectVersion
1070
     0
  0
VISUALSTYLE
  5
2A4
102
{ACAD_REACTORS
330
296
102
}
330
296
100
AcDbVisualStyle
  2
Linepattern
 70
    14
 71
     2
 72
     2
 73
     0
 90
        0
 40
-0.6
 41
-30.0
 62
     5
 63
     7
 74
     1
 91
        4
 64
     7
 65
   257
 75
     7
175
     7
 42
1.0
 92
        8
 66
     7
 43
1.0
 76
     1
 77
     6
 78
     2
 67
     7
 79
     5
170
     0
171
     0
290
     0
174
     0
 93
        1
 44
0.0
173
     0
291
     1
 45
0.0
1001
ACAD
1000
AcDbSavedByObjectVersion
1070
     0
  0
VISUALSTYLE
  5
2A0
102
{ACAD_REACTORS
330
296
102
}
330
296
100
AcDbVisualStyle
  2
Realistic
 70
     8
 71
     2
 72
     2
 73
     0
 90
        0
 40
-0.6
 41
-30.0
 62
     5
 63
     7
 74
     1
 91
        0
 64
     7
 65
   257
 75
     1
175
     1
 42
1.0
 92
        8
 66
     8
 43
1.0
 76
     1
 77
     6
 78
     2
 67
     7
 79
     5
170
     0
171
     0
290
     0
174
     0
 93
       13
 44
0.0
173
     0
291
     0
 45
0.0
1001
ACAD
1000
AcDbSavedByObjectVersion
1070
     0
  0
VISUALSTYLE
  5
2A3
102
{ACAD_REACTORS
330
296
102
}
330
296
100
AcDbVisualStyle
  2
Thicken
 70
    13
 71
     2
 72
     2
 73
     0
 90
        0
 40
-0.6
 41
-30.0
 62
     5
 63
     7
 74
     1
 91
        4
 64
     7
 65
   257
 75
     1
175
     1
 42
1.0
 92
       12
 66
     7
 43
1.0
 76
     1
 77
     6
 78
     2
 67
     7
 79
     5
170
     0
171
     0
290
     0
174
     0
 93
        1
 44
0.0
173
     0
291
     1
 45
0.0
1001
ACAD
1000
AcDbSavedByObjectVersion
1070
     0
  0
DICTIONARYVAR
  5
144
102
{ACAD_REACTORS
330
9E
102
}
330
9E
100
DictionaryVariables
280
     0
  1
STANDARD
  0
DICTIONARYVAR
  5
A0
102
{ACAD_REACTORS
330
9E
102
}
330
9E
100
DictionaryVariables
280
     0
  1
2
  0
DICTIONARYVAR
  5
9F
102
{ACAD_REACTORS
330
9E
102
}
330
9E
100
DictionaryVariables
280
     0
  1
0
  0
DICTIONARYVAR
  5
3B7
102
{ACAD_REACTORS
330
9E
102
}
330
9E
100
DictionaryVariables
280
     0
  1
127
  0
DICTIONARY
  5
69
102
{ACAD_REACTORS
330
63
102
}
330
63
100
AcDbDictionary
281
     1
  0
XRECORD
  5
12C
102
{ACAD_REACTORS
330
63
102
}
330
63
100
AcDbXrecord
280
     1
 90
-1023410169
  0
DICTIONARY
  5
3BB
330
1E
100
AcDbDictionary
280
     1
281
     1
  3
ACAD_XREC_ROUNDTRIP
360
3BC
  0
DICTIONARY
  5
3BF
330
26
100
AcDbDictionary
280
     1
281
     1
  3
ACAD_XREC_ROUNDTRIP
360
3C0
  0
DICTIONARY
  5
3BD
330
22
100
AcDbDictionary
280
     1
281
     1
  3
ACAD_XREC_ROUNDTRIP
360
3BE
  0
DICTIONARY
  5
3C5
330
294
100
AcDbDictionary
280
     1
281
     1
  3
ACAD_XREC_ROUNDTRIP
360
3C6
  0
DICTIONARY
  5
3C3
330
293
100
AcDbDictionary
280
     1
281
     1
  3
ACAD_XREC_ROUNDTRIP
360
3C4
  0
DICTIONARY
  5
3C7
330
295
100
AcDbDictionary
280
     1
281
     1
  3
ACAD_XREC_ROUNDTRIP
360
3C8
  0
DICTIONARY
  5
3C1
330
124
100
AcDbDictionary
280
     1
281
     1
  3
ACAD_XREC_ROUNDTRIP
360
3C2
  0
XRECORD
  5
3BC
102
{ACAD_REACTORS
330
3BB
102
}
330
3BB
100
AcDbXrecord
280
     1
102
SHADEPLOT
 70
     0
102
SHADEPLOTRESLEVEL
 70
     2
102
SHADEPLOTCUSTOMDPI
 70
   300
  0
XRECORD
  5
3C0
102
{ACAD_REACTORS
330
3BF
102
}
330
3BF
100
AcDbXrecord
280
     1
102
SHADEPLOT
 70
     0
102
SHADEPLOTRESLEVEL
 70
     2
102
SHADEPLOTCUSTOMDPI
 70
   300
  0
XRECORD
  5
3BE
102
{ACAD_REACTORS
330
3BD
102
}
330
3BD
100
AcDbXrecord
280
     1
102
SHADEPLOT
 70
     0
102
SHADEPLOTRESLEVEL
 70
     2
102
SHADEPLOTCUSTOMDPI
 70
   300
  0
XRECORD
  5
3C6
102
{ACAD_REACTORS
330
3C5
102
}
330
3C5
100
AcDbXrecord
280
     1
102
MATERIAL
148
0.0
149
0.0
149
0.0
 93
        0
 94
       63
282
     0
 72
     1
 77
     1
171
     1
175
     1
179
     1
273
     0
  0
XRECORD
  5
3C4
102
{ACAD_REACTORS
330
3C3
102
}
330
3C3
100
AcDbXrecord
280
     1
102
MATERIAL
148
0.0
149
0.0
149
0.0
 93
        0
 94
       63
282
     0
 72
     1
 77
     1
171
     1
175
     1
179
     1
273
     0
  0
XRECORD
  5
3C8
102
{ACAD_REACTORS
330
3C7
102
}
330
3C7
100
AcDbXrecord
280
     1
102
MATERIAL
148
0.0
149
0.0
149
0.0
 93
        0
 94
       63
282
     0
 72
     1
 77
     1
171
     1
175
     1
179
     1
273
     0
  0
XRECORD
  5
3C2
102
{ACAD_REACTORS
330
3C1
102
}
330
3C1
100
AcDbXrecord
280
     1
102
ACAD_ROUNDTRIP_PRE2007_TABLESTYLE
 90
      512
 91
        0
  1

 92
      512
 93
        0
  2

 94
      512
 95
        0
  3

  0
ENDSEC
  0
EOF
