  0
SECTION
  2
HEADER
  9
$ACADVER
  1
AC1015
  9
$ACADMAINTVER
 70
    20
  9
$DWGCODEPAGE
  3
ANSI_936
  9
$INSBASE
 10
0.0
 20
0.0
 30
0.0
  9
$EXTMIN
 10
55.6235636803849
 20
-1116.15910447506
 30
-0.0000000349181948
  9
$EXTMAX
 10
805.7478631454923
 20
-649.9331549411995
 30
0.0000000814935746
  9
$LIMMIN
 10
0.0
 20
0.0
  9
$LIMMAX
 10
863.6000000000001
 20
558.8
  9
$ORTHOMODE
 70
     0
  9
$REGENMODE
 70
     1
  9
$FILLMODE
 70
     1
  9
$QTEXTMODE
 70
     0
  9
$MIRRTEXT
 70
     0
  9
$LTSCALE
 40
47.498
  9
$ATTMODE
 70
     1
  9
$TEXTSIZE
 40
0.2
  9
$TRACEWID
 40
0.05
  9
$TEXTSTYLE
  7
STANDARD
  9
$CLAYER
  8
0
  9
$CELTYPE
  6
BYLAYER
  9
$CECOLOR
 62
   256
  9
$CELTSCALE
 40
1.0
  9
$DISPSILH
 70
     0
  9
$DIMSCALE
 40
1.0
  9
$DIMASZ
 40
4.7625
  9
$DIMEXO
 40
5.397499999999999
  9
$DIMDLI
 40
32.8168
  9
$DIMRND
 40
0.0
  9
$DIMDLE
 40
0.0
  9
$DIMEXE
 40
15.5448
  9
$DIMTP
 40
0.0
  9
$DIMTM
 40
0.0
  9
$DIMTXT
 40
3.96875
  9
$DIMCEN
 40
7.7724
  9
$DIMTSZ
 40
0.0
  9
$DIMTOL
 70
     1
  9
$DIMLIM
 70
     0
  9
$DIMTIH
 70
     1
  9
$DIMTOH
 70
     1
  9
$DIMSE1
 70
     0
  9
$DIMSE2
 70
     0
  9
$DIMTAD
 70
     0
  9
$DIMZIN
 70
     0
  9
$DIMBLK
  1

  9
$DIMASO
 70
     1
  9
$DIMSHO
 70
     1
  9
$DIMPOST
  1

  9
$DIMAPOST
  1

  9
$DIMALT
 70
     0
  9
$DIMALTD
 70
     2
  9
$DIMALTF
 40
25.4
  9
$DIMLFAC
 40
1.0
  9
$DIMTOFL
 70
     0
  9
$DIMTVP
 40
0.0
  9
$DIMTIX
 70
     0
  9
$DIMSOXD
 70
     0
  9
$DIMSAH
 70
     0
  9
$DIMBLK1
  1

  9
$DIMBLK2
  1

  9
$DIMSTYLE
  2
STANDARD
  9
$DIMCLRD
 70
     0
  9
$DIMCLRE
 70
     0
  9
$DIMCLRT
 70
     0
  9
$DIMTFAC
 40
1.0
  9
$DIMGAP
 40
0.09
  9
$DIMJUST
 70
     0
  9
$DIMSD1
 70
     0
  9
$DIMSD2
 70
     0
  9
$DIMTOLJ
 70
     1
  9
$DIMTZIN
 70
     0
  9
$DIMALTZ
 70
     0
  9
$DIMALTTZ
 70
     0
  9
$DIMUPT
 70
     0
  9
$DIMDEC
 70
     4
  9
$DIMTDEC
 70
     4
  9
$DIMALTU
 70
     2
  9
$DIMALTTD
 70
     2
  9
$DIMTXSTY
  7
STANDARD
  9
$DIMAUNIT
 70
     0
  9
$DIMADEC
 70
     0
  9
$DIMALTRND
 40
0.0
  9
$DIMAZIN
 70
     0
  9
$DIMDSEP
 70
    46
  9
$DIMATFIT
 70
     3
  9
$DIMFRAC
 70
     0
  9
$DIMLDRBLK
  1

  9
$DIMLUNIT
 70
     2
  9
$DIMLWD
 70
    -2
  9
$DIMLWE
 70
    -2
  9
$DIMTMOVE
 70
     0
  9
$LUNITS
 70
     2
  9
$LUPREC
 70
     2
  9
$SKETCHINC
 40
0.1
  9
$FILLETRAD
 40
0.0
  9
$AUNITS
 70
     0
  9
$AUPREC
 70
     0
  9
$MENU
  1
.
  9
$ELEVATION
 40
0.0
  9
$PELEVATION
 40
0.0
  9
$THICKNESS
 40
0.0
  9
$LIMCHECK
 70
     0
  9
$CHAMFERA
 40
0.0
  9
$CHAMFERB
 40
0.0
  9
$CHAMFERC
 40
0.0
  9
$CHAMFERD
 40
0.0
  9
$SKPOLY
 70
     0
  9
$TDCREATE
 40
2455695.432460255
  9
$TDUCREATE
 40
2455695.099126922
  9
$TDUPDATE
 40
2455695.433153565
  9
$TDUUPDATE
 40
2455695.099820232
  9
$TDINDWG
 40
0.0006938542
  9
$TDUSRTIMER
 40
0.0006938542
  9
$USRTIMER
 70
     1
  9
$ANGBASE
 50
0.0
  9
$ANGDIR
 70
     0
  9
$PDMODE
 70
     3
  9
$PDSIZE
 40
7.9375
  9
$PLINEWID
 40
0.0
  9
$SPLFRAME
 70
     0
  9
$SPLINETYPE
 70
     6
  9
$SPLINESEGS
 70
     8
  9
$HANDSEED
  5
B6E
  9
$SURFTAB1
 70
     6
  9
$SURFTAB2
 70
     6
  9
$SURFTYPE
 70
     6
  9
$SURFU
 70
     6
  9
$SURFV
 70
     6
  9
$UCSBASE
  2

  9
$UCSNAME
  2

  9
$UCSORG
 10
0.0
 20
0.0
 30
0.0
  9
$UCSXDIR
 10
1.0
 20
0.0
 30
0.0
  9
$UCSYDIR
 10
0.0
 20
1.0
 30
0.0
  9
$UCSORTHOREF
  2

  9
$UCSORTHOVIEW
 70
     0
  9
$UCSORGTOP
 10
0.0
 20
0.0
 30
0.0
  9
$UCSORGBOTTOM
 10
0.0
 20
0.0
 30
0.0
  9
$UCSORGLEFT
 10
0.0
 20
0.0
 30
0.0
  9
$UCSORGRIGHT
 10
0.0
 20
0.0
 30
0.0
  9
$UCSORGFRONT
 10
0.0
 20
0.0
 30
0.0
  9
$UCSORGBACK
 10
0.0
 20
0.0
 30
0.0
  9
$PUCSBASE
  2

  9
$PUCSNAME
  2

  9
$PUCSORG
 10
0.0
 20
0.0
 30
0.0
  9
$PUCSXDIR
 10
1.0
 20
0.0
 30
0.0
  9
$PUCSYDIR
 10
0.0
 20
1.0
 30
0.0
  9
$PUCSORTHOREF
  2

  9
$PUCSORTHOVIEW
 70
     0
  9
$PUCSORGTOP
 10
0.0
 20
0.0
 30
0.0
  9
$PUCSORGBOTTOM
 10
0.0
 20
0.0
 30
0.0
  9
$PUCSORGLEFT
 10
0.0
 20
0.0
 30
0.0
  9
$PUCSORGRIGHT
 10
0.0
 20
0.0
 30
0.0
  9
$PUCSORGFRONT
 10
0.0
 20
0.0
 30
0.0
  9
$PUCSORGBACK
 10
0.0
 20
0.0
 30
0.0
  9
$USERI1
 70
     0
  9
$USERI2
 70
     0
  9
$USERI3
 70
     0
  9
$USERI4
 70
     0
  9
$USERI5
 70
     0
  9
$USERR1
 40
0.0
  9
$USERR2
 40
0.0
  9
$USERR3
 40
0.0
  9
$USERR4
 40
0.0
  9
$USERR5
 40
0.0
  9
$WORLDVIEW
 70
     1
  9
$SHADEDGE
 70
     3
  9
$SHADEDIF
 70
    70
  9
$TILEMODE
 70
     1
  9
$MAXACTVP
 70
    64
  9
$PINSBASE
 10
0.0
 20
0.0
 30
0.0
  9
$PLIMCHECK
 70
     0
  9
$PEXTMIN
 10
1.000000000000000E+20
 20
1.000000000000000E+20
 30
1.000000000000000E+20
  9
$PEXTMAX
 10
-1.000000000000000E+20
 20
-1.000000000000000E+20
 30
-1.000000000000000E+20
  9
$PLIMMIN
 10
0.0
 20
0.0
  9
$PLIMMAX
 10
12.0
 20
9.0
  9
$UNITMODE
 70
     0
  9
$VISRETAIN
 70
     1
  9
$PLINEGEN
 70
     0
  9
$PSLTSCALE
 70
     1
  9
$TREEDEPTH
 70
  3020
  9
$CMLSTYLE
  2
Standard
  9
$CMLJUST
 70
     0
  9
$CMLSCALE
 40
1.0
  9
$PROXYGRAPHICS
 70
     1
  9
$MEASUREMENT
 70
     1
  9
$CELWEIGHT
370
    -1
  9
$ENDCAPS
280
     0
  9
$JOINSTYLE
280
     0
  9
$LWDISPLAY
290
     0
  9
$INSUNITS
 70
     4
  9
$HYPERLINKBASE
  1

  9
$STYLESHEET
  1

  9
$XEDIT
290
     1
  9
$CEPSNTYPE
380
     0
  9
$PSTYLEMODE
290
     1
  9
$FINGERPRINTGUID
  2
{D016F429-6344-4D58-BBA4-DDDA16D9B7F0}
  9
$VERSIONGUID
  2
{BB5F1D8B-DBA3-4E39-BB22-3AF6EBFBE4A5}
  9
$EXTNAMES
290
     1
  9
$PSVPSCALE
 40
0.0
  9
$OLESTARTUP
290
     0
  0
ENDSEC
  0
SECTION
  2
CLASSES
  0
CLASS
  1
ACDBDICTIONARYWDFLT
  2
AcDbDictionaryWithDefault
  3
ObjectDBX Classes
 90
        0
280
     0
281
     0
  0
CLASS
  1
ACDBPLACEHOLDER
  2
AcDbPlaceHolder
  3
ObjectDBX Classes
 90
        0
280
     0
281
     0
  0
CLASS
  1
LAYOUT
  2
AcDbLayout
  3
ObjectDBX Classes
 90
        0
280
     0
281
     0
  0
CLASS
  1
MATERIAL
  2
AcDbMaterial
  3
ObjectDBX Classes
 90
     1024
280
     0
281
     0
  0
CLASS
  1
VISUALSTYLE
  2
AcDbVisualStyle
  3
ObjectDBX Classes
 90
     4095
280
     0
281
     0
  0
CLASS
  1
TABLESTYLE
  2
AcDbTableStyle
  3
ObjectDBX Classes
 90
     4095
280
     0
281
     0
  0
CLASS
  1
SCALE
  2
AcDbScale
  3
ObjectDBX Classes
 90
     1153
280
     0
281
     0
  0
CLASS
  1
MLEADERSTYLE
  2
AcDbMLeaderStyle
  3
ACDB_MLEADERSTYLE_CLASS
 90
     4095
280
     0
281
     0
  0
CLASS
  1
CELLSTYLEMAP
  2
AcDbCellStyleMap
  3
ObjectDBX Classes
 90
     1152
280
     0
281
     0
  0
CLASS
  1
DICTIONARYVAR
  2
AcDbDictionaryVar
  3
ObjectDBX Classes
 90
        0
280
     0
281
     0
  0
CLASS
  1
ACME_DOCUMENT
  2
AcMeDbDoc
  3
AcMeServices
 90
        0
280
     0
281
     0
  0
CLASS
  1
ACMESCOPE
  2
AcMeScope
  3
AcMeServices
 90
        0
280
     0
281
     0
  0
CLASS
  1
ACMECOMMANDHISTORY
  2
AcMeCommandHistory
  3
AcMeServices
 90
        0
280
     0
281
     0
  0
CLASS
  1
ACIMSYSVARMAN
  2
AcImSysVarManager
  3
AcMeServices
 90
        0
280
     0
281
     0
  0
CLASS
  1
ACIMINTSYSVAR
  2
AcImIntSysVar
  3
AcMeServices
 90
        0
280
     0
281
     0
  0
CLASS
  1
ACMEDRAWINGMAN
  2
AcMeDrawingMan
  3
AcMeServices
 90
        0
280
     0
281
     0
  0
CLASS
  1
ACMEVIEW
  2
AcMeView
  3
AcMeServices
 90
        0
280
     0
281
     0
  0
CLASS
  1
ACDBENTITYCACHE
  2
AcMeEntityCache
  3
AcMeServices
 90
        0
280
     0
281
     0
  0
CLASS
  1
GSMANAGER
  2
AcMeGSManager
  3
AcMeServices
 90
        0
280
     0
281
     0
  0
CLASS
  1
AMDTINTERNALREACTOR
  2
AmdtInternalReactor
  3
AcMeServices
 90
        0
280
     0
281
     0
  0
CLASS
  1
ACMESTATEMGR
  2
AcMeStateMgr
  3
AcMeServices
 90
        0
280
     0
281
     0
  0
CLASS
  1
ACGREFMASTER
  2
AcGrefMaster
  3
AcAttribServices
 90
        0
280
     0
281
     0
  0
CLASS
  1
AM_DRAWING_MGR
  2
AcDmDwgMgr
  3
AcMechDwgViewMgmt
 90
        0
280
     0
281
     0
  0
CLASS
  1
AM_DWG_DOCUMENT
  2
AcDmDwgDocument
  3
AcMechDwgViewMgmt
 90
        0
280
     0
281
     0
  0
CLASS
  1
AM_DWG_SHEET
  2
AcDmSheet
  3
AcMechDwgViewMgmt
 90
        0
280
     0
281
     0
  0
CLASS
  1
AM_VIEWDIMPARMAP
  2
AcDmViewDimParMap
  3
AcMechDwgViewMgmt
 90
        0
280
     0
281
     0
  0
CLASS
  1
ACIMREALSYSVAR
  2
AcImRealSysVar
  3
AcMeServices
 90
        0
280
     0
281
     0
  0
CLASS
  1
AM_DWGMGR_NAME
  2
AcDmDwgMgrName
  3
AcMechDwgViewMgmt
 90
        0
280
     0
281
     0
  0
CLASS
  1
ACME_DATABASE
  2
AcMeDbDatabase
  3
AcMeServices
 90
        0
280
     0
281
     0
  0
CLASS
  1
ACRFINSADJUSTERMGR
  2
AcRfInsAdjusterMgr
  3
AcMeServices
 90
        0
280
     0
281
     0
  0
CLASS
  1
ACGREFACADMASTER
  2
AcGrefacadMaster
  3
AcGrefServices
 90
        0
280
     0
281
     0
  0
CLASS
  1
AMDTMENUSTATEMGR
  2
AmdtMenuStateMgr
  3
McadcomServices
 90
        0
280
     0
281
     0
  0
CLASS
  1
AMDTMCOMMENUSTATE
  2
AmdtMcomMenuState
  3
McadcomServices
 90
        0
280
     0
281
     0
  0
CLASS
  1
AMIMASTER
  2
AmiMaster
  3
AmiServices
 90
        0
280
     0
281
     0
  0
CLASS
  1
AMGSETTINGSOBJ
  2
AmgSettingsObj
  3
"AcadM|Product Description: AutoCAD Mechanical|Company: Autodesk"
 90
        0
280
     0
281
     0
  0
CLASS
  1
MAPIAMMOUDLE
  2
MApiAmModule
  3
MApiAmServices
 90
        0
280
     0
281
     0
  0
CLASS
  1
ACIMSTRSYSVAR
  2
AcImStrSysVar
  3
AcMeServices
 90
        0
280
     0
281
     0
  0
CLASS
  1
AMDTADMENUSTATE
  2
AmdtAdMenuState
  3
DesignerServices
 90
        0
280
     0
281
     0
  0
CLASS
  1
ADAPPL
  2
AcAdAppl
  3
DesignerServices
 90
        0
280
     0
281
     0
  0
CLASS
  1
DEPMGR
  2
AcAdDepMgr
  3
DesignerServices
 90
        0
280
     0
281
     0
  0
CLASS
  1
PARAMMGR
  2
AcAdParamMgr
  3
DesignerServices
 90
        0
280
     0
281
     0
  0
CLASS
  1
PARAMSCOPE
  2
AcAdParamScope
  3
DesignerServices
 90
        0
280
     0
281
     0
  0
CLASS
  1
NAMEDAPPL
  2
AcAdNamedAppl
  3
DesignerServices
 90
        0
280
     0
281
     0
  0
CLASS
  1
AMDTDMMENUSTATE
  2
AmdtDmMenuState
  3
AcMechDwgViewMgmt
 90
        0
280
     0
281
     0
  0
CLASS
  1
AMDTAMMENUSTATE
  2
AmdtAmMenuState
  3
DesignerAssemblies
 90
        0
280
     0
281
     0
  0
CLASS
  1
ACAMPROJECT
  2
AcAmProject
  3
DesignerAssemblies
 90
        0
280
     0
281
     0
  0
CLASS
  1
ACAMGRCOMPDEF
  2
AcAmGrCompDef
  3
DesignerAssemblies
 90
        0
280
     0
281
     0
  0
CLASS
  1
ACCMCONTEXT
  2
AcCmContext
  3
DesignerAssemblies
 90
        0
280
     0
281
     0
  0
CLASS
  1
ACAMCOMPDEF
  2
AcAmCompDef
  3
DesignerAssemblies
 90
        0
280
     0
281
     0
  0
CLASS
  1
ACAMCOMPDEFMGR
  2
AcAmCompDefMgr
  3
DesignerAssemblies
 90
        0
280
     0
281
     0
  0
CLASS
  1
AMCONTEXTMGR
  2
AcAmContextMgr
  3
DesignerAssemblies
 90
        0
280
     0
281
     0
  0
CLASS
  1
ACAMCONTEXTMODELER
  2
AcAmContextModeler
  3
DesignerAssemblies
 90
        0
280
     0
281
     0
  0
CLASS
  1
ACMDATADICTIONARY
  2
AcmDataDictionary
  3
"AcmSymBB|Product Description: AutoCAD Mechanical|Company: Autodesk"
 90
        0
280
     0
281
     0
  0
CLASS
  1
CATALOGSTATE
  2
AcAmCatalogState
  3
DesignerAssemblies
 90
        0
280
     0
281
     0
  0
CLASS
  1
ACAMGRCOMPDEFSET
  2
AcAmGrCompDefSet
  3
DesignerAssemblies
 90
        0
280
     0
281
     0
  0
CLASS
  1
AMDTBROWSERDBTAB
  2
AmdtBrowserDbTab
  3
McadcomServices
 90
        0
280
     0
281
     0
  0
CLASS
  1
CBROWSERAPPOBJECT
  2
CBrowserAppObject
  3
McadcomServices
 90
        0
280
     0
281
     0
  0
CLASS
  1
DM_PLACEHOLDER
  2
AcDmSelsetPlaceholder
  3
AcMechDwgViewMgmt
 90
        0
280
     0
281
     0
  0
CLASS
  1
ACMSTANDARDISO
  2
AcmStandardISO
  3
"Amdt_StdImp|Product Description: AutoCAD Mechanical|Company: Autodesk"
 90
        0
280
     0
281
     0
  0
CLASS
  1
AMGOBJPROPCFG
  2
AmgObjPropCfg
  3
"AmgLay|Product Description: AutoCAD Mechanical|Company: Autodesk"
 90
        1
280
     0
281
     0
  0
CLASS
  1
AMDTEDGESTANDARDISO13715
  2
AmdtEdgeStdISO13715
  3
"Amdt_StdImp|Product Description: AutoCAD Mechanical|Company: Autodesk"
 90
        0
280
     0
281
     0
  0
CLASS
  1
ACMSURFSTANDARDISO
  2
AcmSurfTextStdISO
  3
"Amdt_StdImp|Product Description: AutoCAD Mechanical|Company: Autodesk"
 90
        0
280
     0
281
     0
  0
CLASS
  1
ACMFCFSTANDARDISO
  2
AcmFCFStdISO
  3
"Amdt_StdImp|Product Description: AutoCAD Mechanical|Company: Autodesk"
 90
        0
280
     0
281
     0
  0
CLASS
  1
ACMWELDSTANDARDISO
  2
AcmWeldingStdISO
  3
"Amdt_StdImp|Product Description: AutoCAD Mechanical|Company: Autodesk"
 90
        0
280
     0
281
     0
  0
CLASS
  1
ACMIDSTANDARDISO
  2
AcmIdStdISO
  3
"Amdt_StdImp|Product Description: AutoCAD Mechanical|Company: Autodesk"
 90
        0
280
     0
281
     0
  0
CLASS
  1
ACMDATUMSTANDARDISO
  2
AcmDatumStdISO
  3
"Amdt_StdImp|Product Description: AutoCAD Mechanical|Company: Autodesk"
 90
        0
280
     0
281
     0
  0
CLASS
  1
ACMBOMSTANDARDISO
  2
AcmBOMStdISO
  3
"Amdt_StdImp|Product Description: AutoCAD Mechanical|Company: Autodesk"
 90
        0
280
     0
281
     0
  0
CLASS
  1
ACMDETAILSTANDARDISO
  2
AmdtDetailSymStdISO
  3
"Amdt_StdImp|Product Description: AutoCAD Mechanical|Company: Autodesk"
 90
        0
280
     0
281
     0
  0
CLASS
  1
ACMSECTIONSTANDARDISO
  2
AmdtSectionSymStdISO
  3
"Amdt_StdImp|Product Description: AutoCAD Mechanical|Company: Autodesk"
 90
        0
280
     0
281
     0
  0
CLASS
  1
ACMCENTERLINESTANDARDISO
  2
AmdtCenterLineStdISO
  3
"Amdt_StdImp|Product Description: AutoCAD Mechanical|Company: Autodesk"
 90
        0
280
     0
281
     0
  0
CLASS
  1
ACMTHREADLINESTANDARDISO
  2
AmdtThreadLineStdISO
  3
"Amdt_StdImp|Product Description: AutoCAD Mechanical|Company: Autodesk"
 90
        0
280
     0
281
     0
  0
CLASS
  1
ACMNOTESTANDARDISO
  2
AmdtNoteStdISO
  3
"Amdt_StdImp|Product Description: AutoCAD Mechanical|Company: Autodesk"
 90
        0
280
     0
281
     0
  0
CLASS
  1
ACMTAPERSTANDARDISO
  2
AcmTaperStdISO
  3
"Amdt_StdImp|Product Description: AutoCAD Mechanical|Company: Autodesk"
 90
        0
280
     0
281
     0
  0
CLASS
  1
AMDTNOTETEMPLATEDB
  2
AmdtNoteTemplateDB
  3
AMDT_STDIMP_MODULE_NAME
 90
        0
280
     0
281
     0
  0
CLASS
  1
ACAMGLAYSTD
  2
AcAmgLayStd
  3
"AmgLay|Product Description: AutoCAD Mechanical|Company: Autodesk"
 90
        0
280
     0
281
     0
  0
CLASS
  1
ACAMGDIMSTD
  2
AcAmgDimStd
  3
"AmgDim|Product Description: AutoCAD Mechanical|Company: Autodesk"
 90
        0
280
     0
281
     0
  0
CLASS
  1
ACAMGHOLECHARTSTDISO
  2
AcAmgHoleChartStdISO
  3
ACMSYMBB_MODULE_NAME
 90
        0
280
     0
281
     0
  0
CLASS
  1
ACAMGTITLESTD
  2
AcAmgTitleStd
  3
"AmgTitle|Product Description: AutoCAD Mechanical|Company: Autodesk"
 90
        0
280
     0
281
     0
  0
CLASS
  1
ACAMGFILTERDAT
  2
AcAmgFilterDat
  3
"AcadM|Product Description: AutoCAD Mechanical|Company: Autodesk"
 90
        0
280
     0
281
     0
  0
CLASS
  1
CAMSSTRUCTBTNSTATE
  2
StructBtnState
  3
L"DesignerAssemblies"
 90
        0
280
     0
281
     0
  0
ENDSEC
  0
SECTION
  2
TABLES
  0
TABLE
  2
VPORT
  5
8
330
0
100
AcDbSymbolTable
 70
     1
  0
VPORT
  5
1F4
330
8
100
AcDbSymbolTableRecord
100
AcDbViewportTableRecord
  2
*ACTIVE
 70
     0
 10
0.0
 20
0.0
 11
1.0
 21
1.0
 12
362.2735223328228
 22
-1047.712084935287
 13
0.0
 23
0.0
 14
1.0
 24
1.0
 15
0.0
 25
0.0
 16
0.0
 26
0.0
 36
1.0
 17
0.0
 27
0.0
 37
0.0
 40
691.2870653727862
 41
1.329690346083788
 42
50.0
 43
0.0
 44
0.0
 50
0.0
 51
0.0
 71
     0
 72
   100
 73
     1
 74
     1
 75
     0
 76
     0
 77
     0
 78
     0
281
     0
 65
     0
110
0.0
120
0.0
130
0.0
111
1.0
121
0.0
131
0.0
112
0.0
122
1.0
132
0.0
 79
     0
146
0.0
  0
ENDTAB
  0
TABLE
  2
LTYPE
  5
5
330
0
100
AcDbSymbolTable
 70
    18
  0
LTYPE
  5
14
330
5
100
AcDbSymbolTableRecord
100
AcDbLinetypeTableRecord
  2
BYBLOCK
 70
     0
  3

 72
    65
 73
     0
 40
0.0
  0
LTYPE
  5
15
330
5
100
AcDbSymbolTableRecord
100
AcDbLinetypeTableRecord
  2
BYLAYER
 70
     0
  3

 72
    65
 73
     0
 40
0.0
  0
LTYPE
  5
16
330
5
100
AcDbSymbolTableRecord
100
AcDbLinetypeTableRecord
  2
CONTINUOUS
 70
     0
  3
Solid line
 72
    65
 73
     0
 40
0.0
  0
LTYPE
  5
1F5
330
5
100
AcDbSymbolTableRecord
100
AcDbLinetypeTableRecord
  2
CENTER
 70
     0
  3
____ _ ____ _ ____ _ ____ _ ____ _ ____ _ ____
 72
    65
 73
     4
 40
0.6
 49
0.375
 74
     0
 49
-0.075
 74
     0
 49
0.075
 74
     0
 49
-0.075
 74
     0
  0
LTYPE
  5
1F6
330
5
100
AcDbSymbolTableRecord
100
AcDbLinetypeTableRecord
  2
HIDDEN
 70
     0
  3
- - - - - - - - - - - - - - - - - - - -
 72
    65
 73
     2
 40
0.2
 49
0.1
 74
     0
 49
-0.1
 74
     0
  0
LTYPE
  5
1F7
330
5
100
AcDbSymbolTableRecord
100
AcDbLinetypeTableRecord
  2
PHANTOM
 70
     0
  3
_____ _ _ _____ _ _ _____ _ _ _____
 72
    65
 73
     6
 40
0.8
 49
0.45
 74
     0
 49
-0.05
 74
     0
 49
0.1
 74
     0
 49
-0.05
 74
     0
 49
0.1
 74
     0
 49
-0.05
 74
     0
  0
LTYPE
  5
1F8
330
5
100
AcDbSymbolTableRecord
100
AcDbLinetypeTableRecord
  2
DOT
 70
     0
  3
. . . . . . . . . . . . . . . . . . . .
 72
    65
 73
     2
 40
0.2
 49
0.1
 74
     0
 49
-0.1
 74
     0
  0
LTYPE
  5
1F9
330
5
100
AcDbSymbolTableRecord
100
AcDbLinetypeTableRecord
  2
DASHED
 70
     0
  3
- - - - - - - - - - - - - - - - - - - -
 72
    65
 73
     2
 40
0.2
 49
0.1
 74
     0
 49
-0.1
 74
     0
  0
LTYPE
  5
AB8
330
5
100
AcDbSymbolTableRecord
100
AcDbLinetypeTableRecord
  2
PHANTOM2
 70
     0
  3
Phantom (.5x) ___ _ _ ___ _ _ ___ _ _ ___ _ _
 72
    65
 73
     6
 40
31.75
 49
15.875
 74
     0
 49
-3.174999999999999
 74
     0
 49
3.174999999999999
 74
     0
 49
-3.174999999999999
 74
     0
 49
3.174999999999999
 74
     0
 49
-3.174999999999999
 74
     0
  0
LTYPE
  5
AF1
330
5
100
AcDbSymbolTableRecord
100
AcDbLinetypeTableRecord
  2
AM_ISO02W050
 70
     0
  3
__ __ __ __ __ __ __ __ __ __ __ __ __ __ __
 72
    65
 73
     2
 40
7.5
 49
6.0
 74
     0
 49
-1.5
 74
     0
  0
LTYPE
  5
AF2
330
5
100
AcDbSymbolTableRecord
100
AcDbLinetypeTableRecord
  2
AM_ISO08W050
 70
     0
  3
____ . ____ . ____ . ____ . ____ . ____ . ____
 72
    65
 73
     4
 40
18.0
 49
12.0
 74
     0
 49
-1.5
 74
     0
 49
3.0
 74
     0
 49
-1.5
 74
     0
  0
LTYPE
  5
AF3
330
5
100
AcDbSymbolTableRecord
100
AcDbLinetypeTableRecord
  2
AM_ISO09W050
 70
     0
  3
_____ . . _____ . . _____ . . ____ .. ____
 72
    65
 73
     6
 40
22.5
 49
12.0
 74
     0
 49
-1.5
 74
     0
 49
3.0
 74
     0
 49
-1.5
 74
     0
 49
3.0
 74
     0
 49
-1.5
 74
     0
  0
LTYPE
  5
AF4
330
5
100
AcDbSymbolTableRecord
100
AcDbLinetypeTableRecord
  2
Amconstr
 70
     0
  3
_______________________
 72
    65
 73
     2
 40
9999.0
 49
9999.0
 74
     0
 49
0.0
 74
     0
  0
LTYPE
  5
AF5
330
5
100
AcDbSymbolTableRecord
100
AcDbLinetypeTableRecord
  2
AM_ISO08W050x2
 70
     0
  3
__ . __ . __ . __ . __ . __
 72
    65
 73
     4
 40
9.0
 49
6.0
 74
     0
 49
-0.75
 74
     0
 49
1.5
 74
     0
 49
-0.75
 74
     0
  0
LTYPE
  5
AF6
330
5
100
AcDbSymbolTableRecord
100
AcDbLinetypeTableRecord
  2
AM_ISO02W050x2
 70
     0
  3
 _ _ _ _ _ _ _ _ _ _ _ _
 72
    65
 73
     2
 40
3.75
 49
3.0
 74
     0
 49
-0.75
 74
     0
  0
LTYPE
  5
AF9
330
5
100
AcDbSymbolTableRecord
100
AcDbLinetypeTableRecord
  2
Amzigzag
 70
     0
  3
/\/-/\/-/\/-/\/-/\/-/\/
 72
    65
 73
     2
 40
11.0001
 49
0.0001
 74
     4
 75
   136
340
AF8
 46
0.04
 50
0.0
 44
0.0
 45
0.0
 49
-11.0
 74
     0
  0
LTYPE
  5
B09
330
5
100
AcDbSymbolTableRecord
100
AcDbLinetypeTableRecord
  2
ACISOWELD
 70
     0
  3
_ _ _ _ _
 72
    65
 73
     2
 40
2.0
 49
2.0
 74
     0
 49
-1.0
 74
     0
  0
LTYPE
  5
B0A
330
5
100
AcDbSymbolTableRecord
100
AcDbLinetypeTableRecord
  2
ACISOTGB
 70
     0
  3
__ . . __ . .
 72
    65
 73
     6
 40
9.0
 49
4.0
 74
     0
 49
-1.0
 74
     0
 49
1.0
 74
     0
 49
-1.0
 74
     0
 49
1.0
 74
     0
 49
-1.0
 74
     0
  0
LTYPE
  5
B0B
330
5
100
AcDbSymbolTableRecord
100
AcDbLinetypeTableRecord
  2
ACISOTGL
 70
     0
  3
_ _ _ _ _
 72
    65
 73
     2
 40
3.0
 49
2.0
 74
     0
 49
-1.0
 74
     0
  0
ENDTAB
  0
TABLE
  2
LAYER
  5
2
330
0
100
AcDbSymbolTable
 70
    20
  0
LAYER
  5
10
330
2
100
AcDbSymbolTableRecord
100
AcDbLayerTableRecord
  2
0
 70
     0
 62
     7
  6
CONTINUOUS
370
    -3
390
F
  0
LAYER
  5
1FA
330
2
100
AcDbSymbolTableRecord
100
AcDbLayerTableRecord
  2
DEFAULT_1
 70
     0
 62
     7
  6
CENTER
370
    -3
390
F
  0
LAYER
  5
1FB
330
2
100
AcDbSymbolTableRecord
100
AcDbLayerTableRecord
  2
DEFAULT_2
 70
     0
 62
     8
  6
HIDDEN
370
    -3
390
F
  0
LAYER
  5
1FC
330
2
100
AcDbSymbolTableRecord
100
AcDbLayerTableRecord
  2
DEFAULT_3
 70
     0
 62
     7
  6
PHANTOM
370
    -3
390
F
  0
LAYER
  5
1FD
330
2
100
AcDbSymbolTableRecord
100
AcDbLayerTableRecord
  2
01___PRT_ALL_DTM_PLN
 70
     0
 62
     7
  6
CONTINUOUS
370
    -3
390
F
  0
LAYER
  5
1FE
330
2
100
AcDbSymbolTableRecord
100
AcDbLayerTableRecord
  2
01___PRT_DEF_DTM_PLN
 70
     0
 62
     7
  6
CONTINUOUS
370
    -3
390
F
  0
LAYER
  5
1FF
330
2
100
AcDbSymbolTableRecord
100
AcDbLayerTableRecord
  2
02___PRT_ALL_AXES
 70
     0
 62
     7
  6
CONTINUOUS
370
    -3
390
F
  0
LAYER
  5
200
330
2
100
AcDbSymbolTableRecord
100
AcDbLayerTableRecord
  2
03___PRT_ALL_CURVES
 70
     0
 62
     7
  6
CONTINUOUS
370
    -3
390
F
  0
LAYER
  5
201
330
2
100
AcDbSymbolTableRecord
100
AcDbLayerTableRecord
  2
04___PRT_ALL_DTM_PNT
 70
     0
 62
     7
  6
CONTINUOUS
370
    -3
390
F
  0
LAYER
  5
202
330
2
100
AcDbSymbolTableRecord
100
AcDbLayerTableRecord
  2
05___PRT_ALL_DTM_CSYS
 70
     0
 62
     7
  6
CONTINUOUS
370
    -3
390
F
  0
LAYER
  5
203
330
2
100
AcDbSymbolTableRecord
100
AcDbLayerTableRecord
  2
05___PRT_DEF_DTM_CSYS
 70
     0
 62
     7
  6
CONTINUOUS
370
    -3
390
F
  0
LAYER
  5
204
330
2
100
AcDbSymbolTableRecord
100
AcDbLayerTableRecord
  2
06___PRT_ALL_SURFS
 70
     0
 62
     7
  6
CONTINUOUS
370
    -3
390
F
  0
LAYER
  5
205
330
2
100
AcDbSymbolTableRecord
100
AcDbLayerTableRecord
  2
DATUM_AXIS
 70
     0
 62
     7
  6
CONTINUOUS
370
    -3
390
F
  0
LAYER
  5
206
330
2
100
AcDbSymbolTableRecord
100
AcDbLayerTableRecord
  2
DATUM_PLANE
 70
     0
 62
     7
  6
CONTINUOUS
370
    -3
390
F
  0
LAYER
  5
207
330
2
100
AcDbSymbolTableRecord
100
AcDbLayerTableRecord
  2
DATUM_POINT
 70
     0
 62
     7
  6
CONTINUOUS
370
    -3
390
F
  0
LAYER
  5
208
330
2
100
AcDbSymbolTableRecord
100
AcDbLayerTableRecord
  2
XSEC_DATUMS
 70
     0
 62
     7
  6
CONTINUOUS
370
    -3
390
F
  0
LAYER
  5
209
330
2
100
AcDbSymbolTableRecord
100
AcDbLayerTableRecord
  2
_CURVE
 70
     0
 62
     7
  6
CONTINUOUS
370
    -3
390
F
  0
LAYER
  5
20A
330
2
100
AcDbSymbolTableRecord
100
AcDbLayerTableRecord
  2
_SURFACE
 70
     0
 62
     7
  6
CONTINUOUS
370
    -3
390
F
  0
LAYER
  5
20B
330
2
100
AcDbSymbolTableRecord
100
AcDbLayerTableRecord
  2
___NOTE
 70
     0
 62
     7
  6
CONTINUOUS
370
    -3
390
F
  0
LAYER
  5
20C
330
2
100
AcDbSymbolTableRecord
100
AcDbLayerTableRecord
  2
___SYMBOL
 70
     0
 62
     7
  6
CONTINUOUS
370
    -3
390
F
  0
ENDTAB
  0
TABLE
  2
STYLE
  5
3
330
0
100
AcDbSymbolTable
 70
     5
  0
STYLE
  5
11
330
3
100
AcDbSymbolTableRecord
100
AcDbTextStyleTableRecord
  2
STANDARD
 70
     0
 40
0.0
 41
0.8
 50
0.0
 71
     0
 42
0.2
  3
txt
  4

  0
STYLE
  5
20D
330
3
100
AcDbSymbolTableRecord
100
AcDbTextStyleTableRecord
  2
TEXTSTYLE_1
 70
     0
 40
0.0
 41
0.8
 50
0.0
 71
     0
 42
0.2
  3
gdt
  4

  0
STYLE
  5
AF8
330
3
100
AcDbSymbolTableRecord
100
AcDbTextStyleTableRecord
  2

 70
     1
 40
0.0
 41
1.0
 50
0.0
 71
     0
 42
0.2
  3
genltshp.shx
  4

  0
STYLE
  5
AFA
330
3
100
AcDbSymbolTableRecord
100
AcDbTextStyleTableRecord
  2
ACISOTS
 70
     0
 40
1.0
 41
1.0
 50
0.0
 71
     0
 42
0.2
  3
isocp.shx
  4

  0
STYLE
  5
B08
330
3
100
AcDbSymbolTableRecord
100
AcDbTextStyleTableRecord
  2
ACISOGDT
 70
     0
 40
0.0
 41
1.0
 50
0.0
 71
     0
 42
0.2
  3
amgdt.shx
  4

  0
ENDTAB
  0
TABLE
  2
VIEW
  5
6
330
0
100
AcDbSymbolTable
 70
     0
  0
ENDTAB
  0
TABLE
  2
UCS
  5
7
330
0
100
AcDbSymbolTable
 70
     0
  0
ENDTAB
  0
TABLE
  2
APPID
  5
9
330
0
100
AcDbSymbolTable
 70
    10
  0
APPID
  5
20E
330
9
100
AcDbSymbolTableRecord
100
AcDbRegAppTableRecord
  2
ACAD
 70
     0
  0
APPID
  5
A7D
330
9
100
AcDbSymbolTableRecord
100
AcDbRegAppTableRecord
  2
ACAD_MLEADERVER
 70
     0
  0
APPID
  5
A8B
330
9
100
AcDbSymbolTableRecord
100
AcDbRegAppTableRecord
  2
MCAD_NO_VIS
 70
     0
  0
APPID
  5
A8C
330
9
100
AcDbSymbolTableRecord
100
AcDbRegAppTableRecord
  2
ACAD_TEMP_GRAPHIC
 70
     0
  0
APPID
  5
ABA
330
9
100
AcDbSymbolTableRecord
100
AcDbRegAppTableRecord
  2
AD_DRAW
 70
     0
  0
APPID
  5
ABD
330
9
100
AcDbSymbolTableRecord
100
AcDbRegAppTableRecord
  2
ACATTRIBSERVICES
 70
     0
  0
APPID
  5
AE2
330
9
100
AcDbSymbolTableRecord
100
AcDbRegAppTableRecord
  2
DESIGNERASSEMBLIES
 70
     0
  0
APPID
  5
AE8
330
9
100
AcDbSymbolTableRecord
100
AcDbRegAppTableRecord
  2
ACADM_DIM_EDIT
 70
     0
  0
APPID
  5
AE9
330
9
100
AcDbSymbolTableRecord
100
AcDbRegAppTableRecord
  2
AMDT_DM_ADJ
 70
     0
  0
APPID
  5
B6D
330
9
100
AcDbSymbolTableRecord
100
AcDbRegAppTableRecord
  2
ACAD_DSTYLE_DIMARC_LENGTH_SYMBOL
 70
     0
  0
ENDTAB
  0
TABLE
  2
DIMSTYLE
  5
A
330
0
100
AcDbSymbolTable
 70
     9
100
AcDbDimStyleTable
 71
     1
340
211
  0
DIMSTYLE
105
211
330
A
100
AcDbSymbolTableRecord
100
AcDbDimStyleTableRecord
  2
STANDARD
 70
     0
 41
4.7625
 71
     1
 78
     8
140
3.96875
271
     0
272
     0
284
     8
340
11
  0
DIMSTYLE
105
B16
330
A
100
AcDbSymbolTableRecord
100
AcDbDimStyleTableRecord
  2
AM_ISO
 70
     0
  4
"
 41
2.5
 42
1.0
 43
10.0
 44
1.0
 47
0.1
 48
0.1
 73
     0
 74
     0
 77
     1
 78
     8
 79
     2
140
3.5
141
0.0
143
0.0393701
146
0.71
147
1.5
172
     1
176
   256
177
   256
178
     2
271
     2
272
     3
274
     4
283
     0
284
     8
340
11
371
    -1
372
    -1
1001
ACAD_DSTYLE_DIMARC_LENGTH_SYMBOL
1070
   379
1070
     1
  0
DIMSTYLE
105
B17
330
A
100
AcDbSymbolTableRecord
100
AcDbDimStyleTableRecord
  2
AM_ISO$3
 70
     0
  4
"
 41
2.5
 42
1.0
 43
10.0
 44
1.0
 47
0.1
 48
0.1
 73
     0
 77
     1
 78
     8
 79
     2
140
3.5
141
0.0
143
0.0393701
146
0.71
147
1.5
176
   256
177
   256
178
     2
271
     2
272
     3
274
     4
283
     0
284
     8
288
     1
289
     0
340
11
371
    -1
372
    -1
1001
ACAD_DSTYLE_DIMARC_LENGTH_SYMBOL
1070
   379
1070
     1
  0
DIMSTYLE
105
B18
330
A
100
AcDbSymbolTableRecord
100
AcDbDimStyleTableRecord
  2
AM_ISO$4
 70
     0
  4
"
 41
2.5
 42
1.0
 43
10.0
 44
1.0
 47
0.1
 48
0.1
 73
     0
 77
     1
 78
     8
 79
     2
140
3.5
141
0.0
143
0.0393701
146
0.71
147
1.5
176
   256
177
   256
178
     2
271
     2
272
     3
274
     4
283
     0
284
     8
288
     1
289
     0
340
11
371
    -1
372
    -1
1001
ACAD_DSTYLE_DIMARC_LENGTH_SYMBOL
1070
   379
1070
     1
  0
DIMSTYLE
105
B19
330
A
100
AcDbSymbolTableRecord
100
AcDbDimStyleTableRecord
  2
AM_ISO$6
 70
     0
  4
"
 41
2.5
 42
1.0
 43
10.0
 44
1.0
 47
0.1
 48
0.1
 73
     0
 74
     0
 78
     8
 79
     2
140
3.5
141
0.0
143
0.0393701
146
0.71
147
1.5
172
     1
176
   256
177
   256
178
     2
271
     2
272
     3
274
     4
283
     0
284
     8
340
11
371
    -1
372
    -1
1001
ACAD_DSTYLE_DIMARC_LENGTH_SYMBOL
1070
   379
1070
     1
  0
DIMSTYLE
105
B1A
330
A
100
AcDbSymbolTableRecord
100
AcDbDimStyleTableRecord
  2
AM_ISO$7
 70
     0
  4
"
 41
2.5
 42
1.0
 43
10.0
 44
1.0
 47
0.1
 48
0.1
 73
     0
 74
     0
 77
     1
 78
     8
 79
     2
140
5.0
141
0.0
143
0.0393701
146
0.71
147
1.5
172
     1
176
   256
177
   256
178
     2
271
     2
272
     3
274
     4
283
     0
284
     8
340
11
371
    -1
372
    -1
1001
ACAD_DSTYLE_DIMARC_LENGTH_SYMBOL
1070
   379
1070
     1
  0
DIMSTYLE
105
B1B
330
A
100
AcDbSymbolTableRecord
100
AcDbDimStyleTableRecord
  2
AM_ISO$SF
 70
     0
  4
"
 41
2.5
 42
1.0
 43
10.0
 44
1.0
 47
0.1
 48
0.1
 73
     0
 74
     0
 75
     1
 76
     1
 77
     1
 78
     8
 79
     2
140
3.5
141
0.0
143
0.0393701
146
0.71
147
1.5
172
     1
176
   256
177
   256
178
     2
271
     2
272
     3
274
     4
283
     0
284
     8
340
11
371
    -1
372
    -1
1001
ACAD_DSTYLE_DIMARC_LENGTH_SYMBOL
1070
   379
1070
     1
  0
DIMSTYLE
105
B20
330
A
100
AcDbSymbolTableRecord
100
AcDbDimStyleTableRecord
  2
AM_ISO$SH
 70
     0
  4
"
 41
2.5
 42
1.0
 43
10.0
 44
1.0
 47
0.1
 48
0.1
 73
     0
 74
     0
 75
     1
 76
     1
 77
     1
 78
     8
 79
     2
140
3.5
141
0.0
143
0.0393701
144
2.0
146
0.71
147
1.5
172
     1
173
     1
176
   256
177
   256
178
     2
271
     2
272
     3
274
     4
283
     0
284
     8
340
11
343
B1C
371
    -1
372
    -1
1001
ACAD_DSTYLE_DIMARC_LENGTH_SYMBOL
1070
   379
1070
     1
  0
ENDTAB
  0
TABLE
  2
BLOCK_RECORD
  5
1
330
0
100
AcDbSymbolTable
 70
     3
  0
BLOCK_RECORD
  5
20F
330
1
100
AcDbSymbolTableRecord
100
AcDbBlockTableRecord
  2
*Model_Space
340
A28
  0
BLOCK_RECORD
  5
210
330
1
100
AcDbSymbolTableRecord
100
AcDbBlockTableRecord
  2
*Paper_Space
340
A29
  0
BLOCK_RECORD
  5
B1C
330
1
100
AcDbSymbolTableRecord
100
AcDbBlockTableRecord
  2
GENAXEH
340
0
  0
ENDTAB
  0
ENDSEC
  0
SECTION
  2
BLOCKS
  0
BLOCK
  5
20
330
20F
100
AcDbEntity
  8
0
100
AcDbBlockBegin
  2
*Model_Space
 70
     0
 10
0.0
 20
0.0
 30
0.0
  3
*Model_Space
  1

  0
ENDBLK
  5
21
330
20F
100
AcDbEntity
  8
0
100
AcDbBlockEnd
  0
BLOCK
  5
1C
330
210
100
AcDbEntity
 67
     1
  8
0
100
AcDbBlockBegin
  2
*Paper_Space
 70
     0
 10
0.0
 20
0.0
 30
0.0
  3
*Paper_Space
  1

  0
ENDBLK
  5
1D
330
210
100
AcDbEntity
 67
     1
  8
0
100
AcDbBlockEnd
  0
BLOCK
  5
B1E
330
B1C
100
AcDbEntity
  8
0
100
AcDbBlockBegin
  2
GENAXEH
 70
     0
 10
0.0
 20
0.0
 30
0.0
  3
GENAXEH
  1

  0
LINE
  5
B1D
330
B1C
100
AcDbEntity
  8
0
100
AcDbLine
 10
-1.0
 20
0.0
 30
0.0
 11
1.0
 21
0.0
 31
0.0
  0
ENDBLK
  5
B1F
330
B1C
100
AcDbEntity
  8
0
100
AcDbBlockEnd
  0
ENDSEC
  0
SECTION
  2
ENTITIES
  0
LINE
  5
336
330
20F
100
AcDbEntity
  8
0
  6
Continuous
 62
     7
100
AcDbLine
 10
481.7623613987999
 20
-1091.342396406
 30
0.0
 11
529.9609637428
 21
-1089.6592641237
 31
0.0
  0
LINE
  5
338
330
20F
100
AcDbEntity
  8
0
  6
Continuous
 62
     7
100
AcDbLine
 10
213.732466622
 20
-1116.0505967869
 30
0.0
 11
198.5497069727
 21
-1116.0505967869
 31
0.0
  0
LINE
  5
339
330
20F
100
AcDbEntity
  8
0
  6
Continuous
 62
     7
100
AcDbLine
 10
647.5974967943
 20
-1116.0505967869
 30
0.0
 11
662.7802564436
 21
-1116.0505967869
 31
0.0
  0
LINE
  5
33E
330
20F
100
AcDbEntity
  8
02___PRT_ALL_AXES
  6
Continuous
 62
     7
100
AcDbLine
 10
392.6780709348
 20
-1100.0505967869
 30
0.0
 11
468.6518924814
 21
-1100.0505967869
 31
0.0
  0
LINE
  5
33F
330
20F
100
AcDbEntity
  8
0
  6
Continuous
 62
     7
100
AcDbLine
 10
534.7566456616999
 20
-1095.0505967869
 30
0.0
 11
531.5733177545999
 21
-1095.0505967869
 31
0.0
  0
LINE
  5
340
330
20F
100
AcDbEntity
  8
0
  6
Continuous
 62
     7
100
AcDbLine
 10
329.7566456616999
 20
-1095.0505967869
 30
0.0
 11
326.5733177546
 21
-1095.0505967869
 31
0.0
  0
LINE
  5
345
330
20F
100
AcDbEntity
  8
0
  6
Continuous
 62
     7
100
AcDbLine
 10
618.4685198868
 20
-1093.0299772381
 30
0.0
 11
598.7914674764
 21
-1093.0299772381
 31
0.0
  0
LINE
  5
346
330
20F
100
AcDbEntity
  8
0
  6
Continuous
 62
     7
100
AcDbLine
 10
242.8614435295
 20
-1093.0299772381
 30
0.0
 11
262.5384959485
 21
-1093.0299772381
 31
0.0
  0
LINE
  5
347
330
20F
100
AcDbEntity
  8
02___PRT_ALL_AXES
  6
Continuous
 62
     7
100
AcDbLine
 10
415.8438699919
 20
-1091.342396406
 30
0.0
 11
379.5676020175
 21
-1091.342396406
 31
0.0
  0
LINE
  5
348
330
20F
100
AcDbEntity
  8
02___PRT_ALL_AXES
  6
Continuous
 62
     7
100
AcDbLine
 10
445.4831120706999
 20
-1091.342396406
 30
0.0
 11
481.7623613987999
 21
-1091.342396406
 31
0.0
  0
LINE
  5
34A
330
20F
100
AcDbEntity
  8
0
  6
Continuous
 62
     7
100
AcDbLine
 10
324.7586047598
 20
-1089.4284240467
 30
0.0
 11
210.517816684
 21
-1085.4390478198
 31
0.0
  0
LINE
  5
358
330
20F
100
AcDbEntity
  8
0
  6
Continuous
 62
     7
100
AcDbLine
 10
151.2056832803
 20
-715.3055295127
 30
0.0
 11
151.7100999458
 21
-718.2623390171
 31
0.0
  0
LINE
  5
35C
330
20F
100
AcDbEntity
  8
06___PRT_ALL_SURFS
  6
Continuous
 62
     7
100
AcDbLine
 10
166.7305299058
 20
-1045.874540318
 30
0.0
 11
113.9991308872
 21
-668.0505967869
 31
0.0
  0
LINE
  5
35D
330
20F
100
AcDbEntity
  8
0
  6
Continuous
 62
     7
100
AcDbLine
 10
197.5571608211
 20
-1115.1724661303
 30
0.0
 11
193.4612026353
 21
-1081.813563711
 31
0.0
  0
LWPOLYLINE
  5
361
330
20F
100
AcDbEntity
  8
0
  6
Continuous
 62
     7
100
AcDbPolyline
 90
        8
 70
     0
 43
0.0
 10
262.5381009525999
 20
-1093.0299772381
 10
262.7684398747
 20
-1093.003085637
 10
262.9863918247
 20
-1092.9238564531
 10
263.1802341289
 20
-1092.7965499441
 10
263.3395406843
 20
-1092.6280120626
 10
263.4557420051
 20
-1092.4273071407
 10
263.522586947
 20
-1092.2052308891
 10
263.5306089263
 20
-1092.1518510893
  0
LINE
  5
365
330
20F
100
AcDbEntity
  8
0
  6
Continuous
 62
     7
100
AcDbLine
 10
644.6281010002
 20
-1097.762508283
 30
0.0
 11
618.4685198868
 21
-1093.0299772381
 31
0.0
  0
LINE
  5
36A
330
20F
100
AcDbEntity
  8
0
  6
Continuous
 62
     7
100
AcDbLine
 10
149.9203669942
 20
-708.9391957191
 30
0.0
 11
149.9193037675
 21
-708.9365636152999
 31
0.0
  0
LINE
  5
371
330
20F
100
AcDbEntity
  8
0
  6
Continuous
 62
     7
100
AcDbLine
 10
216.701862416
 20
-1097.762508283
 30
0.0
 11
242.873166038
 21
-1093.0299772381
 31
0.0
  0
LWPOLYLINE
  5
377
330
20F
100
AcDbEntity
  8
0
  6
Continuous
 62
     7
100
AcDbPolyline
 90
        6
 70
     0
 43
0.0
 10
140.0993281545
 20
-690.0373415462
 10
142.6836545851
 20
-694.1814469627001
 10
145.125032748
 20
-698.5791025933999
 10
147.4151207549
 20
-703.2058229364999
 10
149.547390216
 20
-708.0347827313
 10
149.9203669942
 20
-708.9391957191
  0
LINE
  5
379
330
20F
100
AcDbEntity
  8
0
  6
Continuous
 62
     7
100
AcDbLine
 10
214.7300306723
 20
-1115.1203532606
 30
0.0
 11
215.8798628533327
 21
-1098.677223832975
 31
0.0
  0
LINE
  5
37D
330
20F
100
AcDbEntity
  8
0
  6
Continuous
 62
     7
100
AcDbLine
 10
117.6621405404
 20
-668.0505967869
 30
0.0
 11
118.5740338742
 21
-669.0791947201001
 31
0.0
  0
LINE
  5
37E
330
20F
100
AcDbEntity
  8
0
  6
Continuous
 62
     7
100
AcDbLine
 10
325.5779215562
 20
-1094.1464425394
 30
0.0
 11
321.6169519379
 21
-1053.010200231
 31
0.0
  0
LINE
  5
380
330
20F
100
AcDbEntity
  8
0
  6
Continuous
 62
     7
100
AcDbLine
 10
263.5306893855
 20
-1092.1518610871
 30
0.0
 11
264.1250657327
 21
-1087.3110542069
 31
0.0
  0
LINE
  5
382
330
20F
100
AcDbEntity
  8
0
  6
Continuous
 62
     7
100
AcDbLine
 10
125.3774932427
 20
-673.8650034854999
 30
0.0
 11
128.5303994659
 21
-676.4298261154
 31
0.0
  0
LWPOLYLINE
  5
384
330
20F
100
AcDbEntity
  8
0
  6
Continuous
 62
     7
100
AcDbPolyline
 90
        3
 70
     0
 43
0.0
 10
118.5740338742
 20
-669.0791947201001
 10
119.6430756366
 20
-670.0486195496999
 10
120.7811393008
 20
-670.8537605922999
  0
LWPOLYLINE
  5
385
330
20F
100
AcDbEntity
  8
0
  6
Continuous
 62
     7
100
AcDbPolyline
 90
        5
 70
     0
 43
0.0
 10
128.5303994659
 20
-676.4298261154
 10
131.5880371122
 20
-679.3469438929999
 10
134.5428677743
 20
-682.6007673372
 10
137.3829192488
 20
-686.1704950558999
 10
140.0993281545
 20
-690.0373415462
  0
LINE
  5
38A
330
20F
100
AcDbEntity
  8
0
  6
Continuous
 62
     7
100
AcDbLine
 10
122.1328821244
 20
-671.6591817134999
 30
0.0
 11
125.3774932427
 21
-673.8650034854999
 31
0.0
  0
LINE
  5
38C
330
20F
100
AcDbEntity
  8
0
  6
Continuous
 62
     7
100
AcDbLine
 10
330.7520418601
 20
-1094.1464425394
 30
0.0
 11
334.2254686954
 21
-1058.0735256257
 31
0.0
  0
LINE
  5
38D
330
20F
100
AcDbEntity
  8
0
  6
Continuous
 62
     7
100
AcDbLine
 10
121.0630537487
 20
-671.0212774403999
 30
0.0
 11
121.0624611307
 21
-671.0209374295
 31
0.0
  0
LINE
  5
38E
330
20F
100
AcDbEntity
  8
0
  6
Continuous
 62
     7
100
AcDbLine
 10
120.7811393008
 20
-670.8537605922999
 30
0.0
 11
122.1328821244
 21
-671.6591817134999
 31
0.0
  0
LINE
  5
396
330
20F
100
AcDbEntity
  8
0
  6
Continuous
 62
     7
100
AcDbLine
 10
527.1167559851
 20
-1058.200863723
 30
0.0
 11
530.5779215562
 21
-1094.1464425394
 31
0.0
  0
LWPOLYLINE
  5
39C
330
20F
100
AcDbEntity
  8
0
  6
Continuous
 62
     7
100
AcDbPolyline
 90
        8
 70
     0
 43
0.0
 10
597.79935449
 20
-1092.1518510893
 10
597.8140915982
 20
-1092.2394805764
 10
597.8861643319
 20
-1092.4538270905
 10
598.0045534794999
 20
-1092.6464977651
 10
598.1632037015
 20
-1092.8076392396
 10
598.3540009071999
 20
-1092.9290115618
 10
598.567187845
 20
-1093.0044091168
 10
598.7918624637
 20
-1093.0299772381
  0
LINE
  5
39D
330
20F
100
AcDbEntity
  8
0
  6
Continuous
 62
     7
100
AcDbLine
 10
597.2048976835
 20
-1087.3110542069
 30
0.0
 11
597.7992740307
 21
-1092.1518610871
 31
0.0
  0
LINE
  5
39F
330
20F
100
AcDbEntity
  8
0
  6
Continuous
 62
     7
100
AcDbLine
 10
539.6309155084
 20
-1053.8627994779
 30
0.0
 11
535.7520418601
 21
-1094.1464425394
 31
0.0
  0
LINE
  5
3A0
330
20F
100
AcDbEntity
  8
0
  6
Continuous
 62
     7
100
AcDbLine
 10
735.8676863486
 20
-673.9283888305
 30
0.0
 11
739.141895831
 21
-671.6932009776
 31
0.0
  0
LWPOLYLINE
  5
3A1
330
20F
100
AcDbEntity
  8
0
  6
Continuous
 62
     7
100
AcDbPolyline
 90
        4
 70
     0
 43
0.0
 10
740.2669838313
 20
-671.0212349034
 10
741.5451059416999
 20
-670.1608897365
 10
742.6927868758
 20
-669.142827183
 10
743.6668945419
 20
-668.0505967869
  0
LINE
  5
3A2
330
20F
100
AcDbEntity
  8
0
  6
Continuous
 62
     7
100
AcDbLine
 10
739.141895831
 20
-671.6932009776
 30
0.0
 11
740.2672213683
 21
-671.0227334126
 31
0.0
  0
LINE
  5
3A3
330
20F
100
AcDbEntity
  8
0
  6
Continuous
 62
     7
100
AcDbLine
 10
740.2665083594
 20
-671.0215075423
 30
0.0
 11
740.2669838313
 21
-671.0212349034
 31
0.0
  0
LINE
  5
3A4
330
20F
100
AcDbEntity
  8
0
  6
Continuous
 62
     7
100
AcDbLine
 10
55.6649817081
 20
-668.0505967869
 30
0.0
 11
805.6649817081
 21
-668.0505967869
 31
0.0
  0
LINE
  5
3A6
330
20F
100
AcDbEntity
  8
0
  6
Continuous
 62
     7
100
AcDbLine
 10
787.6649817080999
 20
-650.0505967868999
 30
0.0
 11
73.6649817081
 21
-650.0505967868999
 31
0.0
  0
LINE
  5
3A7
330
20F
100
AcDbEntity
  8
0
  6
Continuous
 62
     7
100
AcDbLine
 10
646.599932744
 20
-1115.1203532606
 30
0.0
 11
645.4336222882886
 21
-1097.908235176969
 31
0.0
  0
LINE
  5
3AA
330
20F
100
AcDbEntity
  8
0
  6
Continuous
 62
     7
100
AcDbLine
 10
732.7092976742
 20
-676.5097233334
 30
0.0
 11
735.8676863486
 21
-673.9283888305
 31
0.0
  0
LWPOLYLINE
  5
3B0
330
20F
100
AcDbEntity
  8
0
  6
Continuous
 62
     7
100
AcDbPolyline
 90
        5
 70
     0
 43
0.0
 10
721.287525973
 20
-689.9514485559
 10
723.9667634222
 20
-686.1441048447
 10
726.7658996180999
 20
-682.6257468623
 10
729.6761791969999
 20
-679.4145593398999
 10
732.7092976742
 20
-676.5097233334
  0
LINE
  5
3B5
330
20F
100
AcDbEntity
  8
0
  6
Continuous
 62
     7
100
AcDbLine
 10
663.7728025952
 20
-1115.1724661303
 30
0.0
 11
667.8687607809999
 21
-1081.813563711
 31
0.0
  0
LINE
  5
3B7
330
20F
100
AcDbEntity
  8
0
  6
Continuous
 62
     7
100
AcDbLine
 10
710.124280136
 20
-715.3055295127
 30
0.0
 11
709.6198634705
 21
-718.2623390171
 31
0.0
  0
LINE
  5
3B9
330
20F
100
AcDbEntity
  8
0
  6
Continuous
 62
     7
100
AcDbLine
 10
711.4095353538999
 20
-708.9393460111999
 30
0.0
 11
711.4109031992999
 21
-708.9359565221
 31
0.0
  0
LWPOLYLINE
  5
3BA
330
20F
100
AcDbEntity
  8
0
  6
Continuous
 62
     7
100
AcDbPolyline
 90
        6
 70
     0
 43
0.0
 10
711.4095353538999
 20
-708.9393460111999
 10
711.8292397411998
 20
-707.9229671600999
 10
713.9957826750999
 20
-703.0330437113999
 10
716.303671448
 20
-698.3911254425999
 10
718.7360496128999
 20
-694.0292026382
 10
721.287525973
 20
-689.9514485559
  0
LINE
  5
3BF
330
20F
100
AcDbEntity
  8
0
  6
Continuous
 62
     7
100
AcDbLine
 10
747.3308325289999
 20
-670.6711403222
 30
0.0
 11
694.6015359855
 21
-1045.8595804306
 31
0.0
  0
LINE
  5
3C0
330
20F
100
AcDbEntity
  8
06___PRT_ALL_SURFS
  6
Continuous
 62
     7
100
AcDbLine
 10
747.152166879
 20
-671.9120544698
 30
0.0
 11
747.7125517540821
 21
-668.0505967869
 31
0.0
  0
ARC
  5
562
330
20F
100
AcDbEntity
  8
0
  6
Continuous
 62
     7
100
AcDbCircle
 10
-121654.7379876346
 20
-17014.8079556505
 30
0.0
 40
122893.952770075
100
AcDbArc
 50
7.479592449500001
 51
7.615638684500001
  0
ARC
  5
565
330
20F
100
AcDbEntity
  8
0
  6
Continuous
 62
     7
100
AcDbCircle
 10
189.1822940694
 20
-1045.1745826206
 30
0.0
 40
145.6122034185
100
AcDbArc
 50
354.9241401930999
 51
355.5102379432
  0
ARC
  5
566
330
20F
100
AcDbEntity
  8
0
  6
Continuous
 62
     7
100
AcDbCircle
 10
203.4495207087
 20
-1046.4312921569
 30
0.0
 40
131.2897402082
100
AcDbArc
 50
354.5024148869
 51
354.9195551461
  0
ARC
  5
568
330
20F
100
AcDbEntity
  8
0
  6
Continuous
 62
     7
100
AcDbCircle
 10
198.5497069727
 20
-1115.0505967869
 30
0.0
 40
1.0
100
AcDbArc
 50
187.0
 51
270.0
  0
ARC
  5
569
330
20F
100
AcDbEntity
  8
0
  6
Continuous
 62
     7
100
AcDbCircle
 10
-17.8840435364
 20
-743.4255670797999
 30
0.0
 40
171.412865629
100
AcDbArc
 50
11.3497960796
 51
11.4673778026
  0
ARC
  5
56A
330
20F
100
AcDbEntity
  8
0
  6
Continuous
 62
     7
100
AcDbCircle
 10
-16.487864229
 20
-743.1488642917998
 30
0.0
 40
169.9895354073
100
AcDbArc
 50
10.3895939237
 51
11.3509670642
  0
ARC
  5
56B
330
20F
100
AcDbEntity
  8
0
  6
Continuous
 62
     7
100
AcDbCircle
 10
-13.9963549981
 20
-742.692140921
 30
0.0
 40
167.4565106388
100
AcDbArc
 50
9.412659130699999
 51
10.3896230034
  0
ARC
  5
56E
330
20F
100
AcDbEntity
  8
0
  6
Continuous
 62
     7
100
AcDbCircle
 10
75.60896446640001
 20
-669.5464416112001
 30
0.0
 40
20.0
100
AcDbArc
 50
119.0777278937
 51
175.7107149245
  0
ARC
  5
56F
330
20F
100
AcDbEntity
  8
0
  6
Continuous
 62
     7
100
AcDbCircle
 10
73.6649817081
 20
-666.0505967868999
 30
0.0
 40
16.0
100
AcDbArc
 50
90.0
 51
119.0777278937
  0
ARC
  5
58B
330
20F
100
AcDbEntity
  8
0
  6
Continuous
 62
     7
100
AcDbCircle
 10
343.4980714623
 20
-1099.3130277681
 30
0.0
 40
191.385987339
100
AcDbArc
 50
16.7560911346
 51
17.38975416569999
  0
ARC
  5
58C
330
20F
100
AcDbEntity
  8
0
  6
Continuous
 62
     7
100
AcDbCircle
 10
390.1520654495
 20
-1097.1087521638
 30
0.0
 40
160.4705345835
100
AcDbArc
 50
20.964501011
 51
21.6360680375
  0
ARC
  5
58E
330
20F
100
AcDbEntity
  8
06___PRT_ALL_SURFS
  6
Continuous
 62
     7
100
AcDbCircle
 10
212.2806618594
 20
-1039.4575977827
 30
0.0
 40
45.9999069919
100
AcDbArc
 50
188.0000414420999
 51
268.0040316325
  0
ARC
  5
593
330
20F
100
AcDbEntity
  8
02___PRT_ALL_AXES
  6
Continuous
 62
     7
100
AcDbCircle
 10
379.044109567
 20
-1106.3332588113
 30
0.0
 40
15.0
100
AcDbArc
 50
24.7616343867
 51
88.0
  0
ARC
  5
594
330
20F
100
AcDbEntity
  8
0
  6
Continuous
 62
     7
100
AcDbCircle
 10
332.4611752332
 20
-1070.5711066251
 30
0.0
 40
12.5859715816
100
AcDbArc
 50
277.5831850985
 51
279.5994847623
  0
ARC
  5
596
330
20F
100
AcDbEntity
  8
0
  6
Continuous
 62
     7
100
AcDbCircle
 10
326.5733177546
 20
-1094.0505967869
 30
0.0
 40
1.0
100
AcDbArc
 50
185.5
 51
270.0
  0
ARC
  5
597
330
20F
100
AcDbEntity
  8
0
  6
Continuous
 62
     7
100
AcDbCircle
 10
329.7566456616999
 20
-1094.0505967869
 30
0.0
 40
1.0
100
AcDbArc
 50
270.0
 51
354.5
  0
ARC
  5
598
330
20F
100
AcDbEntity
  8
0
  6
Continuous
 62
     7
100
AcDbCircle
 10
213.732466622
 20
-1115.0505967869
 30
0.0
 40
1.0
100
AcDbArc
 50
270.0
 51
356.0
  0
ARC
  5
599
330
20F
100
AcDbEntity
  8
0
  6
Continuous
 62
     7
100
AcDbCircle
 10
216.8774127989
 20
-1098.7469451681
 30
0.0
 40
0.9999834790999999
100
AcDbArc
 50
100.1110261686
 51
176.0019520496
  0
ARC
  5
5A4
330
20F
100
AcDbEntity
  8
0
  6
Continuous
 62
     7
100
AcDbCircle
 10
429.6690692529
 20
-735.8018238044
 30
0.0
 40
25.0040330164
100
AcDbArc
 50
180.0989817348
 51
191.7221745163
  0
ARC
  5
5A9
330
20F
100
AcDbEntity
  8
0
  6
Continuous
 62
     7
100
AcDbCircle
 10
521.716151635
 20
-1100.5056581081
 30
0.0
 40
195.4491580753
100
AcDbArc
 50
162.616904203
 51
163.2374105468
  0
ARC
  5
5AA
330
20F
100
AcDbEntity
  8
0
  6
Continuous
 62
     7
100
AcDbCircle
 10
504.3392226467999
 20
-1036.2790036314
 30
0.0
 40
183.4846677656
100
AcDbArc
 50
185.2284600731
 51
185.4992376382
  0
ARC
  5
5AB
330
20F
100
AcDbEntity
  8
0
  6
Continuous
 62
     7
100
AcDbCircle
 10
474.6617582078999
 20
-1098.466536627
 30
0.0
 40
164.2095730492
100
AcDbArc
 50
158.3717291541
 51
159.0280276183
  0
ARC
  5
5AD
330
20F
100
AcDbEntity
  8
0
  6
Continuous
 62
     7
100
AcDbCircle
 10
649.0492808394999
 20
-1039.457574772
 30
0.0
 40
45.9999307102
100
AcDbArc
 50
271.9959931584
 51
351.999933767
  0
ARC
  5
5B2
330
20F
100
AcDbEntity
  8
02___PRT_ALL_AXES
  6
Continuous
 62
     7
100
AcDbCircle
 10
482.2858538493
 20
-1106.3332588113
 30
0.0
 40
15.0
100
AcDbArc
 50
92.0
 51
155.2383656133
  0
ARC
  5
5B4
330
20F
100
AcDbEntity
  8
0
  6
Continuous
 62
     7
100
AcDbCircle
 10
647.5974967943
 20
-1115.0505967869
 30
0.0
 40
1.0
100
AcDbArc
 50
184.0
 51
270.0
  0
ARC
  5
5B5
330
20F
100
AcDbEntity
  8
0
  6
Continuous
 62
     7
100
AcDbCircle
 10
531.5733177545999
 20
-1094.0505967869
 30
0.0
 40
1.0
100
AcDbArc
 50
185.5
 51
270.0
  0
ARC
  5
5B6
330
20F
100
AcDbEntity
  8
0
  6
Continuous
 62
     7
100
AcDbCircle
 10
534.7566456616999
 20
-1094.0505967869
 30
0.0
 40
1.0
100
AcDbArc
 50
270.0
 51
354.5
  0
ARC
  5
5B7
330
20F
100
AcDbEntity
  8
0
  6
Continuous
 62
     7
100
AcDbCircle
 10
644.4525506174
 20
-1098.7469451681
 30
0.0
 40
0.9999834790999999
100
AcDbArc
 50
3.998047950399999
 51
79.88897383140001
  0
ARC
  5
5C4
330
20F
100
AcDbEntity
  8
0
  6
Continuous
 62
     7
100
AcDbCircle
 10
430.7927871615
 20
-735.3898685086
 30
0.0
 40
26.2272240145
100
AcDbArc
 50
257.7697637851
 51
263.6957959349
  0
ARC
  5
5C5
330
20F
100
AcDbEntity
  8
0
  6
Continuous
 62
     7
100
AcDbCircle
 10
431.2518969943
 20
-735.8441032344
 30
0.0
 40
25.4009748733
100
AcDbArc
 50
358.7398108638
 51
359.9977265108
  0
ARC
  5
5C6
330
20F
100
AcDbEntity
  8
0
  6
Continuous
 62
     7
100
AcDbCircle
 10
431.3821224162
 20
-735.8509998439999
 30
0.0
 40
25.2706295953
100
AcDbArc
 50
349.9224570743
 51
358.748950154
  0
ARC
  5
5C7
330
20F
100
AcDbEntity
  8
0
  6
Continuous
 62
     7
100
AcDbCircle
 10
430.6768508914
 20
-736.4680584105
 30
0.0
 40
25.1428235898
100
AcDbArc
 50
263.688599746
 51
269.9729523553
  0
ARC
  5
5C8
330
20F
100
AcDbEntity
  8
0
  6
Continuous
 62
     7
100
AcDbCircle
 10
657.3001257697
 20
-1046.4867653661
 30
0.0
 40
130.706778047
100
AcDbArc
 50
185.1377446817
 51
185.4977510394
  0
ARC
  5
5CA
330
20F
100
AcDbEntity
  8
0
  6
Continuous
 62
     7
100
AcDbCircle
 10
662.7802564436
 20
-1115.0505967869
 30
0.0
 40
1.0
100
AcDbArc
 50
270.0
 51
353.0
  0
ARC
  5
5EF
330
20F
100
AcDbEntity
  8
0
  6
Continuous
 62
     7
100
AcDbCircle
 10
879.2129325957999
 20
-743.4253506689
 30
0.0
 40
171.411769693
100
AcDbArc
 50
168.533447978
 51
168.6502041701
  0
ARC
  5
5F0
330
20F
100
AcDbEntity
  8
0
  6
Continuous
 62
     7
100
AcDbCircle
 10
877.8178276459
 20
-743.1488642919
 30
0.0
 40
169.9895354079
100
AcDbArc
 50
168.6490329358
 51
169.6104060763
  0
ARC
  5
5F1
330
20F
100
AcDbEntity
  8
0
  6
Continuous
 62
     7
100
AcDbCircle
 10
875.3263184125998
 20
-742.6921409205999
 30
0.0
 40
167.456510637
100
AcDbArc
 50
169.6103769966
 51
170.5873408693
  0
ARC
  5
5F4
330
20F
100
AcDbEntity
  8
0
  6
Continuous
 62
     7
100
AcDbCircle
 10
785.7209989499
 20
-669.5464416112001
 30
0.0
 40
20.0
100
AcDbArc
 50
4.2892850755
 51
60.92227210629999
  0
ARC
  5
5F5
330
20F
100
AcDbEntity
  8
0
  6
Continuous
 62
     7
100
AcDbCircle
 10
787.6649817080999
 20
-666.0505967868999
 30
0.0
 40
16.0
100
AcDbArc
 50
60.92227210629999
 51
90.0
  0
ARC
  5
5FB
330
20F
100
AcDbEntity
  8
02___PRT_ALL_AXES
  6
Continuous
 62
     7
100
AcDbCircle
 10
-977.7109851669001
 20
46662.91261724679
 30
0.0
 40
47776.0998274232
100
AcDbArc
 50
271.8228480186
 51
271.9532018557
  0
SPLINE
  5
901
330
20F
100
AcDbEntity
  8
0
  6
Continuous
 62
     7
100
AcDbSpline
210
0.0
220
0.0
230
1.0
 70
     8
 71
     3
 72
    13
 73
     9
 74
     7
 42
0.0000000001
 43
0.0000000001
 44
0.0000000001
 12
-0.000399004021301
 22
0.9999999203978923
 32
0.0
 13
1.0
 23
0.0
 33
0.0
 40
0.0
 40
0.0
 40
0.0
 40
0.0
 40
0.2433728482395152
 40
8.135623687707353
 40
16.10697764228541
 40
24.16358512682258
 40
32.33159570263691
 40
40.40807535859903
 40
40.40807535859903
 40
40.40807535859903
 40
40.40807535859903
 10
404.6650735482
 20
-735.8450196794
 30
0.0
 10
404.665041179285
 20
-735.7638954031111
 30
0.0
 10
404.6776496349997
 20
-733.0522157377457
 30
0.0
 10
405.621209922979
 20
-727.6636752192541
 30
0.0
 10
409.3145954277181
 20
-720.4626768901028
 30
0.0
 10
415.1616319014393
 20
-714.6987721389348
 30
0.0
 10
422.5294498305155
 20
-711.0488112675397
 30
0.0
 10
427.9728218229792
 20
-710.1626453727
 30
0.0
 10
430.6649817082999
 20
-710.1626453727
 30
0.0
 11
404.6650735482
 21
-735.8450196794
 31
0.0
 11
404.6662107369
 21
-735.601649488
 31
0.0
 11
405.9928221584
 21
-727.8216928397
 31
0.0
 11
409.6473282479
 21
-720.7374095936
 31
0.0
 11
415.3808921709999
 21
-715.0774476767999
 31
0.0
 11
422.6882216564
 21
-711.4278815986999
 31
0.0
 11
430.6649817082999
 21
-710.1626453727
 31
0.0
  0
SPLINE
  5
902
330
20F
100
AcDbEntity
  8
0
  6
Continuous
 62
     7
100
AcDbSpline
210
0.0
220
0.0
230
1.0
 70
     8
 71
     3
 72
    12
 73
     8
 74
     6
 42
0.0000000001
 43
0.0000000001
 44
0.0000000001
 12
1.0
 22
0.0
 32
0.0
 13
-0.0000395649992882
 23
-0.9999999992173055
 33
0.0
 40
0.0
 40
0.0
 40
0.0
 40
0.0
 40
8.950516035745749
 40
18.03698014963319
 40
27.09892450914349
 40
35.9949579195789
 40
40.3824487714606
 40
40.3824487714606
 40
40.3824487714606
 40
40.3824487714606
 10
430.6649817082999
 20
-710.1626453727
 30
0.0
 10
433.6484870535485
 20
-710.1626453727
 30
0.0
 10
439.697173730862
 20
-711.2529240530768
 30
0.0
 10
447.7399301029247
 20
-715.743666771388
 30
0.0
 10
453.6524397415805
 20
-722.8052722369145
 30
0.0
 10
456.2714706960235
 20
-729.9488363281558
 30
0.0
 10
456.6529297112908
 20
-734.3826141924174
 30
0.0
 10
456.6528718476
 20
-735.8451111419
 30
0.0
 11
430.6649817082999
 21
-710.1626453727
 31
0.0
 11
439.480332875
 21
-711.7122650401999
 31
0.0
 11
447.3915809735999
 21
-716.1817150752
 31
0.0
 11
453.2249547644
 21
-723.1164526903999
 31
0.0
 11
456.2727046794999
 21
-731.4741216773
 31
0.0
 11
456.6528718476
 21
-735.8451111419
 31
0.0
  0
SPLINE
  5
924
330
20F
100
AcDbEntity
  8
0
  6
Continuous
 62
     7
100
AcDbSpline
210
0.0
220
0.0
230
1.0
 70
     8
 71
     3
 72
    11
 73
     7
 74
     5
 42
0.0000000001
 43
0.0000000001
 44
0.0000000001
 12
-0.1752235114156147
 22
-0.9845286796468563
 32
0.0
 13
-0.9721039722008686
 23
-0.2345503511642922
 33
0.0
 40
0.0
 40
0.0
 40
0.0
 40
0.0
 40
8.806701434078631
 40
17.79934173605434
 40
26.96017749802703
 40
29.94123733365717
 40
29.94123733365717
 40
29.94123733365717
 40
29.94123733365717
 10
456.2628726776
 20
-740.2728757550999
 30
0.0
 10
455.7484922945105
 20
-743.163025800079
 30
0.0
 10
453.6612611424088
 20
-748.8610950414222
 30
0.0
 10
447.8243443413215
 20
-755.9254525897248
 30
0.0
 10
441.5482189298773
 20
-759.4828174387535
 30
0.0
 10
437.6680261589282
 20
-760.6489909512371
 30
0.0
 10
436.7020594563999
 20
-760.882060495
 30
0.0
 11
456.2628726776
 21
-740.2728757550999
 31
0.0
 11
453.2506550665
 21
-748.5484141189999
 31
0.0
 11
447.5023403509999
 21
-755.4639370589
 31
0.0
 11
439.5567959346999
 21
-760.0234585016001
 31
0.0
 11
436.7020594563999
 21
-760.882060495
 31
0.0
  0
SPLINE
  5
925
330
20F
100
AcDbEntity
  8
0
  6
Continuous
 62
     7
100
AcDbSpline
210
0.0
220
0.0
230
1.0
 70
     8
 71
     3
 72
     8
 73
     4
 74
     2
 42
0.0000000001
 43
0.0000000001
 44
0.0000000001
 12
-0.9721039722022482
 22
-0.2345503511585753
 32
0.0
 13
-1.0
 23
0.0
 33
0.0
 40
0.0
 40
0.0
 40
0.0
 40
0.0
 40
6.080911481583804
 40
6.080911481583804
 40
6.080911481583804
 40
6.080911481583804
 10
436.7020594563999
 20
-760.882060495
 30
0.0
 10
434.7316333877806
 20
-761.3574871361232
 30
0.0
 10
432.6919522015612
 20
-761.6108791988
 30
0.0
 10
430.6649817077
 20
-761.6108791988
 30
0.0
 11
436.7020594563999
 21
-760.882060495
 31
0.0
 11
430.6649817077
 21
-761.6108791988
 31
0.0
  0
SPLINE
  5
92B
330
20F
100
AcDbEntity
  8
0
  6
Continuous
 62
     7
100
AcDbSpline
210
0.0
220
0.0
230
1.0
 70
     8
 71
     3
 72
    17
 73
    13
 74
    11
 42
0.0000000001
 43
0.0000000001
 44
0.0000000001
 12
0.9982881895226737
 22
-0.0584866707852475
 32
0.0
 13
0.9986802968293982
 23
-0.0513582001704202
 33
0.0
 40
0.0
 40
0.0
 40
0.0
 40
0.0
 40
25.63212286013681
 40
54.04669178927584
 40
83.95129253179712
 40
113.510372909277
 40
141.4944380505163
 40
167.4642447041892
 40
191.4522228540168
 40
213.6276673787537
 40
234.2534132178299
 40
253.9475839928538
 40
253.9475839928538
 40
253.9475839928538
 40
253.9475839928538
 10
430.6649817085999
 20
-699.4070301779999
 30
0.0
 10
439.1943968831562
 20
-699.906742688416
 30
0.0
 10
457.1812300173588
 20
-700.9242594933724
 30
0.0
 10
485.1224192566124
 20
-702.467172896004
 30
0.0
 10
514.3694087387062
 20
-704.104065983258
 30
0.0
 10
543.4703376529283
 20
-705.7820106593395
 30
0.0
 10
571.2593924926236
 20
-707.4262568828544
 30
0.0
 10
597.1936262581776
 20
-708.9780051888431
 30
0.0
 10
621.1955634252562
 20
-710.4065586043268
 30
0.0
 10
643.4210087719036
 20
-711.7002775987773
 30
0.0
 10
664.2202425514994
 20
-712.864889561877
 30
0.0
 10
677.6415376542634
 20
-713.5736615306152
 30
0.0
 10
684.1975977594
 20
-713.9108139189
 30
0.0
 11
430.6649817085999
 21
-699.4070301779999
 31
0.0
 11
456.2555243845999
 21
-700.8664300083999
 31
0.0
 11
484.6263095225999
 21
-702.4432236164
 31
0.0
 11
514.4839235717999
 21
-704.1189410324999
 31
0.0
 11
543.9940269509
 21
-705.8198323627
 31
0.0
 11
571.9294483142999
 21
-707.4691155641001
 31
0.0
 11
597.8531412718
 21
-709.0160483597998
 31
0.0
 11
621.7989941678999
 21
-710.4370426578
 31
0.0
 11
643.9371875868999
 21
-711.7218508196
 31
0.0
 11
664.5308907895
 21
-712.8711026725
 31
0.0
 11
684.1975977594
 21
-713.9108139189
 31
0.0
  0
SPLINE
  5
92C
330
20F
100
AcDbEntity
  8
0
  6
Continuous
 62
     7
100
AcDbSpline
210
0.0
220
0.0
230
1.0
 70
     8
 71
     3
 72
    10
 73
     6
 74
     4
 42
0.0000000001
 43
0.0000000001
 44
0.0000000001
 12
0.043866624431632
 22
0.999037396327572
 32
0.0
 13
0.0437453099294245
 23
0.9990427157330055
 33
0.0
 40
0.0
 40
0.0
 40
0.0
 40
0.0
 40
3.290368675444056
 40
6.587642642874338
 40
9.892566670519491
 40
9.892566670519491
 40
9.892566670519491
 40
9.892566670519491
 10
683.764281595
 20
-723.7938859274001
 30
0.0
 10
683.8123940506425
 20
-722.6981521425756
 30
0.0
 10
683.9086627504281
 20
-720.5043825137288
 30
0.0
 10
684.0531031111915
 20
-717.2100252468209
 30
0.0
 10
684.149406117439
 20
-715.0114006775233
 30
0.0
 10
684.1975977594
 20
-713.9108139189
 30
0.0
 11
683.764281595
 21
-723.7938859274001
 31
0.0
 11
683.9085410835999
 21
-720.5066811542999
 31
0.0
 11
684.0529677144999
 21
-717.2125717808
 31
0.0
 11
684.1975977594
 21
-713.9108139189
 31
0.0
  0
SPLINE
  5
92D
330
20F
100
AcDbEntity
  8
0
  6
Continuous
 62
     7
100
AcDbSpline
210
0.0
220
0.0
230
1.0
 70
     8
 71
     3
 72
     8
 73
     4
 74
     2
 42
0.0000000001
 43
0.0000000001
 44
0.0000000001
 12
-0.5908205846078177
 22
-0.8068029727285816
 32
0.0
 13
-0.6535951989220543
 23
-0.7568443142060595
 33
0.0
 40
0.0
 40
0.0
 40
0.0
 40
0.0
 40
2.079638727699578
 40
2.079638727699578
 40
2.079638727699578
 40
2.079638727699578
 10
706.1160114935001
 20
-728.0495638858
 30
0.0
 10
705.7064470372092
 20
-728.6088501217031
 30
0.0
 10
705.2767144311055
 20
-729.1542214977127
 30
0.0
 10
704.8236338017999
 20
-729.6788757466
 30
0.0
 11
706.1160114935001
 21
-728.0495638858
 31
0.0
 11
704.8236338017999
 21
-729.6788757466
 31
0.0
  0
SPLINE
  5
92E
330
20F
100
AcDbEntity
  8
0
  6
Continuous
 62
     7
100
AcDbSpline
210
0.0
220
0.0
230
1.0
 70
     8
 71
     3
 72
    14
 73
    10
 74
     8
 42
0.0000000001
 43
0.0000000001
 44
0.0000000001
 12
-0.6535951989322975
 22
-0.7568443141972138
 32
0.0
 13
0.0214832963669998
 23
0.9997692073559816
 33
0.0
 40
0.0
 40
0.0
 40
0.0
 40
0.0
 40
3.802510006090925
 40
8.902419116996195
 40
13.3378636129172
 40
17.33514128110637
 40
21.15930586122471
 40
25.20552491210777
 40
29.84455934521441
 40
29.84455934521441
 40
29.84455934521441
 40
29.84455934521441
 10
704.8236338017999
 20
-729.6788757466
 30
0.0
 10
703.9951997071756
 20
-730.638178439196
 30
0.0
 10
701.8634387589236
 20
-732.7323102763975
 30
0.0
 10
697.8775024881319
 20
-734.901590725602
 30
0.0
 10
693.3158044278789
 20
-735.5826241350536
 30
0.0
 10
689.2396173775481
 20
-734.5666204606168
 30
0.0
 10
686.0321364921908
 20
-732.0636159982134
 30
0.0
 10
683.993936792609
 20
-728.2896566612712
 30
0.0
 10
683.731061011139
 20
-725.3398738534281
 30
0.0
 10
683.764281595
 20
-723.7938859274001
 30
0.0
 11
704.8236338017999
 21
-729.6788757466
 31
0.0
 11
702.0776604375998
 21
-732.3092203304
 31
0.0
 11
697.5746123533999
 21
-734.7033028041001
 31
0.0
 11
693.1786617316
 21
-735.2938838799
 31
0.0
 11
689.3093017966
 21
-734.2907475731
 31
0.0
 11
686.2915987977999
 21
-731.9417683592998
 31
0.0
 11
684.3406049318
 21
-728.3969818294
 31
0.0
 11
683.764281595
 21
-723.7938859274001
 31
0.0
  0
SPLINE
  5
92F
330
20F
100
AcDbEntity
  8
0
  6
Continuous
 62
     7
100
AcDbSpline
210
0.0
220
0.0
230
1.0
 70
     8
 71
     3
 72
    12
 73
     8
 74
     6
 42
0.0000000001
 43
0.0000000001
 44
0.0000000001
 12
-0.1329404725434292
 22
-0.9911240239041379
 32
0.0
 13
-0.1308920322392636
 23
-0.9913966289514382
 33
0.0
 40
0.0
 40
0.0
 40
0.0
 40
0.0
 40
57.00869567272923
 40
116.2242348471035
 40
176.0816080526
 40
235.1282405193438
 40
291.8061304425702
 40
291.8061304425702
 40
291.8061304425702
 40
291.8061304425702
 10
706.1160114935001
 20
-728.0495638858
 30
0.0
 10
703.589757179561
 20
-746.8837931700273
 30
0.0
 10
698.4575665117851
 20
-785.2837676576942
 30
0.0
 10
690.7279426264604
 20
-843.4664431268704
 30
0.0
 10
682.9436118004523
 20
-902.3271188765438
 30
0.0
 10
675.289240223591
 20
-960.3517281428805
 30
0.0
 10
670.2456339782949
 20
-998.5954255263441
 30
0.0
 10
667.7727392466
 20
-1017.325515195
 30
0.0
 11
706.1160114935001
 21
-728.0495638858
 31
0.0
 11
698.5622776075
 21
-784.5556032682001
 31
0.0
 11
690.7618637027
 21
-843.2551230500999
 31
0.0
 11
682.9114505781999
 21
-902.5954646469999
 31
0.0
 11
675.1863213336
 21
-961.1345728039999
 31
0.0
 11
667.7727392466
 21
-1017.325515195
 31
0.0
  0
SPLINE
  5
930
330
20F
100
AcDbEntity
  8
0
  6
Continuous
 62
     7
100
AcDbSpline
210
0.0
220
0.0
230
1.0
 70
     8
 71
     3
 72
    29
 73
    25
 74
    23
 42
0.0000000001
 43
0.0000000001
 44
0.0000000001
 12
0.999999999993734
 22
0.0000035400724514
 32
0.0
 13
0.9999839073911161
 23
0.0056731788968848
 33
0.0
 40
0.0
 40
0.0
 40
0.0
 40
0.0
 40
17.77305093539999
 40
33.38585658647781
 40
48.02647794229979
 40
62.39531208823379
 40
76.74466452273484
 40
91.00406367607014
 40
105.051541605975
 40
118.7922185057821
 40
132.0456464043528
 40
144.5280719674364
 40
155.9514725333417
 40
166.1435938969063
 40
175.1230416951385
 40
183.0805053878482
 40
190.3415010302209
 40
197.2588964353183
 40
204.0607586249725
 40
210.797348314851
 40
217.4570648151195
 40
224.0409204053298
 40
230.5730235489651
 40
237.1415872217379
 40
237.1415872217379
 40
237.1415872217379
 40
237.1415872217379
 10
430.6649816743
 20
-1020.5952745956
 30
0.0
 10
436.5893319860628
 20
-1020.59525362297
 30
0.0
 10
447.7179401182509
 20
-1020.607286060688
 30
0.0
 10
463.7268075104692
 20
-1020.574031516886
 30
0.0
 10
478.6004166344082
 20
-1020.437482318249
 30
0.0
 10
493.0514403739738
 20
-1020.194809610813
 30
0.0
 10
507.3735110215761
 20
-1019.862451514073
 30
0.0
 10
521.5870583561218
 20
-1019.477670180643
 30
0.0
 10
535.597303521486
 20
-1019.081345758636
 30
0.0
 10
549.2727120246128
 20
-1018.706914494181
 30
0.0
 10
562.4274407706252
 20
-1018.377173735444
 30
0.0
 10
574.8108978724424
 20
-1018.105335264459
 30
0.0
 10
586.1749274212041
 20
-1017.893518351716
 30
0.0
 10
596.3720648298451
 20
-1017.73685003568
 30
0.0
 10
605.4144045889643
 20
-1017.625683484018
 30
0.0
 10
613.4800067359162
 20
-1017.547851936689
 30
0.0
 10
620.8584396343553
 20
-1017.494702674163
 30
0.0
 10
627.8517805729388
 20
-1017.460251406019
 30
0.0
 10
634.670379967476
 20
-1017.444125179215
 30
0.0
 10
641.4030798449246
 20
-1017.426777974524
 30
0.0
 10
648.0631055270091
 20
-1017.407329430156
 30
0.0
 10
654.6549665490334
 20
-1017.387075419645
 30
0.0
 10
661.2164207894908
 20
-1017.36033266883
 30
0.0
 10
665.5832532574511
 20
-1017.337936740603
 30
0.0
 10
667.7727392466
 20
-1017.325515195
 30
0.0
 11
430.6649816743
 21
-1020.5952745956
 31
0.0
 11
448.4380323845999
 21
-1020.5981032752
 31
0.0
 11
464.0507765356999
 21
-1020.5542812417
 31
0.0
 11
478.6907627288999
 21
-1020.4179069499
 31
0.0
 11
493.0576162829
 21
-1020.1793410863
 31
0.0
 11
507.4032457413999
 21
-1019.8524913824
 31
0.0
 11
521.6575901880999
 21
-1019.4728486438
 31
0.0
 11
535.6995906982
 21
-1019.0806014443
 31
0.0
 11
549.4352109488
 21
-1018.7078575695
 31
0.0
 11
562.6845287471
 21
-1018.3778137205
 31
0.0
 11
575.1639678614
 21
-1018.1047801504
 31
0.0
 11
586.5853950803
 21
-1017.8924578188
 31
0.0
 11
596.7763183066999
 21
-1017.7361834343
 31
0.0
 11
605.7550862719999
 21
-1017.6256909618
 31
0.0
 11
613.712180441
 21
-1017.5490045454
 31
0.0
 11
620.9729876923001
 21
-1017.49669988
 31
0.0
 11
627.8903011997999
 21
-1017.4630393776
 31
0.0
 11
634.6921362723
 21
-1017.4438327757
 31
0.0
 11
641.4287032088
 21
-1017.4263239256
 31
0.0
 11
648.0883919212
 21
-1017.4070854776
 31
0.0
 11
654.6722134818
 21
-1017.3859173194
 31
0.0
 11
661.2042621461999
 21
-1017.3592391448
 31
0.0
 11
667.7727392466
 21
-1017.325515195
 31
0.0
  0
SPLINE
  5
934
330
20F
100
AcDbEntity
  8
0
  6
Continuous
 62
     7
100
AcDbSpline
210
0.0
220
0.0
230
1.0
 70
     8
 71
     3
 72
    26
 73
    22
 74
    20
 42
0.0000000001
 43
0.0000000001
 44
0.0000000001
 12
0.0991844192575214
 22
0.9950690684452753
 32
0.0
 13
-0.9409487937098475
 23
-0.3385489146578128
 33
0.0
 40
0.0
 40
0.0
 40
0.0
 40
0.0
 40
1.496577901112879
 40
2.867544339867403
 40
4.131042633145098
 40
5.296570527228848
 40
6.371923563218548
 40
7.360918258443456
 40
8.26816333533122
 40
9.101868535976738
 40
9.871984582093048
 40
10.58962614647221
 40
11.26693920735076
 40
11.916359694755
 40
12.54372754848986
 40
13.14781189005918
 40
13.73539983257163
 40
14.32031672395942
 40
14.92175228683578
 40
15.53309481768161
 40
16.15491432820044
 40
16.15491432820044
 40
16.15491432820044
 40
16.15491432820044
 10
544.918056973
 20
-1051.1542243024
 30
0.0
 10
544.9675360429985
 20
-1050.657824843094
 30
0.0
 10
545.0280075821956
 20
-1049.702960892883
 30
0.0
 10
545.0270305547388
 20
-1048.325203675833
 30
0.0
 10
544.9551746223371
 20
-1047.059970163712
 30
0.0
 10
544.8297260501456
 20
-1045.898135011703
 30
0.0
 10
544.6632968593335
 20
-1044.834057122824
 30
0.0
 10
544.4654116648934
 20
-1043.863145137433
 30
0.0
 10
544.2432267996493
 20
-1042.980378233713
 30
0.0
 10
544.0014090268717
 20
-1042.178722758004
 30
0.0
 10
543.7419914742805
 20
-1041.449333173531
 30
0.0
 10
543.4643765065518
 20
-1040.782773620081
 30
0.0
 10
543.1652135804535
 20
-1040.169977327832
 30
0.0
 10
542.8389323576134
 20
-1039.605501520944
 30
0.0
 10
542.4795948799613
 20
-1039.09056647763
 30
0.0
 10
542.0798150721034
 20
-1038.632744887599
 30
0.0
 10
541.6303784119675
 20
-1038.24322119545
 30
0.0
 10
541.1151969162587
 20
-1037.944112342023
 30
0.0
 10
540.5331634370975
 20
-1037.773410705009
 30
0.0
 10
539.9141165512645
 20
-1037.770283035818
 30
0.0
 10
539.5115843755426
 20
-1037.8715279744
 30
0.0
 10
539.3165509361
 20
-1037.9417000812
 30
0.0
 11
544.918056973
 21
-1051.1542243024
 31
0.0
 11
545.0140004233999
 21
-1049.6607249658
 31
0.0
 11
545.0136829673
 21
-1048.2897585638
 31
0.0
 11
544.9422226488
 21
-1047.028282698
 31
0.0
 11
544.8169620051999
 21
-1045.8695053065
 31
0.0
 11
544.6504084533
 21
-1044.8071286942
 31
0.0
 11
544.452335893
 21
-1043.8381716425
 31
0.0
 11
544.2301910019999
 21
-1042.9585437229
 31
0.0
 11
543.988591079
 21
-1042.1606127492
 31
0.0
 11
543.7295592098999
 21
-1041.4353671251
 31
0.0
 11
543.4525192161999
 21
-1040.7733563572
 31
0.0
 11
543.1539958483999
 21
-1040.1653787414
 31
0.0
 11
542.8272975022
 21
-1039.6041166279
 31
0.0
 11
542.4659650702999
 21
-1039.0912528082
 31
0.0
 11
542.0660223102999
 21
-1038.6385236613
 31
0.0
 11
541.6186782269
 21
-1038.2575474662
 31
0.0
 11
541.1103765067999
 21
-1037.9681392231
 31
0.0
 11
540.5322959248
 21
-1037.8021645955
 31
0.0
 11
539.9209875687001
 21
-1037.7957005578
 31
0.0
 11
539.3165509361
 21
-1037.9417000812
 31
0.0
  0
SPLINE
  5
935
330
20F
100
AcDbEntity
  8
0
  6
Continuous
 62
     7
100
AcDbSpline
210
0.0
220
0.0
230
1.0
 70
     8
 71
     3
 72
     9
 73
     5
 74
     3
 42
0.0000000001
 43
0.0000000001
 44
0.0000000001
 12
-0.9414260889001651
 22
-0.3372193931821515
 32
0.0
 13
-0.9625245614235389
 23
-0.2711945218038596
 33
0.0
 40
0.0
 40
0.0
 40
0.0
 40
0.0
 40
6.812667599888991
 40
13.82658492374594
 40
13.82658492374594
 40
13.82658492374594
 40
13.82658492374594
 10
539.3165509361
 20
-1037.9417000812
 30
0.0
 10
537.1786765982532
 20
-1038.707487959195
 30
0.0
 10
532.806216042526
 20
-1040.168809551154
 30
0.0
 10
528.3868358638687
 20
-1041.479372262695
 30
0.0
 10
526.1364799652
 20
-1042.1134175809
 30
0.0
 11
539.3165509361
 21
-1037.9417000812
 31
0.0
 11
532.8584674746
 21
-1040.1109390793
 31
0.0
 11
526.1364799652
 21
-1042.1134175809
 31
0.0
  0
SPLINE
  5
936
330
20F
100
AcDbEntity
  8
0
  6
Continuous
 62
     7
100
AcDbSpline
210
0.0
220
0.0
230
1.0
 70
     8
 71
     3
 72
    25
 73
    21
 74
    19
 42
0.0000000001
 43
0.0000000001
 44
0.0000000001
 12
-0.9634449343614852
 22
-0.2679064360055456
 32
0.0
 13
0.1051751239274646
 23
-0.9944537160204303
 33
0.0
 40
0.0
 40
0.0
 40
0.0
 40
0.0
 40
0.589353234227742
 40
1.160735855015988
 40
1.747683772501836
 40
2.360737333163761
 40
3.00547713670026
 40
3.685785084344536
 40
4.396439705385195
 40
5.135559468768564
 40
5.910758757005176
 40
6.731912304042671
 40
7.607457134714977
 40
8.54453928305022
 40
9.548628021044589
 40
10.62453730851331
 40
11.77843823354173
 40
13.01715379869041
 40
14.34783604992703
 40
15.77783867357703
 40
15.77783867357703
 40
15.77783867357703
 40
15.77783867357703
 10
526.1364799652
 20
-1042.1134175809
 30
0.0
 10
525.9472101691779
 20
-1042.166048089076
 30
0.0
 10
525.5843486108887
 20
-1042.307571075442
 30
0.0
 10
525.0804983608268
 20
-1042.603428834111
 30
0.0
 10
524.613710164801
 20
-1042.967424500169
 30
0.0
 10
524.1723909989515
 20
-1043.397060660315
 30
0.0
 10
523.7522195264078
 20
-1043.888801998107
 30
0.0
 10
523.3528243618666
 20
-1044.438115977998
 30
0.0
 10
522.9747317065188
 20
-1045.039654512779
 30
0.0
 10
522.6176217750867
 20
-1045.690111010042
 30
0.0
 10
522.2794839706215
 20
-1046.391700970923
 30
0.0
 10
521.9584806163697
 20
-1047.150905869395
 30
0.0
 10
521.6548156541123
 20
-1047.974978535856
 30
0.0
 10
521.3712033269136
 20
-1048.870378288816
 30
0.0
 10
521.1128351079045
 20
-1049.842713829272
 30
0.0
 10
520.8875038059672
 20
-1050.897342651223
 30
0.0
 10
520.706311984603
 20
-1052.039834016395
 30
0.0
 10
520.5851622784385
 20
-1053.275875630188
 30
0.0
 10
520.5470841242193
 20
-1054.609602542449
 30
0.0
 10
520.5977870958803
 20
-1055.53006610883
 30
0.0
 10
520.6479206635999
 20
-1056.0040899165
 30
0.0
 11
526.1364799652
 21
-1042.1134175809
 31
0.0
 11
525.5860074592
 21
-1042.3239342188
 31
0.0
 11
525.0919700516999
 21
-1042.6109971724
 31
0.0
 11
524.6275614351999
 21
-1042.96992961
 31
0.0
 11
524.1866751671
 21
-1043.3959037487
 31
0.0
 11
523.7663931442999
 21
-1043.8848336369
 31
0.0
 11
523.3649982883999
 21
-1044.4341068597
 31
0.0
 11
522.9857065105999
 21
-1045.0350791866
 31
0.0
 11
522.6290826530999
 21
-1045.6824719954
 31
0.0
 11
522.2917547867999
 21
-1046.3804289046
 31
0.0
 11
521.9713322252999
 21
-1047.1364861312
 31
0.0
 11
521.6680882176
 21
-1047.9578397836
 31
0.0
 11
521.3847600196999
 21
-1048.8510632075
 31
0.0
 11
521.1267201148
 21
-1049.8214289124
 31
0.0
 11
520.9019913845
 21
-1050.8736065555
 31
0.0
 11
520.7217059493
 21
-1052.0133365703
 31
0.0
 11
520.6019003987001
 21
-1053.2462448724
 31
0.0
 11
520.565916625
 21
-1054.5764405053
 31
0.0
 11
520.6479206635999
 21
-1056.0040899165
 31
0.0
  0
SPLINE
  5
937
330
20F
100
AcDbEntity
  8
0
  6
Continuous
 62
     7
100
AcDbSpline
210
0.0
220
0.0
230
1.0
 70
     8
 71
     3
 72
    10
 73
     6
 74
     4
 42
0.0000000001
 43
0.0000000001
 44
0.0000000001
 12
0.1052274458186587
 22
-0.9944481809760031
 32
0.0
 13
0.1141704035058421
 23
-0.993461181407363
 33
0.0
 40
0.0
 40
0.0
 40
0.0
 40
0.0
 40
9.846653452065714
 40
18.25347248190076
 40
24.98553920456449
 40
24.98553920456449
 40
24.98553920456449
 40
24.98553920456449
 10
520.6479206635999
 20
-1056.0040899165
 30
0.0
 10
520.9933000611407
 20
-1059.268085454536
 30
0.0
 10
521.6381226582166
 20
-1065.318316366629
 30
0.0
 10
522.5386466079653
 20
-1073.598006180881
 30
0.0
 10
523.0996665505817
 20
-1078.613038265163
 30
0.0
 10
523.3558674752999
 20
-1080.8423872517
 30
0.0
 11
520.6479206635999
 21
-1056.0040899165
 31
0.0
 11
521.6927882882999
 21
-1065.7951488915
 31
0.0
 11
522.6037526825999
 21
-1074.1524660491
 31
0.0
 11
523.3558674752999
 21
-1080.8423872517
 31
0.0
  0
SPLINE
  5
938
330
20F
100
AcDbEntity
  8
0
  6
Continuous
 62
     7
100
AcDbSpline
210
0.0
220
0.0
230
1.0
 70
     8
 71
     3
 72
    14
 73
    10
 74
     8
 42
0.0000000001
 43
0.0000000001
 44
0.0000000001
 12
0.1141518797915058
 22
-0.9934633100120336
 32
0.0
 13
0.9994054039810606
 23
-0.0344795373149488
 33
0.0
 40
0.0
 40
0.0
 40
0.0
 40
0.0
 40
0.3957661641263078
 40
0.8644872805712189
 40
1.460649217061126
 40
2.249359264207756
 40
3.298161627478806
 40
4.654720445606111
 40
6.205308644327516
 40
6.205308644327516
 40
6.205308644327516
 40
6.205308644327516
 10
523.3558674752999
 20
-1080.8423872517
 30
0.0
 10
523.3709266258309
 20
-1080.973446972834
 30
0.0
 10
523.4467185205103
 20
-1081.256414343598
 30
0.0
 10
523.7108593778308
 20
-1081.673458758157
 30
0.0
 10
524.1766732191591
 20
-1082.089403923683
 30
0.0
 10
524.8921417248668
 20
-1082.482824730377
 30
0.0
 10
525.90461764286
 20
-1082.82572354184
 30
0.0
 10
527.2032081513612
 20
-1083.073024201845
 30
0.0
 10
528.1710667478161
 20
-1083.149925292114
 30
0.0
 10
528.6876221562001
 20
-1083.16774648
 30
0.0
 11
523.3558674752999
 21
-1080.8423872517
 31
0.0
 11
523.4572023891001
 21
-1081.2249602407
 31
0.0
 11
523.7023511411999
 21
-1081.6244618982
 31
0.0
 11
524.1392394915
 21
-1082.0300942735
 31
0.0
 11
524.8234639816001
 21
-1082.4223956699
 31
0.0
 11
525.8122200325
 21
-1082.7721782724
 31
0.0
 11
527.1424661239
 21
-1083.0380676542
 31
0.0
 11
528.6876221562001
 21
-1083.16774648
 31
0.0
  0
SPLINE
  5
939
330
20F
100
AcDbEntity
  8
0
  6
Continuous
 62
     7
100
AcDbSpline
210
0.0
220
0.0
230
1.0
 70
     8
 71
     3
 72
    10
 73
     6
 74
     4
 42
0.0000000001
 43
0.0000000001
 44
0.0000000001
 12
0.9809689705889677
 22
0.1941645661330119
 32
0.0
 13
0.9237212314376193
 23
0.3830653816143765
 33
0.0
 40
0.0
 40
0.0
 40
0.0
 40
0.0
 40
0.5066544985270949
 40
1.519605070393116
 40
2.54866508059662
 40
2.54866508059662
 40
2.54866508059662
 40
2.54866508059662
 10
537.1986963348
 20
-1082.5302023875
 30
0.0
 10
537.3643671154215
 20
-1082.497410937204
 30
0.0
 10
537.859778360038
 20
-1082.39146190797
 30
0.0
 10
538.6815119798764
 20
-1082.173278776303
 30
0.0
 10
539.3244059448505
 20
-1081.946054964004
 30
0.0
 10
539.6412608048
 20
-1081.8146558755
 30
0.0
 11
537.1986963348
 21
-1082.5302023875
 31
0.0
 11
537.6941117444
 21
-1082.4240781546
 31
0.0
 11
538.672507486
 21
-1082.1617603438
 31
0.0
 11
539.6412608048
 21
-1081.8146558755
 31
0.0
  0
SPLINE
  5
93A
330
20F
100
AcDbEntity
  8
0
  6
Continuous
 62
     7
100
AcDbSpline
210
0.0
220
0.0
230
1.0
 70
     8
 71
     3
 72
     8
 73
     4
 74
     2
 42
0.0000000001
 43
0.0000000001
 44
0.0000000001
 12
0.923721231419767
 22
0.3830653816574264
 32
0.0
 13
0.865477788335524
 23
0.5009473005195755
 33
0.0
 40
0.0
 40
0.0
 40
0.0
 40
0.0
 40
1.023321018806496
 40
1.023321018806496
 40
1.023321018806496
 40
1.023321018806496
 10
539.6412608048
 20
-1081.8146558755
 30
0.0
 10
539.9563485886766
 20
-1081.683989589957
 30
0.0
 10
540.2654052406287
 20
-1081.536139637278
 30
0.0
 10
540.560625778
 20
-1081.3652630033
 30
0.0
 11
539.6412608048
 21
-1081.8146558755
 31
0.0
 11
540.560625778
 21
-1081.3652630033
 31
0.0
  0
SPLINE
  5
93B
330
20F
100
AcDbEntity
  8
0
  6
Continuous
 62
     7
100
AcDbSpline
210
0.0
220
0.0
230
1.0
 70
     8
 71
     3
 72
    10
 73
     6
 74
     4
 42
0.0000000001
 43
0.0000000001
 44
0.0000000001
 12
0.8654777883622296
 22
0.500947300473437
 32
0.0
 13
0.2574736454874805
 23
0.9662853211548787
 33
0.0
 40
0.0
 40
0.0
 40
0.0
 40
0.0
 40
0.9793270782828454
 40
1.87111189008494
 40
2.413915520823978
 40
2.413915520823978
 40
2.413915520823978
 40
2.413915520823978
 10
540.560625778
 20
-1081.3652630033
 30
0.0
 10
540.8431543892652
 20
-1081.201732584584
 30
0.0
 10
541.3610486300503
 20
-1080.848345264795
 30
0.0
 10
541.912752749103
 20
-1080.244000039315
 30
0.0
 10
542.1084529024699
 20
-1079.799464673051
 30
0.0
 10
542.155038779
 20
-1079.6246302795
 30
0.0
 11
540.560625778
 21
-1081.3652630033
 31
0.0
 11
541.3605561791
 21
-1080.8002914291
 31
0.0
 11
541.9414363109999
 21
-1080.1236390642
 31
0.0
 11
542.155038779
 21
-1079.6246302795
 31
0.0
  0
SPLINE
  5
93C
330
20F
100
AcDbEntity
  8
0
  6
Continuous
 62
     7
100
AcDbSpline
210
0.0
220
0.0
230
1.0
 70
     8
 71
     3
 72
     8
 73
     4
 74
     2
 42
0.0000000001
 43
0.0000000001
 44
0.0000000001
 12
0.2574736455584779
 22
0.966285321135961
 32
0.0
 13
0.0896899484250357
 23
0.9959697350580059
 33
0.0
 40
0.0
 40
0.0
 40
0.0
 40
0.0
 40
0.2707882585765987
 40
0.2707882585765987
 40
0.2707882585765987
 40
0.2707882585765987
 10
542.155038779
 20
-1079.6246302795
 30
0.0
 10
542.1782790590367
 20
-1079.537410706367
 30
0.0
 10
542.1947086040513
 20
-1079.44798705915
 30
0.0
 10
542.2028042657
 20
-1079.3580880891
 30
0.0
 11
542.155038779
 21
-1079.6246302795
 31
0.0
 11
542.2028042657
 21
-1079.3580880891
 31
0.0
  0
SPLINE
  5
93D
330
20F
100
AcDbEntity
  8
0
  6
Continuous
 62
     7
100
AcDbSpline
210
0.0
220
0.0
230
1.0
 70
     8
 71
     3
 72
    14
 73
    10
 74
     8
 42
0.0000000001
 43
0.0000000001
 44
0.0000000001
 12
0.0896355667718911
 22
0.9959746307860866
 32
0.0
 13
0.0991682389526041
 23
0.9950706810991063
 33
0.0
 40
0.0
 40
0.0
 40
0.0
 40
0.0
 40
2.3054862831349
 40
5.017065779615412
 40
8.22607160366077
 40
12.03893487819538
 40
16.57516090731145
 40
21.96343694628401
 40
28.33435506637835
 40
28.33435506637835
 40
28.33435506637835
 40
28.33435506637835
 10
542.2028042657
 20
-1079.3580880891
 30
0.0
 10
542.2716887889245
 20
-1078.592686139224
 30
0.0
 10
542.423372983401
 20
-1076.927222889448
 30
0.0
 10
542.6767390391076
 20
-1074.19692870395
 30
0.0
 10
542.9814119999663
 20
-1070.966781525352
 30
0.0
 10
543.3484064884829
 20
-1067.131601221725
 30
0.0
 10
543.7902516655649
 20
-1062.573845290629
 30
0.0
 10
544.3205767249437
 20
-1057.167988171214
 30
0.0
 10
544.707459396173
 20
-1053.267395580063
 30
0.0
 10
544.918056973
 20
-1051.1542243024
 30
0.0
 11
542.2028042657
 21
-1079.3580880891
 31
0.0
 11
542.4116957133
 21
-1077.0620847431
 31
0.0
 11
542.6620406478
 21
-1074.3620864506
 31
0.0
 11
542.9631709566999
 21
-1071.1672407711
 31
0.0
 11
543.3261548417999
 21
-1067.3716948223
 31
0.0
 11
543.7636358280999
 21
-1062.8566137628
 31
0.0
 11
544.2894762128999
 21
-1057.494057417
 31
0.0
 11
544.918056973
 21
-1051.1542243024
 31
0.0
  0
SPLINE
  5
93E
330
20F
100
AcDbEntity
  8
02___PRT_ALL_AXES
  6
Continuous
 62
     7
100
AcDbSpline
210
0.0
220
0.0
230
1.0
 70
     8
 71
     3
 72
    10
 73
     6
 74
     4
 42
0.0000000001
 43
0.0000000001
 44
0.0000000001
 12
-0.999999194712849
 22
-0.0012690837850718
 32
0.0
 13
-0.9999999999887425
 23
0.0000047449910436
 33
0.0
 40
0.0
 40
0.0
 40
0.0
 40
0.0
 40
4.863001577742108
 40
9.820806261427467
 40
14.81528613108292
 40
14.81528613108292
 40
14.81528613108292
 40
14.81528613108292
 10
445.4802623105999
 20
-1091.342396406
 30
0.0
 10
443.8592630900568
 20
-1091.344453591483
 30
0.0
 10
440.5856635676921
 20
-1091.348572228665
 30
0.0
 10
435.6472366011021
 20
-1091.352929580966
 30
0.0
 10
432.3298083312997
 20
-1091.353979378187
 30
0.0
 10
430.6649817080999
 20
-1091.3539714786
 30
0.0
 11
445.4802623105999
 21
-1091.342396406
 31
0.0
 11
440.6172642328
 21
-1091.3482308242
 31
0.0
 11
435.6594613469
 21
-1091.3524529249
 31
0.0
 11
430.6649817080999
 21
-1091.3539714786
 31
0.0
  0
SPLINE
  5
93F
330
20F
100
AcDbEntity
  8
0
  6
Continuous
 62
     7
100
AcDbSpline
210
0.0
220
0.0
230
1.0
 70
     8
 71
     3
 72
    12
 73
     8
 74
     6
 42
0.0000000001
 43
0.0000000001
 44
0.0000000001
 12
-0.0823501596721492
 22
-0.9966034573499992
 32
0.0
 13
-0.3918533047841961
 23
-0.920027710196657
 33
0.0
 40
0.0
 40
0.0
 40
0.0
 40
0.0
 40
15.77959828324491
 40
30.39451036764058
 40
43.34585010722831
 40
54.19125726232184
 40
62.59095852907499
 40
62.59095852907499
 40
62.59095852907499
 40
62.59095852907499
 10
667.772828341
 20
-1017.3255136716
 30
0.0
 10
667.3396775282708
 20
-1022.567514406492
 30
0.0
 10
666.349656647322
 20
-1032.652597213878
 30
0.0
 10
664.4327145087888
 20
-1046.977362280061
 30
0.0
 10
662.1768935311733
 20
-1059.585327713296
 30
0.0
 10
659.7135345774173
 20
-1070.040164734605
 30
0.0
 10
657.6202506080258
 20
-1076.122404351037
 30
0.0
 10
656.5231003745
 20
-1078.6983903253
 30
0.0
 11
667.772828341
 21
-1017.3255136716
 31
0.0
 11
666.216265445
 21
-1033.0281514733
 31
0.0
 11
664.2467671642
 21
-1047.5097512384
 31
0.0
 11
661.9278711966999
 21
-1060.2518045479
 31
0.0
 11
659.3292489887
 21
-1070.7812878676
 31
0.0
 11
656.5231003745
 21
-1078.6983903253
 31
0.0
  0
SPLINE
  5
940
330
20F
100
AcDbEntity
  8
0
  6
Continuous
 62
     7
100
AcDbSpline
210
0.0
220
0.0
230
1.0
 70
     8
 71
     3
 72
     9
 73
     5
 74
     3
 42
0.0000000001
 43
0.0000000001
 44
0.0000000001
 12
-0.3918533047865818
 22
-0.9200277101956409
 32
0.0
 13
-0.9988726784220011
 23
-0.0474696987778258
 33
0.0
 40
0.0
 40
0.0
 40
0.0
 40
0.0
 40
5.756727008038061
 40
9.195162375945235
 40
9.195162375945235
 40
9.195162375945235
 40
9.195162375945235
 10
656.5231003745
 20
-1078.6983903253
 30
0.0
 10
655.7711695402153
 20
-1080.463839781109
 30
0.0
 10
654.4555702010306
 20
-1083.17043542651
 30
0.0
 10
651.7962920522075
 20
-1085.375188707373
 30
0.0
 10
650.6514390037
 20
-1085.4295958711
 30
0.0
 11
656.5231003745
 21
-1078.6983903253
 31
0.0
 11
653.5972231637
 21
-1083.6561265418
 31
0.0
 11
650.6514390037
 21
-1085.4295958711
 31
0.0
  0
SPLINE
  5
941
330
20F
100
AcDbEntity
  8
0
  6
Continuous
 62
     7
100
AcDbSpline
210
0.0
220
0.0
230
1.0
 70
     8
 71
     3
 72
     9
 73
     5
 74
     3
 42
0.0000000001
 43
0.0000000001
 44
0.0000000001
 12
-0.1391592428411113
 22
-0.9902700162742931
 32
0.0
 13
-0.9775280218893019
 23
-0.2108055180046016
 33
0.0
 40
0.0
 40
0.0
 40
0.0
 40
0.0
 40
3.011071750019984
 40
4.795733478970316
 40
4.795733478970316
 40
4.795733478970316
 40
4.795733478970316
 10
741.3685309221
 20
-713.0951206510001
 30
0.0
 10
741.2288581004757
 20
-714.0890453412985
 30
0.0
 10
739.2272029935249
 20
-714.8344036479015
 30
0.0
 10
737.7930032457807
 20
-715.1964137259885
 30
0.0
 10
737.2114842958999
 20
-715.3218192394
 30
0.0
 11
741.3685309221
 21
-713.0951206510001
 31
0.0
 11
738.9390198355
 21
-714.8738924080999
 31
0.0
 11
737.2114842958999
 21
-715.3218192394
 31
0.0
  0
SPLINE
  5
942
330
20F
100
AcDbEntity
  8
0
  6
Continuous
 62
     7
100
AcDbSpline
210
0.0
220
0.0
230
1.0
 70
     8
 71
     3
 72
     9
 73
     5
 74
     3
 42
0.0000000001
 43
0.0000000001
 44
0.0000000001
 12
-0.9775280218923391
 22
-0.2108055179905174
 32
0.0
 13
-0.9995643523630514
 23
-0.0295144961846513
 33
0.0
 40
0.0
 40
0.0
 40
0.0
 40
0.0
 40
4.781934368117437
 40
7.748209218484475
 40
7.748209218484475
 40
7.748209218484475
 40
7.748209218484475
 10
737.2114842958999
 20
-715.3218192394
 30
0.0
 10
735.6533260146716
 20
-715.6578386232226
 30
0.0
 10
733.0655127077636
 20
-715.8789433665112
 30
0.0
 10
730.487475237146
 20
-715.9798639216153
 30
0.0
 10
729.4991477038999
 20
-716.0090466241999
 30
0.0
 11
737.2114842958999
 21
-715.3218192394
 31
0.0
 11
732.4628267450999
 21
-715.8849779791999
 31
0.0
 11
729.4991477038999
 21
-716.0090466241999
 31
0.0
  0
SPLINE
  5
943
330
20F
100
AcDbEntity
  8
0
  6
Continuous
 62
     7
100
AcDbSpline
210
0.0
220
0.0
230
1.0
 70
     8
 71
     3
 72
     9
 73
     5
 74
     3
 42
0.0000000001
 43
0.0000000001
 44
0.0000000001
 12
-0.9995643523632727
 22
-0.0295144961771497
 32
0.0
 13
-0.9962839539492144
 23
0.0861294554918351
 33
0.0
 40
0.0
 40
0.0
 40
0.0
 40
0.0
 40
6.951507557634196
 40
19.39622037605637
 40
19.39622037605637
 40
19.39622037605637
 40
19.39622037605637
 10
729.4991477038999
 20
-716.0090466241999
 30
0.0
 10
727.1829879873016
 20
-716.0774367052783
 30
0.0
 10
720.7141032379951
 20
-716.0976934098916
 30
0.0
 10
714.2571027001667
 20
-715.6628149589676
 30
0.0
 10
710.124280136
 20
-715.3055295127
 30
0.0
 11
729.4991477038999
 21
-716.0090466241999
 31
0.0
 11
722.5476831415
 21
-716.0334957866
 31
0.0
 11
710.124280136
 21
-715.3055295127
 31
0.0
  0
SPLINE
  5
944
330
20F
100
AcDbEntity
  8
0
  6
Continuous
 62
     7
100
AcDbSpline
210
0.0
220
0.0
230
1.0
 70
     8
 71
     3
 72
    10
 73
     6
 74
     4
 42
0.0000000001
 43
0.0000000001
 44
0.0000000001
 12
-0.1696721314593115
 22
-0.985500567126196
 32
0.0
 13
-0.5193909881206338
 23
-0.8545367174434762
 33
0.0
 40
0.0
 40
0.0
 40
0.0
 40
0.0
 40
3.668270794285181
 40
7.151373380221324
 40
10.44969353976764
 40
10.44969353976764
 40
10.44969353976764
 40
10.44969353976764
 10
709.6198634705
 20
-718.2623390171
 30
0.0
 10
709.4123956956878
 20
-719.4673666664803
 30
0.0
 10
708.887421468701
 20
-721.7989293110906
 30
0.0
 10
707.7162929939807
 20
-725.0879024248368
 30
0.0
 10
706.6870487219017
 20
-727.1100561574278
 30
0.0
 10
706.1160094663001
 20
-728.0495680514999
 30
0.0
 11
709.6198634705
 21
-718.2623390171
 31
0.0
 11
708.8010770471001
 21
-721.838062638
 31
0.0
 11
707.6245583926
 21
-725.1164475269
 31
0.0
 11
706.1160094663001
 21
-728.0495680514999
 31
0.0
  0
SPLINE
  5
945
330
20F
100
AcDbEntity
  8
0
  6
Continuous
 62
     7
100
AcDbSpline
210
0.0
220
0.0
230
1.0
 70
     8
 71
     3
 72
     8
 73
     4
 74
     2
 42
0.0000000001
 43
0.0000000001
 44
0.0000000001
 12
-0.1392515000230088
 22
-0.9902570473070827
 32
0.0
 13
-0.6462152858714613
 23
-0.7631551639778543
 33
0.0
 40
0.0
 40
0.0
 40
0.0
 40
0.0
 40
0.7497493927746602
 40
0.7497493927746602
 40
0.7497493927746602
 40
0.7497493927746602
 10
698.9150398052
 20
-1015.1674059313
 30
0.0
 10
698.8802385626716
 20
-1015.41488747127
 30
0.0
 10
698.7640207588945
 20
-1015.658191050938
 30
0.0
 10
698.6025209194999
 20
-1015.8489160912
 30
0.0
 11
698.9150398052
 21
-1015.1674059313
 31
0.0
 11
698.6025209194999
 21
-1015.8489160912
 31
0.0
  0
SPLINE
  5
946
330
20F
100
AcDbEntity
  8
0
  6
Continuous
 62
     7
100
AcDbSpline
210
0.0
220
0.0
230
1.0
 70
     8
 71
     3
 72
    10
 73
     6
 74
     4
 42
0.0000000001
 43
0.0000000001
 44
0.0000000001
 12
-0.6462152858620897
 22
-0.7631551639857899
 32
0.0
 13
-0.9995966497945975
 23
-0.0283996077335022
 33
0.0
 40
0.0
 40
0.0
 40
0.0
 40
0.0
 40
2.365086027079011
 40
8.893658202643845
 40
11.84958572397634
 40
11.84958572397634
 40
11.84958572397634
 40
11.84958572397634
 10
698.6025209194999
 20
-1015.8489160912
 30
0.0
 10
698.0930693384741
 20
-1016.450558629478
 30
0.0
 10
695.0692022085386
 20
-1017.422056523069
 30
0.0
 10
691.2522428034159
 20
-1017.906649813903
 30
0.0
 10
688.0750040338199
 20
-1018.010464567268
 30
0.0
 10
687.0900922847
 20
-1018.0384469613
 30
0.0
 11
698.6025209194999
 21
-1015.8489160912
 31
0.0
 11
696.4960471804999
 21
-1016.9242766365
 31
0.0
 11
690.0435715147
 21
-1017.9181641723
 31
0.0
 11
687.0900922847
 21
-1018.0384469613
 31
0.0
  0
SPLINE
  5
947
330
20F
100
AcDbEntity
  8
0
  6
Continuous
 62
     7
100
AcDbSpline
210
0.0
220
0.0
230
1.0
 70
     8
 71
     3
 72
     9
 73
     5
 74
     3
 42
0.0000000001
 43
0.0000000001
 44
0.0000000001
 12
-0.999596649794631
 22
-0.0283996077323233
 32
0.0
 13
-0.9962718147907663
 23
0.0862697574675687
 33
0.0
 40
0.0
 40
0.0
 40
0.0
 40
0.0
 40
6.92911772712145
 40
19.33919085716255
 40
19.33919085716255
 40
19.33919085716255
 40
19.33919085716255
 10
687.0900922847
 20
-1018.0384469613
 30
0.0
 10
684.7813179960123
 20
-1018.104041703094
 30
0.0
 10
678.3314901279054
 20
-1018.117629020953
 30
0.0
 10
671.8937323426841
 20
-1017.682141591528
 30
0.0
 10
667.7724636497
 20
-1017.3252702585
 30
0.0
 11
687.0900922847
 21
-1018.0384469613
 31
0.0
 11
680.1609971169999
 21
-1018.0561283997
 31
0.0
 11
667.7724636497
 21
-1017.3252702585
 31
0.0
  0
SPLINE
  5
949
330
20F
100
AcDbEntity
  8
0
  6
Continuous
 62
     7
100
AcDbSpline
210
0.0
220
0.0
230
1.0
 70
     8
 71
     3
 72
    21
 73
    17
 74
    15
 42
0.0000000001
 43
0.0000000001
 44
0.0000000001
 12
0.0783407929137497
 22
0.996926637303691
 32
0.0
 13
-0.4959405303603694
 23
0.8683564880542299
 33
0.0
 40
0.0
 40
0.0
 40
0.0
 40
0.0
 40
1.097871276540062
 40
2.583165560780253
 40
3.908091143357278
 40
5.101658620938477
 40
6.18625243332625
 40
7.170162422190819
 40
8.062696946943237
 40
8.874322348782166
 40
9.615475721615307
 40
10.29558827615653
 40
10.90217099574689
 40
11.42723265973191
 40
11.87431133708062
 40
12.46549654823256
 40
12.46549654823256
 40
12.46549654823256
 40
12.46549654823256
 10
334.3476627573
 20
-1056.5732456172
 30
0.0
 10
334.3763321260738
 20
-1056.208413243895
 30
0.0
 10
334.4406772629437
 20
-1055.349757764714
 30
0.0
 10
334.5275088746709
 20
-1054.049938942003
 30
0.0
 10
334.6049915995692
 20
-1052.717579665156
 30
0.0
 10
334.6652051457279
 20
-1051.51804882368
 30
0.0
 10
334.7113488042104
 20
-1050.431661057677
 30
0.0
 10
334.7455096649168
 20
-1049.445227190505
 30
0.0
 10
334.7690837540626
 20
-1048.549508968061
 30
0.0
 10
334.7830998280946
 20
-1047.734492798156
 30
0.0
 10
334.7878914800095
 20
-1046.990256831339
 30
0.0
 10
334.7838155256448
 20
-1046.314096772136
 30
0.0
 10
334.7688468396043
 20
-1045.710934478766
 30
0.0
 10
334.7471105213153
 20
-1045.183291692108
 30
0.0
 10
334.6958543870254
 20
-1044.670231836578
 30
0.0
 10
334.6697556386867
 20
-1044.307941157315
 30
0.0
 10
334.5720247363
 20
-1044.1368213194
 30
0.0
 11
334.3476627573
 21
-1056.5732456172
 31
0.0
 11
334.4297711494
 21
-1055.4784490371
 31
0.0
 11
334.5288220767
 21
-1053.9964611746
 31
0.0
 11
334.6056930791
 21
-1052.6737674654
 31
0.0
 11
334.6654215869
 21
-1051.4816953917
 31
0.0
 11
334.7112894646
 21
-1050.3980718982
 31
0.0
 11
334.7451363742
 21
-1049.4147442555
 31
0.0
 11
334.7683731517
 21
-1048.5225122621
 31
0.0
 11
334.7819825255
 21
-1047.7110009696
 31
0.0
 11
334.7864162351
 21
-1046.9698608585
 31
0.0
 11
334.7814202109
 21
-1046.2897666543
 31
0.0
 11
334.7663829918
 21
-1045.6833703501
 31
0.0
 11
334.7406434165
 21
-1045.1589399684
 31
0.0
 11
334.702051816
 21
-1044.7135300088
 31
0.0
 11
334.5720247363
 21
-1044.1368213194
 31
0.0
  0
SPLINE
  5
94B
330
20F
100
AcDbEntity
  8
0
  6
Continuous
 62
     7
100
AcDbSpline
210
0.0
220
0.0
230
1.0
 70
     8
 71
     3
 72
    12
 73
     8
 74
     6
 42
0.0000000001
 43
0.0000000001
 44
0.0000000001
 12
-0.9773621283158757
 22
0.211573320940666
 32
0.0
 13
-0.2020253565569174
 23
0.9793802914639698
 33
0.0
 40
0.0
 40
0.0
 40
0.0
 40
0.0
 40
2.698349339410918
 40
11.00325176000157
 40
19.22980030850199
 40
27.31576732048458
 40
29.97740223313635
 40
29.97740223313635
 40
29.97740223313635
 40
29.97740223313635
 10
425.2367970665
 20
-761.0218456771999
 30
0.0
 10
424.3577089153978
 20
-760.8315461002676
 30
0.0
 10
420.8129526637138
 20
-759.8753257049333
 30
0.0
 10
414.980396361986
 20
-756.9369894092139
 30
0.0
 10
409.1153059237567
 20
-750.9986829746464
 30
0.0
 10
406.2690904321769
 20
-745.2216719046681
 30
0.0
 10
405.3657532232176
 20
-741.7507172025745
 30
0.0
 10
405.1865139758
 20
-740.8817996104
 30
0.0
 11
425.2367970665
 21
-761.0218456771999
 31
0.0
 11
422.6316051965
 21
-760.3189484741999
 31
0.0
 11
415.2280640536
 21
-756.5561060963
 31
0.0
 11
409.4479152899999
 21
-750.7023909263
 31
0.0
 11
405.8566488866
 21
-743.4576916131
 31
0.0
 11
405.1865139758
 21
-740.8817996104
 31
0.0
  0
SPLINE
  5
94C
330
20F
100
AcDbEntity
  8
0
  6
Continuous
 62
     7
100
AcDbSpline
210
0.0
220
0.0
230
1.0
 70
     8
 71
     3
 72
    29
 73
    25
 74
    23
 42
0.0000000001
 43
0.0000000001
 44
0.0000000001
 12
-0.9999999999864702
 22
0.0000052018876773
 32
0.0
 13
-0.9999839073911164
 23
0.0056731788968153
 33
0.0
 40
0.0
 40
0.0
 40
0.0
 40
0.0
 40
17.77305086770003
 40
33.38585651877785
 40
48.02647787459982
 40
62.39531202053377
 40
76.74466445503488
 40
91.00406360837013
 40
105.0515415382749
 40
118.7922184381821
 40
132.0456463366528
 40
144.5280718997364
 40
155.9514724656417
 40
166.1435938292063
 40
175.1230416274385
 40
183.0805053201483
 40
190.3415009625208
 40
197.2588963676183
 40
204.0607585573726
 40
210.797348247151
 40
217.4570647474196
 40
224.0409203376298
 40
230.5730234812651
 40
237.1415871540378
 40
237.1415871540378
 40
237.1415871540378
 40
237.1415871540378
 10
430.6649816743
 20
-1020.5952745957
 30
0.0
 10
424.7406313851468
 20
-1020.595243777895
 30
0.0
 10
413.6120232754648
 20
-1020.607290063678
 30
0.0
 10
397.6031559058349
 20
-1020.57403057325
 30
0.0
 10
382.7295467818907
 20
-1020.437482559119
 30
0.0
 10
368.2785230423264
 20
-1020.194809546865
 30
0.0
 10
353.9564523947239
 20
-1019.862451531087
 30
0.0
 10
339.742905060178
 20
-1019.477670176168
 30
0.0
 10
325.7326598947809
 20
-1019.081345759798
 30
0.0
 10
312.0572513916536
 20
-1018.706914493887
 30
0.0
 10
298.9025226456416
 20
-1018.377173735516
 30
0.0
 10
286.5190655438575
 20
-1018.105335264442
 30
0.0
 10
275.155035995096
 20
-1017.89351835172
 30
0.0
 10
264.9578985864547
 20
-1017.736850035679
 30
0.0
 10
255.9155588273358
 20
-1017.625683484018
 30
0.0
 10
247.8499566803837
 20
-1017.54785193669
 30
0.0
 10
240.4715237819448
 20
-1017.494702674163
 30
0.0
 10
233.4781828433277
 20
-1017.460251406019
 30
0.0
 10
226.6595834487908
 20
-1017.444125179216
 30
0.0
 10
219.9268835713421
 20
-1017.426777974524
 30
0.0
 10
213.2668578892908
 20
-1017.407329430156
 30
0.0
 10
206.6749968672668
 20
-1017.387075419645
 30
0.0
 10
200.1135426268091
 20
-1017.36033266883
 30
0.0
 10
195.7467101588489
 20
-1017.337936740603
 30
0.0
 10
193.5572241697
 20
-1017.325515195
 30
0.0
 11
430.6649816743
 21
-1020.5952745957
 31
0.0
 11
412.8919310317
 21
-1020.5981032752
 31
0.0
 11
397.2791868806
 21
-1020.5542812417
 31
0.0
 11
382.6392006874
 21
-1020.4179069499
 31
0.0
 11
368.2723471334
 21
-1020.1793410863
 31
0.0
 11
353.9267176749
 21
-1019.8524913824
 31
0.0
 11
339.6723732282
 21
-1019.4728486438
 31
0.0
 11
325.6303727181
 21
-1019.0806014443
 31
0.0
 11
311.8947524674
 21
-1018.7078575695
 31
0.0
 11
298.6454346692
 21
-1018.3778137205
 31
0.0
 11
286.1659955549
 21
-1018.1047801504
 31
0.0
 11
274.744568336
 21
-1017.8924578188
 31
0.0
 11
264.5536451096
 21
-1017.7361834343
 31
0.0
 11
255.5748771443
 21
-1017.6256909618
 31
0.0
 11
247.6177829753
 21
-1017.5490045454
 31
0.0
 11
240.356975724
 21
-1017.49669988
 31
0.0
 11
233.4396622165
 21
-1017.4630393776
 31
0.0
 11
226.6378271439
 21
-1017.4438327757
 31
0.0
 11
219.9012602075
 21
-1017.4263239256
 31
0.0
 11
213.2415714951
 21
-1017.4070854776
 31
0.0
 11
206.6577499345
 21
-1017.3859173194
 31
0.0
 11
200.1257012701
 21
-1017.3592391448
 31
0.0
 11
193.5572241697
 21
-1017.325515195
 31
0.0
  0
SPLINE
  5
959
330
20F
100
AcDbEntity
  8
0
  6
Continuous
 62
     7
100
AcDbSpline
210
0.0
220
0.0
230
1.0
 70
     8
 71
     3
 72
     8
 73
     4
 74
     2
 42
0.0000000001
 43
0.0000000001
 44
0.0000000001
 12
0.5908205846078177
 22
-0.8068029727285816
 32
0.0
 13
0.6535951989220543
 23
-0.7568443142060595
 33
0.0
 40
0.0
 40
0.0
 40
0.0
 40
0.0
 40
2.079638727699471
 40
2.079638727699471
 40
2.079638727699471
 40
2.079638727699471
 10
155.2139519228
 20
-728.0495638858
 30
0.0
 10
155.6235163790908
 20
-728.6088501217031
 30
0.0
 10
156.0532489851944
 20
-729.1542214977127
 30
0.0
 10
156.5063296145
 20
-729.6788757466
 30
0.0
 11
155.2139519228
 21
-728.0495638858
 31
0.0
 11
156.5063296145
 21
-729.6788757466
 31
0.0
  0
SPLINE
  5
95A
330
20F
100
AcDbEntity
  8
0
  6
Continuous
 62
     7
100
AcDbSpline
210
0.0
220
0.0
230
1.0
 70
     8
 71
     3
 72
    14
 73
    10
 74
     8
 42
0.0000000001
 43
0.0000000001
 44
0.0000000001
 12
0.6535951989322975
 22
-0.7568443141972138
 32
0.0
 13
-0.0214832963669998
 23
0.9997692073559816
 33
0.0
 40
0.0
 40
0.0
 40
0.0
 40
0.0
 40
3.802510006090905
 40
8.902419116907939
 40
13.33786361292815
 40
17.33514128111729
 40
21.15930586123562
 40
25.20552491211868
 40
29.84455934522532
 40
29.84455934522532
 40
29.84455934522532
 40
29.84455934522532
 10
156.5063296145
 20
-729.6788757466
 30
0.0
 10
157.3347637091243
 20
-730.638178439196
 30
0.0
 10
159.4665246573601
 20
-732.7323102763663
 30
0.0
 10
163.4524609281192
 20
-734.9015907256407
 30
0.0
 10
168.0141589883906
 20
-735.58262413505
 30
0.0
 10
172.0903460387513
 20
-734.5666204606195
 30
0.0
 10
175.2978269241094
 20
-732.0636159982125
 30
0.0
 10
177.336026623691
 20
-728.2896566612715
 30
0.0
 10
177.598902405161
 20
-725.3398738534281
 30
0.0
 10
177.5656818213
 20
-723.7938859274001
 30
0.0
 11
156.5063296145
 21
-729.6788757466
 31
0.0
 11
159.2523029787
 21
-732.3092203304
 31
0.0
 11
163.7553510628
 21
-734.7033028041001
 31
0.0
 11
168.1513016847
 21
-735.2938838799
 31
0.0
 11
172.0206616197
 21
-734.2907475731
 31
0.0
 11
175.0383646185
 21
-731.9417683592998
 31
0.0
 11
176.9893584845
 21
-728.3969818294
 31
0.0
 11
177.5656818213
 21
-723.7938859274001
 31
0.0
  0
SPLINE
  5
95B
330
20F
100
AcDbEntity
  8
0
  6
Continuous
 62
     7
100
AcDbSpline
210
0.0
220
0.0
230
1.0
 70
     8
 71
     3
 72
    10
 73
     6
 74
     4
 42
0.0000000001
 43
0.0000000001
 44
0.0000000001
 12
-0.0438666243954314
 22
0.9990373963291615
 32
0.0
 13
-0.0437453238719321
 23
0.9990427151225015
 33
0.0
 40
0.0
 40
0.0
 40
0.0
 40
0.0
 40
3.290341450492808
 40
6.587588078654447
 40
9.892570647471536
 40
9.892570647471536
 40
9.892570647471536
 40
9.892570647471536
 10
177.5656818213
 20
-723.7938859274001
 30
0.0
 10
177.5175697637862
 20
-722.6981612088219
 30
0.0
 10
177.4213018627328
 20
-720.5044097505024
 30
0.0
 10
177.2768614337952
 20
-717.2100511596582
 30
0.0
 10
177.1805579928546
 20
-715.0114161987946
 30
0.0
 10
177.1323654819
 20
-713.9108099458
 30
0.0
 11
177.5656818213
 21
-723.7938859274001
 31
0.0
 11
177.4214235257
 21
-720.5067083530999
 31
0.0
 11
177.2769980907
 21
-717.2126262927
 31
0.0
 11
177.1323654819
 21
-713.9108099458
 31
0.0
  0
LINE
  5
95E
330
20F
100
AcDbEntity
  8
02___PRT_ALL_AXES
  6
Continuous
 62
     7
100
AcDbLine
 10
536.2293461762
 20
-1089.1896221055
 30
0.0
 11
538.020304783
 21
-1089.1337396972
 31
0.0
  0
LINE
  5
95F
330
20F
100
AcDbEntity
  8
02___PRT_ALL_AXES
  6
Continuous
 62
     7
100
AcDbLine
 10
538.020304783
 20
-1089.1337396972
 30
0.0
 11
542.0148217787999
 21
-1089.0084879639
 31
0.0
  0
SPLINE
  5
961
330
20F
100
AcDbEntity
  8
02___PRT_ALL_AXES
  6
Continuous
 62
     7
100
AcDbSpline
210
0.0
220
0.0
230
1.0
 70
     8
 71
     3
 72
     8
 73
     4
 74
     2
 42
0.0000000001
 43
0.0000000001
 44
0.0000000001
 12
-0.9995366979704639
 22
0.0304366458451288
 32
0.0
 13
-0.9995274172967809
 23
0.0307399100848867
 33
0.0
 40
0.0
 40
0.0
 40
0.0
 40
0.0
 40
48.15156654041118
 40
48.15156654041118
 40
48.15156654041118
 40
48.15156654041118
 10
379.5676020171451
 20
-1091.342396406
 30
0.0
 10
363.5245160765093
 20
-1090.853872346774
 30
0.0
 10
347.4987178135771
 20
-1089.879765877233
 30
0.0
 10
331.4557808326
 20
-1089.3863742686
 30
0.0
 11
379.5676020171451
 21
-1091.342396406
 31
0.0
 11
331.4557808326
 21
-1089.3863742686
 31
0.0
  0
LINE
  5
962
330
20F
100
AcDbEntity
  8
02___PRT_ALL_AXES
  6
Continuous
 62
     7
100
AcDbLine
 10
325.1006172359
 20
-1089.1896221078
 30
0.0
 11
323.3078136424
 21
-1089.1336820385
 31
0.0
  0
LINE
  5
963
330
20F
100
AcDbEntity
  8
02___PRT_ALL_AXES
  6
Continuous
 62
     7
100
AcDbLine
 10
323.3078136424
 20
-1089.1336820385
 30
0.0
 11
319.3133658387
 21
-1089.0084321005
 31
0.0
  0
SPLINE
  5
964
330
20F
100
AcDbEntity
  8
0
  6
Continuous
 62
     7
100
AcDbSpline
210
0.0
220
0.0
230
1.0
 70
     8
 71
     3
 72
    16
 73
    12
 74
    10
 42
0.0000000001
 43
0.0000000001
 44
0.0000000001
 12
-0.9982875710309496
 22
-0.0584972266447475
 32
0.0
 13
-0.9986802968176283
 23
-0.0513582003992949
 33
0.0
 40
0.0
 40
0.0
 40
0.0
 40
0.0
 40
28.65804489213525
 40
60.58546332050266
 40
93.93806381622459
 40
126.2219046432153
 40
156.183086619718
 40
183.662622344365
 40
208.833114485823
 40
231.9870251710856
 40
253.9475780128687
 40
253.9475780128687
 40
253.9475780128687
 40
253.9475780128687
 10
430.6649817085999
 20
-699.4070087702
 30
0.0
 10
421.1286583666447
 20
-699.9658141526168
 30
0.0
 10
400.9654489791233
 20
-701.1018639925514
 30
0.0
 10
369.7003048480466
 20
-702.8265352318276
 30
0.0
 10
337.2305562106177
 20
-704.6570612676304
 30
0.0
 10
305.418747753817
 20
-706.5128229464837
 30
0.0
 10
275.5636282004648
 20
-708.2937040269358
 30
0.0
 10
248.0756404796129
 20
-709.9371035510834
 30
0.0
 10
222.8510804034041
 20
-711.4179315212977
 30
0.0
 10
199.4599923649262
 20
-712.7387801909561
 30
0.0
 10
184.4428892920037
 20
-713.5348584545575
 30
0.0
 10
177.1323654819
 20
-713.9108099458
 30
0.0
 11
430.6649817085999
 21
-699.4070087702
 31
0.0
 11
402.0532295491999
 21
-701.0352518136999
 31
0.0
 11
370.1749897849
 21
-702.8066571964
 31
0.0
 11
336.8754998722
 21
-704.6881277333
 31
0.0
 11
304.6462751006
 21
-706.5652130175
 31
0.0
 11
274.7379226582
 21
-708.3436616702
 31
0.0
 11
247.307024973
 21
-709.9779002777
 31
0.0
 11
222.179476885
 21
-711.4475947114
 31
0.0
 11
199.0620888926
 21
-712.7475764150999
 31
0.0
 11
177.1323654819
 21
-713.9108099458
 31
0.0
  0
SPLINE
  5
983
330
20F
100
AcDbEntity
  8
0
  6
Continuous
 62
     7
100
AcDbSpline
210
0.0
220
0.0
230
1.0
 70
     8
 71
     3
 72
    11
 73
     7
 74
     5
 42
0.0000000001
 43
0.0000000001
 44
0.0000000001
 12
-0.0509458783866386
 22
0.998701415576955
 32
0.0
 13
-0.7121111412818335
 23
0.7020667507169705
 33
0.0
 40
0.0
 40
0.0
 40
0.0
 40
0.0
 40
15.06986473669438
 40
29.2071564972699
 40
42.30107947250298
 40
49.99292181681271
 40
49.99292181681271
 40
49.99292181681271
 40
49.99292181681271
 10
177.1323807773
 20
-713.9108062007001
 30
0.0
 10
176.8764649452404
 20
-708.8940411190034
 30
0.0
 10
175.6873127899244
 20
-699.1854685173162
 30
0.0
 10
171.6897857984723
 20
-685.5916344470639
 30
0.0
 10
166.2215521857114
 20
-675.1965517181211
 30
0.0
 10
161.7667803046554
 20
-669.8365233719989
 30
0.0
 10
159.9409647612
 20
-668.0364611181
 30
0.0
 11
177.1323807773
 21
-713.9108062007001
 31
0.0
 11
175.2311189322
 21
-698.9613571613999
 31
0.0
 11
171.1355674705
 21
-685.4303011586999
 31
0.0
 11
164.8994392938
 21
-673.9167645932
 31
0.0
 11
159.9409647612
 21
-668.0364611181
 31
0.0
  0
SPLINE
  5
9A3
330
20F
100
AcDbEntity
  8
0
  6
Continuous
 62
     7
100
AcDbSpline
210
0.0
220
0.0
230
1.0
 70
     8
 71
     3
 72
    11
 73
     7
 74
     5
 42
0.0000000001
 43
0.0000000001
 44
0.0000000001
 12
0.0509458783475455
 22
0.9987014155789493
 32
0.0
 13
0.7121111412815128
 23
0.7020667507172957
 33
0.0
 40
0.0
 40
0.0
 40
0.0
 40
0.0
 40
15.06986472008635
 40
29.20715648069084
 40
42.30107945592388
 40
49.99292180023363
 40
49.99292180023363
 40
49.99292180023363
 40
49.99292180023363
 10
684.1975826407999
 20
-713.9108061841999
 30
0.0
 10
684.4534984723812
 20
-708.894041108022
 30
0.0
 10
685.6426506277777
 20
-699.1854685119319
 30
0.0
 10
689.6401776178629
 20
-685.591634447089
 30
0.0
 10
695.1084112305816
 20
-675.1965517181178
 30
0.0
 10
699.5631831116453
 20
-669.8365233719997
 30
0.0
 10
701.3889986550999
 20
-668.0364611181
 30
0.0
 11
684.1975826407999
 21
-713.9108061841999
 31
0.0
 11
686.098844484
 21
-698.9613571613999
 31
0.0
 11
690.1943959458
 21
-685.4303011586999
 31
0.0
 11
696.4305241224999
 21
-673.9167645932
 31
0.0
 11
701.3889986550999
 21
-668.0364611181
 31
0.0
  0
SPLINE
  5
9B5
330
20F
100
AcDbEntity
  8
0
  6
Continuous
 62
     7
100
AcDbSpline
210
0.0
220
0.0
230
1.0
 70
     8
 71
     3
 72
    24
 73
    20
 74
    18
 42
0.0000000001
 43
0.0000000001
 44
0.0000000001
 12
0.0958467108386883
 22
0.9953961060911405
 32
0.0
 13
-0.3678097783322389
 23
-0.9299010522432961
 33
0.0
 40
0.0
 40
0.0
 40
0.0
 40
0.0
 40
1.672782794712056
 40
3.197717716987868
 40
4.59237193953873
 40
5.866476127007652
 40
7.028661085691484
 40
8.083546559144867
 40
9.03669815856197
 40
9.897284439343213
 40
10.67571133298591
 40
11.38260311063696
 40
12.02803581681824
 40
12.61979037618583
 40
13.15581642319737
 40
13.62345147023784
 40
14.00998155446508
 40
14.29578759634849
 40
14.57921815025274
 40
14.57921815025274
 40
14.57921815025274
 40
14.57921815025274
 10
539.630915546
 20
-1053.8627990873
 30
0.0
 10
539.6843591222736
 20
-1053.307771927236
 30
0.0
 10
539.7816007708525
 20
-1052.246293632885
 30
0.0
 10
539.9086315243383
 20
-1050.720768731282
 30
0.0
 10
540.0143887160694
 20
-1049.326865461602
 30
0.0
 10
540.1023546761084
 20
-1048.052908390701
 30
0.0
 10
540.1749859819365
 20
-1046.891444754471
 30
0.0
 10
540.2341856953751
 20
-1045.836354777892
 30
0.0
 10
540.2815234770498
 20
-1044.881317303355
 30
0.0
 10
540.3184050794486
 20
-1044.018027057662
 30
0.0
 10
540.3459013178858
 20
-1043.236584027604
 30
0.0
 10
540.3650645335678
 20
-1042.526422526864
 30
0.0
 10
540.3754604562393
 20
-1041.878982704423
 30
0.0
 10
540.3794461456851
 20
-1041.286236042595
 30
0.0
 10
540.3677990135551
 20
-1040.759745379561
 30
0.0
 10
540.3652441449763
 20
-1040.280528190024
 30
0.0
 10
540.2952442125149
 20
-1039.946101969537
 30
0.0
 10
540.3574931531152
 20
-1039.510947880014
 30
0.0
 10
540.0345604465347
 20
-1039.606235076862
 30
0.0
 10
539.9998109368
 20
-1039.6940892003
 30
0.0
 11
539.630915546
 21
-1053.8627990873
 31
0.0
 11
539.7836917134999
 21
-1052.1970074674
 31
0.0
 11
539.9102893442
 21
-1050.6773365961
 31
0.0
 11
540.0157843929
 21
-1049.2866780488
 31
0.0
 11
540.1034868497
 21
-1048.0155959273
 31
0.0
 11
540.1759202859
 21
-1046.8556703799
 31
0.0
 11
540.2348819258999
 21
-1045.8024339928
 31
0.0
 11
540.2819120363
 21
-1044.850443373
 31
0.0
 11
540.3184411616
 21
-1043.9906327138
 31
0.0
 11
540.3456271483999
 21
-1043.2126806903
 31
0.0
 11
540.3642699847
 21
-1042.5060347889
 31
0.0
 11
540.3747037542999
 21
-1041.860686422
 31
0.0
 11
540.3766067444999
 21
-1041.2689349225
 31
0.0
 11
540.3688635419
 21
-1040.7329648059
 31
0.0
 11
540.3498447491999
 21
-1040.2657166676
 31
0.0
 11
540.3171776338999
 21
-1039.8805694677
 31
0.0
 11
540.266893376
 21
-1039.5992216634
 31
0.0
 11
539.9998109368
 21
-1039.6940892003
 31
0.0
  0
SPLINE
  5
9B7
330
20F
100
AcDbEntity
  8
0
  6
Continuous
 62
     7
100
AcDbSpline
210
0.0
220
0.0
230
1.0
 70
     8
 71
     3
 72
    24
 73
    20
 74
    18
 42
0.0000000001
 43
0.0000000001
 44
0.0000000001
 12
-0.5047742440322308
 22
-0.8632513901301809
 32
0.0
 13
0.089584986269764
 23
-0.99597918162733
 33
0.0
 40
0.0
 40
0.0
 40
0.0
 40
0.0
 40
0.4609974790249839
 40
0.8135823147109837
 40
1.240984805835743
 40
1.739348121157223
 40
2.306011910423171
 40
2.932054333837986
 40
3.611962730847396
 40
4.350165968835169
 40
5.154990911175252
 40
6.034713591631261
 40
6.997228316021093
 40
8.049326427797184
 40
9.19747844161931
 40
10.44977409468295
 40
11.81482995414587
 40
13.30050428851811
 40
14.09037201961844
 40
14.09037201961844
 40
14.09037201961844
 40
14.09037201961844
 10
526.7579386774
 20
-1044.1368212872
 30
0.0
 10
526.6803721260749
 20
-1044.269473525405
 30
0.0
 10
526.6485248365573
 20
-1044.550779616179
 30
0.0
 10
526.6001020434839
 20
-1044.957687578703
 30
0.0
 10
526.5748135914578
 20
-1045.384446567293
 30
0.0
 10
526.5554403701318
 20
-1045.881122117114
 30
0.0
 10
526.5450722808687
 20
-1046.444895797488
 30
0.0
 10
526.5423375972471
 20
-1047.069062628361
 30
0.0
 10
526.5473120812766
 20
-1047.750456638134
 30
0.0
 10
526.559838408761
 20
-1048.491334779959
 30
0.0
 10
526.5802974731322
 20
-1049.298669179662
 30
0.0
 10
526.6094024295107
 20
-1050.180550730646
 30
0.0
 10
526.6481899661942
 20
-1051.144557450702
 30
0.0
 10
526.6979955496233
 20
-1052.197643948744
 30
0.0
 10
526.760533063616
 20
-1053.346802111348
 30
0.0
 10
526.8380413688951
 20
-1054.599587025242
 30
0.0
 10
526.9334824774232
 20
-1055.963943934653
 30
0.0
 10
527.029158579503
 20
-1057.17372052114
 30
0.0
 10
527.0949030871181
 20
-1057.929384046728
 30
0.0
 10
527.1184898503999
 20
-1058.1916146522
 30
0.0
 11
526.7579386774
 21
-1044.1368212872
 31
0.0
 11
526.6443136933999
 21
-1044.5835964417
 31
0.0
 11
526.6060875255999
 21
-1044.9341029701
 31
0.0
 11
526.5775593436
 21
-1045.3605523015
 31
0.0
 11
526.5579243882999
 21
-1045.858528669
 31
0.0
 11
526.546693819
 21
-1046.4250811594
 31
0.0
 11
526.5435848516
 21
-1047.0511158631
 31
0.0
 11
526.5482138494999
 21
-1047.7310085022
 31
0.0
 11
526.5604552194
 21
-1048.469110236
 31
0.0
 11
526.5806457648999
 21
-1049.2736818796
 31
0.0
 11
526.6095028591999
 21
-1050.1529311404
 31
0.0
 11
526.6480684026999
 21
-1051.1146729423
 31
0.0
 11
526.6976732225999
 21
-1052.1656010077
 31
0.0
 11
526.7600032948999
 21
-1053.3120599075
 31
0.0
 11
526.837324543
 21
-1054.5619662349
 31
0.0
 11
526.9326502336
 21
-1055.923689596
 31
0.0
 11
527.0499776794999
 21
-1057.4047238624
 31
0.0
 11
527.1184898503999
 21
-1058.1916146522
 31
0.0
  0
SPLINE
  5
9C1
330
20F
100
AcDbEntity
  8
0
  6
Continuous
 62
     7
100
AcDbSpline
210
0.0
220
0.0
230
1.0
 70
     8
 71
     3
 72
    23
 73
    19
 74
    17
 42
0.0000000001
 43
0.0000000001
 44
0.0000000001
 12
-0.3702294539445791
 22
0.9289403379291368
 32
0.0
 13
0.0911409702317747
 23
-0.9958380006533245
 33
0.0
 40
0.0
 40
0.0
 40
0.0
 40
0.0
 40
0.3055600029269166
 40
0.755666318304106
 40
1.147294746917144
 40
1.632635332136945
 40
2.2057464088906
 40
2.859745498608898
 40
3.594677517038451
 40
4.416044640890313
 40
5.331305895319543
 40
6.347692888970063
 40
7.470262609965983
 40
8.699646968895867
 40
10.03527564787141
 40
11.48280046874073
 40
13.05169188531686
 40
13.88573344248615
 40
13.88573344248615
 40
13.88573344248615
 40
13.88573344248615
 10
321.3301524795
 20
-1039.6940892003
 30
0.0
 10
321.2924433751563
 20
-1039.599473529507
 30
0.0
 10
321.053264350363
 20
-1039.273629032051
 30
0.0
 10
321.0116257756142
 20
-1039.931692958664
 30
0.0
 10
320.9731311801804
 20
-1040.295995513466
 30
0.0
 10
320.957793236267
 20
-1040.804234240407
 30
0.0
 10
320.951100464442
 20
-1041.366415034105
 30
0.0
 10
320.9557042181846
 20
-1042.023271451906
 30
0.0
 10
320.9702349946742
 20
-1042.759003667505
 30
0.0
 10
320.9952124154521
 20
-1043.582777969573
 30
0.0
 10
321.031140430741
 20
-1044.499666253603
 30
0.0
 10
321.0790034797732
 20
-1045.516651051907
 30
0.0
 10
321.1399250290248
 20
-1046.637777969323
 30
0.0
 10
321.2151537231845
 20
-1047.864680426014
 30
0.0
 10
321.3062158073096
 20
-1049.199099605899
 30
0.0
 10
321.4152485726273
 20
-1050.645690740141
 30
0.0
 10
321.5214282763981
 20
-1051.924791924526
 30
0.0
 10
321.5926490559553
 20
-1052.722599451882
 30
0.0
 10
321.6179875082
 20
-1052.9994562108
 30
0.0
 11
321.3301524795
 21
-1039.6940892003
 31
0.0
 11
321.1336382371
 21
-1039.4601040129
 31
0.0
 11
321.0112570398
 21
-1039.8932535687
 31
0.0
 11
320.9790726761
 21
-1040.2835572874
 31
0.0
 11
320.960205781
 21
-1040.7685310227
 31
0.0
 11
320.9530907754
 21
-1041.3415979324
 31
0.0
 11
320.9568162216
 21
-1041.9955864112
 31
0.0
 11
320.9708924991
 21
-1042.7303836146
 31
0.0
 11
320.9954074013
 21
-1043.5513848154
 31
0.0
 11
321.0309572265
 21
-1044.4659554107
 31
0.0
 11
321.0785060236
 21
-1045.481229577
 31
0.0
 11
321.1392329676
 21
-1046.602155541
 31
0.0
 11
321.2143378849
 21
-1047.8292436199
 31
0.0
 11
321.3051883268
 21
-1049.1617788597
 31
0.0
 11
321.4139602776
 21
-1050.6052111476
 31
0.0
 11
321.5438058548
 21
-1052.1687201508
 31
0.0
 11
321.6179875082
 21
-1052.9994562108
 31
0.0
  0
SPLINE
  5
9C9
330
20F
100
AcDbEntity
  8
0
  6
Continuous
 62
     7
100
AcDbSpline
210
0.0
220
0.0
230
1.0
 70
     8
 71
     3
 72
    23
 73
    19
 74
    17
 42
0.0000000001
 43
0.0000000001
 44
0.0000000001
 12
0.105280432380019
 22
0.9944425727802869
 32
0.0
 13
-0.9618793447544204
 23
0.2734741781865462
 33
0.0
 40
0.0
 40
0.0
 40
0.0
 40
0.0
 40
1.656291184439609
 40
3.163772395783301
 40
4.519187963400675
 40
5.750050216698276
 40
6.88056859809825
 40
7.929808170600194
 40
8.904257634005443
 40
9.812116061678784
 40
10.66391078692287
 40
11.47200864839284
 40
12.25089433545053
 40
12.99292793673543
 40
13.69698028599073
 40
14.3846551822066
 40
15.08167093692776
 40
15.77656749172392
 40
15.77656749172392
 40
15.77656749172392
 40
15.77656749172392
 10
340.6820427527
 20
-1056.0040899165
 30
0.0
 10
340.7401677700483
 20
-1055.455061094257
 30
0.0
 10
340.7898863249053
 20
-1054.399176338159
 30
0.0
 10
340.7198646848105
 20
-1052.892879141582
 30
0.0
 10
340.5546722430927
 20
-1051.537240000164
 30
0.0
 10
340.3276814135891
 20
-1050.318569398081
 30
0.0
 10
340.0573316216965
 20
-1049.213749647107
 30
0.0
 10
339.754392386047
 20
-1048.206456787664
 30
0.0
 10
339.4256507891082
 20
-1047.285786216995
 30
0.0
 10
339.0754221653748
 20
-1046.443954251981
 30
0.0
 10
338.7045598061662
 20
-1045.672068750591
 30
0.0
 10
338.3101782385796
 20
-1044.960637179361
 30
0.0
 10
337.8895182126159
 20
-1044.307360244953
 30
0.0
 10
337.4405997623925
 20
-1043.715936128565
 30
0.0
 10
336.9599560699019
 20
-1043.190005688704
 30
0.0
 10
336.4338566189667
 20
-1042.731341962789
 30
0.0
 10
335.8504491896154
 20
-1042.351307157789
 30
0.0
 10
335.4162856653665
 20
-1042.176763002315
 30
0.0
 10
335.1934834511
 20
-1042.1134175809
 30
0.0
 11
340.6820427527
 21
-1056.0040899165
 31
0.0
 11
340.7651633861001
 21
-1054.3498857429
 31
0.0
 11
340.6977768702
 21
-1052.8439114204
 31
0.0
 11
340.5349283164
 21
-1051.4983142632
 31
0.0
 11
340.3098793819
 21
-1050.2882006885
 31
0.0
 11
340.0410525928
 21
-1049.1901096321
 31
0.0
 11
339.7384527682
 21
-1048.1854519657
 31
0.0
 11
339.4101335773
 21
-1047.2679781156
 31
0.0
 11
339.060589693
 21
-1046.4301081987
 31
0.0
 11
338.6906945338
 21
-1045.6628195795
 31
0.0
 11
338.2976754312
 21
-1044.9567330843
 31
0.0
 11
337.8744271235
 21
-1044.3028800553
 31
0.0
 11
337.423991327
 21
-1043.7132009403
 31
0.0
 11
336.9467867548
 21
-1043.1955470919
 31
0.0
 11
336.4264192767
 21
-1042.7459756842
 31
0.0
 11
335.8389022896
 21
-1042.3709360167
 31
0.0
 11
335.1934834511
 21
-1042.1134175809
 31
0.0
  0
SPLINE
  5
9CA
330
20F
100
AcDbEntity
  8
0
  6
Continuous
 62
     7
100
AcDbSpline
210
0.0
220
0.0
230
1.0
 70
     8
 71
     3
 72
     9
 73
     5
 74
     3
 42
0.0000000001
 43
0.0000000001
 44
0.0000000001
 12
-0.962524552343623
 22
0.2711945540303273
 32
0.0
 13
-0.9414260781284696
 23
0.337219423253834
 33
0.0
 40
0.0
 40
0.0
 40
0.0
 40
0.0
 40
7.013917811745722
 40
13.82658492232193
 40
13.82658492232193
 40
13.82658492232193
 40
13.82658492232193
 10
335.1934834511
 20
-1042.1134175809
 30
0.0
 10
332.9431274171249
 20
-1041.479372143246
 30
0.0
 10
328.5237472455942
 20
-1040.16880942455
 30
0.0
 10
324.1512866400349
 20
-1038.707487972483
 30
0.0
 10
322.0134124802001
 20
-1037.9417000812
 30
0.0
 11
335.1934834511
 21
-1042.1134175809
 31
0.0
 11
328.4714954883
 21
-1040.1109388924
 31
0.0
 11
322.0134124802001
 21
-1037.9417000812
 31
0.0
  0
SPLINE
  5
9CB
330
20F
100
AcDbEntity
  8
0
  6
Continuous
 62
     7
100
AcDbSpline
210
0.0
220
0.0
230
1.0
 70
     8
 71
     3
 72
    25
 73
    21
 74
    19
 42
0.0000000001
 43
0.0000000001
 44
0.0000000001
 12
-0.9425187909361827
 22
0.3341531516119458
 32
0.0
 13
0.0991781401339799
 23
-0.9950696943026478
 33
0.0
 40
0.0
 40
0.0
 40
0.0
 40
0.0
 40
0.6292332313245432
 40
1.246339468747479
 40
1.854161268798753
 40
2.443833281869137
 40
3.033933840109747
 40
3.656474560483254
 40
4.322115850069005
 40
5.033488378575219
 40
5.797008453659924
 40
6.621880670440596
 40
7.517222282446317
 40
8.490687416471123
 40
9.547171818257169
 40
10.68720268378514
 40
11.91035817328665
 40
13.22227218110272
 40
14.63270717416017
 40
16.15432347436504
 40
16.15432347436504
 40
16.15432347436504
 40
16.15432347436504
 10
322.0134124802001
 20
-1037.9417000812
 30
0.0
 10
321.815724432065
 20
-1037.871613325418
 30
0.0
 10
321.4092275344046
 20
-1037.766210682515
 30
0.0
 10
320.7836044099866
 20
-1037.779168869777
 30
0.0
 10
320.1960437190205
 20
-1037.950011342771
 30
0.0
 10
319.6797626948761
 20
-1038.257287830683
 30
0.0
 10
319.2268498358054
 20
-1038.655518228774
 30
0.0
 10
318.8175682270785
 20
-1039.131447995049
 30
0.0
 10
318.4411537993575
 20
-1039.682798642316
 30
0.0
 10
318.0921879931865
 20
-1040.306021151228
 30
0.0
 10
317.7678913829288
 20
-1041.001287730546
 30
0.0
 10
317.466060226651
 20
-1041.772742938682
 30
0.0
 10
317.1867434927415
 20
-1042.626549117203
 30
0.0
 10
316.9324848367708
 20
-1043.568351874997
 30
0.0
 10
316.7085332201838
 20
-1044.601451114437
 30
0.0
 10
316.5224410884661
 20
-1045.726526316357
 30
0.0
 10
316.3836413801462
 20
-1046.944210060309
 30
0.0
 10
316.3041311636978
 20
-1048.257651770517
 30
0.0
 10
316.3003482405901
 20
-1049.673110197158
 30
0.0
 10
316.3616027517495
 20
-1050.649519546836
 30
0.0
 10
316.4119064433001
 20
-1051.1542243024
 30
0.0
 11
322.0134124802001
 21
-1037.9417000812
 31
0.0
 11
321.4016942556
 21
-1037.7942712065
 31
0.0
 11
320.7847058711
 21
-1037.806331126
 31
0.0
 11
320.2009597258
 21
-1037.9757057949
 31
0.0
 11
319.6909441028
 21
-1038.2716739474
 31
0.0
 11
319.2445910101
 21
-1038.6576630476
 31
0.0
 11
318.8358811743
 21
-1039.1272513978
 31
0.0
 11
318.4578781839
 21
-1039.6751492584
 31
0.0
 11
318.108242883
 21
-1040.2946700657
 31
0.0
 11
317.783695867
 21
-1040.9857794199
 31
0.0
 11
317.4816762744
 21
-1041.7533719809
 31
0.0
 11
317.2020405661
 21
-1042.6039250203
 31
0.0
 11
316.947295806
 21
-1043.5434671824
 31
0.0
 11
316.7226825968
 21
-1044.5757986202
 31
0.0
 11
316.5361217979
 21
-1045.7004609885
 31
0.0
 11
316.3973896238
 21
-1046.9157234027
 31
0.0
 11
316.3182935568
 21
-1048.2252508656
 31
0.0
 11
316.3152263968
 21
-1049.6356825237
 31
0.0
 11
316.4119064433001
 21
-1051.1542243024
 31
0.0
  0
SPLINE
  5
9CC
330
20F
100
AcDbEntity
  8
0
  6
Continuous
 62
     7
100
AcDbSpline
210
0.0
220
0.0
230
1.0
 70
     8
 71
     3
 72
    15
 73
    11
 74
     9
 42
0.0000000001
 43
0.0000000001
 44
0.0000000001
 12
0.0991678227642831
 22
-0.9950707225761352
 32
0.0
 13
0.0896354432809758
 23
-0.995974641899995
 33
0.0
 40
0.0
 40
0.0
 40
0.0
 40
0.0
 40
5.65875619699553
 40
10.53868756432763
 40
14.7300540294613
 40
18.32434711290391
 40
21.40762103927119
 40
24.05861526477347
 40
26.34733793405493
 40
28.33435553763151
 40
28.33435553763151
 40
28.33435553763151
 40
28.33435553763151
 10
316.4119064433001
 20
-1051.1542243024
 30
0.0
 10
316.5989619538367
 20
-1053.031178508342
 30
0.0
 10
316.9458689299194
 20
-1056.526904030362
 30
0.0
 10
317.4261653858014
 20
-1061.413375077959
 30
0.0
 10
317.8349786461636
 20
-1065.615399654674
 30
0.0
 10
318.1819922187784
 20
-1069.221721204569
 30
0.0
 10
318.4763096055564
 20
-1072.31728236673
 30
0.0
 10
318.7261486740418
 20
-1074.979917702346
 30
0.0
 10
318.9387246842394
 20
-1077.279023415251
 30
0.0
 10
319.0677900826988
 20
-1078.698415040376
 30
0.0
 10
319.1271591506
 20
-1079.3580880891
 30
0.0
 11
316.4119064433001
 21
-1051.1542243024
 31
0.0
 11
316.9705611851
 21
-1056.7853366771
 31
0.0
 11
317.4477531978
 21
-1061.641880503
 31
0.0
 11
317.8534600957
 21
-1065.8135653854
 31
0.0
 11
318.1975782707
 21
-1069.3913475827
 31
0.0
 11
318.4892687896
 21
-1072.460792931
 31
0.0
 11
318.736788054
 21
-1075.1002066154
 31
0.0
 11
318.9473666858
 21
-1077.379221336
 31
0.0
 11
319.1271591506
 21
-1079.3580880891
 31
0.0
  0
SPLINE
  5
9CD
330
20F
100
AcDbEntity
  8
0
  6
Continuous
 62
     7
100
AcDbSpline
210
0.0
220
0.0
230
1.0
 70
     8
 71
     3
 72
    14
 73
    10
 74
     8
 42
0.0000000001
 43
0.0000000001
 44
0.0000000001
 12
0.0896204664559472
 22
-0.9959759896665273
 32
0.0
 13
0.9810173789558522
 23
-0.1939198344331746
 33
0.0
 40
0.0
 40
0.0
 40
0.0
 40
0.0
 40
0.4659917458145952
 40
1.021192401620496
 40
1.716814368731238
 40
2.612655070529251
 40
3.758415892230676
 40
5.163487216594465
 40
6.25964211738058
 40
6.25964211738058
 40
6.25964211738058
 40
6.25964211738058
 10
319.1271591506
 20
-1079.3580880891
 30
0.0
 10
319.1410799498082
 20
-1079.512793619171
 30
0.0
 10
319.2233749975853
 20
-1079.848594517861
 30
0.0
 10
319.5113021477318
 20
-1080.350473409921
 30
0.0
 10
320.0105966397941
 20
-1080.871215414296
 30
0.0
 10
320.7641894927669
 20
-1081.394069590484
 30
0.0
 10
321.8042153042838
 20
-1081.891445698391
 30
0.0
 10
322.9620993332801
 20
-1082.270967339442
 30
0.0
 10
323.7748568069338
 20
-1082.459791649509
 30
0.0
 10
324.1333058095
 20
-1082.5306470418
 30
0.0
 11
319.1271591506
 21
-1079.3580880891
 31
0.0
 11
319.2347118832
 21
-1079.811498187
 31
0.0
 11
319.5037410493
 21
-1080.297163788
 31
0.0
 11
319.9770173195
 21
-1080.8069671748
 31
0.0
 11
320.7057745253
 21
-1081.3279695721
 31
0.0
 11
321.7340708722
 21
-1081.8333154769
 31
0.0
 11
323.0660600857
 21
-1082.2805627929
 31
0.0
 11
324.1333058095
 21
-1082.5306470418
 31
0.0
  0
SPLINE
  5
9D0
330
20F
100
AcDbEntity
  8
0
  6
Continuous
 62
     7
100
AcDbSpline
210
0.0
220
0.0
230
1.0
 70
     8
 71
     3
 72
     9
 73
     5
 74
     3
 42
0.0000000001
 43
0.0000000001
 44
0.0000000001
 12
0.99939729174481
 22
0.0347138769534512
 32
0.0
 13
0.9912216400149612
 23
0.1322106666122323
 33
0.0
 40
0.0
 40
0.0
 40
0.0
 40
0.0
 40
0.5970548080339811
 40
1.484876354136906
 40
1.484876354136906
 40
1.484876354136906
 40
1.484876354136906
 10
332.6425470708
 20
-1083.1677727701
 30
0.0
 10
332.8414453901908
 20
-1083.160864074386
 30
0.0
 10
333.3358122422839
 20
-1083.135004116043
 30
0.0
 10
333.8287464618104
 20
-1083.086131713414
 30
0.0
 10
334.1220891048
 20
-1083.0470052206
 30
0.0
 11
332.6425470708
 21
-1083.1677727701
 31
0.0
 11
333.2387742843
 21
-1083.1363474033
 31
0.0
 11
334.1220891048
 21
-1083.0470052206
 31
0.0
  0
SPLINE
  5
9D1
330
20F
100
AcDbEntity
  8
0
  6
Continuous
 62
     7
100
AcDbSpline
210
0.0
220
0.0
230
1.0
 70
     8
 71
     3
 72
     9
 73
     5
 74
     3
 42
0.0000000001
 43
0.0000000001
 44
0.0000000001
 12
0.9859563494417404
 22
0.1670032245063454
 32
0.0
 13
0.9324466347368288
 23
0.3613077266928609
 33
0.0
 40
0.0
 40
0.0
 40
0.0
 40
0.0
 40
1.30371872830947
 40
1.712829856336865
 40
1.712829856336865
 40
1.712829856336865
 40
1.712829856336865
 10
334.5600103444
 20
-1082.9808436018
 30
0.0
 10
334.9884802637542
 20
-1082.908268524641
 30
0.0
 10
335.5480112941734
 20
-1082.78212055741
 30
0.0
 10
336.0875488061125
 20
-1082.594354140744
 30
0.0
 10
336.2147069043
 20
-1082.5450824702
 30
0.0
 11
334.5600103444
 21
-1082.9808436018
 31
0.0
 11
335.8286700288
 21
-1082.6805352141
 31
0.0
 11
336.2147069043
 21
-1082.5450824702
 31
0.0
  0
SPLINE
  5
9D2
330
20F
100
AcDbEntity
  8
0
  6
Continuous
 62
     7
100
AcDbSpline
210
0.0
220
0.0
230
1.0
 70
     8
 71
     3
 72
     8
 73
     4
 74
     2
 42
0.0000000001
 43
0.0000000001
 44
0.0000000001
 12
0.9324466347066925
 22
0.3613077267706353
 32
0.0
 13
0.8640265870986761
 23
0.5034461806257089
 33
0.0
 40
0.0
 40
0.0
 40
0.0
 40
0.0
 40
0.7657494742846616
 40
0.7657494742846616
 40
0.7657494742846616
 40
0.7657494742846616
 10
336.2147069043
 20
-1082.5450824702
 30
0.0
 10
336.4527137444083
 20
-1082.452858736257
 30
0.0
 10
336.6856292884538
 20
-1082.344575796781
 30
0.0
 10
336.9061719234
 20
-1082.2160712474
 30
0.0
 11
336.2147069043
 21
-1082.5450824702
 31
0.0
 11
336.9061719234
 21
-1082.2160712474
 31
0.0
  0
SPLINE
  5
9D3
330
20F
100
AcDbEntity
  8
0
  6
Continuous
 62
     7
100
AcDbSpline
210
0.0
220
0.0
230
1.0
 70
     8
 71
     3
 72
     9
 73
     5
 74
     3
 42
0.0000000001
 43
0.0000000001
 44
0.0000000001
 12
0.8640265870991337
 22
0.5034461806249238
 32
0.0
 13
0.1143668204672923
 23
0.9934385891318104
 33
0.0
 40
0.0
 40
0.0
 40
0.0
 40
0.0
 40
0.9716767552474392
 40
1.78893859130363
 40
1.78893859130363
 40
1.78893859130363
 40
1.78893859130363
 10
336.9061719234
 20
-1082.2160712474
 30
0.0
 10
337.1860234402666
 20
-1082.053008930323
 30
0.0
 10
337.6756419953372
 20
-1081.686161331986
 30
0.0
 10
337.9429400617736
 20
-1081.113020400154
 30
0.0
 10
337.974095941
 20
-1080.8423872517
 30
0.0
 11
336.9061719234
 21
-1082.2160712474
 31
0.0
 11
337.6523149684
 21
-1081.5936354892
 31
0.0
 11
337.974095941
 21
-1080.8423872517
 31
0.0
  0
SPLINE
  5
9D4
330
20F
100
AcDbEntity
  8
0
  6
Continuous
 62
     7
100
AcDbSpline
210
0.0
220
0.0
230
1.0
 70
     8
 71
     3
 72
    10
 73
     6
 74
     4
 42
0.0000000001
 43
0.0000000001
 44
0.0000000001
 12
0.1141703978773531
 22
0.9934611820541993
 32
0.0
 13
0.1052274418116591
 23
0.9944481814000033
 33
0.0
 40
0.0
 40
0.0
 40
0.0
 40
0.0
 40
6.730695296740317
 40
15.13737294968504
 40
24.98553920574595
 40
24.98553920574595
 40
24.98553920574595
 40
24.98553920574595
 10
337.974095941
 20
-1080.8423872517
 30
0.0
 10
338.2302446610067
 20
-1078.613492416518
 30
0.0
 10
338.7912112093319
 20
-1073.598961780053
 30
0.0
 10
339.6917385670605
 20
-1065.319272331826
 30
0.0
 10
340.3366103054796
 20
-1059.268586924321
 30
0.0
 10
340.6820427527
 20
-1056.0040899165
 30
0.0
 11
337.974095941
 21
-1080.8423872517
 31
0.0
 11
338.7260600724
 21
-1074.1538291767
 31
0.0
 11
339.6370130413
 21
-1065.796652988
 31
0.0
 11
340.6820427527
 21
-1056.0040899165
 31
0.0
  0
SPLINE
  5
9D5
330
20F
100
AcDbEntity
  8
02___PRT_ALL_AXES
  6
Continuous
 62
     7
100
AcDbSpline
210
0.0
220
0.0
230
1.0
 70
     8
 71
     3
 72
    10
 73
     6
 74
     4
 42
0.0000000001
 43
0.0000000001
 44
0.0000000001
 12
-0.9999999999892404
 22
-0.0000046388818092
 32
0.0
 13
-0.9999991918654549
 23
0.0012713254646805
 33
0.0
 40
0.0
 40
0.0
 40
0.0
 40
0.0
 40
4.987628570394168
 40
9.950053943089233
 40
14.81410883610236
 40
14.81410883610236
 40
14.81410883610236
 40
14.81410883610236
 10
430.6649817080999
 20
-1091.3539716708
 30
0.0
 10
429.0024388513197
 20
-1091.35397938314
 30
0.0
 10
425.685754118261
 20
-1091.352931506145
 30
0.0
 10
420.7477195822364
 20
-1091.34857545169
 30
0.0
 10
417.4722287223341
 20
-1091.344457671616
 30
0.0
 10
415.8508784015999
 20
-1091.342396406
 30
0.0
 11
430.6649817080999
 21
-1091.3539716708
 31
0.0
 11
425.6773533677
 21
-1091.3524569922
 31
0.0
 11
420.7149297925
 21
-1091.3482332655
 31
0.0
 11
415.8508784015999
 21
-1091.342396406
 31
0.0
  0
SPLINE
  5
9D6
330
20F
100
AcDbEntity
  8
06___PRT_ALL_SURFS
  6
Continuous
 62
     7
100
AcDbSpline
210
0.0
220
0.0
230
1.0
 70
     8
 71
     3
 72
     9
 73
     5
 74
     3
 42
0.0000000001
 43
0.0000000001
 44
0.0000000001
 12
-0.9988726784220011
 22
0.0474696987778258
 32
0.0
 13
-0.3918533047865818
 23
0.9200277101956409
 33
0.0
 40
0.0
 40
0.0
 40
0.0
 40
0.0
 40
3.438435367821488
 40
9.195162375910397
 40
9.195162375910397
 40
9.195162375910397
 40
9.195162375910397
 10
210.6785244125
 20
-1085.4295958711
 30
0.0
 10
209.5336713640211
 20
-1085.375188707374
 30
0.0
 10
206.8743932152842
 20
-1083.170435426423
 30
0.0
 10
205.5587938759912
 20
-1080.463839781124
 30
0.0
 10
204.8068630417
 20
-1078.6983903253
 30
0.0
 11
210.6785244125
 21
-1085.4295958711
 31
0.0
 11
207.7327402526
 21
-1083.6561265418
 31
0.0
 11
204.8068630417
 21
-1078.6983903253
 31
0.0
  0
SPLINE
  5
9D7
330
20F
100
AcDbEntity
  8
06___PRT_ALL_SURFS
  6
Continuous
 62
     7
100
AcDbSpline
210
0.0
220
0.0
230
1.0
 70
     8
 71
     3
 72
    12
 73
     8
 74
     6
 42
0.0000000001
 43
0.0000000001
 44
0.0000000001
 12
-0.391853304782835
 22
0.9200277101972368
 32
0.0
 13
-0.0823501596721492
 23
0.9966034573499992
 33
0.0
 40
0.0
 40
0.0
 40
0.0
 40
0.0
 40
8.39970126671975
 40
19.2451084218133
 40
32.19644816140102
 40
46.81136024579669
 40
62.5909585290416
 40
62.5909585290416
 40
62.5909585290416
 40
62.5909585290416
 10
204.8068630417
 20
-1078.6983903253
 30
0.0
 10
203.7097128081824
 20
-1076.122404351046
 30
0.0
 10
201.616428838931
 20
-1070.040164734577
 30
0.0
 10
199.1530698851083
 20
-1059.585327713302
 30
0.0
 10
196.8972489075172
 20
-1046.977362280059
 30
0.0
 10
194.980306768976
 20
-1032.652597213879
 30
0.0
 10
193.9902858880292
 20
-1022.567514406492
 30
0.0
 10
193.5571350753
 20
-1017.3255136716
 30
0.0
 11
204.8068630417
 21
-1078.6983903253
 31
0.0
 11
202.0007144276
 21
-1070.7812878676
 31
0.0
 11
199.4020922196
 21
-1060.2518045479
 31
0.0
 11
197.0831962521
 21
-1047.5097512384
 31
0.0
 11
195.1136979713
 21
-1033.0281514733
 31
0.0
 11
193.5571350753
 21
-1017.3255136716
 31
0.0
  0
SPLINE
  5
9DC
330
20F
100
AcDbEntity
  8
0
  6
Continuous
 62
     7
100
AcDbSpline
210
0.0
220
0.0
230
1.0
 70
     8
 71
     3
 72
     8
 73
     4
 74
     2
 42
0.0000000001
 43
0.0000000001
 44
0.0000000001
 12
0.3916806098398261
 22
-0.9201012443614573
 32
0.0
 13
0.0955071065715697
 23
-0.9954287481253125
 33
0.0
 40
0.0
 40
0.0
 40
0.0
 40
0.0
 40
0.6498088109331635
 40
0.6498088109331635
 40
0.6498088109331635
 40
0.6498088109331635
 10
527.0300825828
 20
-1058.380686285
 30
0.0
 10
527.1149217532484
 20
-1058.579982916845
 30
0.0
 10
527.1737659639144
 20
-1058.793749746104
 30
0.0
 10
527.1944530837
 20
-1059.0093625365
 30
0.0
 11
527.0300825828
 21
-1058.380686285
 31
0.0
 11
527.1944530837
 21
-1059.0093625365
 31
0.0
  0
SPLINE
  5
9DD
330
20F
100
AcDbEntity
  8
0
  6
Continuous
 62
     7
100
AcDbSpline
210
0.0
220
0.0
230
1.0
 70
     8
 71
     3
 72
    10
 73
     6
 74
     4
 42
0.0000000001
 43
0.0000000001
 44
0.0000000001
 12
0.9965502917326507
 22
0.0829910600460591
 32
0.0
 13
0.3609868876729528
 23
-0.9325708911006149
 33
0.0
 40
0.0
 40
0.0
 40
0.0
 40
0.0
 40
3.055948179846801
 40
5.97739485132014
 40
7.471670611360078
 40
7.471670611360078
 40
7.471670611360078
 40
7.471670611360078
 10
523.3558674166
 20
-1080.8423865196
 30
0.0
 10
524.3710027666487
 20
-1080.757847726636
 30
0.0
 10
526.4263710101374
 20
-1081.050527541673
 30
0.0
 10
528.5389694076896
 20
-1082.584631854853
 30
0.0
 10
529.2710184415192
 20
-1083.888283942903
 30
0.0
 10
529.4508230934999
 20
-1084.3527899686
 30
0.0
 11
523.3558674166
 21
-1080.8423865196
 31
0.0
 11
526.3771461533
 21
-1081.3014007602
 31
0.0
 11
528.7164243372
 21
-1083.0514373977
 31
0.0
 11
529.4508230934999
 21
-1084.3527899686
 31
0.0
  0
SPLINE
  5
9E0
330
20F
100
AcDbEntity
  8
0
  6
Continuous
 62
     7
100
AcDbSpline
210
0.0
220
0.0
230
1.0
 70
     8
 71
     3
 72
     8
 73
     4
 74
     2
 42
0.0000000001
 43
0.0000000001
 44
0.0000000001
 12
-0.3919278213234689
 22
-0.91999596894369
 32
0.0
 13
-0.0958452480137484
 23
-0.9953962469454982
 33
0.0
 40
0.0
 40
0.0
 40
0.0
 40
0.0
 40
0.6497558201460337
 40
0.6497558201460337
 40
0.6497558201460337
 40
0.6497558201460337
 10
334.299909295
 20
-1058.3807729534
 30
0.0
 10
334.2150235006727
 20
-1058.580030531844
 30
0.0
 10
334.1561212249434
 20
-1058.793760155632
 30
0.0
 10
334.1353625557
 20
-1059.0093483239
 30
0.0
 11
334.299909295
 21
-1058.3807729534
 31
0.0
 11
334.1353625557
 21
-1059.0093483239
 31
0.0
  0
SPLINE
  5
9E2
330
20F
100
AcDbEntity
  8
0
  6
Continuous
 62
     7
100
AcDbSpline
210
0.0
220
0.0
230
1.0
 70
     8
 71
     3
 72
     8
 73
     4
 74
     2
 42
0.0000000001
 43
0.0000000001
 44
0.0000000001
 12
0.3835400179174189
 22
-0.9235242577517421
 32
0.0
 13
0.095848316246412
 23
-0.9953959515050922
 33
0.0
 40
0.0
 40
0.0
 40
0.0
 40
0.0
 40
0.5089226882494357
 40
0.5089226882494357
 40
0.5089226882494357
 40
0.5089226882494357
 10
321.5725286018
 20
-1053.3698542335
 30
0.0
 10
321.6375926741232
 20
-1053.526521716139
 30
0.0
 10
321.6827887515439
 20
-1053.693939609029
 30
0.0
 10
321.6990485458
 20
-1053.8627994702
 30
0.0
 11
321.5725286018
 21
-1053.3698542335
 31
0.0
 11
321.6990485458
 21
-1053.8627994702
 31
0.0
  0
SPLINE
  5
9E3
330
20F
100
AcDbEntity
  8
0
  6
Continuous
 62
     7
100
AcDbSpline
210
0.0
220
0.0
230
1.0
 70
     8
 71
     3
 72
    10
 73
     6
 74
     4
 42
0.0000000001
 43
0.0000000001
 44
0.0000000001
 12
0.9986647406971529
 22
-0.0516598072807872
 32
0.0
 13
0.2720020333630622
 23
-0.9622966766264756
 33
0.0
 40
0.0
 40
0.0
 40
0.0
 40
0.0
 40
2.735474223619211
 40
5.333631164041698
 40
7.001901995233862
 40
7.001901995233862
 40
7.001901995233862
 40
7.001901995233862
 10
319.1271592977
 20
-1079.3580865015
 30
0.0
 10
320.0377665164382
 20
-1079.405191191904
 30
0.0
 10
321.8192228082394
 20
-1079.863960631587
 30
0.0
 10
323.67899998157
 20
-1081.421429041088
 30
0.0
 10
324.3037445258051
 20
-1082.734049993077
 30
0.0
 10
324.4550022119
 20
-1083.2691738186
 30
0.0
 11
319.1271592977
 21
-1079.3580865015
 31
0.0
 11
321.7691338378
 21
-1080.0671631952
 31
0.0
 11
323.7374223605
 21
-1081.7631171387
 31
0.0
 11
324.4550022119
 21
-1083.2691738186
 31
0.0
  0
SPLINE
  5
9E4
330
20F
100
AcDbEntity
  8
0
  6
Continuous
 62
     7
100
AcDbSpline
210
0.0
220
0.0
230
1.0
 70
     8
 71
     3
 72
    10
 73
     6
 74
     4
 42
0.0000000001
 43
0.0000000001
 44
0.0000000001
 12
-0.9965504532821904
 22
0.082989120148732
 32
0.0
 13
-0.3701976599773958
 23
-0.9289530087939112
 33
0.0
 40
0.0
 40
0.0
 40
0.0
 40
0.0
 40
3.056179343507967
 40
5.977834306774934
 40
7.421276568215308
 40
7.421276568215308
 40
7.421276568215308
 40
7.421276568215308
 10
337.9741565129
 20
-1080.8416312157
 30
0.0
 10
336.9589442095385
 20
-1080.757088004122
 30
0.0
 10
334.9034963597572
 20
-1081.049740935305
 30
0.0
 10
332.8049449255511
 20
-1082.574035375704
 30
0.0
 10
332.0759983332659
 20
-1083.857785279371
 30
0.0
 10
331.8978786841
 20
-1084.3047486233
 30
0.0
 11
337.9741565129
 21
-1080.8416312157
 31
0.0
 11
334.9526612007
 21
-1081.30075893
 31
0.0
 11
332.6133555641
 21
-1083.0511065706
 31
0.0
 11
331.8978786841
 21
-1084.3047486233
 31
0.0
  0
SPLINE
  5
9F5
330
20F
100
AcDbEntity
  8
0
  6
Continuous
 62
     7
100
AcDbSpline
210
0.0
220
0.0
230
1.0
 70
     8
 71
     3
 72
    10
 73
     6
 74
     4
 42
0.0000000001
 43
0.0000000001
 44
0.0000000001
 12
0.1696721314593115
 22
-0.985500567126196
 32
0.0
 13
0.5193909881206338
 23
-0.8545367174434762
 33
0.0
 40
0.0
 40
0.0
 40
0.0
 40
0.0
 40
3.668270794285187
 40
7.151373380221292
 40
10.44969353976765
 40
10.44969353976765
 40
10.44969353976765
 40
10.44969353976765
 10
151.7100999458
 20
-718.2623390171
 30
0.0
 10
151.9175677206121
 20
-719.4673666664803
 30
0.0
 10
152.4425419475993
 20
-721.7989293110908
 30
0.0
 10
153.613670422319
 20
-725.0879024248368
 30
0.0
 10
154.6429146943983
 20
-727.1100561574278
 30
0.0
 10
155.21395395
 20
-728.0495680514999
 30
0.0
 11
151.7100999458
 21
-718.2623390171
 31
0.0
 11
152.5288863692
 21
-721.838062638
 31
0.0
 11
153.7054050237
 21
-725.1164475269
 31
0.0
 11
155.21395395
 21
-728.0495680514999
 31
0.0
  0
SPLINE
  5
9F6
330
20F
100
AcDbEntity
  8
0
  6
Continuous
 62
     7
100
AcDbSpline
210
0.0
220
0.0
230
1.0
 70
     8
 71
     3
 72
     9
 73
     5
 74
     3
 42
0.0000000001
 43
0.0000000001
 44
0.0000000001
 12
-0.9962839539492144
 22
-0.0861294554918351
 32
0.0
 13
-0.9995643523632727
 23
0.0295144961771497
 33
0.0
 40
0.0
 40
0.0
 40
0.0
 40
0.0
 40
12.44471281842223
 40
19.3962203760564
 40
19.3962203760564
 40
19.3962203760564
 40
19.3962203760564
 10
151.2056832803
 20
-715.3055295127
 30
0.0
 10
147.0728607161333
 20
-715.6628149589676
 30
0.0
 10
140.615860178305
 20
-716.0976934098914
 30
0.0
 10
134.1469754289983
 20
-716.0774367052783
 30
0.0
 10
131.8308157124
 20
-716.0090466241999
 30
0.0
 11
151.2056832803
 21
-715.3055295127
 31
0.0
 11
138.7822802748
 21
-716.0334957866
 31
0.0
 11
131.8308157124
 21
-716.0090466241999
 31
0.0
  0
SPLINE
  5
9F7
330
20F
100
AcDbEntity
  8
0
  6
Continuous
 62
     7
100
AcDbSpline
210
0.0
220
0.0
230
1.0
 70
     8
 71
     3
 72
    10
 73
     6
 74
     4
 42
0.0000000001
 43
0.0000000001
 44
0.0000000001
 12
-0.9995643523631304
 22
0.0295144961819733
 32
0.0
 13
-0.6445934124213898
 23
0.7645255605033414
 33
0.0
 40
0.0
 40
0.0
 40
0.0
 40
0.0
 40
2.966274850367095
 40
9.520919842754659
 40
11.89995300168667
 40
11.89995300168667
 40
11.89995300168667
 40
11.89995300168667
 10
131.8308157124
 20
-716.0090466241999
 30
0.0
 10
130.8424881791539
 20
-715.979863921618
 30
0.0
 10
127.6535832987027
 20
-715.8718773509924
 30
0.0
 10
123.8182098475561
 20
-715.3815291450808
 30
0.0
 10
120.7875477313265
 20
-714.3900268366628
 30
0.0
 10
120.2763780306
 20
-713.7837496168999
 30
0.0
 11
131.8308157124
 21
-716.0090466241999
 31
0.0
 11
128.8671366712
 21
-715.8849779791999
 31
0.0
 11
122.3909435808
 21
-714.8738924080999
 31
0.0
 11
120.2763780306
 21
-713.7837496168999
 31
0.0
  0
SPLINE
  5
9F8
330
20F
100
AcDbEntity
  8
0
  6
Continuous
 62
     7
100
AcDbSpline
210
0.0
220
0.0
230
1.0
 70
     8
 71
     3
 72
     8
 73
     4
 74
     2
 42
0.0000000001
 43
0.0000000001
 44
0.0000000001
 12
-0.6445934124256543
 22
0.7645255604997458
 32
0.0
 13
-0.1391592428235598
 23
0.9902700162767596
 33
0.0
 40
0.0
 40
0.0
 40
0.0
 40
0.0
 40
0.7572321596278023
 40
0.7572321596278023
 40
0.7572321596278023
 40
0.7572321596278023
 10
120.2763780306
 20
-713.7837496168999
 30
0.0
 10
120.1136757433423
 20
-713.5907751698105
 30
0.0
 10
119.9965577788585
 20
-713.34507541868
 30
0.0
 10
119.9614324942
 20
-713.0951206510001
 30
0.0
 11
120.2763780306
 21
-713.7837496168999
 31
0.0
 11
119.9614324942
 21
-713.0951206510001
 31
0.0
  0
SPLINE
  5
A05
330
20F
100
AcDbEntity
  8
06___PRT_ALL_SURFS
  6
Continuous
 62
     7
100
AcDbSpline
210
0.0
220
0.0
230
1.0
 70
     8
 71
     3
 72
     9
 73
     5
 74
     3
 42
0.0000000001
 43
0.0000000001
 44
0.0000000001
 12
-0.9962718147907663
 22
-0.0862697574675687
 32
0.0
 13
-0.999596649794631
 23
0.0283996077323233
 33
0.0
 40
0.0
 40
0.0
 40
0.0
 40
0.0
 40
12.41007313004119
 40
19.33919085726251
 40
19.33919085726251
 40
19.33919085726251
 40
19.33919085726251
 10
193.5574997666
 20
-1017.3252702585
 30
0.0
 10
189.4362310736159
 20
-1017.682141591528
 30
0.0
 10
182.9984732883611
 20
-1018.117629020954
 30
0.0
 10
176.548645420221
 20
-1018.104041703095
 30
0.0
 10
174.2398711315
 20
-1018.0384469613
 30
0.0
 11
193.5574997666
 21
-1017.3252702585
 31
0.0
 11
181.1689662993
 21
-1018.0561283997
 31
0.0
 11
174.2398711315
 21
-1018.0384469613
 31
0.0
  0
SPLINE
  5
A06
330
20F
100
AcDbEntity
  8
06___PRT_ALL_SURFS
  6
Continuous
 62
     7
100
AcDbSpline
210
0.0
220
0.0
230
1.0
 70
     8
 71
     3
 72
    10
 73
     6
 74
     4
 42
0.0000000001
 43
0.0000000001
 44
0.0000000001
 12
-0.9995966497945975
 22
0.0283996077335022
 32
0.0
 13
-0.6462152858620897
 23
0.7631551639857899
 33
0.0
 40
0.0
 40
0.0
 40
0.0
 40
0.0
 40
2.955927521232615
 40
9.484499696797504
 40
11.84958572387654
 40
11.84958572387654
 40
11.84958572387654
 40
11.84958572387654
 10
174.2398711315
 20
-1018.0384469613
 30
0.0
 10
173.2549593824134
 20
-1018.010464567269
 30
0.0
 10
170.0777206128515
 20
-1017.906649813895
 30
0.0
 10
166.2607612077615
 20
-1017.42205652307
 30
0.0
 10
163.2368940778257
 20
-1016.450558629478
 30
0.0
 10
162.7274424968
 20
-1015.8489160912
 30
0.0
 11
174.2398711315
 21
-1018.0384469613
 31
0.0
 11
171.2863919016
 21
-1017.9181641723
 31
0.0
 11
164.8339162358
 21
-1016.9242766365
 31
0.0
 11
162.7274424968
 21
-1015.8489160912
 31
0.0
  0
SPLINE
  5
A07
330
20F
100
AcDbEntity
  8
06___PRT_ALL_SURFS
  6
Continuous
 62
     7
100
AcDbSpline
210
0.0
220
0.0
230
1.0
 70
     8
 71
     3
 72
     8
 73
     4
 74
     2
 42
0.0000000001
 43
0.0000000001
 44
0.0000000001
 12
-0.6462152858714613
 22
0.7631551639778543
 32
0.0
 13
-0.1392515000230088
 23
0.9902570473070827
 33
0.0
 40
0.0
 40
0.0
 40
0.0
 40
0.0
 40
0.7497493928162906
 40
0.7497493928162906
 40
0.7497493928162906
 40
0.7497493928162906
 10
162.7274424968
 20
-1015.8489160912
 30
0.0
 10
162.5659426573964
 20
-1015.658191050927
 30
0.0
 10
162.4497248535303
 20
-1015.414887471283
 30
0.0
 10
162.414923611
 20
-1015.1674059313
 30
0.0
 11
162.7274424968
 21
-1015.8489160912
 31
0.0
 11
162.414923611
 21
-1015.1674059313
 31
0.0
  0
ENDSEC
  0
SECTION
  2
OBJECTS
  0
DICTIONARY
  5
C
330
0
100
AcDbDictionary
281
     1
  3
ACAD_COLOR
350
A56
  3
ACAD_GROUP
350
D
  3
ACAD_LAYOUT
350
1A
  3
ACAD_MATERIAL
350
A2C
  3
ACAD_MLEADERSTYLE
350
A7B
  3
ACAD_MLINESTYLE
350
17
  3
ACAD_PLOTSETTINGS
350
19
  3
ACAD_PLOTSTYLENAME
350
E
  3
ACAD_SCALELIST
350
A59
  3
ACAD_TABLESTYLE
350
A57
  3
ACAD_VISUALSTYLE
350
A45
  3
ACDB_RECOMPOSE_DATA
350
A80
  3
AcDbVariableDictionary
350
A81
  3
AcmDictionary
350
AE3
  3
AMG
350
AC2
  3
AMGSNAPSETTINGS
350
B23
  3
DWGPROPS
350
B64
  0
DICTIONARY
  5
A56
102
{ACAD_REACTORS
330
C
102
}
330
C
100
AcDbDictionary
281
     1
  0
DICTIONARY
  5
D
102
{ACAD_REACTORS
330
C
102
}
330
C
100
AcDbDictionary
281
     1
  0
DICTIONARY
  5
1A
102
{ACAD_REACTORS
330
C
102
}
330
C
100
AcDbDictionary
281
     1
  3
Layout1
350
A29
  3
Model
350
A28
  0
DICTIONARY
  5
A2C
102
{ACAD_REACTORS
330
C
102
}
330
C
100
AcDbDictionary
281
     1
  3
ByBlock
350
A35
  3
ByLayer
350
A2D
  3
Global
350
A3D
  0
DICTIONARY
  5
A7B
102
{ACAD_REACTORS
330
C
102
}
330
C
100
AcDbDictionary
281
     1
  3
Standard
350
A7C
  0
DICTIONARY
  5
17
102
{ACAD_REACTORS
330
C
102
}
330
C
100
AcDbDictionary
281
     1
  3
Standard
350
18
  0
DICTIONARY
  5
19
102
{ACAD_REACTORS
330
C
102
}
330
C
100
AcDbDictionary
281
     1
  0
ACDBDICTIONARYWDFLT
  5
E
102
{ACAD_REACTORS
330
C
102
}
330
C
100
AcDbDictionary
281
     1
  3
Normal
350
F
100
AcDbDictionaryWithDefault
340
F
  0
DICTIONARY
  5
A59
102
{ACAD_REACTORS
330
C
102
}
330
C
100
AcDbDictionary
281
     1
  3
A0
350
A5A
  3
A1
350
A5B
  3
A2
350
A5C
  3
A3
350
A5D
  3
A4
350
A5E
  3
A5
350
A5F
  3
A6
350
A60
  3
A7
350
A61
  3
A8
350
A62
  3
A9
350
A63
  3
B0
350
A64
  3
B1
350
A65
  3
B2
350
A66
  3
B3
350
A67
  3
B4
350
A68
  3
B5
350
A69
  3
B6
350
A6A
  3
B7
350
A6B
  3
B8
350
A6C
  3
B9
350
A6D
  3
C0
350
A6E
  3
C1
350
A6F
  3
C2
350
A70
  3
C3
350
A71
  3
C4
350
A72
  3
C5
350
A73
  3
C6
350
A74
  3
C7
350
A75
  3
C8
350
A76
  3
C9
350
A77
  3
D0
350
A78
  3
D1
350
A79
  3
D2
350
A7A
  0
DICTIONARY
  5
A57
102
{ACAD_REACTORS
330
C
102
}
330
C
100
AcDbDictionary
281
     1
  3
Standard
350
A58
  0
DICTIONARY
  5
A45
102
{ACAD_REACTORS
330
C
102
}
330
C
100
AcDbDictionary
281
     1
  3
2dWireframe
350
A4B
  3
3D Hidden
350
A4D
  3
3dWireframe
350
A4C
  3
Basic
350
A4A
  3
Brighten
350
A51
  3
ColorChange
350
A55
  3
Conceptual
350
A4E
  3
Dim
350
A50
  3
Facepattern
350
A54
  3
Flat
350
A46
  3
FlatWithEdges
350
A47
  3
Gouraud
350
A48
  3
GouraudWithEdges
350
A49
  3
Linepattern
350
A53
  3
Realistic
350
A4F
  3
Thicken
350
A52
  0
XRECORD
  5
A80
102
{ACAD_REACTORS
330
C
102
}
330
C
100
AcDbXrecord
280
     1
 90
        1
330
A58
  0
DICTIONARY
  5
A81
102
{ACAD_REACTORS
330
C
102
}
330
C
100
AcDbDictionary
281
     1
  3
CANNOSCALE
350
A84
  3
CMLEADERSTYLE
350
A83
  3
CTABLESTYLE
350
A82
  3
DIMASSOC
350
B63
  3
HIDETEXT
350
B62
  3
INDEXCTL
350
B61
  3
SORTENTS
350
B60
  0
DICTIONARY
  5
AE3
102
{ACAD_REACTORS
330
C
102
}
330
C
100
AcDbDictionary
281
     1
  3
AcmStdDictionary
350
AEE
  3
AMDTSECTSYM_ARROWCOLOR
350
B0D
  0
DICTIONARY
  5
AC2
102
{ACAD_REACTORS
330
C
102
}
330
C
100
AcDbDictionary
281
     1
  0
DICTIONARY
  5
B23
102
{ACAD_REACTORS
330
C
102
}
330
C
100
AcDbDictionary
281
     1
  0
XRECORD
  5
B64
102
{ACAD_REACTORS
330
C
102
}
330
C
100
AcDbXrecord
280
     1
  1
DWGPROPS COOKIE
  2

  3

  4

  6

  7

  8
ko27558
  9

300
=
301
=
302
=
303
=
304
=
305
=
306
=
307
=
308
=
309
=
 40
0.0006938541666667
 41
2455695.432460255
 42
2455695.433153565
  1

 90
        0
  0
LAYOUT
  5
A29
102
{ACAD_XDICTIONARY
360
B67
102
}
102
{ACAD_REACTORS
330
1A
102
}
330
1A
100
AcDbPlotSettings
  1

  2
none_device
  4
ANSI_D_(34.00_x_22.00_Inches)
  6

 40
0.0
 41
0.0
 42
0.0
 43
0.0
 44
863.6000000000001
 45
558.8
 46
0.0
 47
0.0
 48
0.0
 49
0.0
140
0.0
141
0.0
142
1.0
143
1.0
 70
     0
 72
     1
 73
     0
 74
     0
  7

 75
     0
147
1.0
148
0.0
149
0.0
100
AcDbLayout
  1
Layout1
 70
     1
 71
     1
 10
0.0
 20
0.0
 11
12.0
 21
9.0
 12
0.0
 22
0.0
 32
0.0
 14
1.000000000000000E+20
 24
1.000000000000000E+20
 34
1.000000000000000E+20
 15
-1.000000000000000E+20
 25
-1.000000000000000E+20
 35
-1.000000000000000E+20
146
0.0
 13
0.0
 23
0.0
 33
0.0
 16
1.0
 26
0.0
 36
0.0
 17
0.0
 27
1.0
 37
0.0
 76
     0
330
210
  0
LAYOUT
  5
A28
102
{ACAD_XDICTIONARY
360
B65
102
}
102
{ACAD_REACTORS
330
1A
102
}
330
1A
100
AcDbPlotSettings
  1

  2
none_device
  4
ANSI_D_(34.00_x_22.00_Inches)
  6

 40
0.0
 41
0.0
 42
0.0
 43
0.0
 44
863.6000000000001
 45
558.8
 46
0.0
 47
0.0
 48
0.0
 49
0.0
140
0.0
141
0.0
142
1.0
143
1.0
 70
  1024
 72
     1
 73
     0
 74
     0
  7

 75
     0
147
1.0
148
0.0
149
0.0
100
AcDbLayout
  1
Model
 70
     0
 71
     0
 10
0.0
 20
0.0
 11
863.6000000000001
 21
558.8
 12
0.0
 22
0.0
 32
0.0
 14
0.0
 24
0.0
 34
0.0
 15
0.0
 25
0.0
 35
0.0
146
0.0
 13
0.0
 23
0.0
 33
0.0
 16
1.0
 26
0.0
 36
0.0
 17
0.0
 27
1.0
 37
0.0
 76
     0
330
20F
331
1F4
  0
MATERIAL
  5
A35
102
{ACAD_XDICTIONARY
360
A36
102
}
102
{ACAD_REACTORS
330
A2C
102
}
330
A2C
100
AcDbMaterial
  1
ByBlock
 72
     0
 73
     2
 43
0.0008202099737533
 43
0.0
 43
0.0
 43
0.0
 43
0.0
 43
0.0008202099737533
 43
0.0
 43
0.0
 43
0.0
 43
0.0
 43
1.0
 43
0.0
 43
0.0
 43
0.0
 43
0.0
 43
1.0
 77
     0
 78
     2
 47
0.0008202099737533
 47
0.0
 47
0.0
 47
0.0
 47
0.0
 47
0.0008202099737533
 47
0.0
 47
0.0
 47
0.0
 47
0.0
 47
1.0
 47
0.0
 47
0.0
 47
0.0
 47
0.0
 47
1.0
171
     0
172
     2
 49
0.0008202099737533
 49
0.0
 49
0.0
 49
0.0
 49
0.0
 49
0.0008202099737533
 49
0.0
 49
0.0
 49
0.0
 49
0.0
 49
1.0
 49
0.0
 49
0.0
 49
0.0
 49
0.0
 49
1.0
175
     0
176
     2
142
0.0008202099737533
142
0.0
142
0.0
142
0.0
142
0.0
142
0.0008202099737533
142
0.0
142
0.0
142
0.0
142
0.0
142
1.0
142
0.0
142
0.0
142
0.0
142
0.0
142
1.0
179
     0
270
     2
144
0.0008202099737533
144
0.0
144
0.0
144
0.0
144
0.0
144
0.0008202099737533
144
0.0
144
0.0
144
0.0
144
0.0
144
1.0
144
0.0
144
0.0
144
0.0
144
0.0
144
1.0
274
     2
147
0.0008202099737533
147
0.0
147
0.0
147
0.0
147
0.0
147
0.0008202099737533
147
0.0
147
0.0
147
0.0
147
0.0
147
1.0
147
0.0
147
0.0
147
0.0
147
0.0
147
1.0
  0
MATERIAL
  5
A2D
102
{ACAD_XDICTIONARY
360
A2E
102
}
102
{ACAD_REACTORS
330
A2C
102
}
330
A2C
100
AcDbMaterial
  1
ByLayer
 72
     0
 73
     2
 43
0.0008202099737533
 43
0.0
 43
0.0
 43
0.0
 43
0.0
 43
0.0008202099737533
 43
0.0
 43
0.0
 43
0.0
 43
0.0
 43
1.0
 43
0.0
 43
0.0
 43
0.0
 43
0.0
 43
1.0
 77
     0
 78
     2
 47
0.0008202099737533
 47
0.0
 47
0.0
 47
0.0
 47
0.0
 47
0.0008202099737533
 47
0.0
 47
0.0
 47
0.0
 47
0.0
 47
1.0
 47
0.0
 47
0.0
 47
0.0
 47
0.0
 47
1.0
171
     0
172
     2
 49
0.0008202099737533
 49
0.0
 49
0.0
 49
0.0
 49
0.0
 49
0.0008202099737533
 49
0.0
 49
0.0
 49
0.0
 49
0.0
 49
1.0
 49
0.0
 49
0.0
 49
0.0
 49
0.0
 49
1.0
175
     0
176
     2
142
0.0008202099737533
142
0.0
142
0.0
142
0.0
142
0.0
142
0.0008202099737533
142
0.0
142
0.0
142
0.0
142
0.0
142
1.0
142
0.0
142
0.0
142
0.0
142
0.0
142
1.0
179
     0
270
     2
144
0.0008202099737533
144
0.0
144
0.0
144
0.0
144
0.0
144
0.0008202099737533
144
0.0
144
0.0
144
0.0
144
0.0
144
1.0
144
0.0
144
0.0
144
0.0
144
0.0
144
1.0
274
     2
147
0.0008202099737533
147
0.0
147
0.0
147
0.0
147
0.0
147
0.0008202099737533
147
0.0
147
0.0
147
0.0
147
0.0
147
1.0
147
0.0
147
0.0
147
0.0
147
0.0
147
1.0
  0
MATERIAL
  5
A3D
102
{ACAD_XDICTIONARY
360
A3E
102
}
102
{ACAD_REACTORS
330
A2C
102
}
330
A2C
100
AcDbMaterial
  1
Global
 72
     0
 73
     2
 43
0.0008202099737533
 43
0.0
 43
0.0
 43
0.0
 43
0.0
 43
0.0008202099737533
 43
0.0
 43
0.0
 43
0.0
 43
0.0
 43
1.0
 43
0.0
 43
0.0
 43
0.0
 43
0.0
 43
1.0
 77
     0
 78
     2
 47
0.0008202099737533
 47
0.0
 47
0.0
 47
0.0
 47
0.0
 47
0.0008202099737533
 47
0.0
 47
0.0
 47
0.0
 47
0.0
 47
1.0
 47
0.0
 47
0.0
 47
0.0
 47
0.0
 47
1.0
171
     0
172
     2
 49
0.0008202099737533
 49
0.0
 49
0.0
 49
0.0
 49
0.0
 49
0.0008202099737533
 49
0.0
 49
0.0
 49
0.0
 49
0.0
 49
1.0
 49
0.0
 49
0.0
 49
0.0
 49
0.0
 49
1.0
175
     0
176
     2
142
0.0008202099737533
142
0.0
142
0.0
142
0.0
142
0.0
142
0.0008202099737533
142
0.0
142
0.0
142
0.0
142
0.0
142
1.0
142
0.0
142
0.0
142
0.0
142
0.0
142
1.0
179
     0
270
     2
144
0.0008202099737533
144
0.0
144
0.0
144
0.0
144
0.0
144
0.0008202099737533
144
0.0
144
0.0
144
0.0
144
0.0
144
1.0
144
0.0
144
0.0
144
0.0
144
0.0
144
1.0
274
     2
147
0.0008202099737533
147
0.0
147
0.0
147
0.0
147
0.0
147
0.0008202099737533
147
0.0
147
0.0
147
0.0
147
0.0
147
1.0
147
0.0
147
0.0
147
0.0
147
0.0
147
1.0
  0
ACAD_PROXY_OBJECT
  5
A7C
102
{ACAD_REACTORS
330
A7B
102
}
330
A7B
100
AcDbProxyObject
 90
      499
 91
      507
 95
       27
 70
     0
 93
      817
310
40901902A40600000030400FEFFFFFF8000000000000008102B5E8DC0F42B5CFC0000000000001040405064068000000C1000000000000000410000000000000004102000000304015D90000000000000C03F4214C01D0018401B80190018401C80190028C00CC
340
14
340
0
340
11
340
0
 94
        0
1001
ACAD_MLEADERVER
1070
     2
1001
ACAD
1000
AcRTDxfName
1000
MLEADERSTYLE
  0
MLINESTYLE
  5
18
102
{ACAD_REACTORS
330
17
102
}
330
17
100
AcDbMlineStyle
  2
STANDARD
 70
     0
  3

 62
   256
 51
90.0
 52
90.0
 71
     2
 49
0.5
 62
   256
  6
BYLAYER
 49
-0.5
 62
   256
  6
BYLAYER
  0
ACDBPLACEHOLDER
  5
F
102
{ACAD_REACTORS
330
E
102
}
330
E
  0
ACAD_PROXY_OBJECT
  5
A5A
102
{ACAD_REACTORS
330
A59
102
}
330
A59
100
AcDbProxyObject
 90
      499
 91
      506
 95
       27
 70
     0
 93
       82
310
968198801D0018801D004C
 94
        0
1001
ACAD
1000
AcRTDxfName
1000
SCALE
  0
ACAD_PROXY_OBJECT
  5
A5B
102
{ACAD_REACTORS
330
A59
102
}
330
A59
100
AcDbProxyObject
 90
      499
 91
      506
 95
       27
 70
     0
 93
      146
310
9000000000000001008198801D0019001D004C
 94
        0
1001
ACAD
1000
AcRTDxfName
1000
SCALE
  0
ACAD_PROXY_OBJECT
  5
A5C
102
{ACAD_REACTORS
330
A59
102
}
330
A59
100
AcDbProxyObject
 90
      499
 91
      506
 95
       27
 70
     0
 93
      146
310
9000000000000041008198801D001A001D004C
 94
        0
1001
ACAD
1000
AcRTDxfName
1000
SCALE
  0
ACAD_PROXY_OBJECT
  5
A5D
102
{ACAD_REACTORS
330
A59
102
}
330
A59
100
AcDbProxyObject
 90
      499
 91
      506
 95
       27
 70
     0
 93
      146
310
9000000000000051008198801D001A801D004C
 94
        0
1001
ACAD
1000
AcRTDxfName
1000
SCALE
  0
ACAD_PROXY_OBJECT
  5
A5E
102
{ACAD_REACTORS
330
A59
102
}
330
A59
100
AcDbProxyObject
 90
      499
 91
      506
 95
       27
 70
     0
 93
      146
310
9000000000000081008198801D001C001D004C
 94
        0
1001
ACAD
1000
AcRTDxfName
1000
SCALE
  0
ACAD_PROXY_OBJECT
  5
A5F
102
{ACAD_REACTORS
330
A59
102
}
330
A59
100
AcDbProxyObject
 90
      499
 91
      506
 95
       27
 70
     0
 93
      162
310
9000000000000091008218801D001880180025004C
 94
        0
1001
ACAD
1000
AcRTDxfName
1000
SCALE
  0
ACAD_PROXY_OBJECT
  5
A60
102
{ACAD_REACTORS
330
A59
102
}
330
A59
100
AcDbProxyObject
 90
      499
 91
      506
 95
       27
 70
     0
 93
      162
310
90000000000000C1008218801D0018801B0025004C
 94
        0
1001
ACAD
1000
AcRTDxfName
1000
SCALE
  0
ACAD_PROXY_OBJECT
  5
A61
102
{ACAD_REACTORS
330
A59
102
}
330
A59
100
AcDbProxyObject
 90
      499
 91
      506
 95
       27
 70
     0
 93
      162
310
90000000000000D1008218801D001900180025004C
 94
        0
1001
ACAD
1000
AcRTDxfName
1000
SCALE
  0
ACAD_PROXY_OBJECT
  5
A62
102
{ACAD_REACTORS
330
A59
102
}
330
A59
100
AcDbProxyObject
 90
      499
 91
      506
 95
       27
 70
     0
 93
      162
310
90000000000000F9008218801D001980180025004C
 94
        0
1001
ACAD
1000
AcRTDxfName
1000
SCALE
  0
ACAD_PROXY_OBJECT
  5
A63
102
{ACAD_REACTORS
330
A59
102
}
330
A59
100
AcDbProxyObject
 90
      499
 91
      506
 95
       27
 70
     0
 93
      162
310
9000000000000111008218801D001A00180025004C
 94
        0
1001
ACAD
1000
AcRTDxfName
1000
SCALE
  0
ACAD_PROXY_OBJECT
  5
A64
102
{ACAD_REACTORS
330
A59
102
}
330
A59
100
AcDbProxyObject
 90
      499
 91
      506
 95
       27
 70
     0
 93
      162
310
9000000000000125008218801D001A80180025004C
 94
        0
1001
ACAD
1000
AcRTDxfName
1000
SCALE
  0
ACAD_PROXY_OBJECT
  5
A65
102
{ACAD_REACTORS
330
A59
102
}
330
A59
100
AcDbProxyObject
 90
      499
 91
      506
 95
       27
 70
     0
 93
      178
310
9000000000000165008298801D001880180018002D004C
 94
        0
1001
ACAD
1000
AcRTDxfName
1000
SCALE
  0
ACAD_PROXY_OBJECT
  5
A66
102
{ACAD_REACTORS
330
A59
102
}
330
A59
100
AcDbProxyObject
 90
      499
 91
      506
 95
       27
 70
     0
 93
      146
310
8000000000000004048199001D0018801D004C
 94
        0
1001
ACAD
1000
AcRTDxfName
1000
SCALE
  0
ACAD_PROXY_OBJECT
  5
A67
102
{ACAD_REACTORS
330
A59
102
}
330
A59
100
AcDbProxyObject
 90
      499
 91
      506
 95
       27
 70
     0
 93
      146
310
800000000000010404819A001D0018801D004C
 94
        0
1001
ACAD
1000
AcRTDxfName
1000
SCALE
  0
ACAD_PROXY_OBJECT
  5
A68
102
{ACAD_REACTORS
330
A59
102
}
330
A59
100
AcDbProxyObject
 90
      499
 91
      506
 95
       27
 70
     0
 93
      146
310
800000000000020404819C001D0018801D004C
 94
        0
1001
ACAD
1000
AcRTDxfName
1000
SCALE
  0
ACAD_PROXY_OBJECT
  5
A69
102
{ACAD_REACTORS
330
A59
102
}
330
A59
100
AcDbProxyObject
 90
      499
 91
      506
 95
       27
 70
     0
 93
      162
310
80000000000002440482188018001D00188025004C
 94
        0
1001
ACAD
1000
AcRTDxfName
1000
SCALE
  0
ACAD_PROXY_OBJECT
  5
A6A
102
{ACAD_REACTORS
330
A59
102
}
330
A59
100
AcDbProxyObject
 90
      499
 91
      506
 95
       27
 70
     0
 93
      178
310
800000000000059404829880180018001D0018802D004C
 94
        0
1001
ACAD
1000
AcRTDxfName
1000
SCALE
  0
ACAD_PROXY_OBJECT
  5
A6B
102
{ACAD_REACTORS
330
A59
102
}
330
A59
100
AcDbProxyObject
 90
      499
 91
      506
 95
       27
 70
     0
 93
      386
310
8000000000000803F0000000000000A1008718801780188019001C00110010001E8010001880138016801800110075004C
 94
        0
1001
ACAD
1000
AcRTDxfName
1000
SCALE
  0
ACAD_PROXY_OBJECT
  5
A6C
102
{ACAD_REACTORS
330
A59
102
}
330
A59
100
AcDbProxyObject
 90
      499
 91
      506
 95
       27
 70
     0
 93
      370
310
8000000000000903F0000000000000A10086988017801B001A00110010001E801000188013801680180011006D004C
 94
        0
1001
ACAD
1000
AcRTDxfName
1000
SCALE
  0
ACAD_PROXY_OBJECT
  5
A6D
102
{ACAD_REACTORS
330
A59
102
}
330
A59
100
AcDbProxyObject
 90
      499
 91
      506
 95
       27
 70
     0
 93
      370
310
8000000000000A03F0000000000000A100869880178019801900110010001E801000188013801680180011006D004C
 94
        0
1001
ACAD
1000
AcRTDxfName
1000
SCALE
  0
ACAD_PROXY_OBJECT
  5
A6E
102
{ACAD_REACTORS
330
A59
102
}
330
A59
100
AcDbProxyObject
 90
      499
 91
      506
 95
       27
 70
     0
 93
      370
310
8000000000000B03F0000000000000A100869880178018801B00110010001E801000188013801680180011006D004C
 94
        0
1001
ACAD
1000
AcRTDxfName
1000
SCALE
  0
ACAD_PROXY_OBJECT
  5
A6F
102
{ACAD_REACTORS
330
A59
102
}
330
A59
100
AcDbProxyObject
 90
      499
 91
      506
 95
       27
 70
     0
 93
      370
310
8000000000000B83F0000000000000A100869980178019801900110010001E801000188013801680180011006D004C
 94
        0
1001
ACAD
1000
AcRTDxfName
1000
SCALE
  0
ACAD_PROXY_OBJECT
  5
A70
102
{ACAD_REACTORS
330
A59
102
}
330
A59
100
AcDbProxyObject
 90
      499
 91
      506
 95
       27
 70
     0
 93
      354
310
8000000000000C03F0000000000000A10086188017801C00110010001E8010001880138016801800110065004C
 94
        0
1001
ACAD
1000
AcRTDxfName
1000
SCALE
  0
ACAD_PROXY_OBJECT
  5
A71
102
{ACAD_REACTORS
330
A59
102
}
330
A59
100
AcDbProxyObject
 90
      499
 91
      506
 95
       27
 70
     0
 93
      370
310
8000000000000C83F0000000000000A100869980178018801B00110010001E801000188013801680180011006D004C
 94
        0
1001
ACAD
1000
AcRTDxfName
1000
SCALE
  0
ACAD_PROXY_OBJECT
  5
A72
102
{ACAD_REACTORS
330
A59
102
}
330
A59
100
AcDbProxyObject
 90
      499
 91
      506
 95
       27
 70
     0
 93
      354
310
8000000000000D03F0000000000000A10086188017801A00110010001E8010001880138016801800110065004C
 94
        0
1001
ACAD
1000
AcRTDxfName
1000
SCALE
  0
ACAD_PROXY_OBJECT
  5
A73
102
{ACAD_REACTORS
330
A59
102
}
330
A59
100
AcDbProxyObject
 90
      499
 91
      506
 95
       27
 70
     0
 93
      354
310
8000000000000D83F0000000000000A10086198017801C00110010001E8010001880138016801800110065004C
 94
        0
1001
ACAD
1000
AcRTDxfName
1000
SCALE
  0
ACAD_PROXY_OBJECT
  5
A74
102
{ACAD_REACTORS
330
A59
102
}
330
A59
100
AcDbProxyObject
 90
      499
 91
      506
 95
       27
 70
     0
 93
      354
310
8000000000000E03F0000000000000A10086188017801900110010001E8010001880138016801800110065004C
 94
        0
1001
ACAD
1000
AcRTDxfName
1000
SCALE
  0
ACAD_PROXY_OBJECT
  5
A75
102
{ACAD_REACTORS
330
A59
102
}
330
A59
100
AcDbProxyObject
 90
      499
 91
      506
 95
       27
 70
     0
 93
      354
310
8000000000000E83F0000000000000A10086198017801A00110010001E8010001880138016801800110065004C
 94
        0
1001
ACAD
1000
AcRTDxfName
1000
SCALE
  0
ACAD_PROXY_OBJECT
  5
A76
102
{ACAD_REACTORS
330
A59
102
}
330
A59
100
AcDbProxyObject
 90
      499
 91
      506
 95
       27
 70
     0
 93
      258
310
90000000000000A100851880110010001E8010001880138016801800110055004C
 94
        0
1001
ACAD
1000
AcRTDxfName
1000
SCALE
  0
ACAD_PROXY_OBJECT
  5
A77
102
{ACAD_REACTORS
330
A59
102
}
330
A59
100
AcDbProxyObject
 90
      499
 91
      506
 95
       27
 70
     0
 93
      386
310
8000000000000F83F0000000000000A1008718801680188017801900110010001E8010001880138016801800110075004C
 94
        0
1001
ACAD
1000
AcRTDxfName
1000
SCALE
  0
ACAD_PROXY_OBJECT
  5
A78
102
{ACAD_REACTORS
330
A59
102
}
330
A59
100
AcDbProxyObject
 90
      499
 91
      506
 95
       27
 70
     0
 93
      322
310
800000000000008400000000000000A100851980110010001E8010001880138016801800110055004C
 94
        0
1001
ACAD
1000
AcRTDxfName
1000
SCALE
  0
ACAD_PROXY_OBJECT
  5
A79
102
{ACAD_REACTORS
330
A59
102
}
330
A59
100
AcDbProxyObject
 90
      499
 91
      506
 95
       27
 70
     0
 93
      322
310
800000000000018400000000000000A100851B00110010001E8010001880138016801800110055004C
 94
        0
1001
ACAD
1000
AcRTDxfName
1000
SCALE
  0
ACAD_PROXY_OBJECT
  5
A7A
102
{ACAD_REACTORS
330
A59
102
}
330
A59
100
AcDbProxyObject
 90
      499
 91
      506
 95
       27
 70
     0
 93
      370
310
800000000000028400000000000000A100869880138016801800110010001E801000188013801680180011006D004C
 94
        0
1001
ACAD
1000
AcRTDxfName
1000
SCALE
  0
TABLESTYLE
  5
A58
102
{ACAD_XDICTIONARY
360
A7E
102
}
102
{ACAD_REACTORS
330
A57
102
}
330
A57
100
AcDbTableStyle
  3
Standard
 70
     0
 71
     0
 40
1.5
 41
1.5
280
     0
281
     0
  7
STANDARD
140
4.5
170
     2
 62
     0
 63
     7
283
     0
274
    -2
284
     1
 64
     0
275
    -2
285
     1
 65
     0
276
    -2
286
     1
 66
     0
277
    -2
287
     1
 67
     0
278
    -2
288
     1
 68
     0
279
    -2
289
     1
 69
     0
  7
STANDARD
140
6.0
170
     5
 62
     0
 63
     7
283
     0
274
    -2
284
     1
 64
     0
275
    -2
285
     1
 65
     0
276
    -2
286
     1
 66
     0
277
    -2
287
     1
 67
     0
278
    -2
288
     1
 68
     0
279
    -2
289
     1
 69
     0
  7
STANDARD
140
4.5
170
     5
 62
     0
 63
     7
283
     0
274
    -2
284
     1
 64
     0
275
    -2
285
     1
 65
     0
276
    -2
286
     1
 66
     0
277
    -2
287
     1
 67
     0
278
    -2
288
     1
 68
     0
279
    -2
289
     1
 69
     0
  0
VISUALSTYLE
  5
A4B
102
{ACAD_REACTORS
330
A45
102
}
330
A45
100
AcDbVisualStyle
  2
2dWireframe
 70
     4
 71
     0
 72
     2
 73
     0
 90
        0
 40
-0.6
 41
-30.0
 62
     5
 63
     7
 74
     1
 91
        4
 64
     7
 65
   257
 75
     1
175
     1
 42
1.0
 92
        0
 66
   257
 43
1.0
 76
     1
 77
     6
 78
     2
 67
     7
 79
     5
170
     0
171
     0
290
     0
174
     0
 93
        1
 44
0.0
173
     0
291
     0
 45
0.0
1001
ACAD
1000
AcDbSavedByObjectVersion
1070
     0
  0
VISUALSTYLE
  5
A4D
102
{ACAD_REACTORS
330
A45
102
}
330
A45
100
AcDbVisualStyle
  2
3D Hidden
 70
     6
 71
     1
 72
     2
 73
     2
 90
        0
 40
-0.6
 41
-30.0
 62
     5
 63
     7
 74
     2
 91
        2
 64
     7
 65
   257
 75
     2
175
     1
 42
40.0
 92
        0
 66
   257
 43
1.0
 76
     1
 77
     6
 78
     2
 67
     7
 79
     3
170
     0
171
     0
290
     0
174
     0
 93
        1
 44
0.0
173
     0
291
     0
 45
0.0
1001
ACAD
1000
AcDbSavedByObjectVersion
1070
     0
  0
VISUALSTYLE
  5
A4C
102
{ACAD_REACTORS
330
A45
102
}
330
A45
100
AcDbVisualStyle
  2
3dWireframe
 70
     5
 71
     0
 72
     2
 73
     0
 90
        0
 40
-0.6
 41
-30.0
 62
     5
 63
     7
 74
     1
 91
        4
 64
     7
 65
   257
 75
     1
175
     1
 42
1.0
 92
        0
 66
   257
 43
1.0
 76
     1
 77
     6
 78
     2
 67
     7
 79
     5
170
     0
171
     0
290
     0
174
     0
 93
        1
 44
0.0
173
     0
291
     0
 45
0.0
1001
ACAD
1000
AcDbSavedByObjectVersion
1070
     0
  0
VISUALSTYLE
  5
A4A
102
{ACAD_REACTORS
330
A45
102
}
330
A45
100
AcDbVisualStyle
  2
Basic
 70
     7
 71
     1
 72
     0
 73
     1
 90
        0
 40
-0.6
 41
-30.0
 62
     5
 63
     7
 74
     0
 91
        4
 64
     7
 65
   257
 75
     1
175
     1
 42
1.0
 92
        8
 66
     7
 43
1.0
 76
     1
 77
     6
 78
     2
 67
     7
 79
     5
170
     0
171
     0
290
     0
174
     0
 93
        1
 44
0.0
173
     0
291
     1
 45
0.0
1001
ACAD
1000
AcDbSavedByObjectVersion
1070
     0
  0
VISUALSTYLE
  5
A51
102
{ACAD_REACTORS
330
A45
102
}
330
A45
100
AcDbVisualStyle
  2
Brighten
 70
    12
 71
     2
 72
     2
 73
     0
 90
        0
 40
-0.6
 41
-30.0
 62
     5
 63
     7
 74
     1
 91
        4
 64
     7
 65
   257
 75
     1
175
     1
 42
1.0
 92
        8
 66
     7
 43
1.0
 76
     1
 77
     6
 78
     2
 67
     7
 79
     5
170
     0
171
     0
290
     0
174
     0
 93
        1
 44
50.0
173
     0
291
     1
 45
0.0
1001
ACAD
1000
AcDbSavedByObjectVersion
1070
     0
  0
VISUALSTYLE
  5
A55
102
{ACAD_REACTORS
330
A45
102
}
330
A45
100
AcDbVisualStyle
  2
ColorChange
 70
    16
 71
     2
 72
     2
 73
     3
 90
        0
 40
-0.6
 41
-30.0
 62
     5
 63
     8
 74
     1
 91
        4
 64
     7
 65
   257
 75
     1
175
     1
 42
1.0
 92
        8
 66
     8
 43
1.0
 76
     1
 77
     6
 78
     2
 67
     7
 79
     5
170
     0
171
     0
290
     0
174
     0
 93
        1
 44
0.0
173
     0
291
     1
 45
0.0
1001
ACAD
1000
AcDbSavedByObjectVersion
1070
     0
  0
VISUALSTYLE
  5
A4E
102
{ACAD_REACTORS
330
A45
102
}
330
A45
100
AcDbVisualStyle
  2
Conceptual
 70
     9
 71
     3
 72
     2
 73
     0
 90
        0
 40
-0.6
 41
-30.0
 62
     5
 63
     7
 74
     2
 91
        2
 64
     7
 65
   257
 75
     1
175
     1
 42
40.0
 92
        8
 66
     7
 43
1.0
 76
     1
 77
     6
 78
     2
 67
     7
 79
     3
170
     0
171
     0
290
     0
174
     0
 93
        1
 44
0.0
173
     0
291
     0
 45
0.0
1001
ACAD
1000
AcDbSavedByObjectVersion
1070
     0
  0
VISUALSTYLE
  5
A50
102
{ACAD_REACTORS
330
A45
102
}
330
A45
100
AcDbVisualStyle
  2
Dim
 70
    11
 71
     2
 72
     2
 73
     0
 90
        0
 40
-0.6
 41
-30.0
 62
     5
 63
     7
 74
     1
 91
        4
 64
     7
 65
   257
 75
     1
175
     1
 42
1.0
 92
        8
 66
     7
 43
1.0
 76
     1
 77
     6
 78
     2
 67
     7
 79
     5
170
     0
171
     0
290
     0
174
     0
 93
        1
 44
-50.0
173
     0
291
     1
 45
0.0
1001
ACAD
1000
AcDbSavedByObjectVersion
1070
     0
  0
VISUALSTYLE
  5
A54
102
{ACAD_REACTORS
330
A45
102
}
330
A45
100
AcDbVisualStyle
  2
Facepattern
 70
    15
 71
     2
 72
     2
 73
     0
 90
        0
 40
-0.6
 41
-30.0
 62
     5
 63
     7
 74
     1
 91
        4
 64
     7
 65
   257
 75
     1
175
     1
 42
1.0
 92
        8
 66
     7
 43
1.0
 76
     1
 77
     6
 78
     2
 67
     7
 79
     5
170
     0
171
     0
290
     0
174
     0
 93
        1
 44
0.0
173
     0
291
     1
 45
0.0
1001
ACAD
1000
AcDbSavedByObjectVersion
1070
     0
  0
VISUALSTYLE
  5
A46
102
{ACAD_REACTORS
330
A45
102
}
330
A45
100
AcDbVisualStyle
  2
Flat
 70
     0
 71
     2
 72
     1
 73
     1
 90
        2
 40
-0.6
 41
30.0
 62
     5
 63
     7
 74
     0
 91
        4
 64
     7
 65
   257
 75
     1
175
     1
 42
1.0
 92
        8
 66
     7
 43
1.0
 76
     1
 77
     6
 78
     2
 67
     7
 79
     5
170
     0
171
     0
290
     0
174
     0
 93
       13
 44
0.0
173
     0
291
     1
 45
0.0
1001
ACAD
1000
AcDbSavedByObjectVersion
1070
     0
  0
VISUALSTYLE
  5
A47
102
{ACAD_REACTORS
330
A45
102
}
330
A45
100
AcDbVisualStyle
  2
FlatWithEdges
 70
     1
 71
     2
 72
     1
 73
     1
 90
        2
 40
-0.6
 41
30.0
 62
     5
 63
     7
 74
     1
 91
        4
 64
     7
 65
   257
 75
     1
175
     1
 42
1.0
 92
        0
 66
   257
 43
1.0
 76
     1
 77
     6
 78
     2
 67
     7
 79
     5
170
     0
171
     0
290
     0
174
     0
 93
       13
 44
0.0
173
     0
291
     1
 45
0.0
1001
ACAD
1000
AcDbSavedByObjectVersion
1070
     0
  0
VISUALSTYLE
  5
A48
102
{ACAD_REACTORS
330
A45
102
}
330
A45
100
AcDbVisualStyle
  2
Gouraud
 70
     2
 71
     2
 72
     2
 73
     1
 90
        2
 40
-0.6
 41
30.0
 62
     5
 63
     7
 74
     0
 91
        4
 64
     7
 65
   257
 75
     1
175
     1
 42
1.0
 92
        0
 66
     7
 43
1.0
 76
     1
 77
     6
 78
     2
 67
     7
 79
     5
170
     0
171
     0
290
     0
174
     0
 93
       13
 44
0.0
173
     0
291
     1
 45
0.0
1001
ACAD
1000
AcDbSavedByObjectVersion
1070
     0
  0
VISUALSTYLE
  5
A49
102
{ACAD_REACTORS
330
A45
102
}
330
A45
100
AcDbVisualStyle
  2
GouraudWithEdges
 70
     3
 71
     2
 72
     2
 73
     1
 90
        2
 40
-0.6
 41
30.0
 62
     5
 63
     7
 74
     1
 91
        4
 64
     7
 65
   257
 75
     1
175
     1
 42
1.0
 92
        0
 66
   257
 43
1.0
 76
     1
 77
     6
 78
     2
 67
     7
 79
     5
170
     0
171
     0
290
     0
174
     0
 93
       13
 44
0.0
173
     0
291
     1
 45
0.0
1001
ACAD
1000
AcDbSavedByObjectVersion
1070
     0
  0
VISUALSTYLE
  5
A53
102
{ACAD_REACTORS
330
A45
102
}
330
A45
100
AcDbVisualStyle
  2
Linepattern
 70
    14
 71
     2
 72
     2
 73
     0
 90
        0
 40
-0.6
 41
-30.0
 62
     5
 63
     7
 74
     1
 91
        4
 64
     7
 65
   257
 75
     7
175
     7
 42
1.0
 92
        8
 66
     7
 43
1.0
 76
     1
 77
     6
 78
     2
 67
     7
 79
     5
170
     0
171
     0
290
     0
174
     0
 93
        1
 44
0.0
173
     0
291
     1
 45
0.0
1001
ACAD
1000
AcDbSavedByObjectVersion
1070
     0
  0
VISUALSTYLE
  5
A4F
102
{ACAD_REACTORS
330
A45
102
}
330
A45
100
AcDbVisualStyle
  2
Realistic
 70
     8
 71
     2
 72
     2
 73
     0
 90
        0
 40
-0.6
 41
-30.0
 62
     5
 63
     7
 74
     1
 91
        0
 64
     7
 65
   257
 75
     1
175
     1
 42
1.0
 92
        8
 66
     8
 43
1.0
 76
     1
 77
     6
 78
     2
 67
     7
 79
     5
170
     0
171
     0
290
     0
174
     0
 93
       13
 44
0.0
173
     0
291
     0
 45
0.0
1001
ACAD
1000
AcDbSavedByObjectVersion
1070
     0
  0
VISUALSTYLE
  5
A52
102
{ACAD_REACTORS
330
A45
102
}
330
A45
100
AcDbVisualStyle
  2
Thicken
 70
    13
 71
     2
 72
     2
 73
     0
 90
        0
 40
-0.6
 41
-30.0
 62
     5
 63
     7
 74
     1
 91
        4
 64
     7
 65
   257
 75
     1
175
     1
 42
1.0
 92
       12
 66
     7
 43
1.0
 76
     1
 77
     6
 78
     2
 67
     7
 79
     5
170
     0
171
     0
290
     0
174
     0
 93
        1
 44
0.0
173
     0
291
     1
 45
0.0
1001
ACAD
1000
AcDbSavedByObjectVersion
1070
     0
  0
DICTIONARYVAR
  5
A84
102
{ACAD_REACTORS
330
A81
102
}
330
A81
100
DictionaryVariables
280
     0
  1
1:1
  0
DICTIONARYVAR
  5
A83
102
{ACAD_REACTORS
330
A81
102
}
330
A81
100
DictionaryVariables
280
     0
  1
STANDARD
  0
DICTIONARYVAR
  5
A82
102
{ACAD_REACTORS
330
A81
102
}
330
A81
100
DictionaryVariables
280
     0
  1
STANDARD
  0
DICTIONARYVAR
  5
B63
102
{ACAD_REACTORS
330
A81
102
}
330
A81
100
DictionaryVariables
280
     0
  1
2
  0
DICTIONARYVAR
  5
B62
102
{ACAD_REACTORS
330
A81
102
}
330
A81
100
DictionaryVariables
280
     0
  1
1
  0
DICTIONARYVAR
  5
B61
102
{ACAD_REACTORS
330
A81
102
}
330
A81
100
DictionaryVariables
280
     0
  1
0
  0
DICTIONARYVAR
  5
B60
102
{ACAD_REACTORS
330
A81
102
}
330
A81
100
DictionaryVariables
280
     0
  1
127
  0
DICTIONARY
  5
AEE
102
{ACAD_REACTORS
330
AE3
102
}
330
AE3
100
AcDbDictionary
281
     1
  0
XRECORD
  5
B0D
102
{ACAD_REACTORS
330
AE3
102
}
330
AE3
100
AcDbXrecord
280
     1
 90
-1023410169
  0
DICTIONARY
  5
B67
330
A29
100
AcDbDictionary
280
     1
281
     1
  3
ACAD_XREC_ROUNDTRIP
360
B68
  0
DICTIONARY
  5
B65
330
A28
100
AcDbDictionary
280
     1
281
     1
  3
ACAD_XREC_ROUNDTRIP
360
B66
  0
DICTIONARY
  5
A36
330
A35
100
AcDbDictionary
280
     1
281
     1
  3
ACAD_XREC_ROUNDTRIP
360
B6A
  3
BUMPTILE
360
A38
  3
DIFFUSETILE
360
A37
  3
OPACITYTILE
360
A3B
  3
REFLECTIONTILE
360
A3A
  3
REFRACTIONTILE
360
A3C
  3
SPECULARTILE
360
A39
  0
DICTIONARY
  5
A2E
330
A2D
100
AcDbDictionary
280
     1
281
     1
  3
ACAD_XREC_ROUNDTRIP
360
B69
  3
BUMPTILE
360
A30
  3
DIFFUSETILE
360
A2F
  3
OPACITYTILE
360
A33
  3
REFLECTIONTILE
360
A32
  3
REFRACTIONTILE
360
A34
  3
SPECULARTILE
360
A31
  0
DICTIONARY
  5
A3E
330
A3D
100
AcDbDictionary
280
     1
281
     1
  3
ACAD_XREC_ROUNDTRIP
360
B6B
  3
BUMPTILE
360
A40
  3
DIFFUSETILE
360
A3F
  3
OPACITYTILE
360
A43
  3
REFLECTIONTILE
360
A42
  3
REFRACTIONTILE
360
A44
  3
SPECULARTILE
360
A41
  0
DICTIONARY
  5
A7E
330
A58
100
AcDbDictionary
280
     1
281
     1
  3
ACAD_ROUNDTRIP_2008_TABLESTYLE_CELLSTYLEMAP
360
A7F
  3
ACAD_XREC_ROUNDTRIP
360
B6C
  0
XRECORD
  5
B68
102
{ACAD_REACTORS
330
B67
102
}
330
B67
100
AcDbXrecord
280
     1
102
SHADEPLOT
 70
     0
102
SHADEPLOTRESLEVEL
 70
     2
102
SHADEPLOTCUSTOMDPI
 70
   300
  0
XRECORD
  5
B66
102
{ACAD_REACTORS
330
B65
102
}
330
B65
100
AcDbXrecord
280
     1
102
SHADEPLOT
 70
     0
102
SHADEPLOTRESLEVEL
 70
     2
102
SHADEPLOTCUSTOMDPI
 70
   300
  0
XRECORD
  5
B6A
102
{ACAD_REACTORS
330
A36
102
}
330
A36
100
AcDbXrecord
280
     1
102
MATERIAL
148
0.0
149
0.0
149
0.0
 93
        0
 94
      127
282
     0
 72
     0
 77
     0
171
     0
175
     0
179
     0
273
     0
  0
XRECORD
  5
A38
102
{ACAD_REACTORS
330
A36
102
}
330
A36
100
AcDbXrecord
280
     1
270
     1
271
     1
  0
XRECORD
  5
A37
102
{ACAD_REACTORS
330
A36
102
}
330
A36
100
AcDbXrecord
280
     1
270
     1
271
     1
  0
XRECORD
  5
A3B
102
{ACAD_REACTORS
330
A36
102
}
330
A36
100
AcDbXrecord
280
     1
270
     1
271
     1
  0
XRECORD
  5
A3A
102
{ACAD_REACTORS
330
A36
102
}
330
A36
100
AcDbXrecord
280
     1
270
     1
271
     1
  0
XRECORD
  5
A3C
102
{ACAD_REACTORS
330
A36
102
}
330
A36
100
AcDbXrecord
280
     1
270
     1
271
     1
  0
XRECORD
  5
A39
102
{ACAD_REACTORS
330
A36
102
}
330
A36
100
AcDbXrecord
280
     1
270
     1
271
     1
  0
XRECORD
  5
B69
102
{ACAD_REACTORS
330
A2E
102
}
330
A2E
100
AcDbXrecord
280
     1
102
MATERIAL
148
0.0
149
0.0
149
0.0
 93
        0
 94
      127
282
     0
 72
     0
 77
     0
171
     0
175
     0
179
     0
273
     0
  0
XRECORD
  5
A30
102
{ACAD_REACTORS
330
A2E
102
}
330
A2E
100
AcDbXrecord
280
     1
270
     1
271
     1
  0
XRECORD
  5
A2F
102
{ACAD_REACTORS
330
A2E
102
}
330
A2E
100
AcDbXrecord
280
     1
270
     1
271
     1
  0
XRECORD
  5
A33
102
{ACAD_REACTORS
330
A2E
102
}
330
A2E
100
AcDbXrecord
280
     1
270
     1
271
     1
  0
XRECORD
  5
A32
102
{ACAD_REACTORS
330
A2E
102
}
330
A2E
100
AcDbXrecord
280
     1
270
     1
271
     1
  0
XRECORD
  5
A34
102
{ACAD_REACTORS
330
A2E
102
}
330
A2E
100
AcDbXrecord
280
     1
270
     1
271
     1
  0
XRECORD
  5
A31
102
{ACAD_REACTORS
330
A2E
102
}
330
A2E
100
AcDbXrecord
280
     1
270
     1
271
     1
  0
XRECORD
  5
B6B
102
{ACAD_REACTORS
330
A3E
102
}
330
A3E
100
AcDbXrecord
280
     1
102
MATERIAL
148
0.0
149
0.0
149
0.0
 93
        0
 94
      127
282
     0
 72
     0
 77
     0
171
     0
175
     0
179
     0
273
     0
  0
XRECORD
  5
A40
102
{ACAD_REACTORS
330
A3E
102
}
330
A3E
100
AcDbXrecord
280
     1
270
     1
271
     1
  0
XRECORD
  5
A3F
102
{ACAD_REACTORS
330
A3E
102
}
330
A3E
100
AcDbXrecord
280
     1
270
     1
271
     1
  0
XRECORD
  5
A43
102
{ACAD_REACTORS
330
A3E
102
}
330
A3E
100
AcDbXrecord
280
     1
270
     1
271
     1
  0
XRECORD
  5
A42
102
{ACAD_REACTORS
330
A3E
102
}
330
A3E
100
AcDbXrecord
280
     1
270
     1
271
     1
  0
XRECORD
  5
A44
102
{ACAD_REACTORS
330
A3E
102
}
330
A3E
100
AcDbXrecord
280
     1
270
     1
271
     1
  0
XRECORD
  5
A41
102
{ACAD_REACTORS
330
A3E
102
}
330
A3E
100
AcDbXrecord
280
     1
270
     1
271
     1
  0
ACAD_PROXY_OBJECT
  5
A7F
102
{ACAD_REACTORS
330
A7E
102
}
330
A7E
100
AcDbProxyObject
 90
      499
 91
      508
 95
       27
 70
     0
 93
     5441
310
40D054060020000020000003200101A0000800029416000000304000000000000001840404000000000000F83F0000000000003E0FC000000000000F83F0000000000003E0FC0000000000001240000000000000049010640640600000030400FEFFFFFF8000000000000F23F40A40600000030400FEFFFFFF800000000000
310
0F23F41240600000030400FEFFFFFF8000000000000F23F42240600000030400FEFFFFFF8000000000000F23F44240600000030400FEFFFFFF8000000000000F23F48240600000030400FEFFFFFF8000000000000F23F4050141501A8000000C800406800020000A5058000000C10000000000000004901010000000000003
310
E0FC000000000000F83F0000000000003E0FC000000000000F83F000000000000049000000000000001240419019018000000C1003FBFFFFFE0000000000003C8FD029018000000C1003FBFFFFFE0000000000003C8FD049018000000C1003FBFFFFFE0000000000003C8FD089018000000C1003FBFFFFFE0000000000003C
310
8FD109018000000C1003FBFFFFFE0000000000003C8FD209018000000C1003FBFFFFFE0000000000003C8FD0240505406A0000003200101A000080002940A000000304000000000000001240404000000000000F83F0000000000003E0FC000000000000F83F0000000000003E0FC000000000000124000000000000004901
310
0640640600000030400FEFFFFFF8000000000000F23F40A40600000030400FEFFFFFF8000000000000F23F41240600000030400FEFFFFFF8000000000000F23F42240600000030400FEFFFFFF8000000000000F23F44240600000030400FEFFFFFF8000000000000F23F48240600000030400FEFFFFFF8000000000000F23F
310
40D029065F005400490054004C0045009075F004800450041004400450052009055F0044004100540041004401CC
340
11
340
0
340
0
340
0
340
0
340
0
340
0
340
11
340
0
340
0
340
0
340
0
340
0
340
0
340
11
340
0
340
0
340
0
340
0
340
0
340
0
 94
        0
1001
ACAD
1000
AcRTDxfName
1000
CELLSTYLEMAP
  0
XRECORD
  5
B6C
102
{ACAD_REACTORS
330
A7E
102
}
330
A7E
100
AcDbXrecord
280
     1
102
ACAD_ROUNDTRIP_PRE2007_TABLESTYLE
 90
      512
 91
        0
  1

 92
      512
 93
        0
  2

 94
      512
 95
        0
  3

  0
ENDSEC
  0
EOF
