  0
SECTION
  2
HEADER
  9
$ACADVER
  1
AC1015
  9
$ACADMAINTVER
 70
    20
  9
$DWGCODEPAGE
  3
ANSI_936
  9
$INSBASE
 10
0.0
 20
0.0
 30
0.0
  9
$EXTMIN
 10
-2046.234056742059
 20
-1116.15910447506
 30
-0.0000000349181948
  9
$EXTMAX
 10
-545.9854544244554
 20
-649.9331549411995
 30
0.0000000814935746
  9
$LIMMIN
 10
0.0
 20
0.0
  9
$LIMMAX
 10
863.6000000000001
 20
558.8
  9
$ORTHOMODE
 70
     0
  9
$REGENMODE
 70
     1
  9
$FILLMODE
 70
     1
  9
$QTEXTMODE
 70
     0
  9
$MIRRTEXT
 70
     0
  9
$LTSCALE
 40
47.498
  9
$ATTMODE
 70
     1
  9
$TEXTSIZE
 40
0.2
  9
$TRACEWID
 40
0.05
  9
$TEXTSTYLE
  7
STANDARD
  9
$CLAYER
  8
0
  9
$CELTYPE
  6
BYLAYER
  9
$CECOLOR
 62
   256
  9
$CELTSCALE
 40
1.0
  9
$DISPSILH
 70
     0
  9
$DIMSCALE
 40
1.0
  9
$DIMASZ
 40
4.7625
  9
$DIMEXO
 40
5.397499999999999
  9
$DIMDLI
 40
32.8168
  9
$DIMRND
 40
0.0
  9
$DIMDLE
 40
0.0
  9
$DIMEXE
 40
15.5448
  9
$DIMTP
 40
0.0
  9
$DIMTM
 40
0.0
  9
$DIMTXT
 40
3.96875
  9
$DIMCEN
 40
7.7724
  9
$DIMTSZ
 40
0.0
  9
$DIMTOL
 70
     1
  9
$DIMLIM
 70
     0
  9
$DIMTIH
 70
     1
  9
$DIMTOH
 70
     1
  9
$DIMSE1
 70
     0
  9
$DIMSE2
 70
     0
  9
$DIMTAD
 70
     0
  9
$DIMZIN
 70
     0
  9
$DIMBLK
  1

  9
$DIMASO
 70
     1
  9
$DIMSHO
 70
     1
  9
$DIMPOST
  1

  9
$DIMAPOST
  1

  9
$DIMALT
 70
     0
  9
$DIMALTD
 70
     2
  9
$DIMALTF
 40
25.4
  9
$DIMLFAC
 40
1.0
  9
$DIMTOFL
 70
     0
  9
$DIMTVP
 40
0.0
  9
$DIMTIX
 70
     0
  9
$DIMSOXD
 70
     0
  9
$DIMSAH
 70
     0
  9
$DIMBLK1
  1

  9
$DIMBLK2
  1

  9
$DIMSTYLE
  2
STANDARD
  9
$DIMCLRD
 70
     0
  9
$DIMCLRE
 70
     0
  9
$DIMCLRT
 70
     0
  9
$DIMTFAC
 40
1.0
  9
$DIMGAP
 40
0.09
  9
$DIMJUST
 70
     0
  9
$DIMSD1
 70
     0
  9
$DIMSD2
 70
     0
  9
$DIMTOLJ
 70
     1
  9
$DIMTZIN
 70
     0
  9
$DIMALTZ
 70
     0
  9
$DIMALTTZ
 70
     0
  9
$DIMUPT
 70
     0
  9
$DIMDEC
 70
     4
  9
$DIMTDEC
 70
     4
  9
$DIMALTU
 70
     2
  9
$DIMALTTD
 70
     2
  9
$DIMTXSTY
  7
STANDARD
  9
$DIMAUNIT
 70
     0
  9
$DIMADEC
 70
     0
  9
$DIMALTRND
 40
0.0
  9
$DIMAZIN
 70
     0
  9
$DIMDSEP
 70
    46
  9
$DIMATFIT
 70
     3
  9
$DIMFRAC
 70
     0
  9
$DIMLDRBLK
  1

  9
$DIMLUNIT
 70
     2
  9
$DIMLWD
 70
    -2
  9
$DIMLWE
 70
    -2
  9
$DIMTMOVE
 70
     0
  9
$LUNITS
 70
     2
  9
$LUPREC
 70
     2
  9
$SKETCHINC
 40
0.1
  9
$FILLETRAD
 40
0.0
  9
$AUNITS
 70
     0
  9
$AUPREC
 70
     0
  9
$MENU
  1
.
  9
$ELEVATION
 40
0.0
  9
$PELEVATION
 40
0.0
  9
$THICKNESS
 40
0.0
  9
$LIMCHECK
 70
     0
  9
$CHAMFERA
 40
0.0
  9
$CHAMFERB
 40
0.0
  9
$CHAMFERC
 40
0.0
  9
$CHAMFERD
 40
0.0
  9
$SKPOLY
 70
     0
  9
$TDCREATE
 40
2455695.431765660
  9
$TDUCREATE
 40
2455695.098432326
  9
$TDUPDATE
 40
2455695.432300035
  9
$TDUUPDATE
 40
2455695.098966701
  9
$TDINDWG
 40
0.0005352662
  9
$TDUSRTIMER
 40
0.0005350926
  9
$USRTIMER
 70
     1
  9
$ANGBASE
 50
0.0
  9
$ANGDIR
 70
     0
  9
$PDMODE
 70
     3
  9
$PDSIZE
 40
7.9375
  9
$PLINEWID
 40
0.0
  9
$SPLFRAME
 70
     0
  9
$SPLINETYPE
 70
     6
  9
$SPLINESEGS
 70
     8
  9
$HANDSEED
  5
B5A
  9
$SURFTAB1
 70
     6
  9
$SURFTAB2
 70
     6
  9
$SURFTYPE
 70
     6
  9
$SURFU
 70
     6
  9
$SURFV
 70
     6
  9
$UCSBASE
  2

  9
$UCSNAME
  2

  9
$UCSORG
 10
0.0
 20
0.0
 30
0.0
  9
$UCSXDIR
 10
1.0
 20
0.0
 30
0.0
  9
$UCSYDIR
 10
0.0
 20
1.0
 30
0.0
  9
$UCSORTHOREF
  2

  9
$UCSORTHOVIEW
 70
     0
  9
$UCSORGTOP
 10
0.0
 20
0.0
 30
0.0
  9
$UCSORGBOTTOM
 10
0.0
 20
0.0
 30
0.0
  9
$UCSORGLEFT
 10
0.0
 20
0.0
 30
0.0
  9
$UCSORGRIGHT
 10
0.0
 20
0.0
 30
0.0
  9
$UCSORGFRONT
 10
0.0
 20
0.0
 30
0.0
  9
$UCSORGBACK
 10
0.0
 20
0.0
 30
0.0
  9
$PUCSBASE
  2

  9
$PUCSNAME
  2

  9
$PUCSORG
 10
0.0
 20
0.0
 30
0.0
  9
$PUCSXDIR
 10
1.0
 20
0.0
 30
0.0
  9
$PUCSYDIR
 10
0.0
 20
1.0
 30
0.0
  9
$PUCSORTHOREF
  2

  9
$PUCSORTHOVIEW
 70
     0
  9
$PUCSORGTOP
 10
0.0
 20
0.0
 30
0.0
  9
$PUCSORGBOTTOM
 10
0.0
 20
0.0
 30
0.0
  9
$PUCSORGLEFT
 10
0.0
 20
0.0
 30
0.0
  9
$PUCSORGRIGHT
 10
0.0
 20
0.0
 30
0.0
  9
$PUCSORGFRONT
 10
0.0
 20
0.0
 30
0.0
  9
$PUCSORGBACK
 10
0.0
 20
0.0
 30
0.0
  9
$USERI1
 70
     0
  9
$USERI2
 70
     0
  9
$USERI3
 70
     0
  9
$USERI4
 70
     0
  9
$USERI5
 70
     0
  9
$USERR1
 40
0.0
  9
$USERR2
 40
0.0
  9
$USERR3
 40
0.0
  9
$USERR4
 40
0.0
  9
$USERR5
 40
0.0
  9
$WORLDVIEW
 70
     1
  9
$SHADEDGE
 70
     3
  9
$SHADEDIF
 70
    70
  9
$TILEMODE
 70
     1
  9
$MAXACTVP
 70
    64
  9
$PINSBASE
 10
0.0
 20
0.0
 30
0.0
  9
$PLIMCHECK
 70
     0
  9
$PEXTMIN
 10
1.000000000000000E+20
 20
1.000000000000000E+20
 30
1.000000000000000E+20
  9
$PEXTMAX
 10
-1.000000000000000E+20
 20
-1.000000000000000E+20
 30
-1.000000000000000E+20
  9
$PLIMMIN
 10
0.0
 20
0.0
  9
$PLIMMAX
 10
12.0
 20
9.0
  9
$UNITMODE
 70
     0
  9
$VISRETAIN
 70
     1
  9
$PLINEGEN
 70
     0
  9
$PSLTSCALE
 70
     1
  9
$TREEDEPTH
 70
  3020
  9
$CMLSTYLE
  2
Standard
  9
$CMLJUST
 70
     0
  9
$CMLSCALE
 40
1.0
  9
$PROXYGRAPHICS
 70
     1
  9
$MEASUREMENT
 70
     1
  9
$CELWEIGHT
370
    -1
  9
$ENDCAPS
280
     0
  9
$JOINSTYLE
280
     0
  9
$LWDISPLAY
290
     0
  9
$INSUNITS
 70
     4
  9
$HYPERLINKBASE
  1

  9
$STYLESHEET
  1

  9
$XEDIT
290
     1
  9
$CEPSNTYPE
380
     0
  9
$PSTYLEMODE
290
     1
  9
$FINGERPRINTGUID
  2
{8581EF80-D664-4BEF-A53D-5016F72DA7BB}
  9
$VERSIONGUID
  2
{7D7B9CE8-790B-46EF-8733-C08080EF5E89}
  9
$EXTNAMES
290
     1
  9
$PSVPSCALE
 40
0.0
  9
$OLESTARTUP
290
     0
  0
ENDSEC
  0
SECTION
  2
CLASSES
  0
CLASS
  1
ACDBDICTIONARYWDFLT
  2
AcDbDictionaryWithDefault
  3
ObjectDBX Classes
 90
        0
280
     0
281
     0
  0
CLASS
  1
ACDBPLACEHOLDER
  2
AcDbPlaceHolder
  3
ObjectDBX Classes
 90
        0
280
     0
281
     0
  0
CLASS
  1
LAYOUT
  2
AcDbLayout
  3
ObjectDBX Classes
 90
        0
280
     0
281
     0
  0
CLASS
  1
MATERIAL
  2
AcDbMaterial
  3
ObjectDBX Classes
 90
     1024
280
     0
281
     0
  0
CLASS
  1
VISUALSTYLE
  2
AcDbVisualStyle
  3
ObjectDBX Classes
 90
     4095
280
     0
281
     0
  0
CLASS
  1
TABLESTYLE
  2
AcDbTableStyle
  3
ObjectDBX Classes
 90
     4095
280
     0
281
     0
  0
CLASS
  1
SCALE
  2
AcDbScale
  3
ObjectDBX Classes
 90
     1153
280
     0
281
     0
  0
CLASS
  1
MLEADERSTYLE
  2
AcDbMLeaderStyle
  3
ACDB_MLEADERSTYLE_CLASS
 90
     4095
280
     0
281
     0
  0
CLASS
  1
CELLSTYLEMAP
  2
AcDbCellStyleMap
  3
ObjectDBX Classes
 90
     1152
280
     0
281
     0
  0
CLASS
  1
DICTIONARYVAR
  2
AcDbDictionaryVar
  3
ObjectDBX Classes
 90
        0
280
     0
281
     0
  0
CLASS
  1
ACME_DOCUMENT
  2
AcMeDbDoc
  3
AcMeServices
 90
        0
280
     0
281
     0
  0
CLASS
  1
ACMESCOPE
  2
AcMeScope
  3
AcMeServices
 90
        0
280
     0
281
     0
  0
CLASS
  1
ACMECOMMANDHISTORY
  2
AcMeCommandHistory
  3
AcMeServices
 90
        0
280
     0
281
     0
  0
CLASS
  1
ACIMSYSVARMAN
  2
AcImSysVarManager
  3
AcMeServices
 90
        0
280
     0
281
     0
  0
CLASS
  1
ACIMINTSYSVAR
  2
AcImIntSysVar
  3
AcMeServices
 90
        0
280
     0
281
     0
  0
CLASS
  1
ACMEDRAWINGMAN
  2
AcMeDrawingMan
  3
AcMeServices
 90
        0
280
     0
281
     0
  0
CLASS
  1
ACMEVIEW
  2
AcMeView
  3
AcMeServices
 90
        0
280
     0
281
     0
  0
CLASS
  1
ACDBENTITYCACHE
  2
AcMeEntityCache
  3
AcMeServices
 90
        0
280
     0
281
     0
  0
CLASS
  1
GSMANAGER
  2
AcMeGSManager
  3
AcMeServices
 90
        0
280
     0
281
     0
  0
CLASS
  1
AMDTINTERNALREACTOR
  2
AmdtInternalReactor
  3
AcMeServices
 90
        0
280
     0
281
     0
  0
CLASS
  1
ACMESTATEMGR
  2
AcMeStateMgr
  3
AcMeServices
 90
        0
280
     0
281
     0
  0
CLASS
  1
ACGREFMASTER
  2
AcGrefMaster
  3
AcAttribServices
 90
        0
280
     0
281
     0
  0
CLASS
  1
AM_DRAWING_MGR
  2
AcDmDwgMgr
  3
AcMechDwgViewMgmt
 90
        0
280
     0
281
     0
  0
CLASS
  1
AM_DWG_DOCUMENT
  2
AcDmDwgDocument
  3
AcMechDwgViewMgmt
 90
        0
280
     0
281
     0
  0
CLASS
  1
AM_DWG_SHEET
  2
AcDmSheet
  3
AcMechDwgViewMgmt
 90
        0
280
     0
281
     0
  0
CLASS
  1
AM_VIEWDIMPARMAP
  2
AcDmViewDimParMap
  3
AcMechDwgViewMgmt
 90
        0
280
     0
281
     0
  0
CLASS
  1
ACIMREALSYSVAR
  2
AcImRealSysVar
  3
AcMeServices
 90
        0
280
     0
281
     0
  0
CLASS
  1
AM_DWGMGR_NAME
  2
AcDmDwgMgrName
  3
AcMechDwgViewMgmt
 90
        0
280
     0
281
     0
  0
CLASS
  1
ACME_DATABASE
  2
AcMeDbDatabase
  3
AcMeServices
 90
        0
280
     0
281
     0
  0
CLASS
  1
ACRFINSADJUSTERMGR
  2
AcRfInsAdjusterMgr
  3
AcMeServices
 90
        0
280
     0
281
     0
  0
CLASS
  1
ACGREFACADMASTER
  2
AcGrefacadMaster
  3
AcGrefServices
 90
        0
280
     0
281
     0
  0
CLASS
  1
AMDTMENUSTATEMGR
  2
AmdtMenuStateMgr
  3
McadcomServices
 90
        0
280
     0
281
     0
  0
CLASS
  1
AMDTMCOMMENUSTATE
  2
AmdtMcomMenuState
  3
McadcomServices
 90
        0
280
     0
281
     0
  0
CLASS
  1
AMIMASTER
  2
AmiMaster
  3
AmiServices
 90
        0
280
     0
281
     0
  0
CLASS
  1
AMGSETTINGSOBJ
  2
AmgSettingsObj
  3
"AcadM|Product Description: AutoCAD Mechanical|Company: Autodesk"
 90
        0
280
     0
281
     0
  0
CLASS
  1
MAPIAMMOUDLE
  2
MApiAmModule
  3
MApiAmServices
 90
        0
280
     0
281
     0
  0
CLASS
  1
ACIMSTRSYSVAR
  2
AcImStrSysVar
  3
AcMeServices
 90
        0
280
     0
281
     0
  0
CLASS
  1
AMDTADMENUSTATE
  2
AmdtAdMenuState
  3
DesignerServices
 90
        0
280
     0
281
     0
  0
CLASS
  1
ADAPPL
  2
AcAdAppl
  3
DesignerServices
 90
        0
280
     0
281
     0
  0
CLASS
  1
DEPMGR
  2
AcAdDepMgr
  3
DesignerServices
 90
        0
280
     0
281
     0
  0
CLASS
  1
PARAMMGR
  2
AcAdParamMgr
  3
DesignerServices
 90
        0
280
     0
281
     0
  0
CLASS
  1
PARAMSCOPE
  2
AcAdParamScope
  3
DesignerServices
 90
        0
280
     0
281
     0
  0
CLASS
  1
NAMEDAPPL
  2
AcAdNamedAppl
  3
DesignerServices
 90
        0
280
     0
281
     0
  0
CLASS
  1
AMDTDMMENUSTATE
  2
AmdtDmMenuState
  3
AcMechDwgViewMgmt
 90
        0
280
     0
281
     0
  0
CLASS
  1
AMDTAMMENUSTATE
  2
AmdtAmMenuState
  3
DesignerAssemblies
 90
        0
280
     0
281
     0
  0
CLASS
  1
ACAMPROJECT
  2
AcAmProject
  3
DesignerAssemblies
 90
        0
280
     0
281
     0
  0
CLASS
  1
ACAMGRCOMPDEF
  2
AcAmGrCompDef
  3
DesignerAssemblies
 90
        0
280
     0
281
     0
  0
CLASS
  1
ACCMCONTEXT
  2
AcCmContext
  3
DesignerAssemblies
 90
        0
280
     0
281
     0
  0
CLASS
  1
ACAMCOMPDEF
  2
AcAmCompDef
  3
DesignerAssemblies
 90
        0
280
     0
281
     0
  0
CLASS
  1
ACAMCOMPDEFMGR
  2
AcAmCompDefMgr
  3
DesignerAssemblies
 90
        0
280
     0
281
     0
  0
CLASS
  1
AMCONTEXTMGR
  2
AcAmContextMgr
  3
DesignerAssemblies
 90
        0
280
     0
281
     0
  0
CLASS
  1
ACAMCONTEXTMODELER
  2
AcAmContextModeler
  3
DesignerAssemblies
 90
        0
280
     0
281
     0
  0
CLASS
  1
ACMDATADICTIONARY
  2
AcmDataDictionary
  3
"AcmSymBB|Product Description: AutoCAD Mechanical|Company: Autodesk"
 90
        0
280
     0
281
     0
  0
CLASS
  1
CATALOGSTATE
  2
AcAmCatalogState
  3
DesignerAssemblies
 90
        0
280
     0
281
     0
  0
CLASS
  1
ACAMGRCOMPDEFSET
  2
AcAmGrCompDefSet
  3
DesignerAssemblies
 90
        0
280
     0
281
     0
  0
CLASS
  1
AMDTBROWSERDBTAB
  2
AmdtBrowserDbTab
  3
McadcomServices
 90
        0
280
     0
281
     0
  0
CLASS
  1
CBROWSERAPPOBJECT
  2
CBrowserAppObject
  3
McadcomServices
 90
        0
280
     0
281
     0
  0
CLASS
  1
DM_PLACEHOLDER
  2
AcDmSelsetPlaceholder
  3
AcMechDwgViewMgmt
 90
        0
280
     0
281
     0
  0
CLASS
  1
ACMSTANDARDISO
  2
AcmStandardISO
  3
"Amdt_StdImp|Product Description: AutoCAD Mechanical|Company: Autodesk"
 90
        0
280
     0
281
     0
  0
CLASS
  1
AMGOBJPROPCFG
  2
AmgObjPropCfg
  3
"AmgLay|Product Description: AutoCAD Mechanical|Company: Autodesk"
 90
        1
280
     0
281
     0
  0
CLASS
  1
AMDTEDGESTANDARDISO13715
  2
AmdtEdgeStdISO13715
  3
"Amdt_StdImp|Product Description: AutoCAD Mechanical|Company: Autodesk"
 90
        0
280
     0
281
     0
  0
CLASS
  1
ACMSURFSTANDARDISO
  2
AcmSurfTextStdISO
  3
"Amdt_StdImp|Product Description: AutoCAD Mechanical|Company: Autodesk"
 90
        0
280
     0
281
     0
  0
CLASS
  1
ACMFCFSTANDARDISO
  2
AcmFCFStdISO
  3
"Amdt_StdImp|Product Description: AutoCAD Mechanical|Company: Autodesk"
 90
        0
280
     0
281
     0
  0
CLASS
  1
ACMWELDSTANDARDISO
  2
AcmWeldingStdISO
  3
"Amdt_StdImp|Product Description: AutoCAD Mechanical|Company: Autodesk"
 90
        0
280
     0
281
     0
  0
CLASS
  1
ACMIDSTANDARDISO
  2
AcmIdStdISO
  3
"Amdt_StdImp|Product Description: AutoCAD Mechanical|Company: Autodesk"
 90
        0
280
     0
281
     0
  0
CLASS
  1
ACMDATUMSTANDARDISO
  2
AcmDatumStdISO
  3
"Amdt_StdImp|Product Description: AutoCAD Mechanical|Company: Autodesk"
 90
        0
280
     0
281
     0
  0
CLASS
  1
ACMBOMSTANDARDISO
  2
AcmBOMStdISO
  3
"Amdt_StdImp|Product Description: AutoCAD Mechanical|Company: Autodesk"
 90
        0
280
     0
281
     0
  0
CLASS
  1
ACMDETAILSTANDARDISO
  2
AmdtDetailSymStdISO
  3
"Amdt_StdImp|Product Description: AutoCAD Mechanical|Company: Autodesk"
 90
        0
280
     0
281
     0
  0
CLASS
  1
ACMSECTIONSTANDARDISO
  2
AmdtSectionSymStdISO
  3
"Amdt_StdImp|Product Description: AutoCAD Mechanical|Company: Autodesk"
 90
        0
280
     0
281
     0
  0
CLASS
  1
ACMCENTERLINESTANDARDISO
  2
AmdtCenterLineStdISO
  3
"Amdt_StdImp|Product Description: AutoCAD Mechanical|Company: Autodesk"
 90
        0
280
     0
281
     0
  0
CLASS
  1
ACMTHREADLINESTANDARDISO
  2
AmdtThreadLineStdISO
  3
"Amdt_StdImp|Product Description: AutoCAD Mechanical|Company: Autodesk"
 90
        0
280
     0
281
     0
  0
CLASS
  1
ACMNOTESTANDARDISO
  2
AmdtNoteStdISO
  3
"Amdt_StdImp|Product Description: AutoCAD Mechanical|Company: Autodesk"
 90
        0
280
     0
281
     0
  0
CLASS
  1
ACMTAPERSTANDARDISO
  2
AcmTaperStdISO
  3
"Amdt_StdImp|Product Description: AutoCAD Mechanical|Company: Autodesk"
 90
        0
280
     0
281
     0
  0
CLASS
  1
AMDTNOTETEMPLATEDB
  2
AmdtNoteTemplateDB
  3
AMDT_STDIMP_MODULE_NAME
 90
        0
280
     0
281
     0
  0
CLASS
  1
ACAMGLAYSTD
  2
AcAmgLayStd
  3
"AmgLay|Product Description: AutoCAD Mechanical|Company: Autodesk"
 90
        0
280
     0
281
     0
  0
CLASS
  1
ACAMGDIMSTD
  2
AcAmgDimStd
  3
"AmgDim|Product Description: AutoCAD Mechanical|Company: Autodesk"
 90
        0
280
     0
281
     0
  0
CLASS
  1
ACAMGHOLECHARTSTDISO
  2
AcAmgHoleChartStdISO
  3
ACMSYMBB_MODULE_NAME
 90
        0
280
     0
281
     0
  0
CLASS
  1
ACAMGTITLESTD
  2
AcAmgTitleStd
  3
"AmgTitle|Product Description: AutoCAD Mechanical|Company: Autodesk"
 90
        0
280
     0
281
     0
  0
CLASS
  1
ACAMGFILTERDAT
  2
AcAmgFilterDat
  3
"AcadM|Product Description: AutoCAD Mechanical|Company: Autodesk"
 90
        0
280
     0
281
     0
  0
CLASS
  1
CAMSSTRUCTBTNSTATE
  2
StructBtnState
  3
L"DesignerAssemblies"
 90
        0
280
     0
281
     0
  0
ENDSEC
  0
SECTION
  2
TABLES
  0
TABLE
  2
VPORT
  5
8
330
0
100
AcDbSymbolTable
 70
     1
  0
VPORT
  5
1F4
330
8
100
AcDbSymbolTableRecord
100
AcDbViewportTableRecord
  2
*ACTIVE
 70
     0
 10
0.0
 20
0.0
 11
1.0
 21
1.0
 12
-1296.109755583257
 22
-883.0461297081297
 13
0.0
 23
0.0
 14
1.0
 24
1.0
 15
0.0
 25
0.0
 16
0.0
 26
0.0
 36
1.0
 17
0.0
 27
0.0
 37
0.0
 40
1137.525738640635
 41
1.329690346083788
 42
50.0
 43
0.0
 44
0.0
 50
0.0
 51
0.0
 71
     0
 72
   100
 73
     1
 74
     1
 75
     0
 76
     0
 77
     0
 78
     0
281
     0
 65
     0
110
0.0
120
0.0
130
0.0
111
1.0
121
0.0
131
0.0
112
0.0
122
1.0
132
0.0
 79
     0
146
0.0
  0
ENDTAB
  0
TABLE
  2
LTYPE
  5
5
330
0
100
AcDbSymbolTable
 70
    17
  0
LTYPE
  5
14
330
5
100
AcDbSymbolTableRecord
100
AcDbLinetypeTableRecord
  2
BYBLOCK
 70
     0
  3

 72
    65
 73
     0
 40
0.0
  0
LTYPE
  5
15
330
5
100
AcDbSymbolTableRecord
100
AcDbLinetypeTableRecord
  2
BYLAYER
 70
     0
  3

 72
    65
 73
     0
 40
0.0
  0
LTYPE
  5
16
330
5
100
AcDbSymbolTableRecord
100
AcDbLinetypeTableRecord
  2
CONTINUOUS
 70
     0
  3
Solid line
 72
    65
 73
     0
 40
0.0
  0
LTYPE
  5
1F5
330
5
100
AcDbSymbolTableRecord
100
AcDbLinetypeTableRecord
  2
CENTER
 70
     0
  3
____ _ ____ _ ____ _ ____ _ ____ _ ____ _ ____
 72
    65
 73
     4
 40
0.6
 49
0.375
 74
     0
 49
-0.075
 74
     0
 49
0.075
 74
     0
 49
-0.075
 74
     0
  0
LTYPE
  5
1F6
330
5
100
AcDbSymbolTableRecord
100
AcDbLinetypeTableRecord
  2
HIDDEN
 70
     0
  3
- - - - - - - - - - - - - - - - - - - -
 72
    65
 73
     2
 40
0.2
 49
0.1
 74
     0
 49
-0.1
 74
     0
  0
LTYPE
  5
1F7
330
5
100
AcDbSymbolTableRecord
100
AcDbLinetypeTableRecord
  2
PHANTOM
 70
     0
  3
_____ _ _ _____ _ _ _____ _ _ _____
 72
    65
 73
     6
 40
0.8
 49
0.45
 74
     0
 49
-0.05
 74
     0
 49
0.1
 74
     0
 49
-0.05
 74
     0
 49
0.1
 74
     0
 49
-0.05
 74
     0
  0
LTYPE
  5
1F8
330
5
100
AcDbSymbolTableRecord
100
AcDbLinetypeTableRecord
  2
DOT
 70
     0
  3
. . . . . . . . . . . . . . . . . . . .
 72
    65
 73
     2
 40
0.2
 49
0.1
 74
     0
 49
-0.1
 74
     0
  0
LTYPE
  5
1F9
330
5
100
AcDbSymbolTableRecord
100
AcDbLinetypeTableRecord
  2
DASHED
 70
     0
  3
- - - - - - - - - - - - - - - - - - - -
 72
    65
 73
     2
 40
0.2
 49
0.1
 74
     0
 49
-0.1
 74
     0
  0
LTYPE
  5
AB8
330
5
100
AcDbSymbolTableRecord
100
AcDbLinetypeTableRecord
  2
PHANTOM2
 70
     0
  3
Phantom (.5x) ___ _ _ ___ _ _ ___ _ _ ___ _ _
 72
    65
 73
     6
 40
31.75
 49
15.875
 74
     0
 49
-3.174999999999999
 74
     0
 49
3.174999999999999
 74
     0
 49
-3.174999999999999
 74
     0
 49
3.174999999999999
 74
     0
 49
-3.174999999999999
 74
     0
  0
LTYPE
  5
AF1
330
5
100
AcDbSymbolTableRecord
100
AcDbLinetypeTableRecord
  2
AM_ISO02W050
 70
     0
  3
__ __ __ __ __ __ __ __ __ __ __ __ __ __ __
 72
    65
 73
     2
 40
7.5
 49
6.0
 74
     0
 49
-1.5
 74
     0
  0
LTYPE
  5
AF2
330
5
100
AcDbSymbolTableRecord
100
AcDbLinetypeTableRecord
  2
AM_ISO08W050
 70
     0
  3
____ . ____ . ____ . ____ . ____ . ____ . ____
 72
    65
 73
     4
 40
18.0
 49
12.0
 74
     0
 49
-1.5
 74
     0
 49
3.0
 74
     0
 49
-1.5
 74
     0
  0
LTYPE
  5
AF3
330
5
100
AcDbSymbolTableRecord
100
AcDbLinetypeTableRecord
  2
AM_ISO09W050
 70
     0
  3
_____ . . _____ . . _____ . . ____ .. ____
 72
    65
 73
     6
 40
22.5
 49
12.0
 74
     0
 49
-1.5
 74
     0
 49
3.0
 74
     0
 49
-1.5
 74
     0
 49
3.0
 74
     0
 49
-1.5
 74
     0
  0
LTYPE
  5
AF4
330
5
100
AcDbSymbolTableRecord
100
AcDbLinetypeTableRecord
  2
Amconstr
 70
     0
  3
_______________________
 72
    65
 73
     2
 40
9999.0
 49
9999.0
 74
     0
 49
0.0
 74
     0
  0
LTYPE
  5
AF5
330
5
100
AcDbSymbolTableRecord
100
AcDbLinetypeTableRecord
  2
AM_ISO08W050x2
 70
     0
  3
__ . __ . __ . __ . __ . __
 72
    65
 73
     4
 40
9.0
 49
6.0
 74
     0
 49
-0.75
 74
     0
 49
1.5
 74
     0
 49
-0.75
 74
     0
  0
LTYPE
  5
AF6
330
5
100
AcDbSymbolTableRecord
100
AcDbLinetypeTableRecord
  2
AM_ISO02W050x2
 70
     0
  3
 _ _ _ _ _ _ _ _ _ _ _ _
 72
    65
 73
     2
 40
3.75
 49
3.0
 74
     0
 49
-0.75
 74
     0
  0
LTYPE
  5
AF9
330
5
100
AcDbSymbolTableRecord
100
AcDbLinetypeTableRecord
  2
Amzigzag
 70
     0
  3
/\/-/\/-/\/-/\/-/\/-/\/
 72
    65
 73
     2
 40
11.0001
 49
0.0001
 74
     4
 75
   136
340
AF8
 46
0.04
 50
0.0
 44
0.0
 45
0.0
 49
-11.0
 74
     0
  0
LTYPE
  5
B09
330
5
100
AcDbSymbolTableRecord
100
AcDbLinetypeTableRecord
  2
ACISOWELD
 70
     0
  3
_ _ _ _ _
 72
    65
 73
     2
 40
2.0
 49
2.0
 74
     0
 49
-1.0
 74
     0
  0
LTYPE
  5
B0A
330
5
100
AcDbSymbolTableRecord
100
AcDbLinetypeTableRecord
  2
ACISOTGB
 70
     0
  3
__ . . __ . .
 72
    65
 73
     6
 40
9.0
 49
4.0
 74
     0
 49
-1.0
 74
     0
 49
1.0
 74
     0
 49
-1.0
 74
     0
 49
1.0
 74
     0
 49
-1.0
 74
     0
  0
LTYPE
  5
B0B
330
5
100
AcDbSymbolTableRecord
100
AcDbLinetypeTableRecord
  2
ACISOTGL
 70
     0
  3
_ _ _ _ _
 72
    65
 73
     2
 40
3.0
 49
2.0
 74
     0
 49
-1.0
 74
     0
  0
ENDTAB
  0
TABLE
  2
LAYER
  5
2
330
0
100
AcDbSymbolTable
 70
    20
  0
LAYER
  5
10
330
2
100
AcDbSymbolTableRecord
100
AcDbLayerTableRecord
  2
0
 70
     0
 62
     7
  6
CONTINUOUS
370
    -3
390
F
  0
LAYER
  5
1FA
330
2
100
AcDbSymbolTableRecord
100
AcDbLayerTableRecord
  2
DEFAULT_1
 70
     0
 62
     7
  6
CENTER
370
    -3
390
F
  0
LAYER
  5
1FB
330
2
100
AcDbSymbolTableRecord
100
AcDbLayerTableRecord
  2
DEFAULT_2
 70
     0
 62
     8
  6
HIDDEN
370
    -3
390
F
  0
LAYER
  5
1FC
330
2
100
AcDbSymbolTableRecord
100
AcDbLayerTableRecord
  2
DEFAULT_3
 70
     0
 62
     7
  6
PHANTOM
370
    -3
390
F
  0
LAYER
  5
1FD
330
2
100
AcDbSymbolTableRecord
100
AcDbLayerTableRecord
  2
01___PRT_ALL_DTM_PLN
 70
     0
 62
     7
  6
CONTINUOUS
370
    -3
390
F
  0
LAYER
  5
1FE
330
2
100
AcDbSymbolTableRecord
100
AcDbLayerTableRecord
  2
01___PRT_DEF_DTM_PLN
 70
     0
 62
     7
  6
CONTINUOUS
370
    -3
390
F
  0
LAYER
  5
1FF
330
2
100
AcDbSymbolTableRecord
100
AcDbLayerTableRecord
  2
02___PRT_ALL_AXES
 70
     0
 62
     7
  6
CONTINUOUS
370
    -3
390
F
  0
LAYER
  5
200
330
2
100
AcDbSymbolTableRecord
100
AcDbLayerTableRecord
  2
03___PRT_ALL_CURVES
 70
     0
 62
     7
  6
CONTINUOUS
370
    -3
390
F
  0
LAYER
  5
201
330
2
100
AcDbSymbolTableRecord
100
AcDbLayerTableRecord
  2
04___PRT_ALL_DTM_PNT
 70
     0
 62
     7
  6
CONTINUOUS
370
    -3
390
F
  0
LAYER
  5
202
330
2
100
AcDbSymbolTableRecord
100
AcDbLayerTableRecord
  2
05___PRT_ALL_DTM_CSYS
 70
     0
 62
     7
  6
CONTINUOUS
370
    -3
390
F
  0
LAYER
  5
203
330
2
100
AcDbSymbolTableRecord
100
AcDbLayerTableRecord
  2
05___PRT_DEF_DTM_CSYS
 70
     0
 62
     7
  6
CONTINUOUS
370
    -3
390
F
  0
LAYER
  5
204
330
2
100
AcDbSymbolTableRecord
100
AcDbLayerTableRecord
  2
06___PRT_ALL_SURFS
 70
     0
 62
     7
  6
CONTINUOUS
370
    -3
390
F
  0
LAYER
  5
205
330
2
100
AcDbSymbolTableRecord
100
AcDbLayerTableRecord
  2
DATUM_AXIS
 70
     0
 62
     7
  6
CONTINUOUS
370
    -3
390
F
  0
LAYER
  5
206
330
2
100
AcDbSymbolTableRecord
100
AcDbLayerTableRecord
  2
DATUM_PLANE
 70
     0
 62
     7
  6
CONTINUOUS
370
    -3
390
F
  0
LAYER
  5
207
330
2
100
AcDbSymbolTableRecord
100
AcDbLayerTableRecord
  2
DATUM_POINT
 70
     0
 62
     7
  6
CONTINUOUS
370
    -3
390
F
  0
LAYER
  5
208
330
2
100
AcDbSymbolTableRecord
100
AcDbLayerTableRecord
  2
XSEC_DATUMS
 70
     0
 62
     7
  6
CONTINUOUS
370
    -3
390
F
  0
LAYER
  5
209
330
2
100
AcDbSymbolTableRecord
100
AcDbLayerTableRecord
  2
_CURVE
 70
     0
 62
     7
  6
CONTINUOUS
370
    -3
390
F
  0
LAYER
  5
20A
330
2
100
AcDbSymbolTableRecord
100
AcDbLayerTableRecord
  2
_SURFACE
 70
     0
 62
     7
  6
CONTINUOUS
370
    -3
390
F
  0
LAYER
  5
20B
330
2
100
AcDbSymbolTableRecord
100
AcDbLayerTableRecord
  2
___NOTE
 70
     0
 62
     7
  6
CONTINUOUS
370
    -3
390
F
  0
LAYER
  5
20C
330
2
100
AcDbSymbolTableRecord
100
AcDbLayerTableRecord
  2
___SYMBOL
 70
     0
 62
     7
  6
CONTINUOUS
370
    -3
390
F
  0
ENDTAB
  0
TABLE
  2
STYLE
  5
3
330
0
100
AcDbSymbolTable
 70
     5
  0
STYLE
  5
11
330
3
100
AcDbSymbolTableRecord
100
AcDbTextStyleTableRecord
  2
STANDARD
 70
     0
 40
0.0
 41
0.8
 50
0.0
 71
     0
 42
0.2
  3
txt
  4

  0
STYLE
  5
20D
330
3
100
AcDbSymbolTableRecord
100
AcDbTextStyleTableRecord
  2
TEXTSTYLE_1
 70
     0
 40
0.0
 41
0.8
 50
0.0
 71
     0
 42
0.2
  3
gdt
  4

  0
STYLE
  5
AF8
330
3
100
AcDbSymbolTableRecord
100
AcDbTextStyleTableRecord
  2

 70
     1
 40
0.0
 41
1.0
 50
0.0
 71
     0
 42
0.2
  3
genltshp.shx
  4

  0
STYLE
  5
AFA
330
3
100
AcDbSymbolTableRecord
100
AcDbTextStyleTableRecord
  2
ACISOTS
 70
     0
 40
1.0
 41
1.0
 50
0.0
 71
     0
 42
0.2
  3
isocp.shx
  4

  0
STYLE
  5
B08
330
3
100
AcDbSymbolTableRecord
100
AcDbTextStyleTableRecord
  2
ACISOGDT
 70
     0
 40
0.0
 41
1.0
 50
0.0
 71
     0
 42
0.2
  3
amgdt.shx
  4

  0
ENDTAB
  0
TABLE
  2
VIEW
  5
6
330
0
100
AcDbSymbolTable
 70
     0
  0
ENDTAB
  0
TABLE
  2
UCS
  5
7
330
0
100
AcDbSymbolTable
 70
     0
  0
ENDTAB
  0
TABLE
  2
APPID
  5
9
330
0
100
AcDbSymbolTable
 70
    10
  0
APPID
  5
20E
330
9
100
AcDbSymbolTableRecord
100
AcDbRegAppTableRecord
  2
ACAD
 70
     0
  0
APPID
  5
A7D
330
9
100
AcDbSymbolTableRecord
100
AcDbRegAppTableRecord
  2
ACAD_MLEADERVER
 70
     0
  0
APPID
  5
A8B
330
9
100
AcDbSymbolTableRecord
100
AcDbRegAppTableRecord
  2
MCAD_NO_VIS
 70
     0
  0
APPID
  5
A8C
330
9
100
AcDbSymbolTableRecord
100
AcDbRegAppTableRecord
  2
ACAD_TEMP_GRAPHIC
 70
     0
  0
APPID
  5
ABA
330
9
100
AcDbSymbolTableRecord
100
AcDbRegAppTableRecord
  2
AD_DRAW
 70
     0
  0
APPID
  5
ABD
330
9
100
AcDbSymbolTableRecord
100
AcDbRegAppTableRecord
  2
ACATTRIBSERVICES
 70
     0
  0
APPID
  5
AE2
330
9
100
AcDbSymbolTableRecord
100
AcDbRegAppTableRecord
  2
DESIGNERASSEMBLIES
 70
     0
  0
APPID
  5
AE8
330
9
100
AcDbSymbolTableRecord
100
AcDbRegAppTableRecord
  2
ACADM_DIM_EDIT
 70
     0
  0
APPID
  5
AE9
330
9
100
AcDbSymbolTableRecord
100
AcDbRegAppTableRecord
  2
AMDT_DM_ADJ
 70
     0
  0
APPID
  5
B59
330
9
100
AcDbSymbolTableRecord
100
AcDbRegAppTableRecord
  2
ACAD_DSTYLE_DIMARC_LENGTH_SYMBOL
 70
     0
  0
ENDTAB
  0
TABLE
  2
DIMSTYLE
  5
A
330
0
100
AcDbSymbolTable
 70
     8
100
AcDbDimStyleTable
 71
     1
340
211
  0
DIMSTYLE
105
211
330
A
100
AcDbSymbolTableRecord
100
AcDbDimStyleTableRecord
  2
STANDARD
 70
     0
 41
4.7625
 71
     1
 78
     8
140
3.96875
271
     0
272
     0
284
     8
340
11
  0
DIMSTYLE
105
B16
330
A
100
AcDbSymbolTableRecord
100
AcDbDimStyleTableRecord
  2
AM_ISO
 70
     0
  4
"
 41
2.5
 42
1.0
 43
10.0
 44
1.0
 47
0.1
 48
0.1
 73
     0
 74
     0
 77
     1
 78
     8
 79
     2
140
3.5
141
0.0
143
0.0393701
146
0.71
147
1.5
172
     1
176
   256
177
   256
178
     2
271
     2
272
     3
274
     4
283
     0
284
     8
340
11
371
    -1
372
    -1
1001
ACAD_DSTYLE_DIMARC_LENGTH_SYMBOL
1070
   379
1070
     1
  0
DIMSTYLE
105
B17
330
A
100
AcDbSymbolTableRecord
100
AcDbDimStyleTableRecord
  2
AM_ISO$3
 70
     0
  4
"
 41
2.5
 42
1.0
 43
10.0
 44
1.0
 47
0.1
 48
0.1
 73
     0
 77
     1
 78
     8
 79
     2
140
3.5
141
0.0
143
0.0393701
146
0.71
147
1.5
176
   256
177
   256
178
     2
271
     2
272
     3
274
     4
283
     0
284
     8
288
     1
289
     0
340
11
371
    -1
372
    -1
1001
ACAD_DSTYLE_DIMARC_LENGTH_SYMBOL
1070
   379
1070
     1
  0
DIMSTYLE
105
B18
330
A
100
AcDbSymbolTableRecord
100
AcDbDimStyleTableRecord
  2
AM_ISO$4
 70
     0
  4
"
 41
2.5
 42
1.0
 43
10.0
 44
1.0
 47
0.1
 48
0.1
 73
     0
 77
     1
 78
     8
 79
     2
140
3.5
141
0.0
143
0.0393701
146
0.71
147
1.5
176
   256
177
   256
178
     2
271
     2
272
     3
274
     4
283
     0
284
     8
288
     1
289
     0
340
11
371
    -1
372
    -1
1001
ACAD_DSTYLE_DIMARC_LENGTH_SYMBOL
1070
   379
1070
     1
  0
DIMSTYLE
105
B19
330
A
100
AcDbSymbolTableRecord
100
AcDbDimStyleTableRecord
  2
AM_ISO$6
 70
     0
  4
"
 41
2.5
 42
1.0
 43
10.0
 44
1.0
 47
0.1
 48
0.1
 73
     0
 74
     0
 78
     8
 79
     2
140
3.5
141
0.0
143
0.0393701
146
0.71
147
1.5
172
     1
176
   256
177
   256
178
     2
271
     2
272
     3
274
     4
283
     0
284
     8
340
11
371
    -1
372
    -1
1001
ACAD_DSTYLE_DIMARC_LENGTH_SYMBOL
1070
   379
1070
     1
  0
DIMSTYLE
105
B1A
330
A
100
AcDbSymbolTableRecord
100
AcDbDimStyleTableRecord
  2
AM_ISO$7
 70
     0
  4
"
 41
2.5
 42
1.0
 43
10.0
 44
1.0
 47
0.1
 48
0.1
 73
     0
 74
     0
 77
     1
 78
     8
 79
     2
140
5.0
141
0.0
143
0.0393701
146
0.71
147
1.5
172
     1
176
   256
177
   256
178
     2
271
     2
272
     3
274
     4
283
     0
284
     8
340
11
371
    -1
372
    -1
1001
ACAD_DSTYLE_DIMARC_LENGTH_SYMBOL
1070
   379
1070
     1
  0
DIMSTYLE
105
B1B
330
A
100
AcDbSymbolTableRecord
100
AcDbDimStyleTableRecord
  2
AM_ISO$SF
 70
     0
  4
"
 41
2.5
 42
1.0
 43
10.0
 44
1.0
 47
0.1
 48
0.1
 73
     0
 74
     0
 75
     1
 76
     1
 77
     1
 78
     8
 79
     2
140
3.5
141
0.0
143
0.0393701
146
0.71
147
1.5
172
     1
176
   256
177
   256
178
     2
271
     2
272
     3
274
     4
283
     0
284
     8
340
11
371
    -1
372
    -1
1001
ACAD_DSTYLE_DIMARC_LENGTH_SYMBOL
1070
   379
1070
     1
  0
DIMSTYLE
105
B20
330
A
100
AcDbSymbolTableRecord
100
AcDbDimStyleTableRecord
  2
AM_ISO$SH
 70
     0
  4
"
 41
2.5
 42
1.0
 43
10.0
 44
1.0
 47
0.1
 48
0.1
 73
     0
 74
     0
 75
     1
 76
     1
 77
     1
 78
     8
 79
     2
140
3.5
141
0.0
143
0.0393701
144
2.0
146
0.71
147
1.5
172
     1
173
     1
176
   256
177
   256
178
     2
271
     2
272
     3
274
     4
283
     0
284
     8
340
11
343
B1C
371
    -1
372
    -1
1001
ACAD_DSTYLE_DIMARC_LENGTH_SYMBOL
1070
   379
1070
     1
  0
ENDTAB
  0
TABLE
  2
BLOCK_RECORD
  5
1
330
0
100
AcDbSymbolTable
 70
     2
  0
BLOCK_RECORD
  5
20F
330
1
100
AcDbSymbolTableRecord
100
AcDbBlockTableRecord
  2
*Model_Space
340
A28
  0
BLOCK_RECORD
  5
210
330
1
100
AcDbSymbolTableRecord
100
AcDbBlockTableRecord
  2
*Paper_Space
340
A29
  0
BLOCK_RECORD
  5
B1C
330
1
100
AcDbSymbolTableRecord
100
AcDbBlockTableRecord
  2
GENAXEH
340
0
  0
ENDTAB
  0
ENDSEC
  0
SECTION
  2
BLOCKS
  0
BLOCK
  5
20
330
20F
100
AcDbEntity
  8
0
100
AcDbBlockBegin
  2
*Model_Space
 70
     0
 10
0.0
 20
0.0
 30
0.0
  3
*Model_Space
  1

  0
ENDBLK
  5
21
330
20F
100
AcDbEntity
  8
0
100
AcDbBlockEnd
  0
BLOCK
  5
1C
330
210
100
AcDbEntity
 67
     1
  8
0
100
AcDbBlockBegin
  2
*Paper_Space
 70
     0
 10
0.0
 20
0.0
 30
0.0
  3
*Paper_Space
  1

  0
ENDBLK
  5
1D
330
210
100
AcDbEntity
 67
     1
  8
0
100
AcDbBlockEnd
  0
BLOCK
  5
B1E
330
B1C
100
AcDbEntity
  8
0
100
AcDbBlockBegin
  2
GENAXEH
 70
     0
 10
0.0
 20
0.0
 30
0.0
  3
GENAXEH
  1

  0
LINE
  5
B1D
330
B1C
100
AcDbEntity
  8
0
100
AcDbLine
 10
-1.0
 20
0.0
 30
0.0
 11
1.0
 21
0.0
 31
0.0
  0
ENDBLK
  5
B1F
330
B1C
100
AcDbEntity
  8
0
100
AcDbBlockEnd
  0
ENDSEC
  0
SECTION
  2
ENTITIES
  0
LINE
  5
28B
330
20F
100
AcDbEntity
  8
0
  6
Continuous
 62
     7
100
AcDbLine
 10
-1909.798387402
 20
-725.3847792424001
 30
0.0
 11
-1786.6871269047
 21
-997.6404715252
 31
0.0
  0
LINE
  5
28C
330
20F
100
AcDbEntity
  8
0
  6
Continuous
 62
     7
100
AcDbLine
 10
-1909.8078939974
 20
-725.3634870616999
 30
0.0
 11
-1909.798387402
 21
-725.3847792424001
 31
0.0
  0
LINE
  5
28D
330
20F
100
AcDbEntity
  8
06___PRT_ALL_SURFS
  6
Continuous
 62
     7
100
AcDbLine
 10
-1909.808932115
 20
-725.3601628947
 30
0.0
 11
-1909.814740194599
 21
-725.3455231852
 31
0.0
  0
LINE
  5
28F
330
20F
100
AcDbEntity
  8
06___PRT_ALL_SURFS
  6
Continuous
 62
     7
100
AcDbLine
 10
-1834.5634584605
 20
-671.1531076226
 30
0.0
 11
-1833.889179616
 21
-669.8932874552999
 31
0.0
  0
LWPOLYLINE
  5
290
330
20F
100
AcDbEntity
  8
0
  6
Continuous
 62
     7
100
AcDbPolyline
 90
        4
 70
     0
 43
0.0
 10
-1649.8624042631
 20
-1068.8480764077
 10
-1649.8163461617
 20
-1068.9218078023
 10
-1649.6579191366
 20
-1069.08088528
 10
-1649.5380967925
 20
-1069.1564194579
  0
LWPOLYLINE
  5
292
330
20F
100
AcDbEntity
  8
0
  6
Continuous
 62
     7
100
AcDbPolyline
 90
        3
 70
     0
 43
0.0
 10
-1582.3412232986
 20
-1098.1724661303
 10
-1582.3292075499
 20
-1098.1787289406
 10
-1582.326761936
 20
-1098.1813560501
  0
LWPOLYLINE
  5
297
330
20F
100
AcDbEntity
  8
0
  6
Continuous
 62
     7
100
AcDbPolyline
 90
        8
 70
     0
 43
0.0
 10
-1650.014441691
 20
-1068.492203546
 10
-1650.0005206148
 20
-1068.5531610105
 10
-1649.9223687693
 20
-1068.7574517698
 10
-1649.8016702563
 20
-1068.9398639954
 10
-1649.6441996679
 20
-1069.0916706206
 10
-1649.4574908465
 20
-1069.2056089002
 10
-1649.2504764029
 20
-1069.2762278446
 10
-1649.0330604038
 20
-1069.3001489555
  0
LINE
  5
298
330
20F
100
AcDbEntity
  8
0
  6
Continuous
 62
     7
100
AcDbLine
 10
-1651.6928997263
 20
-1060.3851417623
 30
0.0
 11
-1650.9028255744
 21
-1064.097415978
 31
0.0
  0
LINE
  5
299
330
20F
100
AcDbEntity
  8
06___PRT_ALL_SURFS
  6
Continuous
 62
     7
100
AcDbLine
 10
-1651.002776670499
 20
-1063.6232002914
 30
0.0
 11
-1650.9028255744
 21
-1064.097415978
 31
0.0
  0
LINE
  5
29A
330
20F
100
AcDbEntity
  8
0
  6
Continuous
 62
     7
100
AcDbLine
 10
-1651.6940742697
 20
-1060.3794540348
 30
0.0
 11
-1651.6929033151
 21
-1060.385125237
 31
0.0
  0
LINE
  5
29B
330
20F
100
AcDbEntity
  8
0
  6
Continuous
 62
     7
100
AcDbLine
 10
-1650.9028255744
 20
-1064.097415978
 30
0.0
 11
-1650.502701981
 21
-1066.0433224676
 31
0.0
  0
LINE
  5
29C
330
20F
100
AcDbEntity
  8
06___PRT_ALL_SURFS
  6
Continuous
 62
     7
100
AcDbLine
 10
-1650.9028255744
 20
-1064.097415978
 30
0.0
 11
-1650.502701981
 21
-1066.0433224676
 31
0.0
  0
LINE
  5
29D
330
20F
100
AcDbEntity
  8
0
  6
Continuous
 62
     7
100
AcDbLine
 10
-1650.502701981
 20
-1066.0433224676
 30
0.0
 11
-1650.0144462087
 21
-1068.4921951116
 31
0.0
  0
LINE
  5
29E
330
20F
100
AcDbEntity
  8
06___PRT_ALL_SURFS
  6
Continuous
 62
     7
100
AcDbLine
 10
-1650.502701981
 20
-1066.0433224676
 30
0.0
 11
-1650.0144462087
 21
-1068.4921951116
 31
0.0
  0
LWPOLYLINE
  5
2A3
330
20F
100
AcDbEntity
  8
0
  6
Continuous
 62
     7
100
AcDbPolyline
 90
        9
 70
     0
 43
0.0
 10
-733.5419469505999
 20
-1082.8013980544
 10
-733.5609573086999
 20
-1082.8063305198
 10
-733.5710104050999
 20
-1082.8088510603
 10
-733.5138626872999
 20
-1082.7971114954
 10
-733.3930433177
 20
-1082.7765280085
 10
-733.1978921844
 20
-1082.7513961506
 10
-732.9191194417999
 20
-1082.7298095344
 10
-732.573493058
 20
-1082.7239586958
 10
-732.1908442900999
 20
-1082.7429326003
  0
LINE
  5
2A5
330
20F
100
AcDbEntity
  8
0
  6
Continuous
 62
     7
100
AcDbLine
 10
-1604.132643484738
 20
-1078.076558791517
 30
0.0
 11
-1626.684560443299
 21
-1070.7365312578
 31
0.0
  0
LINE
  5
2A6
330
20F
100
AcDbEntity
  8
0
  6
Continuous
 62
     7
100
AcDbLine
 10
-1649.4679962947
 20
-1069.2006097423
 30
0.0
 11
-1649.2561506967
 21
-1069.274946586
 31
0.0
  0
LWPOLYLINE
  5
2A7
330
20F
100
AcDbEntity
  8
06___PRT_ALL_SURFS
  6
Continuous
 62
     7
100
AcDbPolyline
 90
        4
 70
     0
 43
0.0
 10
-1909.8078939974
 20
-725.3634870616999
 10
-1909.8077136907
 20
-725.3636284217
 10
-1909.8080589968
 20
-725.3625219459999
 10
-1909.808932115
 20
-725.3601628947
  0
LINE
  5
2A9
330
20F
100
AcDbEntity
  8
0
  6
Continuous
 62
     7
100
AcDbLine
 10
-1600.9364799174
 20
-1098.1829273328
 30
0.0
 11
-1604.132643484738
 21
-1078.076558791517
 31
0.0
  0
LINE
  5
2B2
330
20F
100
AcDbEntity
  8
0
  6
Continuous
 62
     7
100
AcDbLine
 10
-912.3170487975
 20
-1097.1257679401
 30
0.0
 11
-888.8677411282001
 21
-1094.0551859943
 31
0.0
  0
LWPOLYLINE
  5
2B3
330
20F
100
AcDbEntity
  8
0
  6
Continuous
 62
     7
100
AcDbPolyline
 90
        5
 70
     0
 43
0.0
 10
-867.1906748997999
 20
-1093.5061489555
 10
-866.9727616005999
 20
-1093.4821172901
 10
-866.7653218226
 20
-1093.4111772829
 10
-866.5783260586
 20
-1093.2967386349
 10
-866.4207619142999
 20
-1093.144301739
  0
LINE
  5
2B4
330
20F
100
AcDbEntity
  8
0
  6
Continuous
 62
     7
100
AcDbLine
 10
-916.5378596816999
 20
-1116.0505967869
 30
0.0
 11
-932.7250928023
 21
-1116.0505967869
 31
0.0
  0
LINE
  5
2BA
330
20F
100
AcDbEntity
  8
0
  6
Continuous
 62
     7
100
AcDbLine
 10
-1582.3412232986
 20
-1098.1724661303
 30
0.0
 11
-1579.130552753987
 21
-1078.076638127573
 31
0.0
  0
LINE
  5
2BB
330
20F
100
AcDbEntity
  8
02___PRT_ALL_AXES
  6
Continuous
 62
     7
100
AcDbLine
 10
-844.1314762419999
 20
-1100.0505967869
 30
0.0
 11
-768.1314762419999
 21
-1100.0505967869
 31
0.0
  0
LINE
  5
2BC
330
20F
100
AcDbEntity
  8
0
  6
Continuous
 62
     7
100
AcDbLine
 10
-1599.7406896394
 20
-1099.0505967869
 30
0.0
 11
-1583.5222628446
 21
-1099.0505967869
 31
0.0
  0
LINE
  5
2C0
330
20F
100
AcDbEntity
  8
0
  6
Continuous
 62
     7
100
AcDbLine
 10
-697.0398122883999
 20
-1095.0505967869
 30
0.0
 11
-707.131476242
 21
-1095.0505967869
 31
0.0
  0
LINE
  5
2C1
330
20F
100
AcDbEntity
  8
0
  6
Continuous
 62
     7
100
AcDbLine
 10
-716.1314762419999
 20
-1095.0505967869
 30
0.0
 11
-725.2231401955
 21
-1095.0505967869
 31
0.0
  0
LINE
  5
2C4
330
20F
100
AcDbEntity
  8
0
  6
Continuous
 62
     7
100
AcDbLine
 10
-867.1944332363
 20
-1093.5061489555
 30
0.0
 11
-884.7132739063001
 21
-1093.5061489555
 31
0.0
  0
LINE
  5
2C5
330
20F
100
AcDbEntity
  8
0
  6
Continuous
 62
     7
100
AcDbLine
 10
-964.7322358434934
 20
-1093.5061489555
 30
0.0
 11
-982.0722139234
 21
-1093.5061489555
 31
0.0
  0
LINE
  5
2C6
330
20F
100
AcDbEntity
  8
02___PRT_ALL_AXES
  6
Continuous
 62
     7
100
AcDbLine
 10
-757.2307926195
 20
-1091.342396406
 30
0.0
 11
-857.2288559325999
 21
-1091.342396406
 31
0.0
  0
LINE
  5
2C7
330
20F
100
AcDbEntity
  8
0
  6
Continuous
 62
     7
100
AcDbLine
 10
-1534.2305023714
 20
-1069.3001489555
 30
0.0
 11
-1551.8543191609
 21
-1069.3001489555
 31
0.0
  0
LINE
  5
2C8
330
20F
100
AcDbEntity
  8
0
  6
Continuous
 62
     7
100
AcDbLine
 10
-1631.4086331955
 20
-1069.3001489555
 30
0.0
 11
-1649.0330869361
 21
-1069.3001489555
 31
0.0
  0
LINE
  5
2CA
330
20F
100
AcDbEntity
  8
0
  6
Continuous
 62
     7
100
AcDbLine
 10
-1582.958070395
 20
-1061.7191136576
 30
0.0
 11
-1600.2964832345
 21
-1061.1398268919
 31
0.0
  0
LINE
  5
2CB
330
20F
100
AcDbEntity
  8
0
  6
Continuous
 62
     7
100
AcDbLine
 10
-857.2288559325999
 20
-1091.342396406
 30
0.0
 11
-865.7971500017998
 21
-1091.0431849839
 31
0.0
  0
LWPOLYLINE
  5
2CE
330
20F
100
AcDbEntity
  8
0
  6
Continuous
 62
     7
100
AcDbPolyline
 90
       14
 70
     0
 43
0.0
 10
-985.8691383802
 20
-1083.4237544022
 10
-985.8691383802
 20
-1083.4237544022
 10
-985.8691383802
 20
-1083.4237544022
 10
-985.8691383802
 20
-1083.4237544022
 10
-985.8691383802
 20
-1083.4237544022
 10
-985.8691383802
 20
-1083.4237544022
 10
-985.8382768337
 20
-1083.431619582
 10
-985.7749637828
 20
-1083.45278274
 10
-985.6872792612
 20
-1083.4917908268
 10
-985.5765860321
 20
-1083.5580813276
 10
-985.4477658801
 20
-1083.6650951483
 10
-985.321661533
 20
-1083.8174767884
 10
-985.2229305620999
 20
-1084.0054471096
 10
-985.1827641978999
 20
-1084.1308071294
  0
LINE
  5
2CF
330
20F
100
AcDbEntity
  8
0
  6
Continuous
 62
     7
100
AcDbLine
 10
-960.3952114182002
 20
-1094.0551859854
 30
0.0
 11
-936.6992323262307
 21
-1097.221924085069
 31
0.0
  0
LINE
  5
2D1
330
20F
100
AcDbEntity
  8
0
  6
Continuous
 62
     7
100
AcDbLine
 10
-1533.2485062903
 20
-1068.4921953096
 30
0.0
 11
-1533.0543251384
 21
-1067.5075258288
 31
0.0
  0
LINE
  5
2D2
330
20F
100
AcDbEntity
  8
06___PRT_ALL_SURFS
  6
Continuous
 62
     7
100
AcDbLine
 10
-1533.2485062903
 20
-1068.4921953096
 30
0.0
 11
-1533.0543251384
 21
-1067.5075258288
 31
0.0
  0
LWPOLYLINE
  5
2D3
330
20F
100
AcDbEntity
  8
0
  6
Continuous
 62
     7
100
AcDbPolyline
 90
       13
 70
     0
 43
0.0
 10
-1533.0543370405
 20
-1067.5075240125
 10
-1533.0147322165
 20
-1067.3646420502
 10
-1532.9461011686
 20
-1067.2140321432
 10
-1532.8573049103
 20
-1067.0815319539
 10
-1532.7504345965
 20
-1066.9665872735
 10
-1532.6319106406
 20
-1066.8731850362
 10
-1532.5151417614
 20
-1066.8057185167
 10
-1532.4069222193
 20
-1066.7603520829
 10
-1532.3103861378
 20
-1066.731927454
 10
-1532.2350557455
 20
-1066.7170969889
 10
-1532.1907764926
 20
-1066.7114224152
 10
-1532.1728613128
 20
-1066.7098643932
 10
-1532.1688523337
 20
-1066.7095927075
  0
LWPOLYLINE
  5
2D4
330
20F
100
AcDbEntity
  8
0
  6
Continuous
 62
     7
100
AcDbPolyline
 90
        3
 70
     0
 43
0.0
 10
-1534.229901718
 20
-1069.3001489555
 10
-1534.0068541981
 20
-1069.2749573686
 10
-1533.8004424371
 20
-1069.2025394232
  0
LWPOLYLINE
  5
2D5
330
20F
100
AcDbEntity
  8
0
  6
Continuous
 62
     7
100
AcDbPolyline
 90
        7
 70
     0
 43
0.0
 10
-732.1908442900999
 20
-1082.7429326003
 10
-731.7789097196
 20
-1082.7925910334
 10
-731.3394107617999
 20
-1082.879255853
 10
-730.8923248123
 20
-1083.0043359131
 10
-730.4460848055001
 20
-1083.168585589
 10
-730.0008836354
 20
-1083.3751719526
 10
-729.5632531921
 20
-1083.6247949142
  0
LWPOLYLINE
  5
2D6
330
20F
100
AcDbEntity
  8
0
  6
Continuous
 62
     7
100
AcDbPolyline
 90
        7
 70
     0
 43
0.0
 10
-936.6992323262307
 20
-1097.221924085069
 10
-936.6992323262307
 20
-1097.221924085069
 10
-936.5227569081
 20
-1097.3383401213
 10
-936.3497335688
 20
-1097.5257767378
 10
-936.2243791548999
 20
-1097.7486496466
 10
-936.1530062224002
 20
-1097.9922496246
 10
-936.1475780252
 20
-1098.0266643986
  0
LWPOLYLINE
  5
2D9
330
20F
100
AcDbEntity
  8
0
  6
Continuous
 62
     7
100
AcDbPolyline
 90
        3
 70
     0
 43
0.0
 10
-1600.9361936925
 20
-1098.1813649288
 10
-1600.9337520146
 20
-1098.178735532
 10
-1600.921729478
 20
-1098.1724641322
  0
LINE
  5
2DE
330
20F
100
AcDbEntity
  8
06___PRT_ALL_SURFS
  6
Continuous
 62
     7
100
AcDbLine
 10
-693.0633011010001
 20
-669.8140690133
 30
0.0
 11
-693.5692241903999
 21
-669.8932874552999
 31
0.0
  0
LWPOLYLINE
  5
2E1
330
20F
100
AcDbEntity
  8
0
  6
Continuous
 62
     7
100
AcDbPolyline
 90
        5
 70
     0
 43
0.0
 10
-729.5632531921
 20
-1083.6247949142
 10
-729.1383761904
 20
-1083.9181234266
 10
-728.7310702989999
 20
-1084.2557340934
 10
-728.3472715191
 20
-1084.6368916211
 10
-727.9924538028
 20
-1085.0606344474
  0
LINE
  5
2E4
330
20F
100
AcDbEntity
  8
0
  6
Continuous
 62
     7
100
AcDbLine
 10
-546.1314762419999
 20
-668.0505967869
 30
0.0
 11
-2028.131476242
 21
-668.0505967869
 31
0.0
  0
LWPOLYLINE
  5
2E5
330
20F
100
AcDbEntity
  8
0
  6
Continuous
 62
     7
100
AcDbPolyline
 90
        5
 70
     0
 43
0.0
 10
-1990.5341778927
 20
-668.1062540058999
 10
-1983.8870377569
 20
-668.3965701503
 10
-1977.2401504348
 20
-668.8613733350999
 10
-1970.5968834871
 20
-669.5007741187001
 10
-1970.5968834871
 20
-669.5007741187001
  0
LWPOLYLINE
  5
2E6
330
20F
100
AcDbEntity
  8
0
  6
Continuous
 62
     7
100
AcDbPolyline
 90
        3
 70
     0
 43
0.0
 10
-1533.7949973116
 20
-1069.2006290436
 10
-1533.6050629646
 20
-1069.0809110204
 10
-1533.4547561879
 20
-1068.9300021702
  0
LINE
  5
2E9
330
20F
100
AcDbEntity
  8
0
  6
Continuous
 62
     7
100
AcDbLine
 10
-2028.131476242
 20
-650.0505967868999
 30
0.0
 11
-564.1314762419999
 21
-650.0505967868999
 31
0.0
  0
LINE
  5
2EA
330
20F
100
AcDbEntity
  8
06___PRT_ALL_SURFS
  6
Continuous
 62
     7
100
AcDbLine
 10
-985.182728154
 20
-1084.1310095564
 30
0.0
 11
-983.0428271011999
 21
-1092.7470522946
 31
0.0
  0
LINE
  5
2EB
330
20F
100
AcDbEntity
  8
0
  6
Continuous
 62
     7
100
AcDbLine
 10
-984.4952348719001
 20
-1086.898156523
 30
0.0
 11
-983.0428271011999
 21
-1092.7470522946
 31
0.0
  0
LINE
  5
2EC
330
20F
100
AcDbEntity
  8
0
  6
Continuous
 62
     7
100
AcDbLine
 10
-985.1827753697
 20
-1084.1308095098
 30
0.0
 11
-985.1827338338001
 21
-1084.1309866991
 31
0.0
  0
LINE
  5
2EF
330
20F
100
AcDbEntity
  8
0
  6
Continuous
 62
     7
100
AcDbLine
 10
-603.923149393
 20
-674.0719777612
 30
0.0
 11
-599.1582119279
 21
-671.8412548871
 31
0.0
  0
LWPOLYLINE
  5
2F0
330
20F
100
AcDbEntity
  8
0
  6
Continuous
 62
     7
100
AcDbPolyline
 90
        4
 70
     0
 43
0.0
 10
-597.6723381335999
 20
-671.2285295982
 10
-597.0255869758999
 20
-670.9542000018
 10
-595.5143361935999
 20
-670.1697519674
 10
-594.0735670481999
 20
-669.2121720041999
  0
LINE
  5
2F1
330
20F
100
AcDbEntity
  8
0
  6
Continuous
 62
     7
100
AcDbLine
 10
-599.1582119279
 20
-671.8412548871
 30
0.0
 11
-597.6714055795
 21
-671.2298172458
 31
0.0
  0
LINE
  5
2F2
330
20F
100
AcDbEntity
  8
0
  6
Continuous
 62
     7
100
AcDbLine
 10
-597.6719777930999
 20
-671.2283860008999
 30
0.0
 11
-597.6723381335999
 21
-671.2285295982
 31
0.0
  0
LWPOLYLINE
  5
2F3
330
20F
100
AcDbEntity
  8
0
  6
Continuous
 62
     7
100
AcDbPolyline
 90
        3
 70
     0
 43
0.0
 10
-727.9924538028
 20
-1085.0606344474
 10
-727.6721625103999
 20
-1085.5253797024
 10
-727.3923074499999
 20
-1086.0282022327
  0
LINE
  5
2F5
330
20F
100
AcDbEntity
  8
0
  6
Continuous
 62
     7
100
AcDbLine
 10
-933.7152004167998
 20
-1115.1909068425
 30
0.0
 11
-936.1475814082
 21
-1098.0266421073
 31
0.0
  0
LINE
  5
2FC
330
20F
100
AcDbEntity
  8
0
  6
Continuous
 62
     7
100
AcDbLine
 10
-621.9848587023999
 20
-686.9695879830999
 30
0.0
 11
-603.923149393
 21
-674.0719777612
 31
0.0
  0
LWPOLYLINE
  5
2FE
330
20F
100
AcDbEntity
  8
0
  6
Continuous
 62
     7
100
AcDbPolyline
 90
        7
 70
     0
 43
0.0
 10
-1534.0125320072
 20
-1069.2762390972
 10
-1533.8055059279
 20
-1069.2056290202
 10
-1533.6187851962
 20
-1069.0916973792
 10
-1533.4613031208
 20
-1068.939895527
 10
-1533.3405938407
 20
-1068.7574864511
 10
-1533.2624320799
 20
-1068.5531971263
 10
-1533.2485003487
 20
-1068.4921987573
  0
LINE
  5
2FF
330
20F
100
AcDbEntity
  8
0
  6
Continuous
 62
     7
100
AcDbLine
 10
-1556.57839388
 20
-1070.7365318817
 30
0.0
 11
-1579.130552753987
 21
-1078.076638127573
 31
0.0
  0
LINE
  5
301
330
20F
100
AcDbEntity
  8
0
  6
Continuous
 62
     7
100
AcDbLine
 10
-727.3923074499999
 20
-1086.0282022327
 30
0.0
 11
-727.1582983988
 21
-1086.5658827552
 31
0.0
  0
LINE
  5
305
330
20F
100
AcDbEntity
  8
0
  6
Continuous
 62
     7
100
AcDbLine
 10
-915.5993888582001
 20
-1115.1724661303
 30
0.0
 11
-913.1657941421
 21
-1097.9996366625
 31
0.0
  0
LWPOLYLINE
  5
306
330
20F
100
AcDbEntity
  8
0
  6
Continuous
 62
     7
100
AcDbPolyline
 90
        3
 70
     0
 43
0.0
 10
-594.0735670481999
 20
-669.2121720041999
 10
-592.7167533444999
 20
-668.0918571477
 10
-592.6758967151
 20
-668.0505967869
  0
LWPOLYLINE
  5
308
330
20F
100
AcDbEntity
  8
0
  6
Continuous
 62
     7
100
AcDbPolyline
 90
        4
 70
     0
 43
0.0
 10
-727.1582983988
 20
-1086.5658827552
 10
-726.9753503278
 20
-1087.1344897909
 10
-726.8485192580999
 20
-1087.7286971491
 10
-726.8004051053
 20
-1088.1035002327
  0
LINE
  5
30B
330
20F
100
AcDbEntity
  8
0
  6
Continuous
 62
     7
100
AcDbLine
 10
-864.5846553390999
 20
-1086.1612153328
 30
0.0
 11
-864.5845855119
 21
-1086.1609155264
 31
0.0
  0
LINE
  5
30C
330
20F
100
AcDbEntity
  8
0
  6
Continuous
 62
     7
100
AcDbLine
 10
-866.2201236948
 20
-1092.7470454943
 30
0.0
 11
-864.5846566271002
 21
-1086.1612205174
 31
0.0
  0
LWPOLYLINE
  5
30D
330
20F
100
AcDbEntity
  8
0
  6
Continuous
 62
     7
100
AcDbPolyline
 90
        6
 70
     0
 43
0.0
 10
-913.1657941421
 20
-1097.9996366625
 10
-913.0418887452
 20
-1097.7566785376
 10
-912.9147076167999
 20
-1097.5278155043
 10
-912.7379030889999
 20
-1097.336389998
 10
-912.5249258408
 20
-1097.1976630139
 10
-912.3170487975
 20
-1097.1257679401
  0
LWPOLYLINE
  5
310
330
20F
100
AcDbEntity
  8
0
  6
Continuous
 62
     7
100
AcDbPolyline
 90
        3
 70
     0
 43
0.0
 10
-726.984340896
 20
-1087.1012461637
 10
-726.8676617878999
 20
-1087.6164361396
 10
-726.8004053455999
 20
-1088.10348263
  0
LINE
  5
311
330
20F
100
AcDbEntity
  8
0
  6
Continuous
 62
     7
100
AcDbLine
 10
-726.2185363938999
 20
-1094.1464425394
 30
0.0
 11
-726.8309999949999
 21
-1087.7857648449
 31
0.0
  0
LINE
  5
315
330
20F
100
AcDbEntity
  8
0
  6
Continuous
 62
     7
100
AcDbLine
 10
-715.131476242
 20
-1094.0505967869
 30
0.0
 11
-715.131476242
 21
-1086.5505967865
 31
0.0
  0
LWPOLYLINE
  5
316
330
20F
100
AcDbEntity
  8
0
  6
Continuous
 62
     7
100
AcDbPolyline
 90
        6
 70
     0
 43
0.0
 10
-864.5845884242
 20
-1086.1609172821
 10
-864.5289649093999
 20
-1085.9988013817
 10
-864.4218444685
 20
-1085.8141042217
 10
-864.2920020622
 20
-1085.6699384008
 10
-864.1621876303998
 20
-1085.5705558711
 10
-864.0515300608999
 20
-1085.5100446834
  0
LINE
  5
317
330
20F
100
AcDbEntity
  8
0
  6
Continuous
 62
     7
100
AcDbLine
 10
-639.4262341703999
 20
-709.3738628977
 30
0.0
 11
-639.4263237049
 21
-709.3740206421999
 31
0.0
  0
LWPOLYLINE
  5
31A
330
20F
100
AcDbEntity
  8
0
  6
Continuous
 62
     7
100
AcDbPolyline
 90
        3
 70
     0
 43
0.0
 10
-866.4207619142999
 20
-1093.144301739
 10
-866.3002023578
 20
-1092.9611932645
 10
-866.2201204291999
 20
-1092.747047174
  0
LWPOLYLINE
  5
31B
330
20F
100
AcDbEntity
  8
0
  6
Continuous
 62
     7
100
AcDbPolyline
 90
        3
 70
     0
 43
0.0
 10
-864.0515300608999
 20
-1085.5100446834
 10
-863.9676001598999
 20
-1085.4766536436
 10
-863.9268592655
 20
-1085.4644174186
  0
LINE
  5
31C
330
20F
100
AcDbEntity
  8
0
  6
Continuous
 62
     7
100
AcDbLine
 10
-866.9784422639999
 20
-1093.4833683188
 30
0.0
 11
-866.7758795371
 21
-1093.4160644715
 31
0.0
  0
LINE
  5
31D
330
20F
100
AcDbEntity
  8
0
  6
Continuous
 62
     7
100
AcDbLine
 10
-708.1314762419999
 20
-1086.5505967869
 30
0.0
 11
-708.1314762419999
 21
-1094.0505967869
 31
0.0
  0
LINE
  5
321
330
20F
100
AcDbEntity
  8
06___PRT_ALL_SURFS
  6
Continuous
 62
     7
100
AcDbLine
 10
-693.0574634303
 20
-671.9120544698
 30
0.0
 11
-693.0661303549001
 21
-668.0505967869
 31
0.0
  0
LINE
  5
323
330
20F
100
AcDbEntity
  8
0
  6
Continuous
 62
     7
100
AcDbLine
 10
-696.0444160900999
 20
-1094.1464425394
 30
0.0
 11
-690.8012508149
 21
-1039.6940892003
 31
0.0
  0
LINE
  5
326
330
20F
100
AcDbEntity
  8
0
  6
Continuous
 62
     7
100
AcDbLine
 10
-624.4735057968
 20
-693.3941156882
 30
0.0
 11
-624.3340044894
 21
-692.8439753866
 31
0.0
  0
LWPOLYLINE
  5
327
330
20F
100
AcDbEntity
  8
06___PRT_ALL_SURFS
  6
Continuous
 62
     7
100
AcDbPolyline
 90
        3
 70
     0
 43
0.0
 10
-624.4642931037999
 20
-693.267369863
 10
-622.731528476
 20
-688.4914680956
 10
-621.9848587023999
 20
-686.9695879830999
  0
LINE
  5
328
330
20F
100
AcDbEntity
  8
0
  6
Continuous
 62
     7
100
AcDbLine
 10
-624.3340044894
 20
-692.8439753866
 30
0.0
 11
-622.573852563
 21
-688.137127697
 31
0.0
  0
LINE
  5
32A
330
20F
100
AcDbEntity
  8
0
  6
Continuous
 62
     7
100
AcDbLine
 10
-622.5419566117999
 20
-688.0518342732
 30
0.0
 11
-622.0095267736
 21
-686.993920979
 31
0.0
  0
LWPOLYLINE
  5
32B
330
20F
100
AcDbEntity
  8
0
  6
Continuous
 62
     7
100
AcDbPolyline
 90
        4
 70
     0
 43
0.0
 10
-866.7758795371
 20
-1093.4160644715
 10
-866.5922154478
 20
-1093.3073039264
 10
-866.4358178976
 20
-1093.1620420053
 10
-866.4290367066
 20
-1093.1523072637
  0
LINE
  5
32C
330
20F
100
AcDbEntity
  8
0
  6
Continuous
 62
     7
100
AcDbLine
 10
-625.8739785594999
 20
-699.4070087702
 30
0.0
 11
-627.5775040431
 21
-710.1626453727
 31
0.0
  0
LINE
  5
32D
330
20F
100
AcDbEntity
  8
0
  6
Continuous
 62
     7
100
AcDbLine
 10
-635.7261037633
 20
-761.6108791988
 30
0.0
 11
-676.7452022810999
 21
-1020.5952745957
 31
0.0
  0
LINE
  5
32E
330
20F
100
AcDbEntity
  8
06___PRT_ALL_SURFS
  6
Continuous
 62
     7
100
AcDbLine
 10
-625.8638229093
 20
-699.3433922213
 30
0.0
 11
-625.6593317145
 21
-698.1636261698
 31
0.0
  0
LINE
  5
32F
330
20F
100
AcDbEntity
  8
06___PRT_ALL_SURFS
  6
Continuous
 62
     7
100
AcDbLine
 10
-625.6593317145
 20
-698.1636261698
 30
0.0
 11
-624.4642931037999
 21
-693.267369863
 31
0.0
  0
ARC
  5
44E
330
20F
100
AcDbEntity
  8
0
  6
Continuous
 62
     7
100
AcDbCircle
 10
-2029.1789677963
 20
-775.2922017287
 30
0.0
 40
123.2597686451
100
AcDbArc
 50
92.48391634950001
 51
93.23151741270001
  0
ARC
  5
452
330
20F
100
AcDbEntity
  8
06___PRT_ALL_SURFS
  6
Continuous
 62
     7
100
AcDbCircle
 10
-1987.0657234684
 20
-760.3478674919999
 30
0.0
 40
84.80963280579999
100
AcDbArc
 50
24.3534570692
 51
28.6570519522
  0
ARC
  5
455
330
20F
100
AcDbEntity
  8
0
  6
Continuous
 62
     7
100
AcDbCircle
 10
-2026.1150513716
 20
-669.5051634372
 30
0.0
 40
20.0
100
AcDbArc
 50
120.2720390540999
 51
175.6138314793
  0
ARC
  5
456
330
20F
100
AcDbEntity
  8
0
  6
Continuous
 62
     7
100
AcDbCircle
 10
-2028.131476242
 20
-666.0505967868999
 30
0.0
 40
16.0
100
AcDbArc
 50
90.1082871494
 51
120.2720390540999
  0
ARC
  5
482
330
20F
100
AcDbEntity
  8
0
  6
Continuous
 62
     7
100
AcDbCircle
 10
-1725.0826069569
 20
-1520.0493139941
 30
0.0
 40
467.3810384744999
100
AcDbArc
 50
78.59140876499999
 51
78.9836241306
  0
ARC
  5
483
330
20F
100
AcDbEntity
  8
0
  6
Continuous
 62
     7
100
AcDbCircle
 10
-1560.5744012528
 20
-1489.4133935427
 30
0.0
 40
423.5833938808999
100
AcDbArc
 50
87.2610496633
 51
87.66333883180001
  0
ARC
  5
485
330
20F
100
AcDbEntity
  8
0
  6
Continuous
 62
     7
100
AcDbCircle
 10
-1554.7512396038
 20
-1349.9313238525
 30
0.0
 40
283.979915443
100
AcDbArc
 50
87.68986595059999
 51
87.9872742903
  0
ARC
  5
486
330
20F
100
AcDbEntity
  8
0
  6
Continuous
 62
     7
100
AcDbCircle
 10
-1553.9616363018
 20
-1328.7865406251
 30
0.0
 40
262.820449553
100
AcDbArc
 50
87.997407174
 51
88.92020074180001
  0
ARC
  5
487
330
20F
100
AcDbEntity
  8
0
  6
Continuous
 62
     7
100
AcDbCircle
 10
-1684.6360952227
 20
-1312.4182093515
 30
0.0
 40
255.8471291836
100
AcDbArc
 50
78.98923481369999
 51
79.7867288492
  0
ARC
  5
489
330
20F
100
AcDbEntity
  8
0
  6
Continuous
 62
     7
100
AcDbCircle
 10
-1547.3105379958
 20
-1313.8358331564
 30
0.0
 40
247.5904185734
100
AcDbArc
 50
87.42340919719998
 51
87.68796566149999
  0
ARC
  5
494
330
20F
100
AcDbEntity
  8
0
  6
Continuous
 62
     7
100
AcDbCircle
 10
-1510.5640904474
 20
-1212.6346291435
 30
0.0
 40
149.1731036396
100
AcDbArc
 50
106.5438305707
 51
106.6994560874
  0
ARC
  5
495
330
20F
100
AcDbEntity
  8
0
  6
Continuous
 62
     7
100
AcDbCircle
 10
-1672.6448071556
 20
-1212.4560297804
 30
0.0
 40
148.9865039229
100
AcDbArc
 50
73.1544692036
 51
73.7420923153
  0
ARC
  5
496
330
20F
100
AcDbEntity
  8
0
  6
Continuous
 62
     7
100
AcDbCircle
 10
-1510.6311695858
 20
-1212.4110379102
 30
0.0
 40
148.9396670306
100
AcDbArc
 50
106.6994557679
 51
106.8563168541
  0
ARC
  5
497
330
20F
100
AcDbEntity
  8
0
  6
Continuous
 62
     7
100
AcDbCircle
 10
-1510.7408030574
 20
-1212.0383803959
 30
0.0
 40
148.5512195928
100
AcDbArc
 50
106.3888054263
 51
106.5439786743
  0
ARC
  5
498
330
20F
100
AcDbEntity
  8
0
  6
Continuous
 62
     7
100
AcDbCircle
 10
-1510.8203891244
 20
-1211.7885079929
 30
0.0
 40
148.2890156632
100
AcDbArc
 50
106.8560954285
 51
107.1732133131
  0
ARC
  5
499
330
20F
100
AcDbEntity
  8
0
  6
Continuous
 62
     7
100
AcDbCircle
 10
-1511.1503292404
 20
-1210.6459390979
 30
0.0
 40
147.0998049509
100
AcDbArc
 50
106.2331013669
 51
106.3888039204
  0
ARC
  5
4B1
330
20F
100
AcDbEntity
  8
06___PRT_ALL_SURFS
  6
Continuous
 62
     7
100
AcDbCircle
 10
-1856.2443214053
 20
-718.8601917536999
 30
0.0
 40
52.4025351898
100
AcDbArc
 50
23.9202318845
 51
65.5602012041
  0
ARC
  5
4BB
330
20F
100
AcDbEntity
  8
0
  6
Continuous
 62
     7
100
AcDbCircle
 10
-1547.4602584324
 20
-865.8175332205001
 30
0.0
 40
200.1672603262
100
AcDbArc
 50
267.5220931499
 51
267.7178531077
  0
ARC
  5
4BC
330
20F
100
AcDbEntity
  8
0
  6
Continuous
 62
     7
100
AcDbCircle
 10
-1671.7609619125
 20
-1209.4396091814
 30
0.0
 40
145.8432636939
100
AcDbArc
 50
73.7436714811
 51
73.9230972221
  0
ARC
  5
4BD
330
20F
100
AcDbEntity
  8
0
  6
Continuous
 62
     7
100
AcDbCircle
 10
-1511.5461949858
 20
-1209.2863063662
 30
0.0
 40
145.6837149631
100
AcDbArc
 50
106.0768941103
 51
106.2330998639
  0
ARC
  5
4BE
330
20F
100
AcDbEntity
  8
0
  6
Continuous
 62
     7
100
AcDbCircle
 10
-1511.6106725962
 20
-1209.2280236761
 30
0.0
 40
145.6093464748
100
AcDbArc
 50
107.1735919824
 51
107.3360995591
  0
ARC
  5
4BF
330
20F
100
AcDbEntity
  8
0
  6
Continuous
 62
     7
100
AcDbCircle
 10
-1671.062293689
 20
-1207.2881349232
 30
0.0
 40
143.5817665013
100
AcDbArc
 50
71.9964220547
 51
73.1612490503
  0
ARC
  5
4C0
330
20F
100
AcDbEntity
  8
0
  6
Continuous
 62
     7
100
AcDbCircle
 10
-1512.5728511653
 20
-1206.1519291128
 30
0.0
 40
142.3862824359
100
AcDbArc
 50
107.3353485114
 51
107.6684122359
  0
ARC
  5
4C1
330
20F
100
AcDbEntity
  8
0
  6
Continuous
 62
     7
100
AcDbCircle
 10
-1514.2049427676
 20
-1201.0206524291
 30
0.0
 40
137.0017009286
100
AcDbArc
 50
107.6693650811
 51
107.8428045208
  0
ARC
  5
4C2
330
20F
100
AcDbEntity
  8
0
  6
Continuous
 62
     7
100
AcDbCircle
 10
-1611.3488944138
 20
-926.8233342649999
 30
0.0
 40
136.7236768761
100
AcDbArc
 50
267.9378468683
 51
270.2447807695
  0
ARC
  5
4C5
330
20F
100
AcDbEntity
  8
0
  6
Continuous
 62
     7
100
AcDbCircle
 10
-1515.3027792791
 20
-1197.610059499
 30
0.0
 40
133.4187706836
100
AcDbArc
 50
107.8428030475
 51
108.0211999178
  0
ARC
  5
4C6
330
20F
100
AcDbEntity
  8
0
  6
Continuous
 62
     7
100
AcDbCircle
 10
-1611.4961751132
 20
-931.1677760283
 30
0.0
 40
132.3767492837
100
AcDbArc
 50
266.0714588128
 51
267.9338894316
  0
ARC
  5
4CA
330
20F
100
AcDbEntity
  8
0
  6
Continuous
 62
     7
100
AcDbCircle
 10
-1611.7696746975
 20
-935.3524638885001
 30
0.0
 40
128.1831566248
100
AcDbArc
 50
265.5322171275
 51
266.0652700939
  0
ARC
  5
4CE
330
20F
100
AcDbEntity
  8
0
  6
Continuous
 62
     7
100
AcDbCircle
 10
-1686.4580094917
 20
-952.318026404
 30
0.0
 40
110.0
100
AcDbArc
 50
204.331946026
 51
267.9999209907
  0
ARC
  5
4D1
330
20F
100
AcDbEntity
  8
0
  6
Continuous
 62
     7
100
AcDbCircle
 10
-1572.1675610133
 20
-1054.8829856481
 30
0.0
 40
11.6325362389
100
AcDbArc
 50
219.5881969845
 51
221.45244995
  0
ARC
  5
4D3
330
20F
100
AcDbEntity
  8
0
  6
Continuous
 62
     7
100
AcDbCircle
 10
-1526.0628373165
 20
-422.0318215916
 30
0.0
 40
644.4788938722
100
AcDbArc
 50
265.8966582014
 51
266.3812330875
  0
ARC
  5
4D4
330
20F
100
AcDbEntity
  8
0
  6
Continuous
 62
     7
100
AcDbCircle
 10
-1527.6268692231
 20
-442.8080589248999
 30
0.0
 40
623.6439876005
100
AcDbArc
 50
265.3630198095001
 51
265.9033985369
  0
ARC
  5
4D7
330
20F
100
AcDbEntity
  8
0
  6
Continuous
 62
     7
100
AcDbCircle
 10
-1613.1523155385
 20
-451.1049906092999
 30
0.0
 40
612.4454244807
100
AcDbArc
 50
270.2233603118
 51
270.41950827
  0
ARC
  5
4D9
330
20F
100
AcDbEntity
  8
0
  6
Continuous
 62
     7
100
AcDbCircle
 10
-1613.0652537095
 20
-461.1883070108
 30
0.0
 40
602.3617410568
100
AcDbArc
 50
270.4182496495
 51
270.8152131231
  0
ARC
  5
4DA
330
20F
100
AcDbEntity
  8
0
  6
Continuous
 62
     7
100
AcDbCircle
 10
-1528.7644286388
 20
-464.6009327485
 30
0.0
 40
601.8241435306999
100
AcDbArc
 50
266.3821234708
 51
266.7909265707
  0
ARC
  5
4DF
330
20F
100
AcDbEntity
  8
0
  6
Continuous
 62
     7
100
AcDbCircle
 10
-1533.8291738374
 20
-555.5406615705
 30
0.0
 40
510.7434289682999
100
AcDbArc
 50
266.8670100093
 51
267.4992327221
  0
ARC
  5
4E1
330
20F
100
AcDbEntity
  8
0
  6
Continuous
 62
     7
100
AcDbCircle
 10
-1517.7329612037
 20
-655.1912680608999
 30
0.0
 40
411.7179299705
100
AcDbArc
 50
267.4319795119
 51
267.5721585767
  0
ARC
  5
4E2
330
20F
100
AcDbEntity
  8
0
  6
Continuous
 62
     7
100
AcDbCircle
 10
-1521.9057296089
 20
-683.5041782517
 30
0.0
 40
383.2529859088
100
AcDbArc
 50
267.2440479079
 51
267.6946101051
  0
ARC
  5
4E5
330
20F
100
AcDbEntity
  8
0
  6
Continuous
 62
     7
100
AcDbCircle
 10
-1595.3471722491
 20
-722.3183673736
 30
0.0
 40
341.8492661619
100
AcDbArc
 50
264.978858649
 51
265.5695015486
  0
ARC
  5
4E6
330
20F
100
AcDbEntity
  8
0
  6
Continuous
 62
     7
100
AcDbCircle
 10
-1596.6821428244
 20
-737.6611261
 30
0.0
 40
326.4485449204
100
AcDbArc
 50
264.6638475917
 51
264.9765767104
  0
ARC
  5
4F9
330
20F
100
AcDbEntity
  8
02___PRT_ALL_AXES
  6
Continuous
 62
     7
100
AcDbCircle
 10
-761.1756130597999
 20
-1910.369268227
 30
0.0
 40
819.0363820564
100
AcDbArc
 50
89.5888702352
 51
89.72389003000001
  0
ARC
  5
4FC
330
20F
100
AcDbEntity
  8
0
  6
Continuous
 62
     7
100
AcDbCircle
 10
-1003.5395522421
 20
-1417.5464164011
 30
0.0
 40
326.3558014134
100
AcDbArc
 50
82.72771464059999
 51
82.90344961550001
  0
ARC
  5
4FD
330
20F
100
AcDbEntity
  8
0
  6
Continuous
 62
     7
100
AcDbCircle
 10
-1003.4051084107
 20
-1416.4412352018
 30
0.0
 40
325.242477181
100
AcDbArc
 50
82.9028996178
 51
83.0811635382
  0
ARC
  5
4FE
330
20F
100
AcDbEntity
  8
0
  6
Continuous
 62
     7
100
AcDbCircle
 10
-845.9733889137
 20
-1415.5249402789
 30
0.0
 40
324.3189240012
100
AcDbArc
 50
96.95784296760001
 51
97.0872991353
  0
ARC
  5
4FF
330
20F
100
AcDbEntity
  8
0
  6
Continuous
 62
     7
100
AcDbCircle
 10
-846.3451173054
 20
-1412.5924339912
 30
0.0
 40
321.3629597483
100
AcDbArc
 50
97.086038429
 51
97.60365475870001
  0
ARC
  5
500
330
20F
100
AcDbEntity
  8
0
  6
Continuous
 62
     7
100
AcDbCircle
 10
-846.3812247133001
 20
-1412.1829492712
 30
0.0
 40
320.9521400855
100
AcDbArc
 50
96.8257031305
 51
96.95784532180001
  0
ARC
  5
501
330
20F
100
AcDbEntity
  8
0
  6
Continuous
 62
     7
100
AcDbCircle
 10
-1001.8713372828
 20
-1404.6066158734
 30
0.0
 40
313.3089046272
100
AcDbArc
 50
82.473736533
 51
82.64223349979999
  0
ARC
  5
504
330
20F
100
AcDbEntity
  8
0
  6
Continuous
 62
     7
100
AcDbCircle
 10
-886.3262307008
 20
-1013.6347042158
 30
0.0
 40
71.0982509025
100
AcDbArc
 50
267.6583233077
 51
267.9098240935
  0
ARC
  5
505
330
20F
100
AcDbEntity
  8
0
  6
Continuous
 62
     7
100
AcDbCircle
 10
-863.0833402516
 20
-1017.1178625068
 30
0.0
 40
68.11889255069999
100
AcDbArc
 50
266.9178666813
 51
267.3445164945
  0
ARC
  5
506
330
20F
100
AcDbEntity
  8
0
  6
Continuous
 62
     7
100
AcDbCircle
 10
-984.2470912211
 20
-1022.7311774227
 30
0.0
 40
60.52918250899999
100
AcDbArc
 50
270.5858641246
 51
271.3549689866
  0
ARC
  5
509
330
20F
100
AcDbEntity
  8
02___PRT_ALL_AXES
  6
Continuous
 62
     7
100
AcDbCircle
 10
-857.7523483832001
 20
-1106.3332588113
 30
0.0
 40
15.0
100
AcDbArc
 50
24.7616343867
 51
88.0
  0
ARC
  5
50A
330
20F
100
AcDbEntity
  8
0
  6
Continuous
 62
     7
100
AcDbCircle
 10
-932.7250928023
 20
-1115.0505967869
 30
0.0
 40
1.0
100
AcDbArc
 50
188.0657882366999
 51
270.0
  0
ARC
  5
50B
330
20F
100
AcDbEntity
  8
0
  6
Continuous
 62
     7
100
AcDbCircle
 10
-916.5378596816999
 20
-1115.0505967869
 30
0.0
 40
1.0
100
AcDbArc
 50
270.0
 51
351.9342117659
  0
ARC
  5
50C
330
20F
100
AcDbEntity
  8
0
  6
Continuous
 62
     7
100
AcDbCircle
 10
-982.0722769711998
 20
-1092.5061489555
 30
0.0
 40
1.0
100
AcDbArc
 50
193.9398547052999
 51
269.9999328034
  0
ARC
  5
50D
330
20F
100
AcDbEntity
  8
0
  6
Continuous
 62
     7
100
AcDbCircle
 10
-964.9993763741001
 20
-463.9801194369
 30
0.0
 40
619.5432981166
100
AcDbArc
 50
270.4734720939
 51
270.9684830075
  0
ARC
  5
50E
330
20F
100
AcDbEntity
  8
0
  6
Continuous
 62
     7
100
AcDbCircle
 10
-964.8010170234
 20
-475.7201101998999
 30
0.0
 40
607.8016317299
100
AcDbArc
 50
270.9684927312
 51
271.4623319606
  0
ARC
  5
50F
330
20F
100
AcDbEntity
  8
0
  6
Continuous
 62
     7
100
AcDbCircle
 10
-864.5434603167998
 20
-481.1753857973999
 30
0.0
 40
604.0029467407999
100
AcDbArc
 50
267.1525743693
 51
267.6574655128
  0
ARC
  5
510
330
20F
100
AcDbEntity
  8
0
  6
Continuous
 62
     7
100
AcDbCircle
 10
-864.6691168925
 20
-483.6921026466
 30
0.0
 40
601.4830949508999
100
AcDbArc
 50
266.656572036
 51
267.1526200696
  0
ARC
  5
511
330
20F
100
AcDbEntity
  8
0
  6
Continuous
 62
     7
100
AcDbCircle
 10
-864.9469133645
 20
-488.4410017185
 30
0.0
 40
596.7260776984
100
AcDbArc
 50
266.168472255
 51
266.6566070291
  0
ARC
  5
512
330
20F
100
AcDbEntity
  8
0
  6
Continuous
 62
     7
100
AcDbCircle
 10
-964.4982866574
 20
-487.5893562391
 30
0.0
 40
595.9285256855999
100
AcDbArc
 50
271.4623577527
 51
271.951446496
  0
ARC
  5
513
330
20F
100
AcDbEntity
  8
0
  6
Continuous
 62
     7
100
AcDbCircle
 10
-865.3504522330001
 20
-494.4442326408999
 30
0.0
 40
590.7092992494
100
AcDbArc
 50
265.6909020619
 51
266.1686161311
  0
ARC
  5
514
330
20F
100
AcDbEntity
  8
0
  6
Continuous
 62
     7
100
AcDbCircle
 10
-865.6882363023999
 20
-498.9870375725
 30
0.0
 40
586.1539557626
100
AcDbArc
 50
265.5523073073
 51
265.6904618198
  0
ARC
  5
515
330
20F
100
AcDbEntity
  8
0
  6
Continuous
 62
     7
100
AcDbCircle
 10
-964.0982778480001
 20
-499.3278358034999
 30
0.0
 40
584.1832326059
100
AcDbArc
 50
271.9514414662
 51
272.4205424666
  0
ARC
  5
519
330
20F
100
AcDbEntity
  8
0
  6
Continuous
 62
     7
100
AcDbCircle
 10
-963.7372939073999
 20
-508.0137206466
 30
0.0
 40
575.4898520099
100
AcDbArc
 50
272.4211574169
 51
272.648845204
  0
ARC
  5
527
330
20F
100
AcDbEntity
  8
0
  6
Continuous
 62
     7
100
AcDbCircle
 10
-804.3560581578999
 20
-982.7880368027999
 30
0.0
 40
126.3253672611
100
AcDbArc
 50
329.7117752746
 51
330.7175028209
  0
ARC
  5
528
330
20F
100
AcDbEntity
  8
0
  6
Continuous
 62
     7
100
AcDbCircle
 10
-799.5217104836999
 20
-985.6105977302
 30
0.0
 40
120.7273444606
100
AcDbArc
 50
327.1183039334
 51
329.7113363234
  0
ARC
  5
52A
330
20F
100
AcDbEntity
  8
0
  6
Continuous
 62
     7
100
AcDbCircle
 10
-759.7122117661999
 20
-1007.4545931961
 30
0.0
 40
83.99997730009999
100
AcDbArc
 50
287.1613511058
 51
292.2502685547
  0
ARC
  5
52B
330
20F
100
AcDbEntity
  8
0
  6
Continuous
 62
     7
100
AcDbCircle
 10
-759.7122117661999
 20
-1007.4545931961
 30
0.0
 40
83.99997730009999
100
AcDbArc
 50
323.1462802982
 51
351.0000130511
  0
ARC
  5
52C
330
20F
100
AcDbEntity
  8
02___PRT_ALL_AXES
  6
Continuous
 62
     7
100
AcDbCircle
 10
-759.7122118800999
 20
-1007.4545931848
 30
0.0
 40
83.9999772918
100
AcDbArc
 50
273.0113190794
 51
287.1613511778
  0
ARC
  5
52D
330
20F
100
AcDbEntity
  8
0
  6
Continuous
 62
     7
100
AcDbCircle
 10
-767.4745485121
 20
-1006.3065365674
 30
0.0
 40
82.57952215119999
100
AcDbArc
 50
297.7962046102
 51
327.1056129971
  0
ARC
  5
52E
330
20F
100
AcDbEntity
  8
02___PRT_ALL_AXES
  6
Continuous
 62
     7
100
AcDbCircle
 10
-754.5106041008
 20
-1106.3332588113
 30
0.0
 40
15.0
100
AcDbArc
 50
93.01134145
 51
155.2383656133
  0
ARC
  5
533
330
20F
100
AcDbEntity
  8
0
  6
Continuous
 62
     7
100
AcDbCircle
 10
-725.2231401955
 20
-1094.0505967869
 30
0.0
 40
1.0
100
AcDbArc
 50
185.5000001121
 51
270.0
  0
ARC
  5
535
330
20F
100
AcDbEntity
  8
0
  6
Continuous
 62
     7
100
AcDbCircle
 10
-685.5573402383001
 20
-1040.2006440378
 30
0.0
 40
5.268296969599999
100
AcDbArc
 50
154.6094860202
 51
174.4824229007
  0
ARC
  5
537
330
20F
100
AcDbEntity
  8
0
  6
Continuous
 62
     7
100
AcDbCircle
 10
-711.631476242
 20
-1086.5505967869
 30
0.0
 40
3.5
100
AcDbArc
 50
0.0
 51
180.0
  0
ARC
  5
538
330
20F
100
AcDbEntity
  8
0
  6
Continuous
 62
     7
100
AcDbCircle
 10
-697.0398122883999
 20
-1094.0505967869
 30
0.0
 40
1.0
100
AcDbArc
 50
270.0
 51
354.4999998879
  0
ARC
  5
539
330
20F
100
AcDbEntity
  8
0
  6
Continuous
 62
     7
100
AcDbCircle
 10
-707.131476242
 20
-1094.0505967869
 30
0.0
 40
1.0
100
AcDbArc
 50
180.0
 51
270.0
  0
ARC
  5
53A
330
20F
100
AcDbEntity
  8
0
  6
Continuous
 62
     7
100
AcDbCircle
 10
-716.1314762419999
 20
-1094.0505967869
 30
0.0
 40
1.0
100
AcDbArc
 50
270.0
 51
360.0
  0
ARC
  5
53E
330
20F
100
AcDbEntity
  8
06___PRT_ALL_SURFS
  6
Continuous
 62
     7
100
AcDbCircle
 10
-706.803879161
 20
-591.3388029291
 30
0.0
 40
81.737462704
100
AcDbArc
 50
279.318124043
 51
279.6818816003
  0
ARC
  5
546
330
20F
100
AcDbEntity
  8
0
  6
Continuous
 62
     7
100
AcDbCircle
 10
-805.9869530853999
 20
5376.1544929319
 30
0.0
 40
6461.5987121095
100
AcDbArc
 50
269.4657273148
 51
270.1209368806
  0
ARC
  5
547
330
20F
100
AcDbEntity
  8
0
  6
Continuous
 62
     7
100
AcDbCircle
 10
-2026.064030422
 20
1968.1439541923
 30
0.0
 40
2636.1953616802
100
AcDbArc
 50
269.5654746363
 51
269.9550655715
  0
ARC
  5
54A
330
20F
100
AcDbEntity
  8
0
  6
Continuous
 62
     7
100
AcDbCircle
 10
216.868898795
 20
-871.1841019182001
 30
0.0
 40
859.6610989134999
100
AcDbArc
 50
169.2161867195
 51
170.5247253262
  0
ARC
  5
551
330
20F
100
AcDbEntity
  8
06___PRT_ALL_SURFS
  6
Continuous
 62
     7
100
AcDbCircle
 10
-601.6666056766
 20
-729.6695640016
 30
0.0
 40
108.4997309849
100
AcDbArc
 50
147.8905480807
 51
171.2129558629
  0
ARC
  5
556
330
20F
100
AcDbEntity
  8
0
  6
Continuous
 62
     7
100
AcDbCircle
 10
-577.5940015773999
 20
-707.2934148949
 30
0.0
 40
48.9350407937
100
AcDbArc
 50
157.6030241914
 51
162.0603568472
  0
ARC
  5
557
330
20F
100
AcDbEntity
  8
0
  6
Continuous
 62
     7
100
AcDbCircle
 10
-577.5744974612999
 20
-707.0583992897999
 30
0.0
 40
48.90174113739999
100
AcDbArc
 50
170.2281688949
 51
170.9227791049
  0
ARC
  5
558
330
20F
100
AcDbEntity
  8
0
  6
Continuous
 62
     7
100
AcDbCircle
 10
-578.0601205971
 20
-707.1368866382
 30
0.0
 40
48.44337102549999
100
AcDbArc
 50
162.0666803055
 51
162.5133008588
  0
ARC
  5
559
330
20F
100
AcDbEntity
  8
0
  6
Continuous
 62
     7
100
AcDbCircle
 10
-578.2261710159999
 20
-707.0848740466
 30
0.0
 40
48.269365368
100
AcDbArc
 50
162.5129606176
 51
163.5094841694
  0
ARC
  5
55A
330
20F
100
AcDbEntity
  8
0
  6
Continuous
 62
     7
100
AcDbCircle
 10
-578.5348927062999
 20
-706.9939836556
 30
0.0
 40
47.94754257140001
100
AcDbArc
 50
163.5089094791
 51
164.9765136096
  0
ARC
  5
55B
330
20F
100
AcDbEntity
  8
0
  6
Continuous
 62
     7
100
AcDbCircle
 10
-579.128540248
 20
-706.8371668416999
 30
0.0
 40
47.333536906
100
AcDbArc
 50
164.9735775327
 51
167.7086909572
  0
ARC
  5
55C
330
20F
100
AcDbEntity
  8
0
  6
Continuous
 62
     7
100
AcDbCircle
 10
-579.6402147905
 20
-706.7223463066999
 30
0.0
 40
46.8091478982
100
AcDbArc
 50
167.7126840017
 51
168.2528709058
  0
ARC
  5
55D
330
20F
100
AcDbEntity
  8
0
  6
Continuous
 62
     7
100
AcDbCircle
 10
-580.0565886207
 20
-706.6375732666
 30
0.0
 40
46.3842355991
100
AcDbArc
 50
168.2506806432
 51
170.2118455014
  0
ARC
  5
55E
330
20F
100
AcDbEntity
  8
0
  6
Continuous
 62
     7
100
AcDbCircle
 10
-566.0754590003
 20
-669.5464416112001
 30
0.0
 40
20.0
100
AcDbArc
 50
4.2892850755
 51
60.92227210629999
  0
ARC
  5
55F
330
20F
100
AcDbEntity
  8
0
  6
Continuous
 62
     7
100
AcDbCircle
 10
-564.1314762419999
 20
-666.0505967868999
 30
0.0
 40
16.0
100
AcDbArc
 50
60.92227210629999
 51
90.0
  0
ARC
  5
561
330
20F
100
AcDbEntity
  8
06___PRT_ALL_SURFS
  6
Continuous
 62
     7
100
AcDbCircle
 10
38955.0849113559
 20
17407.2819644943
 30
0.0
 40
44603.1979111928
100
AcDbArc
 50
203.948189595
 51
204.3541822934
  0
SPLINE
  5
757
330
20F
100
AcDbEntity
  8
0
  6
Continuous
 62
     7
100
AcDbSpline
210
0.0
220
0.0
230
1.0
 70
     8
 71
     3
 72
    13
 73
     9
 74
     7
 42
0.0000000001
 43
0.0000000001
 44
0.0000000001
 12
0.1200908460393199
 22
0.9927629065882552
 32
0.0
 13
0.1649855290039921
 23
0.9862959876321474
 33
0.0
 40
0.0
 40
0.0
 40
0.0
 40
0.0
 40
1.301519518944398
 40
5.09435874048477
 40
11.00123279222073
 40
18.32158405362883
 40
26.27122850974701
 40
32.28692828774042
 40
32.28692828774042
 40
32.28692828774042
 40
32.28692828774042
 10
-635.7261037633
 20
-761.6108791988
 30
0.0
 10
-635.674003569911
 20
-761.1801790985971
 30
0.0
 10
-635.4682719005555
 20
-759.4945672562047
 30
0.0
 10
-635.0083060419366
 20
-755.8564202330286
 30
0.0
 10
-634.2466417038142
 20
-750.2343307655471
 30
0.0
 10
-633.2327580696564
 20
-743.2484611865065
 30
0.0
 10
-632.1473180429145
 20
-736.2366264685036
 30
0.0
 10
-631.3948160000672
 20
-731.6426902690448
 30
0.0
 10
-631.06398153
 20
-729.6649367510999
 30
0.0
 11
-635.7261037633
 21
-761.6108791988
 31
0.0
 11
-635.5684076599
 21
-760.3189484741999
 31
0.0
 11
-635.0923335065
 21
-756.5561060963
 31
0.0
 11
-634.3016504021
 21
-750.7023909263
 31
0.0
 11
-633.2519483245
 21
-743.4576916131
 31
0.0
 11
-632.035622255
 21
-735.601649488
 31
0.0
 11
-631.06398153
 21
-729.6649367510999
 31
0.0
  0
LINE
  5
758
330
20F
100
AcDbEntity
  8
0
  6
Continuous
 62
     7
100
AcDbLine
 10
-627.6108769636
 20
-710.3382127227
 30
0.0
 11
-627.5775040431
 21
-710.1626453727
 31
0.0
  0
SPLINE
  5
759
330
20F
100
AcDbEntity
  8
0
  6
Continuous
 62
     7
100
AcDbSpline
210
0.0
220
0.0
230
1.0
 70
     8
 71
     3
 72
    10
 73
     6
 74
     4
 42
0.0000000001
 43
0.0000000001
 44
0.0000000001
 12
-0.4118422429475787
 22
0.9112551601631167
 32
0.0
 13
-0.9160168000877566
 23
0.4011399032220391
 33
0.0
 40
0.0
 40
0.0
 40
0.0
 40
0.0
 40
32.08522830462659
 40
65.54649474428344
 40
84.26654633141351
 40
84.26654633141351
 40
84.26654633141351
 40
84.26654633141351
 10
-1909.7936665711
 20
-725.3952009213
 30
0.0
 10
-1914.198350701254
 20
-715.6492576354325
 30
0.0
 10
-1927.153265162088
 20
-697.4516737968329
 30
0.0
 10
-1949.522098169681
 20
-679.985753277324
 30
0.0
 10
-1965.002678873693
 20
-671.9490182815909
 30
0.0
 10
-1970.7186394578
 20
-669.4458983876
 30
0.0
 11
-1909.7936665711
 21
-725.3952009213
 31
0.0
 11
-1927.9462894011
 21
-698.9387431132001
 31
0.0
 11
-1954.1049991609
 21
-678.0730234887
 31
0.0
 11
-1970.7186394578
 21
-669.4458983876
 31
0.0
  0
LINE
  5
75A
330
20F
100
AcDbEntity
  8
0
  6
Continuous
 62
     7
100
AcDbLine
 10
-1549.0088015583
 20
-1066.0127631449
 30
0.0
 11
-1549.41743195
 21
-1066.0047680152
 31
0.0
  0
LINE
  5
75B
330
20F
100
AcDbEntity
  8
0
  6
Continuous
 62
     7
100
AcDbLine
 10
-1549.41743195
 20
-1066.0047680152
 30
0.0
 11
-1550.0059297344
 21
-1065.993834759
 31
0.0
  0
SPLINE
  5
75C
330
20F
100
AcDbEntity
  8
0
  6
Continuous
 62
     7
100
AcDbSpline
210
0.0
220
0.0
230
1.0
 70
     8
 71
     3
 72
     9
 73
     5
 74
     3
 42
0.0000000001
 43
0.0000000001
 44
0.0000000001
 12
-0.9841373058789454
 22
0.1774084642212177
 32
0.0
 13
-0.9878440045239839
 23
0.1554484568145314
 33
0.0
 40
0.0
 40
0.0
 40
0.0
 40
0.0
 40
3.747219356127084
 40
5.434197748404745
 40
5.434197748404745
 40
5.434197748404745
 40
5.434197748404745
 10
-1639.2711499223
 20
-1060.625089411
 30
0.0
 10
-1640.500409376192
 20
-1060.40349326731
 30
0.0
 10
-1642.285236218966
 20
-1060.094251261223
 30
0.0
 10
-1644.071678094542
 20
-1059.794330990952
 30
0.0
 10
-1644.6271685914
 20
-1059.7069182617
 30
0.0
 11
-1639.2711499223
 21
-1060.625089411
 31
0.0
 11
-1642.9626768821
 21
-1059.9814422965
 31
0.0
 11
-1644.6271685914
 21
-1059.7069182617
 31
0.0
  0
SPLINE
  5
75D
330
20F
100
AcDbEntity
  8
0
  6
Continuous
 62
     7
100
AcDbSpline
210
0.0
220
0.0
230
1.0
 70
     8
 71
     3
 72
    12
 73
     8
 74
     6
 42
0.0000000001
 43
0.0000000001
 44
0.0000000001
 12
-0.9878440045233142
 22
0.1554484568187869
 32
0.0
 13
0.9714852334851064
 23
-0.2371000656271272
 33
0.0
 40
0.0
 40
0.0
 40
0.0
 40
0.0
 40
3.00490373663241
 40
6.212563668465616
 40
7.755593169149102
 40
8.379114899115737
 40
8.942023737294398
 40
8.942023737294398
 40
8.942023737294398
 40
8.942023737294398
 10
-1644.6271685914
 20
-1059.7069182617
 30
0.0
 10
-1645.616627304868
 20
-1059.551215712117
 30
0.0
 10
-1647.811798973327
 20
-1059.243364859976
 30
0.0
 10
-1649.850939533123
 20
-1059.284721082813
 30
0.0
 10
-1652.559003027528
 20
-1058.929781281485
 30
0.0
 10
-1652.220712670474
 20
-1060.052675012268
 30
0.0
 10
-1651.841485598196
 20
-1060.222512559542
 30
0.0
 10
-1651.6591997235
 20
-1060.2670011337
 30
0.0
 11
-1644.6271685914
 21
-1059.7069182617
 31
0.0
 11
-1647.6087401086
 21
-1059.3331833901
 31
0.0
 11
-1650.8105174379
 21
-1059.1390077689
 31
0.0
 11
-1652.3323753603
 21
-1059.3937399891
 31
0.0
 11
-1652.1490728177
 21
-1059.989709389
 31
0.0
 11
-1651.6591997235
 21
-1060.2670011337
 31
0.0
  0
SPLINE
  5
75E
330
20F
100
AcDbEntity
  8
0
  6
Continuous
 62
     7
100
AcDbSpline
210
0.0
220
0.0
230
1.0
 70
     8
 71
     3
 72
    10
 73
     6
 74
     4
 42
0.0000000001
 43
0.0000000001
 44
0.0000000001
 12
0.1486255455172411
 22
-0.9888935469602897
 32
0.0
 13
0.9999989210052898
 23
-0.0014690092770225
 33
0.0
 40
0.0
 40
0.0
 40
0.0
 40
0.0
 40
0.4912709059525655
 40
1.030358200930006
 40
1.585718508689668
 40
1.585718508689668
 40
1.585718508689668
 40
1.585718508689668
 10
-1600.9217291854
 20
-1098.1724661303
 30
0.0
 10
-1600.897390716602
 20
-1098.334404339868
 30
0.0
 10
-1600.742457783526
 20
-1098.663388046943
 30
0.0
 10
-1600.294893524145
 20
-1098.978285439912
 30
0.0
 10
-1599.925809542243
 20
-1099.050324843752
 30
0.0
 10
-1599.7406896394
 20
-1099.0505967869
 30
0.0
 11
-1600.9217291854
 21
-1098.1724661303
 31
0.0
 11
-1600.7187570269
 21
-1098.6198467355
 31
0.0
 11
-1600.2848857389
 21
-1098.9398011339
 31
0.0
 11
-1599.7406896394
 21
-1099.0505967869
 31
0.0
  0
SPLINE
  5
761
330
20F
100
AcDbEntity
  8
0
  6
Continuous
 62
     7
100
AcDbSpline
210
0.0
220
0.0
230
1.0
 70
     8
 71
     3
 72
    10
 73
     6
 74
     4
 42
0.0000000001
 43
0.0000000001
 44
0.0000000001
 12
-0.1465660331348821
 22
-0.9892008885616229
 32
0.0
 13
-0.9999989210052937
 23
-0.0014690092744702
 33
0.0
 40
0.0
 40
0.0
 40
0.0
 40
0.0
 40
0.4914500849720757
 40
1.030562331934022
 40
1.585831921145337
 40
1.585831921145337
 40
1.585831921145337
 40
1.585831921145337
 10
-1582.3412232986
 20
-1098.1724661303
 30
0.0
 10
-1582.365233261746
 20
-1098.334513750546
 30
0.0
 10
-1582.520478641699
 20
-1098.663617936604
 30
0.0
 10
-1582.968098677646
 20
-1098.978338008926
 30
0.0
 10
-1583.33717318124
 20
-1099.050324888174
 30
0.0
 10
-1583.5222628446
 20
-1099.0505967869
 30
0.0
 11
-1582.3412232986
 21
-1098.1724661303
 31
0.0
 11
-1582.5441454116
 21
-1098.6200661773
 31
0.0
 11
-1582.9781401995
 21
-1098.9398950986
 31
0.0
 11
-1583.5222628446
 21
-1099.0505967869
 31
0.0
  0
LINE
  5
762
330
20F
100
AcDbEntity
  8
0
  6
Continuous
 62
     7
100
AcDbLine
 10
-2023.0873025944
 20
-650.0505967868999
 30
0.0
 11
-2028.131476242
 21
-650.0508086285
 31
0.0
  0
LINE
  5
767
330
20F
100
AcDbEntity
  8
0
  6
Continuous
 62
     7
100
AcDbLine
 10
-964.7364978336
 20
-1093.505635274
 30
0.0
 11
-964.2253557339
 21
-1093.5672412923
 31
0.0
  0
LINE
  5
768
330
20F
100
AcDbEntity
  8
0
  6
Continuous
 62
     7
100
AcDbLine
 10
-962.2278674844999
 20
-1093.8158898537
 30
0.0
 11
-961.7475617056999
 21
-1093.8775500426
 31
0.0
  0
LINE
  5
769
330
20F
100
AcDbEntity
  8
0
  6
Continuous
 62
     7
100
AcDbLine
 10
-960.8339361471001
 20
-1093.9968906125
 30
0.0
 11
-960.3952114182002
 21
-1094.0551859854
 31
0.0
  0
SPLINE
  5
77B
330
20F
100
AcDbEntity
  8
06___PRT_ALL_SURFS
  6
Continuous
 62
     7
100
AcDbSpline
210
0.0
220
0.0
230
1.0
 70
     8
 71
     3
 72
     9
 73
     5
 74
     3
 42
0.0000000001
 43
0.0000000001
 44
0.0000000001
 12
-0.5290649568877784
 22
-0.8485813286853142
 32
0.0
 13
-0.4718816180787838
 23
-0.8816619184922011
 33
0.0
 40
0.0
 40
0.0
 40
0.0
 40
0.0
 40
0.7738534648445994
 40
2.121979560714029
 40
2.121979560714029
 40
2.121979560714029
 40
2.121979560714029
 10
-1832.8422267217
 20
-668.0479321462001
 30
0.0
 10
-1832.978699638372
 20
-668.266824680002
 30
0.0
 10
-1833.34080230685
 20
-668.8746570443578
 30
0.0
 10
-1833.677127641302
 20
-669.4970903087154
 30
0.0
 10
-1833.8891796158
 20
-669.8932874553999
 30
0.0
 11
-1832.8422267217
 21
-668.0479321462001
 31
0.0
 11
-1833.2393779848
 21
-668.7121008441001
 31
0.0
 11
-1833.8891796158
 21
-669.8932874553999
 31
0.0
  0
SPLINE
  5
7EF
330
20F
100
AcDbEntity
  8
0
  6
Continuous
 62
     7
100
AcDbSpline
210
0.0
220
0.0
230
1.0
 70
     8
 71
     3
 72
     8
 73
     4
 74
     2
 42
0.0000000001
 43
0.0000000001
 44
0.0000000001
 12
-0.4100002311361052
 22
-0.9120854184057217
 32
0.0
 13
-0.0182150115206499
 23
-0.9998340929150709
 33
0.0
 40
0.0
 40
0.0
 40
0.0
 40
0.0
 40
0.1158602407636086
 40
0.1158602407636086
 40
0.1158602407636086
 40
0.1158602407636086
 10
-1651.6591997235
 20
-1060.2670011337
 30
0.0
 10
-1651.675033965331
 20
-1060.302225945758
 30
0.0
 10
-1651.685827841393
 20
-1060.34097777989
 30
0.0
 10
-1651.6865313066
 20
-1060.3795914528
 30
0.0
 11
-1651.6591997235
 21
-1060.2670011337
 31
0.0
 11
-1651.6865313066
 21
-1060.3795914528
 31
0.0
  0
SPLINE
  5
806
330
20F
100
AcDbEntity
  8
06___PRT_ALL_SURFS
  6
Continuous
 62
     7
100
AcDbSpline
210
0.0
220
0.0
230
1.0
 70
     8
 71
     3
 72
    12
 73
     8
 74
     6
 42
0.0000000001
 43
0.0000000001
 44
0.0000000001
 12
0.1508043314026241
 22
0.9885636315534814
 32
0.0
 13
0.1522246122386297
 23
0.9883459249821385
 33
0.0
 40
0.0
 40
0.0
 40
0.0
 40
0.0
 40
59.5157308995585
 40
121.5718033706443
 40
184.3793761276818
 40
246.2735182487449
 40
305.5781468760373
 40
305.5781468760373
 40
305.5781468760373
 40
305.5781468760373
 10
-755.0467303371
 20
-1015.1674059317
 30
0.0
 10
-752.0549870016846
 20
-995.5557102408242
 30
0.0
 10
-745.9505288995682
 20
-955.4941964850643
 30
0.0
 10
-736.6963188091847
 20
-894.7351180496552
 30
0.0
 10
-727.3101534020692
 20
-833.1941907848907
 30
0.0
 10
-718.0348844909818
 20
-772.5641084301331
 30
0.0
 10
-711.9005712803485
 20
-732.6329499964546
 30
0.0
 10
-708.8913632480999
 20
-713.0951206510001
 30
0.0
 11
-755.0467303371
 21
-1015.1674059317
 31
0.0
 11
-746.0787171427
 21
-956.3312183949999
 31
0.0
 11
-736.7319599663
 21
-894.9830785632
 31
0.0
 11
-727.2595374737
 21
-832.8939135844999
 31
0.0
 11
-717.8978324041001
 21
-771.7118630542
 31
0.0
 11
-708.8913632480999
 21
-713.0951206510001
 31
0.0
  0
SPLINE
  5
807
330
20F
100
AcDbEntity
  8
06___PRT_ALL_SURFS
  6
Continuous
 62
     7
100
AcDbSpline
210
0.0
220
0.0
230
1.0
 70
     8
 71
     3
 72
    14
 73
    10
 74
     8
 42
0.0000000001
 43
0.0000000001
 44
0.0000000001
 12
0.9999972473325671
 22
0.0023463433867632
 32
0.0
 13
0.1508832161093864
 23
0.9885515945546233
 33
0.0
 40
0.0
 40
0.0
 40
0.0
 40
0.0
 40
7.84318937566956
 40
15.57807767742507
 40
23.17206761053413
 40
30.62991880366414
 40
38.00097165952575
 40
45.33660589127887
 40
52.66344261339515
 40
52.66344261339515
 40
52.66344261339515
 40
52.66344261339515
 10
-792.4485431117
 20
-1045.8595804306
 30
0.0
 10
-789.8341538497074
 20
-1045.853446158759
 30
0.0
 10
-784.628253428604
 20
-1045.356796325223
 30
0.0
 10
-777.1773361804455
 20
-1043.147788224366
 30
0.0
 10
-770.4173041237266
 20
-1039.572174188159
 30
0.0
 10
-764.6118052762171
 20
-1034.781772590625
 30
0.0
 10
-759.9688346947568
 20
-1028.965166101657
 30
0.0
 10
-756.6561908759934
 20
-1022.352237410578
 30
0.0
 10
-755.4152292332804
 20
-1017.58172463993
 30
0.0
 10
-755.0467303371
 20
-1015.1674059317
 30
0.0
 11
-792.4485431117
 21
-1045.8595804306
 31
0.0
 11
-784.6419504074999
 21
-1045.1027912041
 31
0.0
 11
-777.2291451661999
 21
-1042.893987117
 31
0.0
 11
-770.5215719602001
 21
-1039.333489288
 31
0.0
 11
-764.7747395638
 21
-1034.5802312657
 31
0.0
 11
-760.179872001
 21
-1028.8165855198
 31
0.0
 11
-756.8960265039
 21
-1022.2570208747
 31
0.0
 11
-755.0467303371
 21
-1015.1674059317
 31
0.0
  0
SPLINE
  5
808
330
20F
100
AcDbEntity
  8
06___PRT_ALL_SURFS
  6
Continuous
 62
     7
100
AcDbSpline
210
0.0
220
0.0
230
1.0
 70
     8
 71
     3
 72
    36
 73
    32
 74
    30
 42
0.0000000001
 43
0.0000000001
 44
0.0000000001
 12
0.9994323351470054
 22
-0.0336898718104455
 32
0.0
 13
0.9999975927300154
 23
0.0021942046792614
 33
0.0
 40
0.0
 40
0.0
 40
0.0
 40
0.0
 40
51.40620489379313
 40
98.00447897711428
 40
139.9211365024428
 40
177.6902064014707
 40
212.5077365988298
 40
245.8104729488699
 40
278.7754701785948
 40
311.9151842533851
 40
345.1329653099897
 40
378.2479891339282
 40
411.3197006289633
 40
444.7925096927556
 40
478.453968911607
 40
510.623535230427
 40
539.6319019582713
 40
565.5502801074674
 40
589.4306425246733
 40
612.0154992115388
 40
633.2517614775724
 40
652.7939010373654
 40
671.0394743388928
 40
688.8383745254442
 40
706.677132941412
 40
724.5254040364938
 40
742.3773925965374
 40
760.5208690916253
 40
779.118320626439
 40
798.0524933464007
 40
817.1276694221377
 40
817.1276694221377
 40
817.1276694221377
 40
817.1276694221377
 10
-1609.2597554478
 20
-1024.4086691923
 30
0.0
 10
-1592.134080981783
 20
-1024.985958676678
 30
0.0
 10
-1559.484385320022
 20
-1026.084156972216
 30
0.0
 10
-1512.870105025614
 20
-1027.644231237913
 30
0.0
 10
-1470.798738905045
 20
-1029.04465173236
 30
0.0
 10
-1432.651870121115
 20
-1030.307091784154
 30
0.0
 10
-1397.374498431394
 20
-1031.467319792926
 30
0.0
 10
-1363.697371275046
 20
-1032.56735517573
 30
0.0
 10
-1330.578944167758
 20
-1033.640717826944
 30
0.0
 10
-1297.488503865889
 20
-1034.703349473726
 30
0.0
 10
-1264.34770855489
 20
-1035.755948525544
 30
0.0
 10
-1231.229132809595
 20
-1036.794003330455
 30
0.0
 10
-1198.025073706197
 20
-1037.818150608262
 30
0.0
 10
-1164.638337201298
 20
-1038.827677891823
 30
0.0
 10
-1131.551439156739
 20
-1039.803406957924
 30
0.0
 10
-1099.95121138327
 20
-1040.70671375348
 30
0.0
 10
-1070.930112758784
 20
-1041.506222014473
 30
0.0
 10
-1044.670233375533
 20
-1042.199971105398
 30
0.0
 10
-1020.550015071783
 20
-1042.807663012157
 30
0.0
 10
-997.9892610543068
 20
-1043.345668265932
 30
0.0
 10
-976.8734453313225
 20
-1043.817860538551
 30
0.0
 10
-957.2030186693735
 20
-1044.226323887026
 30
0.0
 10
-938.6775108424071
 20
-1044.579820375514
 30
0.0
 10
-920.7191036843568
 20
-1044.890123296436
 30
0.0
 10
-902.8925333449862
 20
-1045.16283050827
 30
0.0
 10
-885.0477122484859
 20
-1045.396802625115
 30
0.0
 10
-867.1008146403508
 20
-1045.589339901983
 30
0.0
 10
-848.9037576563907
 20
-1045.737557775395
 30
0.0
 10
-830.3456305062496
 20
-1045.836917089857
 30
0.0
 10
-811.4767234368317
 20
-1045.88199663667
 30
0.0
 10
-798.8069198305794
 20
-1045.873532044134
 30
0.0
 10
-792.4485431117
 20
-1045.8595804306
 30
0.0
 11
-1609.2597554478
 21
-1024.4086691923
 31
0.0
 11
-1557.8825969354
 21
-1026.1365247344
 31
0.0
 11
-1511.3103900914
 21
-1027.6949525396
 31
0.0
 11
-1469.4169280736
 21
-1029.089233092
 31
0.0
 11
-1431.6685175326
 21
-1030.3382898024
 31
0.0
 11
-1396.8697964065
 21
-1031.4825874175
 31
0.0
 11
-1363.5848054674
 21
-1032.5696139049
 31
0.0
 11
-1330.6371001259
 21
-1033.6372070322
 31
0.0
 11
-1297.5144509076
 21
-1034.7005779554
 31
0.0
 11
-1264.3134003556
 21
-1035.7547224275
 31
0.0
 11
-1231.2146167102
 21
-1036.7917007566
 31
0.0
 11
-1198.1586078452
 21
-1037.8107096515
 31
0.0
 11
-1164.7010676236
 21
-1038.8216245545
 31
0.0
 11
-1131.054206806
 21
-1039.8128832813
 31
0.0
 11
-1098.897744266
 21
-1040.730986791
 31
0.0
 11
-1069.9003512227
 21
-1041.5288194235
 31
0.0
 11
-1043.9909894693
 21
-1042.2124124429
 31
0.0
 11
-1020.1181814033
 21
-1042.8130323069
 31
0.0
 11
-997.5397239239999
 21
-1043.350628272
 31
0.0
 11
-976.3087516782
 21
-1043.8246035138
 31
0.0
 11
-956.7708097711999
 21
-1044.2296277268
 31
0.0
 11
-938.5285457032001
 21
-1044.5771140931
 31
0.0
 11
-920.7322917934
 21
-1044.8840255278
 31
0.0
 11
-902.8956111517999
 21
-1045.1562855374
 31
0.0
 11
-885.0488663710999
 21
-1045.3896989391
 31
0.0
 11
-867.1978993527998
 21
-1045.5806755332
 31
0.0
 11
-849.0550209193999
 21
-1045.7279897507
 31
0.0
 11
-830.4578340587999
 21
-1045.8272090113
 31
0.0
 11
-811.5237149649001
 21
-1045.8722726036
 31
0.0
 11
-792.4485431117
 21
-1045.8595804306
 31
0.0
  0
SPLINE
  5
80A
330
20F
100
AcDbEntity
  8
06___PRT_ALL_SURFS
  6
Continuous
 62
     7
100
AcDbSpline
210
0.0
220
0.0
230
1.0
 70
     8
 71
     3
 72
    18
 73
    14
 74
    12
 42
0.0000000001
 43
0.0000000001
 44
0.0000000001
 12
-0.9994323289746901
 22
0.0336900549157574
 32
0.0
 13
-0.4114166773538139
 23
0.9114473751101309
 33
0.0
 40
0.0
 40
0.0
 40
0.0
 40
0.0
 40
4.597141966776887
 40
9.578180885014132
 40
15.00377941225853
 40
20.93435500289166
 40
27.43530959853174
 40
34.57445990140378
 40
42.43474163799724
 40
51.12798110767513
 40
60.81252207586416
 40
71.68836075470723
 40
83.89469110003368
 40
83.89469110003368
 40
83.89469110003368
 40
83.89469110003368
 10
-1609.2597554478
 20
-1024.4086691923
 30
0.0
 10
-1610.791266215294
 20
-1024.357043203861
 30
0.0
 10
-1613.980632725536
 20
-1024.194410631768
 30
0.0
 10
-1618.963232279144
 20
-1023.746956111902
 30
0.0
 10
-1624.361811018035
 20
-1023.015540279374
 30
0.0
 10
-1630.212862888309
 20
-1021.904321824612
 30
0.0
 10
-1636.537829756073
 20
-1020.286448420529
 30
0.0
 10
-1643.336538788951
 20
-1017.994280940237
 30
0.0
 10
-1650.575471820634
 20
-1014.805189328286
 30
0.0
 10
-1658.166852813931
 20
-1010.420416738103
 30
0.0
 10
-1665.91381804199
 20
-1004.438765675876
 30
0.0
 10
-1673.381004337963
 20
-996.3897158353784
 30
0.0
 10
-1677.386344961947
 20
-989.7262566692583
 30
0.0
 10
-1679.0603075864
 20
-986.0177807516
 30
0.0
 11
-1609.2597554478
 21
-1024.4086691923
 31
0.0
 11
-1613.850831720499
 21
-1024.1725909829
 31
0.0
 11
-1618.8116817769
 21
-1023.7245782343
 31
0.0
 11
-1624.1877171364
 21
-1022.9928930614
 31
0.0
 11
-1630.0133169002
 21
-1021.8819861219
 31
0.0
 11
-1636.3099703769
 21
-1020.2650242643
 31
0.0
 11
-1643.0722217914
 21
-1017.976045703
 31
0.0
 11
-1650.2604812525
 21
-1014.795958456
 31
0.0
 11
-1657.7792686054
 21
-1010.4324450529
 31
0.0
 11
-1665.4298679426
 21
-1004.494544452
 31
0.0
 11
-1672.7992122169
 21
-996.4960050893999
 31
0.0
 11
-1679.0603075864
 21
-986.0177807516
 31
0.0
  0
SPLINE
  5
819
330
20F
100
AcDbEntity
  8
06___PRT_ALL_SURFS
  6
Continuous
 62
     7
100
AcDbSpline
210
0.0
220
0.0
230
1.0
 70
     8
 71
     3
 72
    10
 73
     6
 74
     4
 42
0.0000000001
 43
0.0000000001
 44
0.0000000001
 12
-0.4792327712071981
 22
0.8776878437127116
 32
0.0
 13
-0.9159200907928159
 23
0.4013606698246354
 33
0.0
 40
0.0
 40
0.0
 40
0.0
 40
0.0
 40
25.79230816189967
 40
59.24263007784597
 40
77.91750593230378
 40
77.91750593230378
 40
77.91750593230378
 40
77.91750593230378
 10
-1912.6447715341
 20
-719.676062395
 30
0.0
 10
-1916.764944639519
 20
-712.1301972833362
 30
0.0
 10
-1928.818131493922
 20
-696.1650835086467
 30
0.0
 10
-1949.522649691105
 20
-679.9810329015806
 30
0.0
 10
-1964.98275047888
 20
-671.9569325400124
 30
0.0
 10
-1970.6843151416
 20
-669.4584789794
 30
0.0
 11
-1912.6447715341
 21
-719.676062395
 31
0.0
 11
-1927.9592993448
 21
-698.9225470722
 31
0.0
 11
-1954.1115341722
 21
-678.0662614534
 31
0.0
 11
-1970.6843151416
 21
-669.4584789794
 31
0.0
  0
SPLINE
  5
81A
330
20F
100
AcDbEntity
  8
02___PRT_ALL_AXES
  6
Continuous
 62
     7
100
AcDbSpline
210
0.0
220
0.0
230
1.0
 70
     8
 71
     3
 72
    30
 73
    26
 74
    24
 42
0.0000000001
 43
0.0000000001
 44
0.0000000001
 12
-0.989569234272357
 22
0.1440580805842602
 32
0.0
 13
-0.9951423490830887
 23
0.0984464578407566
 33
0.0
 40
0.0
 40
0.0
 40
0.0
 40
0.0
 40
1.013415794241681
 40
2.308010018045682
 40
3.733350539432821
 40
5.212781979015217
 40
6.71213910440996
 40
8.231799500648467
 40
9.793009614145633
 40
11.41006635607869
 40
13.07319153623729
 40
14.74828686175292
 40
16.38983119396461
 40
17.96018316544903
 40
19.44584136842729
 40
20.86363759663338
 40
22.25512212686656
 40
23.67020865841196
 40
25.14760833069973
 40
26.70225754927455
 40
28.33104938303409
 40
30.02828182770577
 40
31.8004608949079
 40
33.66793096410543
 40
35.66318313743359
 40
35.66318313743359
 40
35.66318313743359
 40
35.66318313743359
 10
-757.2307926195
 20
-1091.342396406
 30
0.0
 10
-757.5650743166691
 20
-1091.293732827949
 30
0.0
 10
-758.3244370781187
 20
-1091.16944923837
 30
0.0
 10
-759.546662866083
 20
-1090.934454838413
 30
0.0
 10
-760.9133190605438
 20
-1090.630875707273
 30
0.0
 10
-762.3385620902413
 20
-1090.278612538145
 30
0.0
 10
-763.7891007638359
 20
-1089.898592673184
 30
0.0
 10
-765.2654602224247
 20
-1089.509611941897
 30
0.0
 10
-766.7835352794359
 20
-1089.12506832766
 30
0.0
 10
-768.3542548433575
 20
-1088.754301655651
 30
0.0
 10
-769.9687773390615
 20
-1088.405085456141
 30
0.0
 10
-771.5973992612073
 20
-1088.08382353305
 30
0.0
 10
-773.2005546986665
 20
-1087.794475760819
 30
0.0
 10
-774.7451996792822
 20
-1087.537400052483
 30
0.0
 10
-776.2189273159393
 20
-1087.309175178421
 30
0.0
 10
-777.6357196426011
 20
-1087.10335809281
 30
0.0
 10
-779.0308023151915
 20
-1086.912074068876
 30
0.0
 10
-780.4469143988137
 20
-1086.728185942909
 30
0.0
 10
-781.9181945399361
 20
-1086.547054010305
 30
0.0
 10
-783.4612193380803
 20
-1086.36591736442
 30
0.0
 10
-785.0778897711668
 20
-1086.183796568782
 30
0.0
 10
-786.7673641605204
 20
-1086.00034747012
 30
0.0
 10
-788.5365715853624
 20
-1085.814294959186
 30
0.0
 10
-790.4051156530324
 20
-1085.623080216985
 30
0.0
 10
-791.6863118843069
 20
-1085.495070997154
 30
0.0
 10
-792.3481651958999
 20
-1085.4295958275
 30
0.0
 11
-757.2307926195
 21
-1091.342396406
 31
0.0
 11
-758.2312000479999
 21
-1091.1805429259
 31
0.0
 11
-759.502665575
 21
-1090.9369251557
 31
0.0
 11
-760.8944368394999
 21
-1090.6294054828
 31
0.0
 11
-762.3312599539
 21
-1090.2769048128
 31
0.0
 11
-763.7824646574999
 21
-1089.8999741856
 31
0.0
 11
-765.2526700286999
 21
-1089.5154434503
 31
0.0
 11
-766.7664848267999
 21
-1089.1336820385
 31
0.0
 11
-768.3404113169
 21
-1088.7626996799
 31
0.0
 11
-769.9658956958999
 21
-1088.4108674777
 31
0.0
 11
-771.6092159553999
 21
-1088.086147792
 31
0.0
 11
-773.2245579641999
 21
-1087.7940211256
 31
0.0
 11
-774.7735275253999
 21
-1087.5357603798
 31
0.0
 11
-776.2416333874999
 21
-1087.3080643681
 31
0.0
 11
-777.6446651697999
 21
-1087.1039860435
 31
0.0
 11
-779.0232245283999
 21
-1086.9147684632
 31
0.0
 11
-780.4265079536
 21
-1086.7323800855
 31
0.0
 11
-781.8927985522
 21
-1086.5515440489
 31
0.0
 11
-783.4368085158001
 21
-1086.3699747092
 31
0.0
 11
-785.0553368264999
 21
-1086.1874125412
 31
0.0
 11
-786.7426271937
 21
-1086.0039753912
 31
0.0
 11
-788.5050649619
 21
-1085.8184174233
 31
0.0
 11
-790.3628153517999
 21
-1085.6281335612
 31
0.0
 11
-792.3481651958999
 21
-1085.4295958275
 31
0.0
  0
SPLINE
  5
81B
330
20F
100
AcDbEntity
  8
0
  6
Continuous
 62
     7
100
AcDbSpline
210
0.0
220
0.0
230
1.0
 70
     8
 71
     3
 72
    13
 73
     9
 74
     7
 42
0.0000000001
 43
0.0000000001
 44
0.0000000001
 12
0.9931861464487099
 22
0.1165387424951975
 32
0.0
 13
-0.9989007462987927
 23
0.0468753564649363
 33
0.0
 40
0.0
 40
0.0
 40
0.0
 40
0.0
 40
0.100088275391287
 40
0.3654207977475028
 40
0.9189297922338756
 40
1.411036133552755
 40
2.104626827857732
 40
3.012481228601891
 40
3.012481228601891
 40
3.012481228601891
 40
3.012481228601891
 10
-863.9613851771001
 20
-1085.4784340186
 30
0.0
 10
-863.9282497475864
 20
-1085.474545964682
 30
0.0
 10
-863.8172220438946
 20
-1085.459545240312
 30
0.0
 10
-863.3650327761333
 20
-1085.36127435951
 30
0.0
 10
-864.2280766590358
 20
-1085.291445678943
 30
0.0
 10
-864.6707082279778
 20
-1085.250253002275
 30
0.0
 10
-865.4198040888328
 20
-1085.204211919996
 30
0.0
 10
-865.937025811122
 20
-1085.177792872384
 30
0.0
 10
-866.2393112906
 20
-1085.1636075395
 30
0.0
 11
-863.9613851771001
 21
-1085.4784340186
 31
0.0
 11
-863.8622684438001
 21
-1085.4645222951
 31
0.0
 11
-863.6057486203998
 21
-1085.3967069014
 31
0.0
 11
-864.1501742807999
 21
-1085.2968424569
 31
0.0
 11
-864.6405300280001
 21
-1085.255370872
 31
0.0
 11
-865.3326726043999
 21
-1085.2105746092
 31
0.0
 11
-866.2393112906
 21
-1085.1636075395
 31
0.0
  0
SPLINE
  5
820
330
20F
100
AcDbEntity
  8
0
  6
Continuous
 62
     7
100
AcDbSpline
210
0.0
220
0.0
230
1.0
 70
     8
 71
     3
 72
    17
 73
    13
 74
    11
 42
0.0000000001
 43
0.0000000001
 44
0.0000000001
 12
0.0739448781570475
 22
0.9972623300788711
 32
0.0
 13
-0.4892355322192845
 23
-0.872151703555129
 33
0.0
 40
0.0
 40
0.0
 40
0.0
 40
0.0
 40
0.5443032466875773
 40
0.990622735295018
 40
1.526911171195763
 40
2.1488522854489
 40
2.850253834512527
 40
3.632307820582376
 40
4.501778185943035
 40
5.467346332424316
 40
6.537430350846707
 40
7.718227001330779
 40
7.718227001330779
 40
7.718227001330779
 40
7.718227001330779
 10
-690.3166845547
 20
-1037.9417000812
 30
0.0
 10
-690.3032684089478
 20
-1037.760762373179
 30
0.0
 10
-690.8313104654256
 20
-1038.317582332353
 30
0.0
 10
-690.9611916898772
 20
-1038.660268195675
 30
0.0
 10
-691.2568230379289
 20
-1039.159573742053
 30
0.0
 10
-691.5367362612061
 20
-1039.69580203527
 30
0.0
 10
-691.8695046926427
 20
-1040.319174407013
 30
0.0
 10
-692.2349743439261
 20
-1041.011405086552
 30
0.0
 10
-692.6448920359011
 20
-1041.782005331664
 30
0.0
 10
-693.1029361965833
 20
-1042.635036055878
 30
0.0
 10
-693.6160027979821
 20
-1043.576517440812
 30
0.0
 10
-693.9801443006525
 20
-1044.232520683443
 30
0.0
 10
-694.1727068599
 20
-1044.5757986202
 30
0.0
 11
-690.3166845547
 21
-1037.9417000812
 31
0.0
 11
-690.7495624496999
 21
-1038.2716739474
 31
0.0
 11
-690.9736461403999
 21
-1038.6576630476
 31
0.0
 11
-691.232667506
 21
-1039.1272513978
 31
0.0
 11
-691.5269780289999
 21
-1039.6751492584
 31
0.0
 11
-691.8558520206
 21
-1040.2946700657
 31
0.0
 11
-692.2218797486
 21
-1040.9857794199
 31
0.0
 11
-692.6302672808999
 21
-1041.7533719809
 31
0.0
 11
-693.0873026982001
 21
-1042.6039250203
 31
0.0
 11
-693.5994943928999
 21
-1043.5434671824
 31
0.0
 11
-694.1727068599
 21
-1044.5757986202
 31
0.0
  0
SPLINE
  5
821
330
20F
100
AcDbEntity
  8
0
  6
Continuous
 62
     7
100
AcDbSpline
210
0.0
220
0.0
230
1.0
 70
     8
 71
     3
 72
    15
 73
    11
 74
     9
 42
0.0000000001
 43
0.0000000001
 44
0.0000000001
 12
-0.8843985515300834
 22
-0.4667324737486032
 32
0.0
 13
-0.3742461563334998
 23
-0.9273293991185665
 33
0.0
 40
0.0
 40
0.0
 40
0.0
 40
0.0
 40
0.9719132390176522
 40
2.013727879616582
 40
3.106338088454408
 40
4.216584263771244
 40
5.275269883467357
 40
6.173137866355641
 40
6.793987651218615
 40
7.013074092693593
 40
7.013074092693593
 40
7.013074092693593
 40
7.013074092693593
 10
-728.9650187469
 20
-1079.3580880891
 30
0.0
 10
-729.2515383005
 20
-1079.509295912538
 30
0.0
 10
-729.8452324010029
 20
-1079.822456235802
 30
0.0
 10
-730.7614915884181
 20
-1080.304951985367
 30
0.0
 10
-731.7177126818311
 20
-1080.809583299297
 30
0.0
 10
-732.6803822193304
 20
-1081.317601200695
 30
0.0
 10
-733.5724566134229
 20
-1081.807898706778
 30
0.0
 10
-734.3411863385874
 20
-1082.218634223849
 30
0.0
 10
-734.7881294250953
 20
-1082.553788794308
 30
0.0
 10
-735.0542867395244
 20
-1082.703479497857
 30
0.0
 10
-735.0816174924
 20
-1082.7712012639
 30
0.0
 11
-728.9650187469
 21
-1079.3580880891
 31
0.0
 11
-729.8246899789999
 21
-1079.811498187
 31
0.0
 11
-730.7463768397999
 21
-1080.297163788
 31
0.0
 11
-731.7127606017
 21
-1080.8069671748
 31
0.0
 11
-732.6931702466001
 21
-1081.3279695721
 31
0.0
 11
-733.6234609311999
 21
-1081.8333154769
 31
0.0
 11
-734.4020087800998
 21
-1082.2805627929
 31
0.0
 11
-734.9188504041999
 21
-1082.6245528959
 31
0.0
 11
-735.0816174924
 21
-1082.7712012639
 31
0.0
  0
LINE
  5
822
330
20F
100
AcDbEntity
  8
0
  6
Continuous
 62
     7
100
AcDbLine
 10
-735.0873683930999
 20
-1082.8288085299
 30
0.0
 11
-735.0368931518
 21
-1083.0903521712
 31
0.0
  0
SPLINE
  5
823
330
20F
100
AcDbEntity
  8
0
  6
Continuous
 62
     7
100
AcDbSpline
210
0.0
220
0.0
230
1.0
 70
     8
 71
     3
 72
    10
 73
     6
 74
     4
 42
0.0000000001
 43
0.0000000001
 44
0.0000000001
 12
0.1894675132091898
 22
-0.9818869901563649
 32
0.0
 13
0.9441182414320142
 23
0.3296069571403511
 33
0.0
 40
0.0
 40
0.0
 40
0.0
 40
0.0
 40
0.4445855102408341
 40
1.075828619325607
 40
1.802428413288194
 40
1.802428413288194
 40
1.802428413288194
 40
1.802428413288194
 10
-735.0284736939999
 20
-1083.1339824757
 30
0.0
 10
-735.0003955236551
 20
-1083.279493385206
 30
0.0
 10
-734.4375322206671
 20
-1083.072897419205
 30
0.0
 10
-733.9723362894424
 20
-1082.997591065914
 30
0.0
 10
-733.5069380713336
 20
-1082.844933620582
 30
0.0
 10
-733.2782726980999
 20
-1082.7651028382
 30
0.0
 11
-735.0284736939999
 21
-1083.1339824757
 31
0.0
 11
-734.5838944738
 21
-1083.1363474033
 31
0.0
 11
-733.9721049425999
 21
-1082.9808436018
 31
0.0
 11
-733.2782726980999
 21
-1082.7651028382
 31
0.0
  0
SPLINE
  5
826
330
20F
100
AcDbEntity
  8
0
  6
Continuous
 62
     7
100
AcDbSpline
210
0.0
220
0.0
230
1.0
 70
     8
 71
     3
 72
    12
 73
     8
 74
     6
 42
0.0000000001
 43
0.0000000001
 44
0.0000000001
 12
-0.9999479138146641
 22
-0.0102063537907049
 32
0.0
 13
0.9812299856945669
 23
-0.1928411656618998
 33
0.0
 40
0.0
 40
0.0
 40
0.0
 40
0.0
 40
0.8606138879689217
 40
1.521027261274952
 40
2.036418169333512
 40
2.387405246482033
 40
2.556026720228636
 40
2.556026720228636
 40
2.556026720228636
 40
2.556026720228636
 10
-983.6281757016001
 20
-1083.2571949242
 30
0.0
 10
-983.9150320555582
 20
-1083.260122834139
 30
0.0
 10
-984.4047053710268
 20
-1083.272079394104
 30
0.0
 10
-985.1420453525497
 20
-1083.270150619986
 30
0.0
 10
-985.5070102425116
 20
-1083.333042412748
 30
0.0
 10
-986.1511929006791
 20
-1083.266430593033
 30
0.0
 10
-985.9242905289574
 20
-1083.412915348349
 30
0.0
 10
-985.8691383802
 20
-1083.4237544022
 30
0.0
 11
-983.6281757016001
 21
-1083.2571949242
 31
0.0
 11
-984.4887035479999
 21
-1083.2693641368
 31
0.0
 11
-985.1489162293999
 21
-1083.285644154
 31
0.0
 11
-985.6638455107001
 21
-1083.3074529451
 31
0.0
 11
-986.0136043655
 21
-1083.3367901538
 31
0.0
 11
-985.8691383802
 21
-1083.4237544022
 31
0.0
  0
LINE
  5
828
330
20F
100
AcDbEntity
  8
0
  6
Continuous
 62
     7
100
AcDbLine
 10
-1537.3223291967
 20
-1066.4469670886
 30
0.0
 11
-1534.1387089765
 21
-1066.5534799222
 31
0.0
  0
SPLINE
  5
829
330
20F
100
AcDbEntity
  8
0
  6
Continuous
 62
     7
100
AcDbSpline
210
0.0
220
0.0
230
1.0
 70
     8
 71
     3
 72
    23
 73
    19
 74
    17
 42
0.0000000001
 43
0.0000000001
 44
0.0000000001
 12
0.9994410009765941
 22
-0.0334318047210128
 32
0.0
 13
0.999759419776001
 23
-0.0219340504502474
 33
0.0
 40
0.0
 40
0.0
 40
0.0
 40
0.0
 40
44.47924531642606
 40
86.93039870465353
 40
125.4292438920239
 40
161.7199229788369
 40
197.3651317299226
 40
233.1114299604281
 40
268.9275271751951
 40
304.659952933428
 40
340.6076878633171
 40
377.0241287587449
 40
412.8703365482451
 40
446.1864083093405
 40
475.896359866351
 40
502.6310198892871
 40
527.4865651215111
 40
550.7663581601572
 40
550.7663581601572
 40
550.7663581601572
 40
550.7663581601572
 10
-1534.1387089765
 20
-1066.5534799222
 30
0.0
 10
-1519.320581822589
 20
-1067.049153736719
 30
0.0
 10
-1490.35989859516
 20
-1068.015461728012
 30
0.0
 10
-1448.573132542854
 20
-1069.40154699883
 30
0.0
 10
-1409.514108192866
 20
-1070.688674771775
 30
0.0
 10
-1372.722215514965
 20
-1071.892382326103
 30
0.0
 10
-1336.847034449133
 20
-1073.056473154438
 30
0.0
 10
-1301.129600815518
 20
-1074.204188698652
 30
0.0
 10
-1265.382679259936
 20
-1075.339368639876
 30
0.0
 10
-1229.568132895804
 20
-1076.460421312629
 30
0.0
 10
-1193.552951355041
 20
-1077.567821021401
 30
0.0
 10
-1157.499107048583
 20
-1078.651651776684
 30
0.0
 10
-1122.3211967505
 20
-1079.679117832787
 30
0.0
 10
-1089.376860895164
 20
-1080.60759830795
 30
0.0
 10
-1059.467543232448
 20
-1081.41579602609
 30
0.0
 10
-1032.376463217185
 20
-1082.113400586073
 30
0.0
 10
-1007.427187490717
 20
-1082.721050447242
 30
0.0
 10
-991.3862398285408
 20
-1083.086988205873
 30
0.0
 10
-983.6281757016001
 20
-1083.2571949242
 30
0.0
 11
-1534.1387089765
 21
-1066.5534799222
 31
0.0
 11
-1489.6841946185
 21
-1068.0365231155
 31
0.0
 11
-1447.2563674721
 21
-1069.4436150194
 31
0.0
 11
-1408.7784008639
 21
-1070.7113557103
 31
0.0
 11
-1372.5071205074
 21
-1071.897783071
 31
0.0
 11
-1336.8806529044
 21
-1073.0535135936
 31
0.0
 11
-1301.1527834851
 21
-1074.2011999365
 31
0.0
 11
-1265.3547172524
 21
-1075.3375421811
 31
0.0
 11
-1229.6397655584
 21
-1076.4548944366
 31
0.0
 11
-1193.7089885632
 21
-1077.5589375113
 31
0.0
 11
-1157.3089602744
 21
-1078.6521474933
 31
0.0
 11
-1121.4779952995
 21
-1079.6974043304
 31
0.0
 11
-1088.1751094293
 21
-1080.6346504597
 31
0.0
 11
-1058.4759660808
 21
-1081.435965557
 31
0.0
 11
-1031.7501375936
 21
-1082.1230887008
 31
0.0
 11
-1006.9019359685
 21
-1082.7272449633
 31
0.0
 11
-983.6281757016001
 21
-1083.2571949242
 31
0.0
  0
SPLINE
  5
82B
330
20F
100
AcDbEntity
  8
0
  6
Continuous
 62
     7
100
AcDbSpline
210
0.0
220
0.0
230
1.0
 70
     8
 71
     3
 72
    11
 73
     7
 74
     5
 42
0.0000000001
 43
0.0000000001
 44
0.0000000001
 12
0.9999998207195041
 22
0.0005987995986296
 32
0.0
 13
-0.9991255690902084
 23
0.0418102522136306
 33
0.0
 40
0.0
 40
0.0
 40
0.0
 40
0.0
 40
0.1362130734994416
 40
0.5833446453396224
 40
2.386324913021463
 40
3.257922429067742
 40
3.257922429067742
 40
3.257922429067742
 40
3.257922429067742
 10
-1532.1930318521
 20
-1066.7169280151
 30
0.0
 10
-1532.147627502407
 20
-1066.716900826989
 30
0.0
 10
-1531.8783809267
 20
-1066.695556322912
 30
0.0
 10
-1533.424895182218
 20
-1066.613780366341
 30
0.0
 10
-1533.898065842677
 20
-1066.585702605914
 30
0.0
 10
-1534.883526516854
 20
-1066.551772323925
 30
0.0
 10
-1535.1738049716
 20
-1066.5396250866
 30
0.0
 11
-1532.1930318521
 21
-1066.7169280151
 31
0.0
 11
-1532.0571805829
 21
-1066.7070066216
 31
0.0
 11
-1532.5020904915
 21
-1066.6624890322
 31
0.0
 11
-1534.3028404971
 21
-1066.5728382487
 31
0.0
 11
-1535.1738049716
 21
-1066.5396250866
 31
0.0
  0
SPLINE
  5
838
330
20F
100
AcDbEntity
  8
0
  6
Continuous
 62
     7
100
AcDbSpline
210
0.0
220
0.0
230
1.0
 70
     8
 71
     3
 72
    15
 73
    11
 74
     9
 42
0.0000000001
 43
0.0000000001
 44
0.0000000001
 12
-0.9985652216927615
 22
0.0535490245073239
 32
0.0
 13
-0.9992509528452632
 23
-0.0386979745960115
 33
0.0
 40
0.0
 40
0.0
 40
0.0
 40
0.0
 40
2.394705094516366
 40
4.845445047636721
 40
7.232173391134405
 40
9.491428667134284
 40
11.58881026588699
 40
13.50125081613342
 40
15.19387103225184
 40
16.69143723009275
 40
16.69143723009275
 40
16.69143723009275
 40
16.69143723009275
 10
-866.7459183286
 20
-1085.1382200783
 30
0.0
 10
-867.5430080697982
 20
-1085.095475371035
 30
0.0
 10
-869.1546915961779
 20
-1084.988975734123
 30
0.0
 10
-871.560658020919
 20
-1084.83756860801
 30
0.0
 10
-873.9233058047108
 20
-1084.718027151266
 30
0.0
 10
-876.1699178564477
 20
-1084.641798955032
 30
0.0
 10
-878.2594665315539
 20
-1084.60877690617
 30
0.0
 10
-880.1603715758867
 20
-1084.61281948494
 30
0.0
 10
-881.8610249519533
 20
-1084.643929416823
 30
0.0
 10
-882.9238980597862
 20
-1084.678334441907
 30
0.0
 10
-883.4227128765
 20
-1084.6976520348
 30
0.0
 11
-866.7459183286
 21
-1085.1382200783
 31
0.0
 11
-869.1361210386999
 21
-1084.9914430558
 31
0.0
 11
-871.5822579096
 21
-1084.8413073617
 31
0.0
 11
-873.9660360221
 21
-1084.7226730664
 31
0.0
 11
-876.2240250175999
 21
-1084.6470417347
 31
0.0
 11
-878.3211519618999
 21
-1084.6143591663
 31
0.0
 11
-880.233588155
 21
-1084.6184415122
 31
0.0
 11
-881.9259265336999
 21
-1084.649328532
 31
0.0
 11
-883.4227128765
 21
-1084.6976520348
 31
0.0
  0
SPLINE
  5
839
330
20F
100
AcDbEntity
  8
0
  6
Continuous
 62
     7
100
AcDbSpline
210
0.0
220
0.0
230
1.0
 70
     8
 71
     3
 72
    12
 73
     8
 74
     6
 42
0.0000000001
 43
0.0000000001
 44
0.0000000001
 12
-0.9992516957984575
 22
-0.038678785450256
 32
0.0
 13
-0.9993339866794785
 23
0.036490862791938
 33
0.0
 40
0.0
 40
0.0
 40
0.0
 40
0.0
 40
1.329574090057202
 40
2.6078804936937
 40
3.783310404491784
 40
4.842795305899
 40
5.497748015822274
 40
5.497748015822274
 40
5.497748015822274
 40
5.497748015822274
 10
-883.4227128765
 20
-1084.6976520348
 30
0.0
 10
-883.8655725978931
 20
-1084.714794138456
 30
0.0
 10
-884.7347035371596
 20
-1084.73613870516
 30
0.0
 10
-885.9958323483974
 20
-1084.743138137879
 30
0.0
 10
-887.166895310013
 20
-1084.732653193323
 30
0.0
 10
-888.1299856182403
 20
-1084.711907313188
 30
0.0
 10
-888.7011795744353
 20
-1084.693617355191
 30
0.0
 10
-888.919351742
 20
-1084.6856507587
 30
0.0
 11
-883.4227128765
 21
-1084.6976520348
 31
0.0
 11
-884.7518363642
 21
-1084.7322643938
 31
0.0
 11
-886.0301186980001
 21
-1084.7401089252
 31
0.0
 11
-887.2055026454999
 21
-1084.7297141593
 31
0.0
 11
-888.2647379647998
 21
-1084.7067186237
 31
0.0
 11
-888.919351742
 21
-1084.6856507587
 31
0.0
  0
SPLINE
  5
83A
330
20F
100
AcDbEntity
  8
0
  6
Continuous
 62
     7
100
AcDbSpline
210
0.0
220
0.0
230
1.0
 70
     8
 71
     3
 72
     8
 73
     4
 74
     2
 42
0.0000000001
 43
0.0000000001
 44
0.0000000001
 12
-0.9969884925114012
 22
0.0775496344275308
 32
0.0
 13
-0.9968554312084137
 23
0.0792417142058871
 33
0.0
 40
0.0
 40
0.0
 40
0.0
 40
0.0
 40
0.9919642376098275
 40
0.9919642376098275
 40
0.9919642376098275
 40
0.9919642376098275
 10
-911.1438558287
 20
-1083.3758178462
 30
0.0
 10
-911.4735148053267
 20
-1083.350175691536
 30
0.0
 10
-911.8031521660247
 20
-1083.324254100473
 30
0.0
 10
-912.1327671453
 20
-1083.2980524516
 30
0.0
 11
-911.1438558287
 21
-1083.3758178462
 31
0.0
 11
-912.1327671453
 21
-1083.2980524516
 31
0.0
  0
SPLINE
  5
83B
330
20F
100
AcDbEntity
  8
0
  6
Continuous
 62
     7
100
AcDbSpline
210
0.0
220
0.0
230
1.0
 70
     8
 71
     3
 72
     9
 73
     5
 74
     3
 42
0.0000000001
 43
0.0000000001
 44
0.0000000001
 12
-0.7867678837877513
 22
0.6172489749202858
 32
0.0
 13
-0.5668877398978493
 23
0.8237950536107318
 33
0.0
 40
0.0
 40
0.0
 40
0.0
 40
0.0
 40
1.528928711474583
 40
3.207977387609908
 40
3.207977387609908
 40
3.207977387609908
 40
3.207977387609908
 10
-912.1327671453
 20
-1083.2980524516
 30
0.0
 10
-912.5337378142297
 20
-1082.983475891639
 30
0.0
 10
-913.3126246451993
 20
-1082.242319515671
 30
0.0
 10
-913.970537426969
 20
-1081.395095742857
 30
0.0
 10
-914.2878147967
 20
-1080.9340317448
 30
0.0
 11
-912.1327671453
 21
-1083.2980524516
 31
0.0
 11
-913.2486967889001
 21
-1082.2529093823
 31
0.0
 11
-914.2878147967
 21
-1080.9340317448
 31
0.0
  0
SPLINE
  5
83C
330
20F
100
AcDbEntity
  8
0
  6
Continuous
 62
     7
100
AcDbSpline
210
0.0
220
0.0
230
1.0
 70
     8
 71
     3
 72
    10
 73
     6
 74
     4
 42
0.0000000001
 43
0.0000000001
 44
0.0000000001
 12
-0.5665505447013091
 22
0.8240269900304539
 32
0.0
 13
-0.9996980967386173
 23
0.0245706202035276
 33
0.0
 40
0.0
 40
0.0
 40
0.0
 40
0.0
 40
0.4306272929864037
 40
1.080712077941641
 40
1.980878475896375
 40
1.980878475896375
 40
1.980878475896375
 40
1.980878475896375
 10
-914.2878147967
 20
-1080.9340317448
 30
0.0
 10
-914.3691388391683
 20
-1080.815748907445
 30
0.0
 10
-914.6647356494149
 20
-1080.587827629325
 30
0.0
 10
-915.2878521254926
 20
-1080.356940760441
 30
0.0
 10
-915.8073542155388
 20
-1080.297878177694
 30
0.0
 10
-916.1073190937999
 20
-1080.2905056288
 30
0.0
 11
-914.2878147967
 21
-1080.9340317448
 31
0.0
 11
-914.6117525303999
 21
-1080.6502991063
 31
0.0
 11
-915.2147850918
 21
-1080.4074782721
 31
0.0
 11
-916.1073190937999
 21
-1080.2905056288
 31
0.0
  0
SPLINE
  5
83D
330
20F
100
AcDbEntity
  8
0
  6
Continuous
 62
     7
100
AcDbSpline
210
0.0
220
0.0
230
1.0
 70
     8
 71
     3
 72
     9
 73
     5
 74
     3
 42
0.0000000001
 43
0.0000000001
 44
0.0000000001
 12
-0.9998789002738616
 22
0.0155622873361549
 32
0.0
 13
-0.9998486331259014
 23
0.0173985871916853
 33
0.0
 40
0.0
 40
0.0
 40
0.0
 40
0.0
 40
8.511730233966117
 40
17.04706707116183
 40
17.04706707116183
 40
17.04706707116183
 40
17.04706707116183
 10
-916.1073190937999
 20
-1080.2905056288
 30
0.0
 10
-918.9442189157219
 20
-1080.24635163159
 30
0.0
 10
-924.6258442438856
 20
-1080.155188799133
 30
0.0
 10
-930.3073833620869
 20
-1080.058809190457
 30
0.0
 10
-933.1520649853999
 20
-1080.0093082564
 30
0.0
 11
-916.1073190937999
 21
-1080.2905056288
 31
0.0
 11
-924.6179548946999
 21
-1080.154014456
 31
0.0
 11
-933.1520649853999
 21
-1080.0093082564
 31
0.0
  0
SPLINE
  5
83E
330
20F
100
AcDbEntity
  8
0
  6
Continuous
 62
     7
100
AcDbSpline
210
0.0
220
0.0
230
1.0
 70
     8
 71
     3
 72
    10
 73
     6
 74
     4
 42
0.0000000001
 43
0.0000000001
 44
0.0000000001
 12
-0.9998218980925434
 22
0.0188725222115055
 32
0.0
 13
-0.5742436763415265
 23
-0.8186844326001123
 33
0.0
 40
0.0
 40
0.0
 40
0.0
 40
0.0
 40
0.7627092110575731
 40
1.45168292114834
 40
1.966681293828969
 40
1.966681293828969
 40
1.966681293828969
 40
1.966681293828969
 10
-933.1520649853999
 20
-1080.0093082564
 30
0.0
 10
-933.4062561090973
 20
-1080.004510174224
 30
0.0
 10
-933.8934412639412
 20
-1080.042088942882
 30
0.0
 10
-934.524823681763
 20
-1080.220831895948
 30
0.0
 10
-934.8777056758207
 20
-1080.452014933491
 30
0.0
 10
-934.9762838621002
 20
-1080.592555317
 30
0.0
 11
-933.1520649853999
 21
-1080.0093082564
 31
0.0
 11
-933.9123520699999
 21
-1080.0700444863
 31
0.0
 11
-934.5696603209999
 21
-1080.2765163642
 31
0.0
 11
-934.9762838621002
 21
-1080.592555317
 31
0.0
  0
SPLINE
  5
83F
330
20F
100
AcDbEntity
  8
0
  6
Continuous
 62
     7
100
AcDbSpline
210
0.0
220
0.0
230
1.0
 70
     8
 71
     3
 72
     9
 73
     5
 74
     3
 42
0.0000000001
 43
0.0000000001
 44
0.0000000001
 12
-0.5765195522514958
 22
-0.8170833530746632
 32
0.0
 13
-0.8008068772898242
 23
-0.598922653842147
 33
0.0
 40
0.0
 40
0.0
 40
0.0
 40
0.0
 40
1.657644093142415
 40
3.165513338219336
 40
3.165513338219336
 40
3.165513338219336
 40
3.165513338219336
 10
-934.9762838621002
 20
-1080.592555317
 30
0.0
 10
-935.2948386055571
 20
-1081.044033114943
 30
0.0
 10
-935.9556171820669
 20
-1081.871262664107
 30
0.0
 10
-936.7387545135963
 20
-1082.58764919583
 30
0.0
 10
-937.1412585341001
 20
-1082.8886815458
 30
0.0
 11
-934.9762838621002
 21
-1080.592555317
 31
0.0
 11
-936.0204344687
 21
-1081.8800076269
 31
0.0
 11
-937.1412585341001
 21
-1082.8886815458
 31
0.0
  0
SPLINE
  5
840
330
20F
100
AcDbEntity
  8
0
  6
Continuous
 62
     7
100
AcDbSpline
210
0.0
220
0.0
230
1.0
 70
     8
 71
     3
 72
    12
 73
     8
 74
     6
 42
0.0000000001
 43
0.0000000001
 44
0.0000000001
 12
-0.9999657362829214
 22
-0.0082780589605748
 32
0.0
 13
-0.9973918999927056
 23
0.072176158313813
 33
0.0
 40
0.0
 40
0.0
 40
0.0
 40
0.0
 40
1.355739513312971
 40
2.599673334173361
 40
3.729637949891277
 40
4.7760606366698
 40
5.773776500939709
 40
5.773776500939709
 40
5.773776500939709
 40
5.773776500939709
 10
-959.8797475538001
 20
-1083.5022640306
 30
0.0
 10
-960.3316452406794
 20
-1083.506004994475
 30
0.0
 10
-961.1982569375621
 20
-1083.504687216895
 30
0.0
 10
-962.441328931354
 20
-1083.483728492829
 30
0.0
 10
-963.5809412765766
 20
-1083.448895977904
 30
0.0
 10
-964.6379519385815
 20
-1083.401586299032
 30
0.0
 10
-965.3180998109609
 20
-1083.359822661457
 30
0.0
 10
-965.6498043847999
 20
-1083.3358188954
 30
0.0
 11
-959.8797475538001
 21
-1083.5022640306
 31
0.0
 11
-961.2354864924999
 21
-1083.5010158115
 31
0.0
 11
-962.4792446741
 21
-1083.4801127882
 31
0.0
 11
-963.6086721403
 21
-1083.4452755758
 31
0.0
 11
-964.6540218469001
 21
-1083.3979001569
 31
0.0
 11
-965.6498043847999
 21
-1083.3358188954
 31
0.0
  0
SPLINE
  5
842
330
20F
100
AcDbEntity
  8
0
  6
Continuous
 62
     7
100
AcDbSpline
210
0.0
220
0.0
230
1.0
 70
     8
 71
     3
 72
    16
 73
    12
 74
    10
 42
0.0000000001
 43
0.0000000001
 44
0.0000000001
 12
-0.9973907354308884
 22
0.0721922494221607
 32
0.0
 13
-0.9997344547353341
 23
-0.0230438715289779
 33
0.0
 40
0.0
 40
0.0
 40
0.0
 40
0.0
 40
1.554442530236191
 40
3.231602353639862
 40
5.022384894811584
 40
6.909698203574015
 40
8.878381455208426
 40
10.95558717372429
 40
13.15544271687847
 40
15.3053442776312
 40
17.17601354882944
 40
17.17601354882944
 40
17.17601354882944
 40
17.17601354882944
 10
-965.6498043847999
 20
-1083.3358188954
 30
0.0
 10
-966.1665999109391
 20
-1083.298412661115
 30
0.0
 10
-967.2415053901572
 20
-1083.227573591617
 30
0.0
 10
-968.9134524293407
 20
-1083.140988207806
 30
0.0
 10
-970.6974392099766
 20
-1083.076218572522
 30
0.0
 10
-972.5794093563038
 20
-1083.038634941774
 30
0.0
 10
-974.5572161943632
 20
-1083.031579997564
 30
0.0
 10
-976.6390575708419
 20
-1083.056564262243
 30
0.0
 10
-978.7807194716004
 20
-1083.111953252549
 30
0.0
 10
-980.8529247739409
 20
-1083.18416399932
 30
0.0
 10
-982.1923991327226
 20
-1083.22906580328
 30
0.0
 10
-982.8157899739998
 20
-1083.2434349574
 30
0.0
 11
-965.6498043847999
 21
-1083.3358188954
 31
0.0
 11
-967.200893126
 21
-1083.2337635343
 31
0.0
 11
-968.8758134363
 21
-1083.1471204308
 31
0.0
 11
-970.6654162169
 21
-1083.0821281433
 31
0.0
 11
-972.5523489077001
 21
-1083.0442263515
 31
0.0
 11
-974.5210176961
 21
-1083.0366800381
 31
0.0
 11
-976.5980841566999
 21
-1083.0607323828
 31
0.0
 11
-978.7972525869999
 21
-1083.115710796
 31
0.0
 11
-980.9459752230999
 21
-1083.1868989554
 31
0.0
 11
-982.8157899739998
 21
-1083.2434349574
 31
0.0
  0
SPLINE
  5
843
330
20F
100
AcDbEntity
  8
0
  6
Continuous
 62
     7
100
AcDbSpline
210
0.0
220
0.0
230
1.0
 70
     8
 71
     3
 72
    10
 73
     6
 74
     4
 42
0.0000000001
 43
0.0000000001
 44
0.0000000001
 12
-0.9998337304691171
 22
0.0182348955634242
 32
0.0
 13
-0.9992044679212627
 23
0.0398802117119066
 33
0.0
 40
0.0
 40
0.0
 40
0.0
 40
0.0
 40
1.973192680639456
 40
4.052942383283635
 40
5.42774033784236
 40
5.42774033784236
 40
5.42774033784236
 40
5.42774033784236
 10
-1550.0059297344
 20
-1065.993834759
 30
0.0
 10
-1550.663551267339
 20
-1065.981841104847
 30
0.0
 10
-1552.014089850911
 20
-1065.945914657683
 30
0.0
 10
-1553.822365280134
 20
-1065.886693393109
 30
0.0
 10
-1554.973106614039
 20
-1065.844306927696
 30
0.0
 10
-1555.4310080336
 20
-1065.8260311832
 30
0.0
 11
-1550.0059297344
 21
-1065.993834759
 31
0.0
 11
-1551.9785153663
 21
-1065.9448931637
 31
0.0
 11
-1554.0571663789
 21
-1065.877300313
 31
0.0
 11
-1555.4310080336
 21
-1065.8260311832
 31
0.0
  0
SPLINE
  5
844
330
20F
100
AcDbEntity
  8
0
  6
Continuous
 62
     7
100
AcDbSpline
210
0.0
220
0.0
230
1.0
 70
     8
 71
     3
 72
     8
 73
     4
 74
     2
 42
0.0000000001
 43
0.0000000001
 44
0.0000000001
 12
-0.9985090921994924
 22
0.0545856464186853
 32
0.0
 13
-0.9984372357051093
 23
0.0558845806778579
 33
0.0
 40
0.0
 40
0.0
 40
0.0
 40
0.0
 40
0.7121876057909523
 40
0.7121876057909523
 40
0.7121876057909523
 40
0.7121876057909523
 10
-1561.7432143739
 20
-1065.5207022244
 30
0.0
 10
-1561.980256307145
 20
-1065.507743817455
 30
0.0
 10
-1562.21728977469
 20
-1065.494629650271
 30
0.0
 10
-1562.4543146495
 20
-1065.4813628817
 30
0.0
 11
-1561.7432143739
 21
-1065.5207022244
 31
0.0
 11
-1562.4543146495
 21
-1065.4813628817
 31
0.0
  0
SPLINE
  5
845
330
20F
100
AcDbEntity
  8
0
  6
Continuous
 62
     7
100
AcDbSpline
210
0.0
220
0.0
230
1.0
 70
     8
 71
     3
 72
     8
 73
     4
 74
     2
 42
0.0000000001
 43
0.0000000001
 44
0.0000000001
 12
-0.9967263440878522
 22
0.0808492115067581
 32
0.0
 13
-0.9966303224959418
 23
0.0820243883344172
 33
0.0
 40
0.0
 40
0.0
 40
0.0
 40
0.0
 40
0.7397388111817073
 40
0.7397388111817073
 40
0.7397388111817073
 40
0.7397388111817073
 10
-1578.0436556758
 20
-1064.4108073647
 30
0.0
 10
-1578.289428062749
 20
-1064.390871598165
 30
0.0
 10
-1578.535188686716
 20
-1064.370790289771
 30
0.0
 10
-1578.7809373967
 20
-1064.3505647486
 30
0.0
 11
-1578.0436556758
 21
-1064.4108073647
 31
0.0
 11
-1578.7809373967
 21
-1064.3505647486
 31
0.0
  0
SPLINE
  5
846
330
20F
100
AcDbEntity
  8
0
  6
Continuous
 62
     7
100
AcDbSpline
210
0.0
220
0.0
230
1.0
 70
     8
 71
     3
 72
    10
 73
     6
 74
     4
 42
0.0000000001
 43
0.0000000001
 44
0.0000000001
 12
-0.866853767986217
 22
0.4985624784599196
 32
0.0
 13
-0.6621655654982459
 23
0.7493575674325231
 33
0.0
 40
0.0
 40
0.0
 40
0.0
 40
0.0
 40
0.9847766310053557
 40
2.026831047373848
 40
2.759042226488446
 40
2.759042226488446
 40
2.759042226488446
 40
2.759042226488446
 10
-1578.7809373967
 20
-1064.3505647486
 30
0.0
 10
-1579.065489841104
 20
-1064.186907189305
 30
0.0
 10
-1579.626805366645
 20
-1063.806507713239
 30
0.0
 10
-1580.318329056067
 20
-1063.197097992653
 30
0.0
 10
-1580.724594433072
 20
-1062.766600371009
 30
0.0
 10
-1580.8862094429
 20
-1062.583704375
 30
0.0
 11
-1578.7809373967
 21
-1064.3505647486
 31
0.0
 11
-1579.598357238
 21
-1063.801374603
 31
0.0
 11
-1580.3827301523
 21
-1063.115345057
 31
0.0
 11
-1580.8862094429
 21
-1062.583704375
 31
0.0
  0
SPLINE
  5
84B
330
20F
100
AcDbEntity
  8
0
  6
Continuous
 62
     7
100
AcDbSpline
210
0.0
220
0.0
230
1.0
 70
     8
 71
     3
 72
    10
 73
     6
 74
     4
 42
0.0000000001
 43
0.0000000001
 44
0.0000000001
 12
-0.6807933190532102
 22
0.7324755673280264
 32
0.0
 13
-0.9995500066997916
 23
0.0299964015582983
 33
0.0
 40
0.0
 40
0.0
 40
0.0
 40
0.0
 40
0.5135822436832714
 40
1.201131276951625
 40
1.951117549374178
 40
1.951117549374178
 40
1.951117549374178
 40
1.951117549374178
 10
-1581.132111514
 20
-1062.295996755
 30
0.0
 10
-1581.248659300761
 20
-1062.170601273229
 30
0.0
 10
-1581.599854873792
 20
-1061.954010057655
 30
0.0
 10
-1582.229684503503
 20
-1061.781284548013
 30
0.0
 10
-1582.708187467125
 20
-1061.72661262073
 30
0.0
 10
-1582.958070395
 20
-1061.7191136576
 30
0.0
 11
-1581.132111514
 21
-1062.295996755
 31
0.0
 11
-1581.5556687658
 21
-1062.0055385386
 31
0.0
 11
-1582.2128372783
 21
-1061.8034167453
 31
0.0
 11
-1582.958070395
 21
-1061.7191136576
 31
0.0
  0
SPLINE
  5
84C
330
20F
100
AcDbEntity
  8
0
  6
Continuous
 62
     7
100
AcDbSpline
210
0.0
220
0.0
230
1.0
 70
     8
 71
     3
 72
    10
 73
     6
 74
     4
 42
0.0000000001
 43
0.0000000001
 44
0.0000000001
 12
-0.9994138691719387
 22
0.0342332894530336
 32
0.0
 13
-0.6958511277867085
 23
-0.718186053859281
 33
0.0
 40
0.0
 40
0.0
 40
0.0
 40
0.0
 40
0.761724678713401
 40
1.440418289246929
 40
1.929211771742918
 40
1.929211771742918
 40
1.929211771742918
 40
1.929211771742918
 10
-1600.2964832345
 20
-1061.1398268919
 30
0.0
 10
-1600.550242637299
 20
-1061.131134778096
 30
0.0
 10
-1601.032650923375
 20
-1061.153132960287
 30
0.0
 10
-1601.663892859535
 20
-1061.285444017161
 30
0.0
 10
-1602.018779159083
 20
-1061.476868970751
 30
0.0
 10
-1602.1321549911
 20
-1061.5938838582
 30
0.0
 11
-1600.2964832345
 21
-1061.1398268919
 31
0.0
 11
-1601.0573544338
 21
-1061.175875529
 31
0.0
 11
-1601.7168642902
 21
-1061.3360996417
 31
0.0
 11
-1602.1321549911
 21
-1061.5938838582
 31
0.0
  0
SPLINE
  5
84D
330
20F
100
AcDbEntity
  8
0
  6
Continuous
 62
     7
100
AcDbSpline
210
0.0
220
0.0
230
1.0
 70
     8
 71
     3
 72
    10
 73
     6
 74
     4
 42
0.0000000001
 43
0.0000000001
 44
0.0000000001
 12
-0.6605034534290962
 22
-0.7508230071116881
 32
0.0
 13
-0.8929544296143186
 23
-0.4501470722243642
 33
0.0
 40
0.0
 40
0.0
 40
0.0
 40
0.0
 40
1.075269373693642
 40
2.086204881106747
 40
3.045505881943718
 40
3.045505881943718
 40
3.045505881943718
 40
3.045505881943718
 10
-1602.1321549911
 20
-1061.5938838582
 30
0.0
 10
-1602.368894702664
 20
-1061.862996186404
 30
0.0
 10
-1602.854507799807
 20
-1062.3631224871
 30
0.0
 10
-1603.64547492249
 20
-1063.003399689563
 30
0.0
 10
-1604.209510440256
 20
-1063.34513575913
 30
0.0
 10
-1604.4950477996
 20
-1063.4890779381
 30
0.0
 11
-1602.1321549911
 21
-1061.5938838582
 31
0.0
 11
-1602.8844150543
 21
-1062.3621995637
 31
0.0
 11
-1603.6726632897
 21
-1062.9951729593
 31
0.0
 11
-1604.4950477996
 21
-1063.4890779381
 31
0.0
  0
SPLINE
  5
852
330
20F
100
AcDbEntity
  8
0
  6
Continuous
 62
     7
100
AcDbSpline
210
0.0
220
0.0
230
1.0
 70
     8
 71
     3
 72
    10
 73
     6
 74
     4
 42
0.0000000001
 43
0.0000000001
 44
0.0000000001
 12
-0.9956944423891211
 22
0.0926961563141495
 32
0.0
 13
-0.9801974561871899
 23
0.1980225918529552
 33
0.0
 40
0.0
 40
0.0
 40
0.0
 40
0.0
 40
1.862164315744533
 40
3.800719616643513
 40
5.649184964379152
 40
5.649184964379152
 40
5.649184964379152
 40
5.649184964379152
 10
-1627.0414820702
 20
-1062.6949135763
 30
0.0
 10
-1627.659530956867
 20
-1062.637375084801
 30
0.0
 10
-1628.919396789628
 20
-1062.502039957096
 30
0.0
 10
-1630.785041836055
 20
-1062.244331680682
 30
0.0
 10
-1632.028662330566
 20
-1062.025024340436
 30
0.0
 10
-1632.6326160078
 20
-1061.9030117074
 30
0.0
 11
-1627.0414820702
 21
-1062.6949135763
 31
0.0
 11
-1628.8929519124
 21
-1062.4956264411
 31
0.0
 11
-1630.8129482302
 21
-1062.2280245086
 31
0.0
 11
-1632.6326160078
 21
-1061.9030117074
 31
0.0
  0
SPLINE
  5
854
330
20F
100
AcDbEntity
  8
0
  6
Continuous
 62
     7
100
AcDbSpline
210
0.0
220
0.0
230
1.0
 70
     8
 71
     3
 72
    27
 73
    23
 74
    21
 42
0.0000000001
 43
0.0000000001
 44
0.0000000001
 12
0.9999429652334958
 22
-0.0106801816484493
 32
0.0
 13
0.9997573584597658
 23
-0.02202780528222
 33
0.0
 40
0.0
 40
0.0
 40
0.0
 40
0.0
 40
0.4768093341523877
 40
1.004786640322096
 40
1.660593343904797
 40
2.415305155847129
 40
3.266369436101477
 40
4.22851650304186
 40
5.321732683490666
 40
6.559706899489813
 40
7.949047743371846
 40
9.501542939972845
 40
11.22354401139654
 40
13.11774467956331
 40
15.18018054732941
 40
17.4059947626436
 40
19.81660394779932
 40
22.48328070986844
 40
25.5239407278541
 40
29.08285086673631
 40
33.3050111023935
 40
36.56921991940183
 40
36.56921991940183
 40
36.56921991940183
 40
36.56921991940183
 10
-1690.2971343292
 20
-1062.2510110853
 30
0.0
 10
-1690.138206949385
 20
-1062.2527085554
 30
0.0
 10
-1689.803301148034
 20
-1062.256661390975
 30
0.0
 10
-1689.249819665926
 20
-1062.264081557324
 30
0.0
 10
-1688.603720398475
 20
-1062.273322536023
 30
0.0
 10
-1687.849945772596
 20
-1062.284734514882
 30
0.0
 10
-1686.994078530868
 20
-1062.298281164195
 30
0.0
 10
-1686.025400266989
 20
-1062.314210707727
 30
0.0
 10
-1684.927780039398
 20
-1062.332893313234
 30
0.0
 10
-1683.687795117148
 20
-1062.354728400642
 30
0.0
 10
-1682.294756454439
 20
-1062.38012676861
 30
0.0
 10
-1680.740420200288
 20
-1062.409430330777
 30
0.0
 10
-1679.017844148103
 20
-1062.442789680469
 30
0.0
 10
-1677.125335603671
 20
-1062.480249869625
 30
0.0
 10
-1675.064936815149
 20
-1062.521763055322
 30
0.0
 10
-1672.832450330377
 20
-1062.567410871513
 30
0.0
 10
-1670.398605498499
 20
-1062.617817110647
 30
0.0
 10
-1667.693217310142
 20
-1062.674504044424
 30
0.0
 10
-1664.605161599318
 20
-1062.739943531986
 30
0.0
 10
-1660.998746575418
 20
-1062.81725040836
 30
0.0
 10
-1657.317853079052
 20
-1062.897113609236
 30
0.0
 10
-1654.822996716984
 20
-1062.951833110893
 30
0.0
 10
-1653.7351911222
 20
-1062.9758008963
 30
0.0
 11
-1690.2971343292
 21
-1062.2510110853
 31
0.0
 11
-1689.8203575291
 21
-1062.2565810064
 31
0.0
 11
-1689.2924266245
 21
-1062.2635807063
 31
0.0
 11
-1688.6366866538
 21
-1062.2729360946
 31
0.0
 11
-1687.8820608487
 21
-1062.2843296613
 31
0.0
 11
-1687.031102817
 21
-1062.2977772414
 31
0.0
 11
-1686.0690855158
 21
-1062.313578843
 31
0.0
 11
-1684.9760274707
 21
-1062.3321725849
 31
0.0
 11
-1683.7382450113
 21
-1062.3539611755
 31
0.0
 11
-1682.3491347229
 21
-1062.3792709985
 31
0.0
 11
-1680.7969145328
 21
-1062.4084911442
 31
0.0
 11
-1679.075235547
 21
-1062.4417951956
 31
0.0
 11
-1677.1814051618
 21
-1062.4792470764
 31
0.0
 11
-1675.1193872213
 21
-1062.520764804
 31
0.0
 11
-1672.8940377127
 21
-1062.5662454116
 31
0.0
 11
-1670.4839449874
 21
-1062.6161422954
 31
0.0
 11
-1667.8178531197
 21
-1062.6719912555
 31
0.0
 11
-1664.7778753005
 21
-1062.736397806
 31
0.0
 11
-1661.2197822147
 21
-1062.8126537528
 31
0.0
 11
-1656.9986151595
 21
-1062.9042274808
 31
0.0
 11
-1653.7351911222
 21
-1062.9758008963
 31
0.0
  0
LINE
  5
855
330
20F
100
AcDbEntity
  8
0
  6
Continuous
 62
     7
100
AcDbLine
 10
-1653.7351911222
 20
-1062.9758008963
 30
0.0
 11
-1651.1270649732
 21
-1063.0334735322
 31
0.0
  0
SPLINE
  5
88A
330
20F
100
AcDbEntity
  8
0
  6
Continuous
 62
     7
100
AcDbSpline
210
0.0
220
0.0
230
1.0
 70
     8
 71
     3
 72
     9
 73
     5
 74
     3
 42
0.0000000001
 43
0.0000000001
 44
0.0000000001
 12
-0.999603712868434
 22
-0.0281499062101689
 32
0.0
 13
-0.8769308313868522
 23
-0.4806166007985621
 33
0.0
 40
0.0
 40
0.0
 40
0.0
 40
0.0
 40
0.5357572651596576
 40
0.923196760239603
 40
0.923196760239603
 40
0.923196760239603
 40
0.923196760239603
 10
-2034.9116301202
 20
-651.8873632083999
 30
0.0
 10
-2035.090145104016
 20
-651.8923903806552
 30
0.0
 10
-2035.393897895161
 20
-651.9097358991663
 30
0.0
 10
-2035.708089308823
 20
-651.9576335337532
 30
0.0
 10
-2035.821341855
 20
-652.0197034848
 30
0.0
 11
-2034.9116301202
 21
-651.8873632083999
 31
0.0
 11
-2035.4462133543
 21
-651.9228119459
 31
0.0
 11
-2035.821341855
 21
-652.0197034848
 31
0.0
  0
ENDSEC
  0
SECTION
  2
OBJECTS
  0
DICTIONARY
  5
C
330
0
100
AcDbDictionary
281
     1
  3
ACAD_COLOR
350
A56
  3
ACAD_GROUP
350
D
  3
ACAD_LAYOUT
350
1A
  3
ACAD_MATERIAL
350
A2C
  3
ACAD_MLEADERSTYLE
350
A7B
  3
ACAD_MLINESTYLE
350
17
  3
ACAD_PLOTSETTINGS
350
19
  3
ACAD_PLOTSTYLENAME
350
E
  3
ACAD_SCALELIST
350
A59
  3
ACAD_TABLESTYLE
350
A57
  3
ACAD_VISUALSTYLE
350
A45
  3
ACDB_RECOMPOSE_DATA
350
A80
  3
AcDbVariableDictionary
350
A81
  3
AcmDictionary
350
AE3
  3
AMG
350
AC2
  3
AMGSNAPSETTINGS
350
B23
  3
DWGPROPS
350
B50
  0
DICTIONARY
  5
A56
102
{ACAD_REACTORS
330
C
102
}
330
C
100
AcDbDictionary
281
     1
  0
DICTIONARY
  5
D
102
{ACAD_REACTORS
330
C
102
}
330
C
100
AcDbDictionary
281
     1
  0
DICTIONARY
  5
1A
102
{ACAD_REACTORS
330
C
102
}
330
C
100
AcDbDictionary
281
     1
  3
Layout1
350
A29
  3
Model
350
A28
  0
DICTIONARY
  5
A2C
102
{ACAD_REACTORS
330
C
102
}
330
C
100
AcDbDictionary
281
     1
  3
ByBlock
350
A35
  3
ByLayer
350
A2D
  3
Global
350
A3D
  0
DICTIONARY
  5
A7B
102
{ACAD_REACTORS
330
C
102
}
330
C
100
AcDbDictionary
281
     1
  3
Standard
350
A7C
  0
DICTIONARY
  5
17
102
{ACAD_REACTORS
330
C
102
}
330
C
100
AcDbDictionary
281
     1
  3
Standard
350
18
  0
DICTIONARY
  5
19
102
{ACAD_REACTORS
330
C
102
}
330
C
100
AcDbDictionary
281
     1
  0
ACDBDICTIONARYWDFLT
  5
E
102
{ACAD_REACTORS
330
C
102
}
330
C
100
AcDbDictionary
281
     1
  3
Normal
350
F
100
AcDbDictionaryWithDefault
340
F
  0
DICTIONARY
  5
A59
102
{ACAD_REACTORS
330
C
102
}
330
C
100
AcDbDictionary
281
     1
  3
A0
350
A5A
  3
A1
350
A5B
  3
A2
350
A5C
  3
A3
350
A5D
  3
A4
350
A5E
  3
A5
350
A5F
  3
A6
350
A60
  3
A7
350
A61
  3
A8
350
A62
  3
A9
350
A63
  3
B0
350
A64
  3
B1
350
A65
  3
B2
350
A66
  3
B3
350
A67
  3
B4
350
A68
  3
B5
350
A69
  3
B6
350
A6A
  3
B7
350
A6B
  3
B8
350
A6C
  3
B9
350
A6D
  3
C0
350
A6E
  3
C1
350
A6F
  3
C2
350
A70
  3
C3
350
A71
  3
C4
350
A72
  3
C5
350
A73
  3
C6
350
A74
  3
C7
350
A75
  3
C8
350
A76
  3
C9
350
A77
  3
D0
350
A78
  3
D1
350
A79
  3
D2
350
A7A
  0
DICTIONARY
  5
A57
102
{ACAD_REACTORS
330
C
102
}
330
C
100
AcDbDictionary
281
     1
  3
Standard
350
A58
  0
DICTIONARY
  5
A45
102
{ACAD_REACTORS
330
C
102
}
330
C
100
AcDbDictionary
281
     1
  3
2dWireframe
350
A4B
  3
3D Hidden
350
A4D
  3
3dWireframe
350
A4C
  3
Basic
350
A4A
  3
Brighten
350
A51
  3
ColorChange
350
A55
  3
Conceptual
350
A4E
  3
Dim
350
A50
  3
Facepattern
350
A54
  3
Flat
350
A46
  3
FlatWithEdges
350
A47
  3
Gouraud
350
A48
  3
GouraudWithEdges
350
A49
  3
Linepattern
350
A53
  3
Realistic
350
A4F
  3
Thicken
350
A52
  0
XRECORD
  5
A80
102
{ACAD_REACTORS
330
C
102
}
330
C
100
AcDbXrecord
280
     1
 90
        1
330
A58
  0
DICTIONARY
  5
A81
102
{ACAD_REACTORS
330
C
102
}
330
C
100
AcDbDictionary
281
     1
  3
CANNOSCALE
350
A84
  3
CMLEADERSTYLE
350
A83
  3
CTABLESTYLE
350
A82
  3
DIMASSOC
350
B4F
  3
HIDETEXT
350
B4E
  3
INDEXCTL
350
B4D
  3
SORTENTS
350
B4C
  0
DICTIONARY
  5
AE3
102
{ACAD_REACTORS
330
C
102
}
330
C
100
AcDbDictionary
281
     1
  3
AcmStdDictionary
350
AEE
  3
AMDTSECTSYM_ARROWCOLOR
350
B0D
  0
DICTIONARY
  5
AC2
102
{ACAD_REACTORS
330
C
102
}
330
C
100
AcDbDictionary
281
     1
  0
DICTIONARY
  5
B23
102
{ACAD_REACTORS
330
C
102
}
330
C
100
AcDbDictionary
281
     1
  0
XRECORD
  5
B50
102
{ACAD_REACTORS
330
C
102
}
330
C
100
AcDbXrecord
280
     1
  1
DWGPROPS COOKIE
  2

  3

  4

  6

  7

  8
ko27558
  9

300
=
301
=
302
=
303
=
304
=
305
=
306
=
307
=
308
=
309
=
 40
0.0005352662037037
 41
2455695.43176566
 42
2455695.432300035
  1

 90
        0
  0
LAYOUT
  5
A29
102
{ACAD_XDICTIONARY
360
B53
102
}
102
{ACAD_REACTORS
330
1A
102
}
330
1A
100
AcDbPlotSettings
  1

  2
none_device
  4
ANSI_D_(34.00_x_22.00_Inches)
  6

 40
0.0
 41
0.0
 42
0.0
 43
0.0
 44
863.6000000000001
 45
558.8
 46
0.0
 47
0.0
 48
0.0
 49
0.0
140
0.0
141
0.0
142
1.0
143
1.0
 70
     0
 72
     1
 73
     0
 74
     0
  7

 75
     0
147
1.0
148
0.0
149
0.0
100
AcDbLayout
  1
Layout1
 70
     1
 71
     1
 10
0.0
 20
0.0
 11
12.0
 21
9.0
 12
0.0
 22
0.0
 32
0.0
 14
1.000000000000000E+20
 24
1.000000000000000E+20
 34
1.000000000000000E+20
 15
-1.000000000000000E+20
 25
-1.000000000000000E+20
 35
-1.000000000000000E+20
146
0.0
 13
0.0
 23
0.0
 33
0.0
 16
1.0
 26
0.0
 36
0.0
 17
0.0
 27
1.0
 37
0.0
 76
     0
330
210
  0
LAYOUT
  5
A28
102
{ACAD_XDICTIONARY
360
B51
102
}
102
{ACAD_REACTORS
330
1A
102
}
330
1A
100
AcDbPlotSettings
  1

  2
none_device
  4
ANSI_D_(34.00_x_22.00_Inches)
  6

 40
0.0
 41
0.0
 42
0.0
 43
0.0
 44
863.6000000000001
 45
558.8
 46
0.0
 47
0.0
 48
0.0
 49
0.0
140
0.0
141
0.0
142
1.0
143
1.0
 70
  1024
 72
     1
 73
     0
 74
     0
  7

 75
     0
147
1.0
148
0.0
149
0.0
100
AcDbLayout
  1
Model
 70
     0
 71
     0
 10
0.0
 20
0.0
 11
863.6000000000001
 21
558.8
 12
0.0
 22
0.0
 32
0.0
 14
0.0
 24
0.0
 34
0.0
 15
0.0
 25
0.0
 35
0.0
146
0.0
 13
0.0
 23
0.0
 33
0.0
 16
1.0
 26
0.0
 36
0.0
 17
0.0
 27
1.0
 37
0.0
 76
     0
330
20F
331
1F4
  0
MATERIAL
  5
A35
102
{ACAD_XDICTIONARY
360
A36
102
}
102
{ACAD_REACTORS
330
A2C
102
}
330
A2C
100
AcDbMaterial
  1
ByBlock
 72
     0
 73
     2
 43
0.0008202099737533
 43
0.0
 43
0.0
 43
0.0
 43
0.0
 43
0.0008202099737533
 43
0.0
 43
0.0
 43
0.0
 43
0.0
 43
1.0
 43
0.0
 43
0.0
 43
0.0
 43
0.0
 43
1.0
 77
     0
 78
     2
 47
0.0008202099737533
 47
0.0
 47
0.0
 47
0.0
 47
0.0
 47
0.0008202099737533
 47
0.0
 47
0.0
 47
0.0
 47
0.0
 47
1.0
 47
0.0
 47
0.0
 47
0.0
 47
0.0
 47
1.0
171
     0
172
     2
 49
0.0008202099737533
 49
0.0
 49
0.0
 49
0.0
 49
0.0
 49
0.0008202099737533
 49
0.0
 49
0.0
 49
0.0
 49
0.0
 49
1.0
 49
0.0
 49
0.0
 49
0.0
 49
0.0
 49
1.0
175
     0
176
     2
142
0.0008202099737533
142
0.0
142
0.0
142
0.0
142
0.0
142
0.0008202099737533
142
0.0
142
0.0
142
0.0
142
0.0
142
1.0
142
0.0
142
0.0
142
0.0
142
0.0
142
1.0
179
     0
270
     2
144
0.0008202099737533
144
0.0
144
0.0
144
0.0
144
0.0
144
0.0008202099737533
144
0.0
144
0.0
144
0.0
144
0.0
144
1.0
144
0.0
144
0.0
144
0.0
144
0.0
144
1.0
274
     2
147
0.0008202099737533
147
0.0
147
0.0
147
0.0
147
0.0
147
0.0008202099737533
147
0.0
147
0.0
147
0.0
147
0.0
147
1.0
147
0.0
147
0.0
147
0.0
147
0.0
147
1.0
  0
MATERIAL
  5
A2D
102
{ACAD_XDICTIONARY
360
A2E
102
}
102
{ACAD_REACTORS
330
A2C
102
}
330
A2C
100
AcDbMaterial
  1
ByLayer
 72
     0
 73
     2
 43
0.0008202099737533
 43
0.0
 43
0.0
 43
0.0
 43
0.0
 43
0.0008202099737533
 43
0.0
 43
0.0
 43
0.0
 43
0.0
 43
1.0
 43
0.0
 43
0.0
 43
0.0
 43
0.0
 43
1.0
 77
     0
 78
     2
 47
0.0008202099737533
 47
0.0
 47
0.0
 47
0.0
 47
0.0
 47
0.0008202099737533
 47
0.0
 47
0.0
 47
0.0
 47
0.0
 47
1.0
 47
0.0
 47
0.0
 47
0.0
 47
0.0
 47
1.0
171
     0
172
     2
 49
0.0008202099737533
 49
0.0
 49
0.0
 49
0.0
 49
0.0
 49
0.0008202099737533
 49
0.0
 49
0.0
 49
0.0
 49
0.0
 49
1.0
 49
0.0
 49
0.0
 49
0.0
 49
0.0
 49
1.0
175
     0
176
     2
142
0.0008202099737533
142
0.0
142
0.0
142
0.0
142
0.0
142
0.0008202099737533
142
0.0
142
0.0
142
0.0
142
0.0
142
1.0
142
0.0
142
0.0
142
0.0
142
0.0
142
1.0
179
     0
270
     2
144
0.0008202099737533
144
0.0
144
0.0
144
0.0
144
0.0
144
0.0008202099737533
144
0.0
144
0.0
144
0.0
144
0.0
144
1.0
144
0.0
144
0.0
144
0.0
144
0.0
144
1.0
274
     2
147
0.0008202099737533
147
0.0
147
0.0
147
0.0
147
0.0
147
0.0008202099737533
147
0.0
147
0.0
147
0.0
147
0.0
147
1.0
147
0.0
147
0.0
147
0.0
147
0.0
147
1.0
  0
MATERIAL
  5
A3D
102
{ACAD_XDICTIONARY
360
A3E
102
}
102
{ACAD_REACTORS
330
A2C
102
}
330
A2C
100
AcDbMaterial
  1
Global
 72
     0
 73
     2
 43
0.0008202099737533
 43
0.0
 43
0.0
 43
0.0
 43
0.0
 43
0.0008202099737533
 43
0.0
 43
0.0
 43
0.0
 43
0.0
 43
1.0
 43
0.0
 43
0.0
 43
0.0
 43
0.0
 43
1.0
 77
     0
 78
     2
 47
0.0008202099737533
 47
0.0
 47
0.0
 47
0.0
 47
0.0
 47
0.0008202099737533
 47
0.0
 47
0.0
 47
0.0
 47
0.0
 47
1.0
 47
0.0
 47
0.0
 47
0.0
 47
0.0
 47
1.0
171
     0
172
     2
 49
0.0008202099737533
 49
0.0
 49
0.0
 49
0.0
 49
0.0
 49
0.0008202099737533
 49
0.0
 49
0.0
 49
0.0
 49
0.0
 49
1.0
 49
0.0
 49
0.0
 49
0.0
 49
0.0
 49
1.0
175
     0
176
     2
142
0.0008202099737533
142
0.0
142
0.0
142
0.0
142
0.0
142
0.0008202099737533
142
0.0
142
0.0
142
0.0
142
0.0
142
1.0
142
0.0
142
0.0
142
0.0
142
0.0
142
1.0
179
     0
270
     2
144
0.0008202099737533
144
0.0
144
0.0
144
0.0
144
0.0
144
0.0008202099737533
144
0.0
144
0.0
144
0.0
144
0.0
144
1.0
144
0.0
144
0.0
144
0.0
144
0.0
144
1.0
274
     2
147
0.0008202099737533
147
0.0
147
0.0
147
0.0
147
0.0
147
0.0008202099737533
147
0.0
147
0.0
147
0.0
147
0.0
147
1.0
147
0.0
147
0.0
147
0.0
147
0.0
147
1.0
  0
ACAD_PROXY_OBJECT
  5
A7C
102
{ACAD_REACTORS
330
A7B
102
}
330
A7B
100
AcDbProxyObject
 90
      499
 91
      507
 95
    65563
 70
     0
 93
      817
310
40901902A40600000030400FEFFFFFF8000000000000008102B5E8DC0F42B5CFC0000000000001040405064068000000C1000000000000000410000000000000004102000000304015D90000000000000C03F4214C01D0018401B80190018401C80190028C00CC
340
14
340
0
340
11
340
0
 94
        0
1001
ACAD_MLEADERVER
1070
     2
1001
ACAD
1000
AcRTDxfName
1000
MLEADERSTYLE
  0
MLINESTYLE
  5
18
102
{ACAD_REACTORS
330
17
102
}
330
17
100
AcDbMlineStyle
  2
STANDARD
 70
     0
  3

 62
   256
 51
90.0
 52
90.0
 71
     2
 49
0.5
 62
   256
  6
BYLAYER
 49
-0.5
 62
   256
  6
BYLAYER
  0
ACDBPLACEHOLDER
  5
F
102
{ACAD_REACTORS
330
E
102
}
330
E
  0
ACAD_PROXY_OBJECT
  5
A5A
102
{ACAD_REACTORS
330
A59
102
}
330
A59
100
AcDbProxyObject
 90
      499
 91
      506
 95
    65563
 70
     0
 93
       82
310
968198801D0018801D004C
 94
        0
1001
ACAD
1000
AcRTDxfName
1000
SCALE
  0
ACAD_PROXY_OBJECT
  5
A5B
102
{ACAD_REACTORS
330
A59
102
}
330
A59
100
AcDbProxyObject
 90
      499
 91
      506
 95
    65563
 70
     0
 93
      146
310
9000000000000001008198801D0019001D004C
 94
        0
1001
ACAD
1000
AcRTDxfName
1000
SCALE
  0
ACAD_PROXY_OBJECT
  5
A5C
102
{ACAD_REACTORS
330
A59
102
}
330
A59
100
AcDbProxyObject
 90
      499
 91
      506
 95
    65563
 70
     0
 93
      146
310
9000000000000041008198801D001A001D004C
 94
        0
1001
ACAD
1000
AcRTDxfName
1000
SCALE
  0
ACAD_PROXY_OBJECT
  5
A5D
102
{ACAD_REACTORS
330
A59
102
}
330
A59
100
AcDbProxyObject
 90
      499
 91
      506
 95
    65563
 70
     0
 93
      146
310
9000000000000051008198801D001A801D004C
 94
        0
1001
ACAD
1000
AcRTDxfName
1000
SCALE
  0
ACAD_PROXY_OBJECT
  5
A5E
102
{ACAD_REACTORS
330
A59
102
}
330
A59
100
AcDbProxyObject
 90
      499
 91
      506
 95
    65563
 70
     0
 93
      146
310
9000000000000081008198801D001C001D004C
 94
        0
1001
ACAD
1000
AcRTDxfName
1000
SCALE
  0
ACAD_PROXY_OBJECT
  5
A5F
102
{ACAD_REACTORS
330
A59
102
}
330
A59
100
AcDbProxyObject
 90
      499
 91
      506
 95
    65563
 70
     0
 93
      162
310
9000000000000091008218801D001880180025004C
 94
        0
1001
ACAD
1000
AcRTDxfName
1000
SCALE
  0
ACAD_PROXY_OBJECT
  5
A60
102
{ACAD_REACTORS
330
A59
102
}
330
A59
100
AcDbProxyObject
 90
      499
 91
      506
 95
    65563
 70
     0
 93
      162
310
90000000000000C1008218801D0018801B0025004C
 94
        0
1001
ACAD
1000
AcRTDxfName
1000
SCALE
  0
ACAD_PROXY_OBJECT
  5
A61
102
{ACAD_REACTORS
330
A59
102
}
330
A59
100
AcDbProxyObject
 90
      499
 91
      506
 95
    65563
 70
     0
 93
      162
310
90000000000000D1008218801D001900180025004C
 94
        0
1001
ACAD
1000
AcRTDxfName
1000
SCALE
  0
ACAD_PROXY_OBJECT
  5
A62
102
{ACAD_REACTORS
330
A59
102
}
330
A59
100
AcDbProxyObject
 90
      499
 91
      506
 95
    65563
 70
     0
 93
      162
310
90000000000000F9008218801D001980180025004C
 94
        0
1001
ACAD
1000
AcRTDxfName
1000
SCALE
  0
ACAD_PROXY_OBJECT
  5
A63
102
{ACAD_REACTORS
330
A59
102
}
330
A59
100
AcDbProxyObject
 90
      499
 91
      506
 95
    65563
 70
     0
 93
      162
310
9000000000000111008218801D001A00180025004C
 94
        0
1001
ACAD
1000
AcRTDxfName
1000
SCALE
  0
ACAD_PROXY_OBJECT
  5
A64
102
{ACAD_REACTORS
330
A59
102
}
330
A59
100
AcDbProxyObject
 90
      499
 91
      506
 95
    65563
 70
     0
 93
      162
310
9000000000000125008218801D001A80180025004C
 94
        0
1001
ACAD
1000
AcRTDxfName
1000
SCALE
  0
ACAD_PROXY_OBJECT
  5
A65
102
{ACAD_REACTORS
330
A59
102
}
330
A59
100
AcDbProxyObject
 90
      499
 91
      506
 95
    65563
 70
     0
 93
      178
310
9000000000000165008298801D001880180018002D004C
 94
        0
1001
ACAD
1000
AcRTDxfName
1000
SCALE
  0
ACAD_PROXY_OBJECT
  5
A66
102
{ACAD_REACTORS
330
A59
102
}
330
A59
100
AcDbProxyObject
 90
      499
 91
      506
 95
    65563
 70
     0
 93
      146
310
8000000000000004048199001D0018801D004C
 94
        0
1001
ACAD
1000
AcRTDxfName
1000
SCALE
  0
ACAD_PROXY_OBJECT
  5
A67
102
{ACAD_REACTORS
330
A59
102
}
330
A59
100
AcDbProxyObject
 90
      499
 91
      506
 95
    65563
 70
     0
 93
      146
310
800000000000010404819A001D0018801D004C
 94
        0
1001
ACAD
1000
AcRTDxfName
1000
SCALE
  0
ACAD_PROXY_OBJECT
  5
A68
102
{ACAD_REACTORS
330
A59
102
}
330
A59
100
AcDbProxyObject
 90
      499
 91
      506
 95
    65563
 70
     0
 93
      146
310
800000000000020404819C001D0018801D004C
 94
        0
1001
ACAD
1000
AcRTDxfName
1000
SCALE
  0
ACAD_PROXY_OBJECT
  5
A69
102
{ACAD_REACTORS
330
A59
102
}
330
A59
100
AcDbProxyObject
 90
      499
 91
      506
 95
    65563
 70
     0
 93
      162
310
80000000000002440482188018001D00188025004C
 94
        0
1001
ACAD
1000
AcRTDxfName
1000
SCALE
  0
ACAD_PROXY_OBJECT
  5
A6A
102
{ACAD_REACTORS
330
A59
102
}
330
A59
100
AcDbProxyObject
 90
      499
 91
      506
 95
    65563
 70
     0
 93
      178
310
800000000000059404829880180018001D0018802D004C
 94
        0
1001
ACAD
1000
AcRTDxfName
1000
SCALE
  0
ACAD_PROXY_OBJECT
  5
A6B
102
{ACAD_REACTORS
330
A59
102
}
330
A59
100
AcDbProxyObject
 90
      499
 91
      506
 95
    65563
 70
     0
 93
      386
310
8000000000000803F0000000000000A1008718801780188019001C00110010001E8010001880138016801800110075004C
 94
        0
1001
ACAD
1000
AcRTDxfName
1000
SCALE
  0
ACAD_PROXY_OBJECT
  5
A6C
102
{ACAD_REACTORS
330
A59
102
}
330
A59
100
AcDbProxyObject
 90
      499
 91
      506
 95
    65563
 70
     0
 93
      370
310
8000000000000903F0000000000000A10086988017801B001A00110010001E801000188013801680180011006D004C
 94
        0
1001
ACAD
1000
AcRTDxfName
1000
SCALE
  0
ACAD_PROXY_OBJECT
  5
A6D
102
{ACAD_REACTORS
330
A59
102
}
330
A59
100
AcDbProxyObject
 90
      499
 91
      506
 95
    65563
 70
     0
 93
      370
310
8000000000000A03F0000000000000A100869880178019801900110010001E801000188013801680180011006D004C
 94
        0
1001
ACAD
1000
AcRTDxfName
1000
SCALE
  0
ACAD_PROXY_OBJECT
  5
A6E
102
{ACAD_REACTORS
330
A59
102
}
330
A59
100
AcDbProxyObject
 90
      499
 91
      506
 95
    65563
 70
     0
 93
      370
310
8000000000000B03F0000000000000A100869880178018801B00110010001E801000188013801680180011006D004C
 94
        0
1001
ACAD
1000
AcRTDxfName
1000
SCALE
  0
ACAD_PROXY_OBJECT
  5
A6F
102
{ACAD_REACTORS
330
A59
102
}
330
A59
100
AcDbProxyObject
 90
      499
 91
      506
 95
    65563
 70
     0
 93
      370
310
8000000000000B83F0000000000000A100869980178019801900110010001E801000188013801680180011006D004C
 94
        0
1001
ACAD
1000
AcRTDxfName
1000
SCALE
  0
ACAD_PROXY_OBJECT
  5
A70
102
{ACAD_REACTORS
330
A59
102
}
330
A59
100
AcDbProxyObject
 90
      499
 91
      506
 95
    65563
 70
     0
 93
      354
310
8000000000000C03F0000000000000A10086188017801C00110010001E8010001880138016801800110065004C
 94
        0
1001
ACAD
1000
AcRTDxfName
1000
SCALE
  0
ACAD_PROXY_OBJECT
  5
A71
102
{ACAD_REACTORS
330
A59
102
}
330
A59
100
AcDbProxyObject
 90
      499
 91
      506
 95
    65563
 70
     0
 93
      370
310
8000000000000C83F0000000000000A100869980178018801B00110010001E801000188013801680180011006D004C
 94
        0
1001
ACAD
1000
AcRTDxfName
1000
SCALE
  0
ACAD_PROXY_OBJECT
  5
A72
102
{ACAD_REACTORS
330
A59
102
}
330
A59
100
AcDbProxyObject
 90
      499
 91
      506
 95
    65563
 70
     0
 93
      354
310
8000000000000D03F0000000000000A10086188017801A00110010001E8010001880138016801800110065004C
 94
        0
1001
ACAD
1000
AcRTDxfName
1000
SCALE
  0
ACAD_PROXY_OBJECT
  5
A73
102
{ACAD_REACTORS
330
A59
102
}
330
A59
100
AcDbProxyObject
 90
      499
 91
      506
 95
    65563
 70
     0
 93
      354
310
8000000000000D83F0000000000000A10086198017801C00110010001E8010001880138016801800110065004C
 94
        0
1001
ACAD
1000
AcRTDxfName
1000
SCALE
  0
ACAD_PROXY_OBJECT
  5
A74
102
{ACAD_REACTORS
330
A59
102
}
330
A59
100
AcDbProxyObject
 90
      499
 91
      506
 95
    65563
 70
     0
 93
      354
310
8000000000000E03F0000000000000A10086188017801900110010001E8010001880138016801800110065004C
 94
        0
1001
ACAD
1000
AcRTDxfName
1000
SCALE
  0
ACAD_PROXY_OBJECT
  5
A75
102
{ACAD_REACTORS
330
A59
102
}
330
A59
100
AcDbProxyObject
 90
      499
 91
      506
 95
    65563
 70
     0
 93
      354
310
8000000000000E83F0000000000000A10086198017801A00110010001E8010001880138016801800110065004C
 94
        0
1001
ACAD
1000
AcRTDxfName
1000
SCALE
  0
ACAD_PROXY_OBJECT
  5
A76
102
{ACAD_REACTORS
330
A59
102
}
330
A59
100
AcDbProxyObject
 90
      499
 91
      506
 95
    65563
 70
     0
 93
      258
310
90000000000000A100851880110010001E8010001880138016801800110055004C
 94
        0
1001
ACAD
1000
AcRTDxfName
1000
SCALE
  0
ACAD_PROXY_OBJECT
  5
A77
102
{ACAD_REACTORS
330
A59
102
}
330
A59
100
AcDbProxyObject
 90
      499
 91
      506
 95
    65563
 70
     0
 93
      386
310
8000000000000F83F0000000000000A1008718801680188017801900110010001E8010001880138016801800110075004C
 94
        0
1001
ACAD
1000
AcRTDxfName
1000
SCALE
  0
ACAD_PROXY_OBJECT
  5
A78
102
{ACAD_REACTORS
330
A59
102
}
330
A59
100
AcDbProxyObject
 90
      499
 91
      506
 95
    65563
 70
     0
 93
      322
310
800000000000008400000000000000A100851980110010001E8010001880138016801800110055004C
 94
        0
1001
ACAD
1000
AcRTDxfName
1000
SCALE
  0
ACAD_PROXY_OBJECT
  5
A79
102
{ACAD_REACTORS
330
A59
102
}
330
A59
100
AcDbProxyObject
 90
      499
 91
      506
 95
    65563
 70
     0
 93
      322
310
800000000000018400000000000000A100851B00110010001E8010001880138016801800110055004C
 94
        0
1001
ACAD
1000
AcRTDxfName
1000
SCALE
  0
ACAD_PROXY_OBJECT
  5
A7A
102
{ACAD_REACTORS
330
A59
102
}
330
A59
100
AcDbProxyObject
 90
      499
 91
      506
 95
    65563
 70
     0
 93
      370
310
800000000000028400000000000000A100869880138016801800110010001E801000188013801680180011006D004C
 94
        0
1001
ACAD
1000
AcRTDxfName
1000
SCALE
  0
TABLESTYLE
  5
A58
102
{ACAD_XDICTIONARY
360
A7E
102
}
102
{ACAD_REACTORS
330
A57
102
}
330
A57
100
AcDbTableStyle
  3
Standard
 70
     0
 71
     0
 40
1.5
 41
1.5
280
     0
281
     0
  7
STANDARD
140
4.5
170
     2
 62
     0
 63
     7
283
     0
274
    -2
284
     1
 64
     0
275
    -2
285
     1
 65
     0
276
    -2
286
     1
 66
     0
277
    -2
287
     1
 67
     0
278
    -2
288
     1
 68
     0
279
    -2
289
     1
 69
     0
  7
STANDARD
140
6.0
170
     5
 62
     0
 63
     7
283
     0
274
    -2
284
     1
 64
     0
275
    -2
285
     1
 65
     0
276
    -2
286
     1
 66
     0
277
    -2
287
     1
 67
     0
278
    -2
288
     1
 68
     0
279
    -2
289
     1
 69
     0
  7
STANDARD
140
4.5
170
     5
 62
     0
 63
     7
283
     0
274
    -2
284
     1
 64
     0
275
    -2
285
     1
 65
     0
276
    -2
286
     1
 66
     0
277
    -2
287
     1
 67
     0
278
    -2
288
     1
 68
     0
279
    -2
289
     1
 69
     0
  0
VISUALSTYLE
  5
A4B
102
{ACAD_REACTORS
330
A45
102
}
330
A45
100
AcDbVisualStyle
  2
2dWireframe
 70
     4
 71
     0
 72
     2
 73
     0
 90
        0
 40
-0.6
 41
-30.0
 62
     5
 63
     7
 74
     1
 91
        4
 64
     7
 65
   257
 75
     1
175
     1
 42
1.0
 92
        0
 66
   257
 43
1.0
 76
     1
 77
     6
 78
     2
 67
     7
 79
     5
170
     0
171
     0
290
     0
174
     0
 93
        1
 44
0.0
173
     0
291
     0
 45
0.0
1001
ACAD
1000
AcDbSavedByObjectVersion
1070
     0
  0
VISUALSTYLE
  5
A4D
102
{ACAD_REACTORS
330
A45
102
}
330
A45
100
AcDbVisualStyle
  2
3D Hidden
 70
     6
 71
     1
 72
     2
 73
     2
 90
        0
 40
-0.6
 41
-30.0
 62
     5
 63
     7
 74
     2
 91
        2
 64
     7
 65
   257
 75
     2
175
     1
 42
40.0
 92
        0
 66
   257
 43
1.0
 76
     1
 77
     6
 78
     2
 67
     7
 79
     3
170
     0
171
     0
290
     0
174
     0
 93
        1
 44
0.0
173
     0
291
     0
 45
0.0
1001
ACAD
1000
AcDbSavedByObjectVersion
1070
     0
  0
VISUALSTYLE
  5
A4C
102
{ACAD_REACTORS
330
A45
102
}
330
A45
100
AcDbVisualStyle
  2
3dWireframe
 70
     5
 71
     0
 72
     2
 73
     0
 90
        0
 40
-0.6
 41
-30.0
 62
     5
 63
     7
 74
     1
 91
        4
 64
     7
 65
   257
 75
     1
175
     1
 42
1.0
 92
        0
 66
   257
 43
1.0
 76
     1
 77
     6
 78
     2
 67
     7
 79
     5
170
     0
171
     0
290
     0
174
     0
 93
        1
 44
0.0
173
     0
291
     0
 45
0.0
1001
ACAD
1000
AcDbSavedByObjectVersion
1070
     0
  0
VISUALSTYLE
  5
A4A
102
{ACAD_REACTORS
330
A45
102
}
330
A45
100
AcDbVisualStyle
  2
Basic
 70
     7
 71
     1
 72
     0
 73
     1
 90
        0
 40
-0.6
 41
-30.0
 62
     5
 63
     7
 74
     0
 91
        4
 64
     7
 65
   257
 75
     1
175
     1
 42
1.0
 92
        8
 66
     7
 43
1.0
 76
     1
 77
     6
 78
     2
 67
     7
 79
     5
170
     0
171
     0
290
     0
174
     0
 93
        1
 44
0.0
173
     0
291
     1
 45
0.0
1001
ACAD
1000
AcDbSavedByObjectVersion
1070
     0
  0
VISUALSTYLE
  5
A51
102
{ACAD_REACTORS
330
A45
102
}
330
A45
100
AcDbVisualStyle
  2
Brighten
 70
    12
 71
     2
 72
     2
 73
     0
 90
        0
 40
-0.6
 41
-30.0
 62
     5
 63
     7
 74
     1
 91
        4
 64
     7
 65
   257
 75
     1
175
     1
 42
1.0
 92
        8
 66
     7
 43
1.0
 76
     1
 77
     6
 78
     2
 67
     7
 79
     5
170
     0
171
     0
290
     0
174
     0
 93
        1
 44
50.0
173
     0
291
     1
 45
0.0
1001
ACAD
1000
AcDbSavedByObjectVersion
1070
     0
  0
VISUALSTYLE
  5
A55
102
{ACAD_REACTORS
330
A45
102
}
330
A45
100
AcDbVisualStyle
  2
ColorChange
 70
    16
 71
     2
 72
     2
 73
     3
 90
        0
 40
-0.6
 41
-30.0
 62
     5
 63
     8
 74
     1
 91
        4
 64
     7
 65
   257
 75
     1
175
     1
 42
1.0
 92
        8
 66
     8
 43
1.0
 76
     1
 77
     6
 78
     2
 67
     7
 79
     5
170
     0
171
     0
290
     0
174
     0
 93
        1
 44
0.0
173
     0
291
     1
 45
0.0
1001
ACAD
1000
AcDbSavedByObjectVersion
1070
     0
  0
VISUALSTYLE
  5
A4E
102
{ACAD_REACTORS
330
A45
102
}
330
A45
100
AcDbVisualStyle
  2
Conceptual
 70
     9
 71
     3
 72
     2
 73
     0
 90
        0
 40
-0.6
 41
-30.0
 62
     5
 63
     7
 74
     2
 91
        2
 64
     7
 65
   257
 75
     1
175
     1
 42
40.0
 92
        8
 66
     7
 43
1.0
 76
     1
 77
     6
 78
     2
 67
     7
 79
     3
170
     0
171
     0
290
     0
174
     0
 93
        1
 44
0.0
173
     0
291
     0
 45
0.0
1001
ACAD
1000
AcDbSavedByObjectVersion
1070
     0
  0
VISUALSTYLE
  5
A50
102
{ACAD_REACTORS
330
A45
102
}
330
A45
100
AcDbVisualStyle
  2
Dim
 70
    11
 71
     2
 72
     2
 73
     0
 90
        0
 40
-0.6
 41
-30.0
 62
     5
 63
     7
 74
     1
 91
        4
 64
     7
 65
   257
 75
     1
175
     1
 42
1.0
 92
        8
 66
     7
 43
1.0
 76
     1
 77
     6
 78
     2
 67
     7
 79
     5
170
     0
171
     0
290
     0
174
     0
 93
        1
 44
-50.0
173
     0
291
     1
 45
0.0
1001
ACAD
1000
AcDbSavedByObjectVersion
1070
     0
  0
VISUALSTYLE
  5
A54
102
{ACAD_REACTORS
330
A45
102
}
330
A45
100
AcDbVisualStyle
  2
Facepattern
 70
    15
 71
     2
 72
     2
 73
     0
 90
        0
 40
-0.6
 41
-30.0
 62
     5
 63
     7
 74
     1
 91
        4
 64
     7
 65
   257
 75
     1
175
     1
 42
1.0
 92
        8
 66
     7
 43
1.0
 76
     1
 77
     6
 78
     2
 67
     7
 79
     5
170
     0
171
     0
290
     0
174
     0
 93
        1
 44
0.0
173
     0
291
     1
 45
0.0
1001
ACAD
1000
AcDbSavedByObjectVersion
1070
     0
  0
VISUALSTYLE
  5
A46
102
{ACAD_REACTORS
330
A45
102
}
330
A45
100
AcDbVisualStyle
  2
Flat
 70
     0
 71
     2
 72
     1
 73
     1
 90
        2
 40
-0.6
 41
30.0
 62
     5
 63
     7
 74
     0
 91
        4
 64
     7
 65
   257
 75
     1
175
     1
 42
1.0
 92
        8
 66
     7
 43
1.0
 76
     1
 77
     6
 78
     2
 67
     7
 79
     5
170
     0
171
     0
290
     0
174
     0
 93
       13
 44
0.0
173
     0
291
     1
 45
0.0
1001
ACAD
1000
AcDbSavedByObjectVersion
1070
     0
  0
VISUALSTYLE
  5
A47
102
{ACAD_REACTORS
330
A45
102
}
330
A45
100
AcDbVisualStyle
  2
FlatWithEdges
 70
     1
 71
     2
 72
     1
 73
     1
 90
        2
 40
-0.6
 41
30.0
 62
     5
 63
     7
 74
     1
 91
        4
 64
     7
 65
   257
 75
     1
175
     1
 42
1.0
 92
        0
 66
   257
 43
1.0
 76
     1
 77
     6
 78
     2
 67
     7
 79
     5
170
     0
171
     0
290
     0
174
     0
 93
       13
 44
0.0
173
     0
291
     1
 45
0.0
1001
ACAD
1000
AcDbSavedByObjectVersion
1070
     0
  0
VISUALSTYLE
  5
A48
102
{ACAD_REACTORS
330
A45
102
}
330
A45
100
AcDbVisualStyle
  2
Gouraud
 70
     2
 71
     2
 72
     2
 73
     1
 90
        2
 40
-0.6
 41
30.0
 62
     5
 63
     7
 74
     0
 91
        4
 64
     7
 65
   257
 75
     1
175
     1
 42
1.0
 92
        0
 66
     7
 43
1.0
 76
     1
 77
     6
 78
     2
 67
     7
 79
     5
170
     0
171
     0
290
     0
174
     0
 93
       13
 44
0.0
173
     0
291
     1
 45
0.0
1001
ACAD
1000
AcDbSavedByObjectVersion
1070
     0
  0
VISUALSTYLE
  5
A49
102
{ACAD_REACTORS
330
A45
102
}
330
A45
100
AcDbVisualStyle
  2
GouraudWithEdges
 70
     3
 71
     2
 72
     2
 73
     1
 90
        2
 40
-0.6
 41
30.0
 62
     5
 63
     7
 74
     1
 91
        4
 64
     7
 65
   257
 75
     1
175
     1
 42
1.0
 92
        0
 66
   257
 43
1.0
 76
     1
 77
     6
 78
     2
 67
     7
 79
     5
170
     0
171
     0
290
     0
174
     0
 93
       13
 44
0.0
173
     0
291
     1
 45
0.0
1001
ACAD
1000
AcDbSavedByObjectVersion
1070
     0
  0
VISUALSTYLE
  5
A53
102
{ACAD_REACTORS
330
A45
102
}
330
A45
100
AcDbVisualStyle
  2
Linepattern
 70
    14
 71
     2
 72
     2
 73
     0
 90
        0
 40
-0.6
 41
-30.0
 62
     5
 63
     7
 74
     1
 91
        4
 64
     7
 65
   257
 75
     7
175
     7
 42
1.0
 92
        8
 66
     7
 43
1.0
 76
     1
 77
     6
 78
     2
 67
     7
 79
     5
170
     0
171
     0
290
     0
174
     0
 93
        1
 44
0.0
173
     0
291
     1
 45
0.0
1001
ACAD
1000
AcDbSavedByObjectVersion
1070
     0
  0
VISUALSTYLE
  5
A4F
102
{ACAD_REACTORS
330
A45
102
}
330
A45
100
AcDbVisualStyle
  2
Realistic
 70
     8
 71
     2
 72
     2
 73
     0
 90
        0
 40
-0.6
 41
-30.0
 62
     5
 63
     7
 74
     1
 91
        0
 64
     7
 65
   257
 75
     1
175
     1
 42
1.0
 92
        8
 66
     8
 43
1.0
 76
     1
 77
     6
 78
     2
 67
     7
 79
     5
170
     0
171
     0
290
     0
174
     0
 93
       13
 44
0.0
173
     0
291
     0
 45
0.0
1001
ACAD
1000
AcDbSavedByObjectVersion
1070
     0
  0
VISUALSTYLE
  5
A52
102
{ACAD_REACTORS
330
A45
102
}
330
A45
100
AcDbVisualStyle
  2
Thicken
 70
    13
 71
     2
 72
     2
 73
     0
 90
        0
 40
-0.6
 41
-30.0
 62
     5
 63
     7
 74
     1
 91
        4
 64
     7
 65
   257
 75
     1
175
     1
 42
1.0
 92
       12
 66
     7
 43
1.0
 76
     1
 77
     6
 78
     2
 67
     7
 79
     5
170
     0
171
     0
290
     0
174
     0
 93
        1
 44
0.0
173
     0
291
     1
 45
0.0
1001
ACAD
1000
AcDbSavedByObjectVersion
1070
     0
  0
DICTIONARYVAR
  5
A84
102
{ACAD_REACTORS
330
A81
102
}
330
A81
100
DictionaryVariables
280
     0
  1
1:1
  0
DICTIONARYVAR
  5
A83
102
{ACAD_REACTORS
330
A81
102
}
330
A81
100
DictionaryVariables
280
     0
  1
STANDARD
  0
DICTIONARYVAR
  5
A82
102
{ACAD_REACTORS
330
A81
102
}
330
A81
100
DictionaryVariables
280
     0
  1
STANDARD
  0
DICTIONARYVAR
  5
B4F
102
{ACAD_REACTORS
330
A81
102
}
330
A81
100
DictionaryVariables
280
     0
  1
2
  0
DICTIONARYVAR
  5
B4E
102
{ACAD_REACTORS
330
A81
102
}
330
A81
100
DictionaryVariables
280
     0
  1
1
  0
DICTIONARYVAR
  5
B4D
102
{ACAD_REACTORS
330
A81
102
}
330
A81
100
DictionaryVariables
280
     0
  1
0
  0
DICTIONARYVAR
  5
B4C
102
{ACAD_REACTORS
330
A81
102
}
330
A81
100
DictionaryVariables
280
     0
  1
127
  0
DICTIONARY
  5
AEE
102
{ACAD_REACTORS
330
AE3
102
}
330
AE3
100
AcDbDictionary
281
     1
  0
XRECORD
  5
B0D
102
{ACAD_REACTORS
330
AE3
102
}
330
AE3
100
AcDbXrecord
280
     1
 90
-1023410169
  0
DICTIONARY
  5
B53
330
A29
100
AcDbDictionary
280
     1
281
     1
  3
ACAD_XREC_ROUNDTRIP
360
B54
  0
DICTIONARY
  5
B51
330
A28
100
AcDbDictionary
280
     1
281
     1
  3
ACAD_XREC_ROUNDTRIP
360
B52
  0
DICTIONARY
  5
A36
330
A35
100
AcDbDictionary
280
     1
281
     1
  3
ACAD_XREC_ROUNDTRIP
360
B56
  3
BUMPTILE
360
A38
  3
DIFFUSETILE
360
A37
  3
OPACITYTILE
360
A3B
  3
REFLECTIONTILE
360
A3A
  3
REFRACTIONTILE
360
A3C
  3
SPECULARTILE
360
A39
  0
DICTIONARY
  5
A2E
330
A2D
100
AcDbDictionary
280
     1
281
     1
  3
ACAD_XREC_ROUNDTRIP
360
B55
  3
BUMPTILE
360
A30
  3
DIFFUSETILE
360
A2F
  3
OPACITYTILE
360
A33
  3
REFLECTIONTILE
360
A32
  3
REFRACTIONTILE
360
A34
  3
SPECULARTILE
360
A31
  0
DICTIONARY
  5
A3E
330
A3D
100
AcDbDictionary
280
     1
281
     1
  3
ACAD_XREC_ROUNDTRIP
360
B57
  3
BUMPTILE
360
A40
  3
DIFFUSETILE
360
A3F
  3
OPACITYTILE
360
A43
  3
REFLECTIONTILE
360
A42
  3
REFRACTIONTILE
360
A44
  3
SPECULARTILE
360
A41
  0
DICTIONARY
  5
A7E
330
A58
100
AcDbDictionary
280
     1
281
     1
  3
ACAD_ROUNDTRIP_2008_TABLESTYLE_CELLSTYLEMAP
360
A7F
  3
ACAD_XREC_ROUNDTRIP
360
B58
  0
XRECORD
  5
B54
102
{ACAD_REACTORS
330
B53
102
}
330
B53
100
AcDbXrecord
280
     1
102
SHADEPLOT
 70
     0
102
SHADEPLOTRESLEVEL
 70
     2
102
SHADEPLOTCUSTOMDPI
 70
   300
  0
XRECORD
  5
B52
102
{ACAD_REACTORS
330
B51
102
}
330
B51
100
AcDbXrecord
280
     1
102
SHADEPLOT
 70
     0
102
SHADEPLOTRESLEVEL
 70
     2
102
SHADEPLOTCUSTOMDPI
 70
   300
  0
XRECORD
  5
B56
102
{ACAD_REACTORS
330
A36
102
}
330
A36
100
AcDbXrecord
280
     1
102
MATERIAL
148
0.0
149
0.0
149
0.0
 93
        0
 94
      127
282
     0
 72
     0
 77
     0
171
     0
175
     0
179
     0
273
     0
  0
XRECORD
  5
A38
102
{ACAD_REACTORS
330
A36
102
}
330
A36
100
AcDbXrecord
280
     1
270
     1
271
     1
  0
XRECORD
  5
A37
102
{ACAD_REACTORS
330
A36
102
}
330
A36
100
AcDbXrecord
280
     1
270
     1
271
     1
  0
XRECORD
  5
A3B
102
{ACAD_REACTORS
330
A36
102
}
330
A36
100
AcDbXrecord
280
     1
270
     1
271
     1
  0
XRECORD
  5
A3A
102
{ACAD_REACTORS
330
A36
102
}
330
A36
100
AcDbXrecord
280
     1
270
     1
271
     1
  0
XRECORD
  5
A3C
102
{ACAD_REACTORS
330
A36
102
}
330
A36
100
AcDbXrecord
280
     1
270
     1
271
     1
  0
XRECORD
  5
A39
102
{ACAD_REACTORS
330
A36
102
}
330
A36
100
AcDbXrecord
280
     1
270
     1
271
     1
  0
XRECORD
  5
B55
102
{ACAD_REACTORS
330
A2E
102
}
330
A2E
100
AcDbXrecord
280
     1
102
MATERIAL
148
0.0
149
0.0
149
0.0
 93
        0
 94
      127
282
     0
 72
     0
 77
     0
171
     0
175
     0
179
     0
273
     0
  0
XRECORD
  5
A30
102
{ACAD_REACTORS
330
A2E
102
}
330
A2E
100
AcDbXrecord
280
     1
270
     1
271
     1
  0
XRECORD
  5
A2F
102
{ACAD_REACTORS
330
A2E
102
}
330
A2E
100
AcDbXrecord
280
     1
270
     1
271
     1
  0
XRECORD
  5
A33
102
{ACAD_REACTORS
330
A2E
102
}
330
A2E
100
AcDbXrecord
280
     1
270
     1
271
     1
  0
XRECORD
  5
A32
102
{ACAD_REACTORS
330
A2E
102
}
330
A2E
100
AcDbXrecord
280
     1
270
     1
271
     1
  0
XRECORD
  5
A34
102
{ACAD_REACTORS
330
A2E
102
}
330
A2E
100
AcDbXrecord
280
     1
270
     1
271
     1
  0
XRECORD
  5
A31
102
{ACAD_REACTORS
330
A2E
102
}
330
A2E
100
AcDbXrecord
280
     1
270
     1
271
     1
  0
XRECORD
  5
B57
102
{ACAD_REACTORS
330
A3E
102
}
330
A3E
100
AcDbXrecord
280
     1
102
MATERIAL
148
0.0
149
0.0
149
0.0
 93
        0
 94
      127
282
     0
 72
     0
 77
     0
171
     0
175
     0
179
     0
273
     0
  0
XRECORD
  5
A40
102
{ACAD_REACTORS
330
A3E
102
}
330
A3E
100
AcDbXrecord
280
     1
270
     1
271
     1
  0
XRECORD
  5
A3F
102
{ACAD_REACTORS
330
A3E
102
}
330
A3E
100
AcDbXrecord
280
     1
270
     1
271
     1
  0
XRECORD
  5
A43
102
{ACAD_REACTORS
330
A3E
102
}
330
A3E
100
AcDbXrecord
280
     1
270
     1
271
     1
  0
XRECORD
  5
A42
102
{ACAD_REACTORS
330
A3E
102
}
330
A3E
100
AcDbXrecord
280
     1
270
     1
271
     1
  0
XRECORD
  5
A44
102
{ACAD_REACTORS
330
A3E
102
}
330
A3E
100
AcDbXrecord
280
     1
270
     1
271
     1
  0
XRECORD
  5
A41
102
{ACAD_REACTORS
330
A3E
102
}
330
A3E
100
AcDbXrecord
280
     1
270
     1
271
     1
  0
ACAD_PROXY_OBJECT
  5
A7F
102
{ACAD_REACTORS
330
A7E
102
}
330
A7E
100
AcDbProxyObject
 90
      499
 91
      508
 95
    65563
 70
     0
 93
     5441
310
40D054060020000020000003200101A0000800029416000000304000000000000001840404000000000000F83F0000000000003E0FC000000000000F83F0000000000003E0FC0000000000001240000000000000049010640640600000030400FEFFFFFF8000000000000F23F40A40600000030400FEFFFFFF800000000000
310
0F23F41240600000030400FEFFFFFF8000000000000F23F42240600000030400FEFFFFFF8000000000000F23F44240600000030400FEFFFFFF8000000000000F23F48240600000030400FEFFFFFF8000000000000F23F4050141501A8000000C800406800020000A5058000000C10000000000000004901010000000000003
310
E0FC000000000000F83F0000000000003E0FC000000000000F83F000000000000049000000000000001240419019018000000C1003FBFFFFFE0000000000003C8FD029018000000C1003FBFFFFFE0000000000003C8FD049018000000C1003FBFFFFFE0000000000003C8FD089018000000C1003FBFFFFFE0000000000003C
310
8FD109018000000C1003FBFFFFFE0000000000003C8FD209018000000C1003FBFFFFFE0000000000003C8FD0240505406A0000003200101A000080002940A000000304000000000000001240404000000000000F83F0000000000003E0FC000000000000F83F0000000000003E0FC000000000000124000000000000004901
310
0640640600000030400FEFFFFFF8000000000000F23F40A40600000030400FEFFFFFF8000000000000F23F41240600000030400FEFFFFFF8000000000000F23F42240600000030400FEFFFFFF8000000000000F23F44240600000030400FEFFFFFF8000000000000F23F48240600000030400FEFFFFFF8000000000000F23F
310
40D029065F005400490054004C0045009075F004800450041004400450052009055F0044004100540041004401CC
340
11
340
0
340
0
340
0
340
0
340
0
340
0
340
11
340
0
340
0
340
0
340
0
340
0
340
0
340
11
340
0
340
0
340
0
340
0
340
0
340
0
 94
        0
1001
ACAD
1000
AcRTDxfName
1000
CELLSTYLEMAP
  0
XRECORD
  5
B58
102
{ACAD_REACTORS
330
A7E
102
}
330
A7E
100
AcDbXrecord
280
     1
102
ACAD_ROUNDTRIP_PRE2007_TABLESTYLE
 90
      512
 91
        0
  1

 92
      512
 93
        0
  2

 94
      512
 95
        0
  3

  0
ENDSEC
  0
EOF
