  0
SECTION
  2
HEADER
  9
$ACADVER
  1
AC1021
  9
$ACADMAINTVER
 70
    50
  9
$DWGCODEPAGE
  3
ANSI_936
  9
$LASTSAVEDBY
  1
ko69185
  9
$CUSTOMPROPERTYTAG
  1
AmdtFileType
  9
$CUSTOMPROPERTY
  1
84
  9
$INSBASE
 10
0.0
 20
0.0
 30
0.0
  9
$EXTMIN
 10
11.9311629247868
 20
17.54798260826444
 30
0.0
  9
$EXTMAX
 10
50.49888086551686
 20
38.8624292569077
 30
0.0
  9
$LIMMIN
 10
0.0
 20
0.0
  9
$LIMMAX
 10
17.0
 20
11.0
  9
$ORTHOMODE
 70
     0
  9
$REGENMODE
 70
     1
  9
$FILLMODE
 70
     1
  9
$QTEXTMODE
 70
     0
  9
$MIRRTEXT
 70
     1
  9
$LTSCALE
 40
1.0
  9
$ATTMODE
 70
     1
  9
$TEXTSIZE
 40
0.2
  9
$TRACEWID
 40
0.05
  9
$TEXTSTYLE
  7
STANDARD
  9
$CLAYER
  8
0
  9
$CELTYPE
  6
ByLayer
  9
$CECOLOR
 62
   256
  9
$CELTSCALE
 40
1.0
  9
$DISPSILH
 70
     0
  9
$DIMSCALE
 40
1.0
  9
$DIMASZ
 40
0.12
  9
$DIMEXO
 40
0.05
  9
$DIMDLI
 40
0.5
  9
$DIMRND
 40
0.0
  9
$DIMDLE
 40
0.0
  9
$DIMEXE
 40
0.1
  9
$DIMTP
 40
0.1
  9
$DIMTM
 40
0.1
  9
$DIMTXT
 40
0.12
  9
$DIMCEN
 40
0.0
  9
$DIMTSZ
 40
0.0
  9
$DIMTOL
 70
     0
  9
$DIMLIM
 70
     0
  9
$DIMTIH
 70
     1
  9
$DIMTOH
 70
     1
  9
$DIMSE1
 70
     0
  9
$DIMSE2
 70
     0
  9
$DIMTAD
 70
     0
  9
$DIMZIN
 70
     7
  9
$DIMBLK
  1

  9
$DIMASO
 70
     1
  9
$DIMSHO
 70
     1
  9
$DIMPOST
  1

  9
$DIMAPOST
  1
mm
  9
$DIMALT
 70
     0
  9
$DIMALTD
 70
     2
  9
$DIMALTF
 40
25.4
  9
$DIMLFAC
 40
1.0
  9
$DIMTOFL
 70
     0
  9
$DIMTVP
 40
0.0
  9
$DIMTIX
 70
     0
  9
$DIMSOXD
 70
     0
  9
$DIMSAH
 70
     0
  9
$DIMBLK1
  1

  9
$DIMBLK2
  1

  9
$DIMSTYLE
  2
AM_ANSI
  9
$DIMCLRD
 70
   256
  9
$DIMCLRE
 70
   256
  9
$DIMCLRT
 70
   140
  9
$DIMTFAC
 40
0.71
  9
$DIMGAP
 40
0.06
  9
$DIMJUST
 70
     0
  9
$DIMSD1
 70
     0
  9
$DIMSD2
 70
     0
  9
$DIMTOLJ
 70
     1
  9
$DIMTZIN
 70
     7
  9
$DIMALTZ
 70
     0
  9
$DIMALTTZ
 70
     0
  9
$DIMUPT
 70
     0
  9
$DIMDEC
 70
     4
  9
$DIMTDEC
 70
     4
  9
$DIMALTU
 70
     2
  9
$DIMALTTD
 70
     4
  9
$DIMTXSTY
  7
STANDARD
  9
$DIMAUNIT
 70
     0
  9
$DIMADEC
 70
     0
  9
$DIMALTRND
 40
0.0
  9
$DIMAZIN
 70
     2
  9
$DIMDSEP
 70
    46
  9
$DIMATFIT
 70
     3
  9
$DIMFRAC
 70
     0
  9
$DIMLDRBLK
  1

  9
$DIMLUNIT
 70
     2
  9
$DIMLWD
 70
    -1
  9
$DIMLWE
 70
    -1
  9
$DIMTMOVE
 70
     0
  9
$DIMFXL
 40
1.0
  9
$DIMFXLON
 70
     0
  9
$DIMJOGANG
 40
0.7853981633974483
  9
$DIMTFILL
 70
     0
  9
$DIMTFILLCLR
 70
     0
  9
$DIMARCSYM
 70
     1
  9
$DIMLTYPE
  6
ByBlock
  9
$DIMLTEX1
  6
ByBlock
  9
$DIMLTEX2
  6
ByBlock
  9
$LUNITS
 70
     2
  9
$LUPREC
 70
     4
  9
$SKETCHINC
 40
0.1
  9
$FILLETRAD
 40
0.125
  9
$AUNITS
 70
     0
  9
$AUPREC
 70
     0
  9
$MENU
  1
.
  9
$ELEVATION
 40
0.0
  9
$PELEVATION
 40
0.0
  9
$THICKNESS
 40
0.0
  9
$LIMCHECK
 70
     0
  9
$CHAMFERA
 40
0.125
  9
$CHAMFERB
 40
0.125
  9
$CHAMFERC
 40
1.0
  9
$CHAMFERD
 40
0.0
  9
$SKPOLY
 70
     0
  9
$TDCREATE
 40
2455338.669029086
  9
$TDUCREATE
 40
2455338.335695753
  9
$TDUPDATE
 40
2455338.669562848
  9
$TDUUPDATE
 40
2455338.336229514
  9
$TDINDWG
 40
0.0005346644
  9
$TDUSRTIMER
 40
0.0005346644
  9
$USRTIMER
 70
     1
  9
$ANGBASE
 50
0.0
  9
$ANGDIR
 70
     0
  9
$PDMODE
 70
     0
  9
$PDSIZE
 40
0.0
  9
$PLINEWID
 40
0.0
  9
$SPLFRAME
 70
     0
  9
$SPLINETYPE
 70
     6
  9
$SPLINESEGS
 70
     8
  9
$HANDSEED
  5
E6F
  9
$SURFTAB1
 70
     6
  9
$SURFTAB2
 70
     6
  9
$SURFTYPE
 70
     6
  9
$SURFU
 70
     6
  9
$SURFV
 70
     6
  9
$UCSBASE
  2

  9
$UCSNAME
  2

  9
$UCSORG
 10
0.0
 20
0.0
 30
0.0
  9
$UCSXDIR
 10
1.0
 20
0.0
 30
0.0
  9
$UCSYDIR
 10
0.0
 20
1.0
 30
0.0
  9
$UCSORTHOREF
  2

  9
$UCSORTHOVIEW
 70
     0
  9
$UCSORGTOP
 10
0.0
 20
0.0
 30
0.0
  9
$UCSORGBOTTOM
 10
0.0
 20
0.0
 30
0.0
  9
$UCSORGLEFT
 10
0.0
 20
0.0
 30
0.0
  9
$UCSORGRIGHT
 10
0.0
 20
0.0
 30
0.0
  9
$UCSORGFRONT
 10
0.0
 20
0.0
 30
0.0
  9
$UCSORGBACK
 10
0.0
 20
0.0
 30
0.0
  9
$PUCSBASE
  2

  9
$PUCSNAME
  2

  9
$PUCSORG
 10
0.0
 20
0.0
 30
0.0
  9
$PUCSXDIR
 10
1.0
 20
0.0
 30
0.0
  9
$PUCSYDIR
 10
0.0
 20
1.0
 30
0.0
  9
$PUCSORTHOREF
  2

  9
$PUCSORTHOVIEW
 70
     0
  9
$PUCSORGTOP
 10
0.0
 20
0.0
 30
0.0
  9
$PUCSORGBOTTOM
 10
0.0
 20
0.0
 30
0.0
  9
$PUCSORGLEFT
 10
0.0
 20
0.0
 30
0.0
  9
$PUCSORGRIGHT
 10
0.0
 20
0.0
 30
0.0
  9
$PUCSORGFRONT
 10
0.0
 20
0.0
 30
0.0
  9
$PUCSORGBACK
 10
0.0
 20
0.0
 30
0.0
  9
$USERI1
 70
     0
  9
$USERI2
 70
     0
  9
$USERI3
 70
     0
  9
$USERI4
 70
     0
  9
$USERI5
 70
     0
  9
$USERR1
 40
0.0
  9
$USERR2
 40
0.0
  9
$USERR3
 40
0.0
  9
$USERR4
 40
0.0
  9
$USERR5
 40
0.0
  9
$WORLDVIEW
 70
     1
  9
$SHADEDGE
 70
     3
  9
$SHADEDIF
 70
    70
  9
$TILEMODE
 70
     1
  9
$MAXACTVP
 70
    64
  9
$PINSBASE
 10
0.0
 20
0.0
 30
0.0
  9
$PLIMCHECK
 70
     0
  9
$PEXTMIN
 10
1.000000000000000E+20
 20
1.000000000000000E+20
 30
1.000000000000000E+20
  9
$PEXTMAX
 10
-1.000000000000000E+20
 20
-1.000000000000000E+20
 30
-1.000000000000000E+20
  9
$PLIMMIN
 10
0.0
 20
0.0
  9
$PLIMMAX
 10
12.0
 20
9.0
  9
$UNITMODE
 70
     0
  9
$VISRETAIN
 70
     1
  9
$PLINEGEN
 70
     0
  9
$PSLTSCALE
 70
     1
  9
$TREEDEPTH
 70
  3020
  9
$CMLSTYLE
  2
Standard
  9
$CMLJUST
 70
     0
  9
$CMLSCALE
 40
1.0
  9
$PROXYGRAPHICS
 70
     1
  9
$MEASUREMENT
 70
     0
  9
$CELWEIGHT
370
    -1
  9
$ENDCAPS
280
     0
  9
$JOINSTYLE
280
     0
  9
$LWDISPLAY
290
     0
  9
$INSUNITS
 70
     1
  9
$HYPERLINKBASE
  1

  9
$STYLESHEET
  1

  9
$XEDIT
290
     1
  9
$CEPSNTYPE
380
     0
  9
$PSTYLEMODE
290
     1
  9
$FINGERPRINTGUID
  2
{46524BC0-9C8C-4F7C-B0FF-3E79E9A70FA2}
  9
$VERSIONGUID
  2
{5486BB14-17F3-43F6-88B6-F082D68BE5C0}
  9
$EXTNAMES
290
     1
  9
$PSVPSCALE
 40
0.0
  9
$OLESTARTUP
290
     0
  9
$SORTENTS
280
   127
  9
$INDEXCTL
280
     0
  9
$HIDETEXT
280
     0
  9
$XCLIPFRAME
290
     0
  9
$HALOGAP
280
     0
  9
$OBSCOLOR
 70
   257
  9
$OBSLTYPE
280
     0
  9
$INTERSECTIONDISPLAY
280
     0
  9
$INTERSECTIONCOLOR
 70
   257
  9
$DIMASSOC
280
     2
  9
$PROJECTNAME
  1

  9
$CAMERADISPLAY
290
     0
  9
$LENSLENGTH
 40
50.0
  9
$CAMERAHEIGHT
 40
0.0
  9
$STEPSPERSEC
 40
2.0
  9
$STEPSIZE
 40
6.0
  9
$3DDWFPREC
 40
2.0
  9
$PSOLWIDTH
 40
0.25
  9
$PSOLHEIGHT
 40
4.0
  9
$LOFTANG1
 40
1.570796326794896
  9
$LOFTANG2
 40
1.570796326794896
  9
$LOFTMAG1
 40
0.0
  9
$LOFTMAG2
 40
0.0
  9
$LOFTPARAM
 70
     7
  9
$LOFTNORMALS
280
     1
  9
$LATITUDE
 40
37.795
  9
$LONGITUDE
 40
-122.394
  9
$NORTHDIRECTION
 40
0.0
  9
$TIMEZONE
 70
 -8000
  9
$LIGHTGLYPHDISPLAY
280
     1
  9
$TILEMODELIGHTSYNCH
280
     1
  9
$CMATERIAL
347
293
  9
$SOLIDHIST
280
     1
  9
$SHOWHIST
280
     1
  9
$DWFFRAME
280
     2
  9
$DGNFRAME
280
     0
  9
$REALWORLDSCALE
290
     1
  9
$INTERFERECOLOR
 62
     1
  9
$INTERFEREOBJVS
345
2A0
  9
$INTERFEREVPVS
346
29D
  9
$CSHADOW
280
     0
  9
$SHADOWPLANELOCATION
 40
0.0
  0
ENDSEC
  0
SECTION
  2
CLASSES
  0
CLASS
  1
ACDBDICTIONARYWDFLT
  2
AcDbDictionaryWithDefault
  3
ObjectDBX Classes
 90
        0
 91
        1
280
     0
281
     0
  0
CLASS
  1
ACME_DOCUMENT
  2
AcMeDbDoc
  3
AcMeServices
 90
     1024
 91
        2
280
     0
281
     0
  0
CLASS
  1
AMGSETTINGSOBJ
  2
AmgSettingsObj
  3
"AcadM|Product Description: AutoCAD Mechanical|Company: Autodesk, Inc."
 90
     1024
 91
        4
280
     0
281
     0
  0
CLASS
  1
ACMESCOPE
  2
AcMeScope
  3
AcMeServices
 90
     1024
 91
        1
280
     0
281
     0
  0
CLASS
  1
ACMECOMMANDHISTORY
  2
AcMeCommandHistory
  3
AcMeServices
 90
     1024
 91
        1
280
     0
281
     0
  0
CLASS
  1
ACIMSYSVARMAN
  2
AcImSysVarManager
  3
AcMeServices
 90
     1024
 91
        5
280
     0
281
     0
  0
CLASS
  1
ACIMREALSYSVAR
  2
AcImRealSysVar
  3
AcMeServices
 90
     1024
 91
        3
280
     0
281
     0
  0
CLASS
  1
ACIMINTSYSVAR
  2
AcImIntSysVar
  3
AcMeServices
 90
     1024
 91
       27
280
     0
281
     0
  0
CLASS
  1
ACMEDRAWINGMAN
  2
AcMeDrawingMan
  3
AcMeServices
 90
     1024
 91
        1
280
     0
281
     0
  0
CLASS
  1
ACMEVIEW
  2
AcMeView
  3
AcMeServices
 90
     1024
 91
        1
280
     0
281
     0
  0
CLASS
  1
ACDBENTITYCACHE
  2
AcMeEntityCache
  3
AcMeServices
 90
     1024
 91
        1
280
     0
281
     0
  0
CLASS
  1
GSMANAGER
  2
AcMeGSManager
  3
AcMeServices
 90
     1024
 91
        1
280
     0
281
     0
  0
CLASS
  1
AMDTINTERNALREACTOR
  2
AmdtInternalReactor
  3
AcMeServices
 90
     1024
 91
        2
280
     0
281
     0
  0
CLASS
  1
ACMESTATEMGR
  2
AcMeStateMgr
  3
AcMeServices
 90
     1024
 91
        1
280
     0
281
     0
  0
CLASS
  1
ACGREFMASTER
  2
AcGrefMaster
  3
AcAttribServices
 90
     1024
 91
        1
280
     0
281
     0
  0
CLASS
  1
ACME_DATABASE
  2
AcMeDbDatabase
  3
AcMeServices
 90
     1024
 91
        2
280
     0
281
     0
  0
CLASS
  1
ACRFINSADJUSTERMGR
  2
AcRfInsAdjusterMgr
  3
AcMeServices
 90
     1024
 91
        1
280
     0
281
     0
  0
CLASS
  1
ACGREFACADMASTER
  2
AcGrefacadMaster
  3
AcGrefServices
 90
     1024
 91
        1
280
     0
281
     0
  0
CLASS
  1
AMIMASTER
  2
AmiMaster
  3
AmiServices
 90
     1024
 91
        1
280
     0
281
     0
  0
CLASS
  1
ACMDATADICTIONARY
  2
AcmDataDictionary
  3
"AcmSymBB|Product Description: AutoCAD Mechanical|Company: Autodesk, Inc."
 90
     1024
 91
        1
280
     0
281
     0
  0
CLASS
  1
ACMDATAENTRYBLOCK
  2
AcmDataEntryBlock
  3
AcmSymBB|Product Description: AutoCAD Mechanical|Company: Autodesk, Inc.
 90
     1024
 91
        1
280
     0
281
     0
  0
CLASS
  1
ACIMSTRSYSVAR
  2
AcImStrSysVar
  3
AcMeServices
 90
     1024
 91
        5
280
     0
281
     0
  0
CLASS
  1
ACMSTANDARDANSI
  2
AcmStandardANSI
  3
"Amdt_StdImp|Product Description: AutoCAD Mechanical|Company: Autodesk, Inc."
 90
     1024
 91
        1
280
     0
281
     0
  0
CLASS
  1
AMGOBJPROPCFG
  2
AmgObjPropCfg
  3
"AmgLay|Product Description: AutoCAD Mechanical|Company: Autodesk, Inc."
 90
     1025
 91
        1
280
     0
281
     0
  0
CLASS
  1
ACMSURFSTANDARDANSI
  2
AcmSurfTextStdANSI
  3
"Amdt_StdImp|Product Description: AutoCAD Mechanical|Company: Autodesk, Inc."
 90
     1024
 91
        1
280
     0
281
     0
  0
CLASS
  1
ACMFCFSTANDARDANSI
  2
AcmFCFStdANSI
  3
"Amdt_StdImp|Product Description: AutoCAD Mechanical|Company: Autodesk, Inc."
 90
     1024
 91
        1
280
     0
281
     0
  0
CLASS
  1
ACMWELDSTANDARDANSI
  2
AcmWeldingStdANSI
  3
"Amdt_StdImp|Product Description: AutoCAD Mechanical|Company: Autodesk, Inc."
 90
     1024
 91
        1
280
     0
281
     0
  0
CLASS
  1
ACMIDSTANDARDANSI
  2
AcmIdStdANSI
  3
"Amdt_StdImp|Product Description: AutoCAD Mechanical|Company: Autodesk, Inc."
 90
     1024
 91
        1
280
     0
281
     0
  0
CLASS
  1
ACMDATUMSTANDARDANSI
  2
AcmDatumStdANSI
  3
"Amdt_StdImp|Product Description: AutoCAD Mechanical|Company: Autodesk, Inc."
 90
     1024
 91
        1
280
     0
281
     0
  0
CLASS
  1
ACMBOMSTANDARDANSI
  2
AcmBOMStdANSI
  3
"Amdt_StdImp|Product Description: AutoCAD Mechanical|Company: Autodesk, Inc."
 90
     1024
 91
        1
280
     0
281
     0
  0
CLASS
  1
ACMDETAILSTANDARDANSI
  2
AmdtDetailSymStdANSI
  3
"Amdt_StdImp|Product Description: AutoCAD Mechanical|Company: Autodesk, Inc."
 90
     1024
 91
        1
280
     0
281
     0
  0
CLASS
  1
ACMSECTIONSTANDARDANSI
  2
AmdtSectionSymStdANSI
  3
"Amdt_StdImp|Product Description: AutoCAD Mechanical|Company: Autodesk, Inc."
 90
     1024
 91
        1
280
     0
281
     0
  0
CLASS
  1
ACMCENTERLINESTANDARDANSI
  2
AmdtCenterLineStdANSI
  3
"Amdt_StdImp|Product Description: AutoCAD Mechanical|Company: Autodesk, Inc."
 90
     1024
 91
        1
280
     0
281
     0
  0
CLASS
  1
ACMNOTESTANDARDANSI
  2
AmdtNoteStdANSI
  3
"Amdt_StdImp|Product Description: AutoCAD Mechanical|Company: Autodesk, Inc."
 90
     1024
 91
        1
280
     0
281
     0
  0
CLASS
  1
ACAMGLAYSTD
  2
AcAmgLayStd
  3
"AmgLay|Product Description: AutoCAD Mechanical|Company: Autodesk, Inc."
 90
     1024
 91
        1
280
     0
281
     0
  0
CLASS
  1
ACAMGDIMSTD
  2
AcAmgDimStd
  3
"AmgDim|Product Description: AutoCAD Mechanical|Company: Autodesk, Inc."
 90
     1024
 91
        1
280
     0
281
     0
  0
CLASS
  1
ACAMGHOLECHARTSTDANSI
  2
AcAmgHoleChartStdANSI
  3
AmgDim|Product Description: AutoCAD Mechanical|Company: Autodesk, Inc.
 90
     1024
 91
        1
280
     0
281
     0
  0
CLASS
  1
ACAMGTITLESTD
  2
AcAmgTitleStd
  3
"AmgTitle|Product Description: AutoCAD Mechanical|Company: Autodesk, Inc."
 90
     4095
 91
        1
280
     0
281
     0
  0
CLASS
  1
LAYER_INDEX
  2
AcDbLayerIndex
  3
ObjectDBX Classes
 90
        0
 91
        0
280
     0
281
     0
  0
CLASS
  1
IDBUFFER
  2
AcDbIdBuffer
  3
ObjectDBX Classes
 90
        0
 91
        0
280
     0
281
     0
  0
CLASS
  1
DICTIONARYVAR
  2
AcDbDictionaryVar
  3
ObjectDBX Classes
 90
        0
 91
        9
280
     0
281
     0
  0
CLASS
  1
AM_DRAWING_MGR
  2
AcDmDwgMgr
  3
AcMechDwgViewMgmt
 90
     1024
 91
        1
280
     0
281
     0
  0
CLASS
  1
AM_DWG_DOCUMENT
  2
AcDmDwgDocument
  3
AcMechDwgViewMgmt
 90
     1024
 91
        1
280
     0
281
     0
  0
CLASS
  1
AM_DWG_SHEET
  2
AcDmSheet
  3
AcMechDwgViewMgmt
 90
     1024
 91
        2
280
     0
281
     0
  0
CLASS
  1
AM_VIEWDIMPARMAP
  2
AcDmViewDimParMap
  3
AcMechDwgViewMgmt
 90
     1024
 91
        2
280
     0
281
     0
  0
CLASS
  1
AM_DWGMGR_NAME
  2
AcDmDwgMgrName
  3
AcMechDwgViewMgmt
 90
     1024
 91
        1
280
     0
281
     0
  0
CLASS
  1
AMDTMENUSTATEMGR
  2
AmdtMenuStateMgr
  3
McadcomServices
 90
     1024
 91
        1
280
     0
281
     0
  0
CLASS
  1
AMDTMCOMMENUSTATE
  2
AmdtMcomMenuState
  3
McadcomServices
 90
     1024
 91
        1
280
     0
281
     0
  0
CLASS
  1
MAPIAMMOUDLE
  2
MApiAmModule
  3
MApiAmServices
 90
     1024
 91
        1
280
     0
281
     0
  0
CLASS
  1
AMDTADMENUSTATE
  2
AmdtAdMenuState
  3
DesignerServices
 90
     1024
 91
        1
280
     0
281
     0
  0
CLASS
  1
ADAPPL
  2
AcAdAppl
  3
DesignerServices
 90
     1024
 91
        1
280
     0
281
     0
  0
CLASS
  1
DEPMGR
  2
AcAdDepMgr
  3
DesignerServices
 90
     1024
 91
        1
280
     0
281
     0
  0
CLASS
  1
PARAMMGR
  2
AcAdParamMgr
  3
DesignerServices
 90
     1024
 91
        1
280
     0
281
     0
  0
CLASS
  1
PARAMSCOPE
  2
AcAdParamScope
  3
DesignerServices
 90
     1024
 91
        1
280
     0
281
     0
  0
CLASS
  1
NAMEDAPPL
  2
AcAdNamedAppl
  3
DesignerServices
 90
     1024
 91
        1
280
     0
281
     0
  0
CLASS
  1
AMDTDMMENUSTATE
  2
AmdtDmMenuState
  3
AcMechDwgViewMgmt
 90
     1024
 91
        1
280
     0
281
     0
  0
CLASS
  1
AMDTAMMENUSTATE
  2
AmdtAmMenuState
  3
DesignerAssemblies
 90
     1024
 91
        1
280
     0
281
     0
  0
CLASS
  1
ACAMPROJECT
  2
AcAmProject
  3
DesignerAssemblies
 90
     1024
 91
        1
280
     0
281
     0
  0
CLASS
  1
ACAMGRCOMPDEF
  2
AcAmGrCompDef
  3
DesignerAssemblies
 90
     1024
 91
        1
280
     0
281
     0
  0
CLASS
  1
ACCMCONTEXT
  2
AcCmContext
  3
DesignerAssemblies
 90
     1024
 91
        1
280
     0
281
     0
  0
CLASS
  1
ACAMCOMPDEF
  2
AcAmCompDef
  3
DesignerAssemblies
 90
     1024
 91
        1
280
     0
281
     0
  0
CLASS
  1
ACAMCOMPDEFMGR
  2
AcAmCompDefMgr
  3
DesignerAssemblies
 90
     1024
 91
        1
280
     0
281
     0
  0
CLASS
  1
AMCONTEXTMGR
  2
AcAmContextMgr
  3
DesignerAssemblies
 90
     1024
 91
        1
280
     0
281
     0
  0
CLASS
  1
ACAMCONTEXTMODELER
  2
AcAmContextModeler
  3
DesignerAssemblies
 90
     1024
 91
        1
280
     0
281
     0
  0
CLASS
  1
ACMTHREADLINESTANDARDANSI
  2
AmdtThreadLineStdANSI
  3
"Amdt_StdImp|Product Description: AutoCAD Mechanical|Company: Autodesk, Inc."
 90
     1024
 91
        1
280
     0
281
     0
  0
CLASS
  1
CATALOGSTATE
  2
AcAmCatalogState
  3
DesignerAssemblies
 90
     1024
 91
        1
280
     0
281
     0
  0
CLASS
  1
ACAMGRCOMPDEFSET
  2
AcAmGrCompDefSet
  3
DesignerAssemblies
 90
     1024
 91
        1
280
     0
281
     0
  0
CLASS
  1
AMDTBROWSERDBTAB
  2
AmdtBrowserDbTab
  3
McadcomServices
 90
     1024
 91
        1
280
     0
281
     0
  0
CLASS
  1
CBROWSERAPPOBJECT
  2
CBrowserAppObject
  3
McadcomServices
 90
     1024
 91
        3
280
     0
281
     0
  0
CLASS
  1
DM_PLACEHOLDER
  2
AcDmSelsetPlaceholder
  3
AcMechDwgViewMgmt
 90
     1024
 91
        1
280
     0
281
     0
  0
CLASS
  1
TABLESTYLE
  2
AcDbTableStyle
  3
ObjectDBX Classes
 90
     4095
 91
        1
280
     0
281
     0
  0
CLASS
  1
AMDTNOTETEMPLATEDB
  2
AmdtNoteTemplateDB
  3
AcmSymBB|Product Description: AutoCAD Mechanical|Company: Autodesk, Inc.
 90
     1024
 91
        6
280
     0
281
     0
  0
CLASS
  1
MATERIAL
  2
AcDbMaterial
  3
ObjectDBX Classes
 90
     1153
 91
        3
280
     0
281
     0
  0
CLASS
  1
VISUALSTYLE
  2
AcDbVisualStyle
  3
ObjectDBX Classes
 90
     4095
 91
       16
280
     0
281
     0
  0
CLASS
  1
ACRFATTGENMGR
  2
AcRfAttGeneralMgr
  3
AcAttribServices
 90
     1024
 91
        1
280
     0
281
     0
  0
CLASS
  1
ACRFOBJATTMGR
  2
AcRfObjAttGroupMgr
  3
AcAttribServices
 90
     1024
 91
        1
280
     0
281
     0
  0
CLASS
  1
ACRFMCADAPIATTHOLDER
  2
AcRfMCADAPIAttHolder
  3
AcAttribServices
 90
     1024
 91
        1
280
     0
281
     0
  0
CLASS
  1
AMDTSYSATTR
  2
AmdtSystemAttribute
  3
AcAttribServices
 90
     1024
 91
        1
280
     0
281
     0
  0
CLASS
  1
ACMTAPERSTANDARDANSI
  2
AcmTaperStdANSI
  3
"Amdt_StdImp|Product Description: AutoCAD Mechanical|Company: Autodesk, Inc."
 90
     1024
 91
        1
280
     0
281
     0
  0
CLASS
  1
CAMSSTRUCTBTNSTATE
  2
StructBtnState
  3
DesignerAssemblies
 90
     1024
 91
        1
280
     0
281
     0
  0
CLASS
  1
SCALE
  2
AcDbScale
  3
ObjectDBX Classes
 90
     1153
 91
       33
280
     0
281
     0
  0
CLASS
  1
MLEADERSTYLE
  2
AcDbMLeaderStyle
  3
ACDB_MLEADERSTYLE_CLASS
 90
     4095
 91
        1
280
     0
281
     0
  0
CLASS
  1
ACMANOOTATIONVIEWSTANDARDANSI
  2
AmdtAnViewStdANSI
  3
"Amdt_StdImp|Product Description: AutoCAD Mechanical|Company: Autodesk, Inc."
 90
     1024
 91
        1
280
     0
281
     0
  0
CLASS
  1
CELLSTYLEMAP
  2
AcDbCellStyleMap
  3
ObjectDBX Classes
 90
     1152
 91
        2
280
     0
281
     0
  0
CLASS
  1
EXACXREFPANELOBJECT
  2
ExAcXREFPanelObject
  3
EXAC_ESW
 90
     1025
 91
        1
280
     0
281
     0
  0
CLASS
  1
NPOCOLLECTION
  2
AcDbImpNonPersistentObjectsCollection
  3
ObjectDBX Classes
 90
     1153
 91
        1
280
     0
281
     0
  0
CLASS
  1
ACAMGFILTERDAT
  2
AcAmgFilterDat
  3
"AcadM|Product Description: AutoCAD Mechanical|Company: Autodesk, Inc."
 90
     1024
 91
        6
280
     0
281
     0
  0
ENDSEC
  0
SECTION
  2
TABLES
  0
TABLE
  2
VPORT
  5
8
330
0
100
AcDbSymbolTable
 70
     1
  0
VPORT
  5
291
330
8
100
AcDbSymbolTableRecord
100
AcDbViewportTableRecord
  2
*Active
 70
     0
 10
0.0
 20
0.0
 11
1.0
 21
1.0
 12
33.36477353357174
 22
23.15182330111315
 13
0.0
 23
0.0
 14
0.125
 24
0.125
 15
1.0
 25
1.0
 16
0.0
 26
0.0
 36
1.0
 17
0.0
 27
0.0
 37
0.0
 40
35.87843419593746
 41
1.439655172413793
 42
50.0
 43
0.0
 44
0.0
 50
0.0
 51
0.0
 71
     0
 72
   100
 73
     1
 74
     3
 75
     0
 76
     0
 77
     0
 78
     0
281
     0
 65
     1
110
0.0
120
0.0
130
0.0
111
1.0
121
0.0
131
0.0
112
0.0
122
1.0
132
0.0
 79
     0
146
0.0
348
29C
 60
     3
 61
     5
292
     1
282
     0
141
0.0
142
0.0
 63
   250
421
  3355443
  0
ENDTAB
  0
TABLE
  2
LTYPE
  5
5
330
0
100
AcDbSymbolTable
 70
    17
  0
LTYPE
  5
14
330
5
100
AcDbSymbolTableRecord
100
AcDbLinetypeTableRecord
  2
ByBlock
 70
     0
  3

 72
    65
 73
     0
 40
0.0
  0
LTYPE
  5
15
330
5
100
AcDbSymbolTableRecord
100
AcDbLinetypeTableRecord
  2
ByLayer
 70
     0
  3

 72
    65
 73
     0
 40
0.0
  0
LTYPE
  5
16
330
5
100
AcDbSymbolTableRecord
100
AcDbLinetypeTableRecord
  2
Continuous
 70
     0
  3
Solid line
 72
    65
 73
     0
 40
0.0
  0
LTYPE
  5
6C
330
5
100
AcDbSymbolTableRecord
100
AcDbLinetypeTableRecord
  2
AM_ISO02W050
 70
     0
  3
__ __ __ __ __ __ __ __ __ __ __ __ __ __ __
 72
    65
 73
     2
 40
7.5
 49
6.0
 74
     0
 49
-1.5
 74
     0
  0
LTYPE
  5
6D
330
5
100
AcDbSymbolTableRecord
100
AcDbLinetypeTableRecord
  2
AM_ISO08W050
 70
     0
  3
____ . ____ . ____ . ____ . ____ . ____ . ____
 72
    65
 73
     4
 40
18.0
 49
12.0
 74
     0
 49
-1.5
 74
     0
 49
3.0
 74
     0
 49
-1.5
 74
     0
  0
LTYPE
  5
6E
330
5
100
AcDbSymbolTableRecord
100
AcDbLinetypeTableRecord
  2
AM_ISO09W050
 70
     0
  3
_____ . . _____ . . _____ . . ____ .. ____
 72
    65
 73
     6
 40
22.5
 49
12.0
 74
     0
 49
-1.5
 74
     0
 49
3.0
 74
     0
 49
-1.5
 74
     0
 49
3.0
 74
     0
 49
-1.5
 74
     0
  0
LTYPE
  5
6F
330
5
100
AcDbSymbolTableRecord
100
AcDbLinetypeTableRecord
  2
Amconstr
 70
     0
  3
_______________________
 72
    65
 73
     2
 40
9999.0
 49
9999.0
 74
     0
 49
0.0
 74
     0
  0
LTYPE
  5
70
330
5
100
AcDbSymbolTableRecord
100
AcDbLinetypeTableRecord
  2
AM_ISO08W050x2
 70
     0
  3
__ . __ . __ . __ . __ . __
 72
    65
 73
     4
 40
9.0
 49
6.0
 74
     0
 49
-0.75
 74
     0
 49
1.5
 74
     0
 49
-0.75
 74
     0
  0
LTYPE
  5
71
330
5
100
AcDbSymbolTableRecord
100
AcDbLinetypeTableRecord
  2
AM_ISO02W050x2
 70
     0
  3
 _ _ _ _ _ _ _ _ _ _ _ _
 72
    65
 73
     2
 40
3.75
 49
3.0
 74
     0
 49
-0.75
 74
     0
  0
LTYPE
  5
74
330
5
100
AcDbSymbolTableRecord
100
AcDbLinetypeTableRecord
  2
Amzigzag
 70
     0
  3
/\/-/\/-/\/-/\/-/\/-/\/
 72
    65
 73
     2
 40
11.0001
 49
0.0001
 74
     4
 75
   136
340
254
 46
0.04
 50
0.0
 44
0.0
 45
0.0
 49
-11.0
 74
     0
  0
LTYPE
  5
75
330
5
100
AcDbSymbolTableRecord
100
AcDbLinetypeTableRecord
  2
HIDDEN
 70
     0
  3
Hidden __ __ __ __ __ __ __ __ __ __ __ __ __ _
 72
    65
 73
     2
 40
0.375
 49
0.25
 74
     0
 49
-0.125
 74
     0
  0
LTYPE
  5
76
330
5
100
AcDbSymbolTableRecord
100
AcDbLinetypeTableRecord
  2
CENTER
 70
     0
  3
Center ____ _ ____ _ ____ _ ____ _ ____ _ ____
 72
    65
 73
     4
 40
2.0
 49
1.25
 74
     0
 49
-0.25
 74
     0
 49
0.25
 74
     0
 49
-0.25
 74
     0
  0
LTYPE
  5
77
330
5
100
AcDbSymbolTableRecord
100
AcDbLinetypeTableRecord
  2
PHANTOM2
 70
     0
  3
Phantom (.5x) ___ _ _ ___ _ _ ___ _ _ ___ _ _
 72
    65
 73
     6
 40
1.25
 49
0.625
 74
     0
 49
-0.125
 74
     0
 49
0.125
 74
     0
 49
-0.125
 74
     0
 49
0.125
 74
     0
 49
-0.125
 74
     0
  0
LTYPE
  5
78
330
5
100
AcDbSymbolTableRecord
100
AcDbLinetypeTableRecord
  2
CENTER2
 70
     0
  3
Center (.5x) ___ _ ___ _ ___ _ ___ _ ___ _ ___
 72
    65
 73
     4
 40
1.125
 49
0.75
 74
     0
 49
-0.125
 74
     0
 49
0.125
 74
     0
 49
-0.125
 74
     0
  0
LTYPE
  5
79
330
5
100
AcDbSymbolTableRecord
100
AcDbLinetypeTableRecord
  2
HIDDEN2
 70
     0
  3
Hidden (.5x) _ _ _ _ _ _ _ _ _ _ _ _ _ _ _ _ _
 72
    65
 73
     2
 40
0.1875
 49
0.125
 74
     0
 49
-0.0625
 74
     0
  0
LTYPE
  5
7A
330
5
100
AcDbSymbolTableRecord
100
AcDbLinetypeTableRecord
  2
Amzigzag2
 70
     0
  3
/\/-/\/-/\/-/\/-/\/-/\/
 72
    65
 73
     2
 40
0.4401
 49
0.0001
 74
     4
 75
   136
340
254
 46
0.0016
 50
0.0
 44
0.0
 45
0.0
 49
-0.4400000000000001
 74
     0
  0
LTYPE
  5
87
330
5
100
AcDbSymbolTableRecord
100
AcDbLinetypeTableRecord
  2
ACANSTGB
 70
     0
  3
__ . . __ . .
 72
    65
 73
     6
 40
0.35433070866
 49
0.15748031496
 74
     0
 49
-0.03937007874
 74
     0
 49
0.03937007874
 74
     0
 49
-0.03937007874
 74
     0
 49
0.03937007874
 74
     0
 49
-0.03937007874
 74
     0
  0
LTYPE
  5
88
330
5
100
AcDbSymbolTableRecord
100
AcDbLinetypeTableRecord
  2
ACANSTGL
 70
     0
  3
_ _ _ _ _
 72
    65
 73
     2
 40
0.11811023622
 49
0.07874015748
 74
     0
 49
-0.03937007874
 74
     0
  0
ENDTAB
  0
TABLE
  2
LAYER
  5
2
330
0
100
AcDbSymbolTable
 70
     2
  0
LAYER
  5
10
102
{ACAD_XDICTIONARY
360
E67
102
}
330
2
100
AcDbSymbolTableRecord
100
AcDbLayerTableRecord
  2
0
 70
     0
 62
     7
  6
Continuous
370
    -3
390
F
347
295
  0
LAYER
  5
38C
102
{ACAD_XDICTIONARY
360
E69
102
}
330
2
100
AcDbSymbolTableRecord
100
AcDbLayerTableRecord
  2
LAYER_1
 70
     0
 62
   160
  6
Continuous
370
    -3
390
F
347
295
  0
ENDTAB
  0
TABLE
  2
STYLE
  5
3
330
0
100
AcDbSymbolTable
 70
     8
  0
STYLE
  5
11
330
3
100
AcDbSymbolTableRecord
100
AcDbTextStyleTableRecord
  2
STANDARD
 70
     0
 40
0.0
 41
1.0
 50
0.0
 71
     0
 42
0.2
  3
ROMANS.SHX
  4

  0
STYLE
  5
73
330
3
100
AcDbSymbolTableRecord
100
AcDbTextStyleTableRecord
  2

 70
     1
 40
0.0
 41
1.0
 50
0.0
 71
     0
 42
0.2
  3
ltypeshp.shx
  4

  0
STYLE
  5
7B
330
3
100
AcDbSymbolTableRecord
100
AcDbTextStyleTableRecord
  2
ACANSTS
 70
     0
 40
1.0
 41
1.0
 50
0.0
 71
     0
 42
0.2
  3
romans.shx
  4

  0
STYLE
  5
86
330
3
100
AcDbSymbolTableRecord
100
AcDbTextStyleTableRecord
  2
ACANSGDT
 70
     0
 40
0.0
 41
1.0
 50
0.0
 71
     0
 42
0.2
  3
amgdt.shx
  4

  0
STYLE
  5
13F
330
3
100
AcDbSymbolTableRecord
100
AcDbTextStyleTableRecord
  2
USER1
 70
     0
 40
0.0
 41
1.0
 50
0.0
 71
     0
 42
0.2
  3
TXT.SHX
  4

  0
STYLE
  5
140
330
3
100
AcDbSymbolTableRecord
100
AcDbTextStyleTableRecord
  2
USER2
 70
     0
 40
0.0
 41
1.0
 50
0.0
 71
     0
 42
0.2
  3
SIMPLEX.SHX
  4

  0
STYLE
  5
141
330
3
100
AcDbSymbolTableRecord
100
AcDbTextStyleTableRecord
  2
USER3
 70
     0
 40
0.0
 41
1.0
 50
0.0
 71
     0
 42
0.2
  3
ITALIC.SHX
  4

  0
STYLE
  5
254
330
3
100
AcDbSymbolTableRecord
100
AcDbTextStyleTableRecord
  2

 70
     1
 40
0.0
 41
1.0
 50
0.0
 71
     0
 42
0.2
  3
genltshp.shx
  4

  0
ENDTAB
  0
TABLE
  2
VIEW
  5
6
330
0
100
AcDbSymbolTable
 70
     0
  0
ENDTAB
  0
TABLE
  2
UCS
  5
7
330
0
100
AcDbSymbolTable
 70
     0
  0
ENDTAB
  0
TABLE
  2
APPID
  5
9
330
0
100
AcDbSymbolTable
 70
    13
  0
APPID
  5
12
330
9
100
AcDbSymbolTableRecord
100
AcDbRegAppTableRecord
  2
ACAD
 70
     0
  0
APPID
  5
4E
330
9
100
AcDbSymbolTableRecord
100
AcDbRegAppTableRecord
  2
MCAD_NO_VIS
 70
     0
  0
APPID
  5
4F
330
9
100
AcDbSymbolTableRecord
100
AcDbRegAppTableRecord
  2
ACAD_TEMP_GRAPHIC
 70
     0
  0
APPID
  5
60
330
9
100
AcDbSymbolTableRecord
100
AcDbRegAppTableRecord
  2
ACATTRIBSERVICES
 70
     0
  0
APPID
  5
F7
330
9
100
AcDbSymbolTableRecord
100
AcDbRegAppTableRecord
  2
AD_DRAW
 70
     0
  0
APPID
  5
115
330
9
100
AcDbSymbolTableRecord
100
AcDbRegAppTableRecord
  2
DESIGNERASSEMBLIES
 70
     0
  0
APPID
  5
11A
330
9
100
AcDbSymbolTableRecord
100
AcDbRegAppTableRecord
  2
ACADM_DIM_EDIT
 70
     0
  0
APPID
  5
11B
330
9
100
AcDbSymbolTableRecord
100
AcDbRegAppTableRecord
  2
AMDT_DM_ADJ
 70
     0
  0
APPID
  5
1D3
330
9
100
AcDbSymbolTableRecord
100
AcDbRegAppTableRecord
  2
ACAD_DSTYLE_DIMARC_LENGTH_SYMBOL
 70
     0
  0
APPID
  5
1D4
330
9
100
AcDbSymbolTableRecord
100
AcDbRegAppTableRecord
  2
ACAD_DSTYLE_DIMJOGGED_JOGANGLE_SYMBOL
 70
     0
  0
APPID
  5
2EE
330
9
100
AcDbSymbolTableRecord
100
AcDbRegAppTableRecord
  2
ACAD_MLEADERVER
 70
     0
  0
APPID
  5
38D
330
9
100
AcDbSymbolTableRecord
100
AcDbRegAppTableRecord
  2
DCO15
 70
     0
  0
APPID
  5
E60
330
9
100
AcDbSymbolTableRecord
100
AcDbRegAppTableRecord
  2
ACAD_EXEMPT_FROM_CAD_STANDARDS
 70
     0
  0
ENDTAB
  0
TABLE
  2
DIMSTYLE
  5
A
330
0
100
AcDbSymbolTable
 70
     8
100
AcDbDimStyleTable
 71
     1
340
8C
  0
DIMSTYLE
105
27
330
A
100
AcDbSymbolTableRecord
100
AcDbDimStyleTableRecord
  2
Standard
 70
     0
340
11
  0
DIMSTYLE
105
8C
102
{ACAD_REACTORS
330
6A
102
}
330
A
100
AcDbSymbolTableRecord
100
AcDbDimStyleTableRecord
  2
AM_ANSI
 70
     0
  4
mm
 41
0.12
 42
0.05
 43
0.5
 44
0.1
 47
0.1
 48
0.1
 78
     7
 79
     2
 90
     1
140
0.12
141
0.0
146
0.71
147
0.06
176
   256
177
   256
178
   140
274
     4
284
     7
340
11
345
14
346
14
347
14
371
    -1
372
    -1
1001
ACAD_DSTYLE_DIMJOGGED_JOGANGLE_SYMBOL
1070
   384
1040
0.7853981633974483
  0
DIMSTYLE
105
8D
330
A
100
AcDbSymbolTableRecord
100
AcDbDimStyleTableRecord
  2
AM_ANSI$3
 70
     0
  4
mm
 41
0.12
 42
0.05
 43
0.5
 44
0.1
 47
0.1
 48
0.1
 78
     7
 79
     2
 90
     1
140
0.12
141
0.0
146
0.71
147
0.06
176
   256
177
   256
178
   140
274
     4
284
     7
288
     1
289
     0
340
11
345
14
346
14
347
14
371
    -1
372
    -1
1001
ACAD_DSTYLE_DIMJOGGED_JOGANGLE_SYMBOL
1070
   384
1040
0.7853981633974483
  0
DIMSTYLE
105
8E
330
A
100
AcDbSymbolTableRecord
100
AcDbDimStyleTableRecord
  2
AM_ANSI$4
 70
     0
  4
mm
 41
0.12
 42
0.05
 43
0.5
 44
0.1
 47
0.1
 48
0.1
 78
     7
 79
     2
 90
     1
140
0.12
141
0.0
146
0.71
147
0.06
176
   256
177
   256
178
   140
274
     4
284
     7
340
11
345
14
346
14
347
14
371
    -1
372
    -1
1001
ACAD_DSTYLE_DIMJOGGED_JOGANGLE_SYMBOL
1070
   384
1040
0.7853981633974483
  0
DIMSTYLE
105
8F
330
A
100
AcDbSymbolTableRecord
100
AcDbDimStyleTableRecord
  2
AM_ANSI$7
 70
     0
  4
mm
 41
0.12
 42
0.05
 43
0.5
 44
0.1
 47
0.1
 48
0.1
 78
     7
 79
     2
 90
     1
140
0.12
141
0.0
146
0.71
147
0.06
176
   256
177
   256
178
   140
274
     4
284
     7
340
11
345
14
346
14
347
14
371
    -1
372
    -1
1001
ACAD_DSTYLE_DIMJOGGED_JOGANGLE_SYMBOL
1070
   384
1040
0.7853981633974483
  0
DIMSTYLE
105
90
330
A
100
AcDbSymbolTableRecord
100
AcDbDimStyleTableRecord
  2
AM_ANSI$SF
 70
     0
  4
mm
 41
0.12
 42
0.05
 43
0.5
 44
0.1
 47
0.1
 48
0.1
 75
     1
 76
     1
 78
     7
 79
     2
 90
     1
140
0.12
141
0.0
146
0.71
147
0.06
176
   256
177
   256
178
   140
274
     4
284
     7
340
11
345
14
346
14
347
14
371
    -1
372
    -1
1001
ACAD_DSTYLE_DIMJOGGED_JOGANGLE_SYMBOL
1070
   384
1040
0.7853981633974483
  0
DIMSTYLE
105
95
330
A
100
AcDbSymbolTableRecord
100
AcDbDimStyleTableRecord
  2
AM_ANSI$SH
 70
     0
  4
mm
 41
0.12
 42
0.05
 43
0.5
 44
0.1
 47
0.1
 48
0.1
 75
     1
 76
     1
 78
     7
 79
     2
 90
     1
140
0.12
141
0.0
146
0.71
147
0.06
173
     1
176
   256
177
   256
178
   140
274
     4
284
     7
340
11
343
91
345
14
346
14
347
14
371
    -1
372
    -1
1001
ACAD_DSTYLE_DIMJOGGED_JOGANGLE_SYMBOL
1070
   384
1040
0.7853981633974483
  0
ENDTAB
  0
TABLE
  2
BLOCK_RECORD
  5
1
330
0
100
AcDbSymbolTable
 70
     5
  0
BLOCK_RECORD
  5
1F
102
{ACAD_XDICTIONARY
360
99
102
}
330
1
100
AcDbSymbolTableRecord
100
AcDbBlockTableRecord
  2
*Model_Space
340
22
 70
     0
280
     1
281
     0
  0
BLOCK_RECORD
  5
1B
330
1
100
AcDbSymbolTableRecord
100
AcDbBlockTableRecord
  2
*Paper_Space
340
1E
 70
     0
280
     1
281
     0
  0
BLOCK_RECORD
  5
23
330
1
100
AcDbSymbolTableRecord
100
AcDbBlockTableRecord
  2
*Paper_Space0
340
26
 70
     0
280
     1
281
     0
  0
BLOCK_RECORD
  5
91
330
1
100
AcDbSymbolTableRecord
100
AcDbBlockTableRecord
  2
GENAXEH
340
0
 70
     0
280
     1
281
     0
  0
ENDTAB
  0
ENDSEC
  0
SECTION
  2
BLOCKS
  0
BLOCK
  5
20
330
1F
100
AcDbEntity
  8
0
100
AcDbBlockBegin
  2
*Model_Space
 70
     0
 10
0.0
 20
0.0
 30
0.0
  3
*Model_Space
  1

  0
ENDBLK
  5
21
330
1F
100
AcDbEntity
  8
0
100
AcDbBlockEnd
  0
BLOCK
  5
1C
330
1B
100
AcDbEntity
 67
     1
  8
0
100
AcDbBlockBegin
  2
*Paper_Space
 70
     0
 10
0.0
 20
0.0
 30
0.0
  3
*Paper_Space
  1

  0
ENDBLK
  5
1D
330
1B
100
AcDbEntity
 67
     1
  8
0
100
AcDbBlockEnd
  0
BLOCK
  5
24
330
23
100
AcDbEntity
 67
     1
  8
0
100
AcDbBlockBegin
  2
*Paper_Space0
 70
     0
 10
0.0
 20
0.0
 30
0.0
  3
*Paper_Space0
  1

  0
ENDBLK
  5
25
330
23
100
AcDbEntity
 67
     1
  8
0
100
AcDbBlockEnd
  0
BLOCK
  5
93
330
91
100
AcDbEntity
  8
0
100
AcDbBlockBegin
  2
GENAXEH
 70
     0
 10
0.0
 20
0.0
 30
0.0
  3
GENAXEH
  1

  0
LINE
  5
92
330
91
100
AcDbEntity
  8
0
100
AcDbLine
 10
-1.0
 20
0.0
 30
0.0
 11
1.0
 21
0.0
 31
0.0
  0
ENDBLK
  5
94
330
91
100
AcDbEntity
  8
0
100
AcDbBlockEnd
  0
ENDSEC
  0
SECTION
  2
ENTITIES
  0
POLYLINE
  5
8FC
330
1F
100
AcDbEntity
  8
0
100
AcDb2dPolyline
 66
     1
 10
0.0
 20
0.0
 30
0.0
  0
VERTEX
  5
8FD
330
8FC
100
AcDbEntity
  8
0
100
AcDbVertex
100
AcDb2dVertex
 10
40.02510186551686
 20
19.37495071097643
 30
0.0
  0
VERTEX
  5
8FE
330
8FC
100
AcDbEntity
  8
0
100
AcDbVertex
100
AcDb2dVertex
 10
40.04163786551683
 20
19.37495071097643
 30
0.0
  0
VERTEX
  5
8FF
330
8FC
100
AcDbEntity
  8
0
100
AcDbVertex
100
AcDb2dVertex
 10
40.05403986551684
 20
19.36530371097643
 30
0.0
  0
VERTEX
  5
900
330
8FC
100
AcDbEntity
  8
0
100
AcDbVertex
100
AcDb2dVertex
 10
40.06024186551684
 20
19.34980071097643
 30
0.0
  0
SEQEND
  5
901
330
8FC
100
AcDbEntity
  8
0
  0
POLYLINE
  5
902
330
1F
100
AcDbEntity
  8
0
100
AcDb2dPolyline
 66
     1
 10
0.0
 20
0.0
 30
0.0
  0
VERTEX
  5
903
330
902
100
AcDbEntity
  8
0
100
AcDbVertex
100
AcDb2dVertex
 10
40.17255186551685
 20
19.43007171097643
 30
0.0
  0
VERTEX
  5
904
330
902
100
AcDbEntity
  8
0
100
AcDbVertex
100
AcDb2dVertex
 10
40.05403986551684
 20
19.39699871097644
 30
0.0
  0
VERTEX
  5
905
330
902
100
AcDbEntity
  8
0
100
AcDbVertex
100
AcDb2dVertex
 10
40.03130286551686
 20
19.38804171097643
 30
0.0
  0
VERTEX
  5
906
330
902
100
AcDbEntity
  8
0
100
AcDbVertex
100
AcDb2dVertex
 10
40.02510186551686
 20
19.38459671097644
 30
0.0
  0
VERTEX
  5
907
330
902
100
AcDbEntity
  8
0
100
AcDbVertex
100
AcDb2dVertex
 10
40.04163786551683
 20
19.38459671097644
 30
0.0
  0
VERTEX
  5
908
330
902
100
AcDbEntity
  8
0
100
AcDbVertex
100
AcDb2dVertex
 10
40.05403986551684
 20
19.37495071097643
 30
0.0
  0
VERTEX
  5
909
330
902
100
AcDbEntity
  8
0
100
AcDbVertex
100
AcDb2dVertex
 10
40.06024186551684
 20
19.35944771097644
 30
0.0
  0
SEQEND
  5
90A
330
902
100
AcDbEntity
  8
0
  0
POLYLINE
  5
90B
330
1F
100
AcDbEntity
  8
0
100
AcDb2dPolyline
 66
     1
 10
0.0
 20
0.0
 30
0.0
  0
VERTEX
  5
90C
330
90B
100
AcDbEntity
  8
0
100
AcDbVertex
100
AcDb2dVertex
 10
40.06024186551684
 20
19.34635571097643
 30
0.0
  0
VERTEX
  5
90D
330
90B
100
AcDbEntity
  8
0
100
AcDbVertex
100
AcDb2dVertex
 10
40.05128386551686
 20
19.36909371097643
 30
0.0
  0
VERTEX
  5
90E
330
90B
100
AcDbEntity
  8
0
100
AcDbVertex
100
AcDb2dVertex
 10
40.02510186551686
 20
19.37495071097643
 30
0.0
  0
SEQEND
  5
90F
330
90B
100
AcDbEntity
  8
0
  0
LINE
  5
910
330
1F
100
AcDbEntity
  8
0
100
AcDbLine
 10
40.35169686551685
 20
18.89883771097643
 30
0.0
 11
40.40268386551685
 21
19.48037071097644
 31
0.0
  0
LINE
  5
911
330
1F
100
AcDbEntity
  8
0
100
AcDbLine
 10
40.32826986551683
 20
18.97290771097643
 30
0.0
 11
40.37305586551684
 21
19.46727871097644
 31
0.0
  0
LINE
  5
912
330
1F
100
AcDbEntity
  8
0
100
AcDbLine
 10
40.12363086551684
 20
18.97290771097643
 30
0.0
 11
40.08849086551683
 21
19.38184071097643
 31
0.0
  0
LINE
  5
913
330
1F
100
AcDbEntity
  8
0
100
AcDbLine
 10
40.10227186551685
 20
18.89883771097643
 30
0.0
 11
40.06024186551684
 21
19.35944771097644
 31
0.0
  0
POLYLINE
  5
914
330
1F
100
AcDbEntity
  8
0
100
AcDb2dPolyline
 66
     1
 10
0.0
 20
0.0
 30
0.0
  0
VERTEX
  5
915
330
914
100
AcDbEntity
  8
0
100
AcDbVertex
100
AcDb2dVertex
 10
40.32826986551683
 20
18.97325271097644
 30
0.0
  0
VERTEX
  5
916
330
914
100
AcDbEntity
  8
0
100
AcDbVertex
100
AcDb2dVertex
 10
40.34411686551684
 20
18.96980671097643
 30
0.0
  0
VERTEX
  5
917
330
914
100
AcDbEntity
  8
0
100
AcDbVertex
100
AcDb2dVertex
 10
40.35445286551686
 20
18.97325271097644
 30
0.0
  0
VERTEX
  5
918
330
914
100
AcDbEntity
  8
0
100
AcDbVertex
100
AcDb2dVertex
 10
40.35789786551683
 20
18.97325271097644
 30
0.0
  0
SEQEND
  5
919
330
914
100
AcDbEntity
  8
0
  0
POLYLINE
  5
91A
330
1F
100
AcDbEntity
  8
0
100
AcDb2dPolyline
 66
     1
 10
0.0
 20
0.0
 30
0.0
  0
VERTEX
  5
91B
330
91A
100
AcDbEntity
  8
0
100
AcDbVertex
100
AcDb2dVertex
 10
40.12431986551684
 20
18.97325271097644
 30
0.0
  0
VERTEX
  5
91C
330
91A
100
AcDbEntity
  8
0
100
AcDbVertex
100
AcDb2dVertex
 10
40.10847286551686
 20
18.96980671097643
 30
0.0
  0
VERTEX
  5
91D
330
91A
100
AcDbEntity
  8
0
100
AcDbVertex
100
AcDb2dVertex
 10
40.09882686551685
 20
18.97325271097644
 30
0.0
  0
VERTEX
  5
91E
330
91A
100
AcDbEntity
  8
0
100
AcDbVertex
100
AcDb2dVertex
 10
40.09538186551686
 20
18.97325271097644
 30
0.0
  0
SEQEND
  5
91F
330
91A
100
AcDbEntity
  8
0
  0
LINE
  5
920
330
1F
100
AcDbEntity
  8
0
100
AcDbLine
 10
40.08917986551685
 20
19.38252971097643
 30
0.0
 11
40.18426486551684
 21
19.40630071097643
 31
0.0
  0
POLYLINE
  5
921
330
1F
100
AcDbEntity
  8
0
100
AcDb2dPolyline
 66
     1
 10
0.0
 20
0.0
 30
0.0
  0
VERTEX
  5
922
330
921
100
AcDbEntity
  8
0
100
AcDbVertex
100
AcDb2dVertex
 10
40.39234886551684
 20
19.50000771097643
 30
0.0
  0
VERTEX
  5
923
330
921
100
AcDbEntity
  8
0
100
AcDbVertex
100
AcDb2dVertex
 10
40.41577486551685
 20
19.50586371097643
 30
0.0
  0
VERTEX
  5
924
330
921
100
AcDbEntity
  8
0
100
AcDbVertex
100
AcDb2dVertex
 10
40.42404386551683
 20
19.50586371097643
 30
0.0
  0
SEQEND
  5
925
330
921
100
AcDbEntity
  8
0
  0
LINE
  5
926
330
1F
100
AcDbEntity
  8
0
100
AcDbLine
 10
40.17255186551685
 20
19.43041671097644
 30
0.0
 11
40.26832486551685
 21
19.45832171097643
 31
0.0
  0
POLYLINE
  5
927
330
1F
100
AcDbEntity
  8
0
100
AcDb2dPolyline
 66
     1
 10
0.0
 20
0.0
 30
0.0
  0
VERTEX
  5
928
330
927
100
AcDbEntity
  8
0
100
AcDbVertex
100
AcDb2dVertex
 10
40.18426486551684
 20
19.40630071097643
 30
0.0
  0
VERTEX
  5
929
330
927
100
AcDbEntity
  8
0
100
AcDbVertex
100
AcDb2dVertex
 10
40.27728286551687
 20
19.43627271097644
 30
0.0
  0
VERTEX
  5
92A
330
927
100
AcDbEntity
  8
0
100
AcDbVertex
100
AcDb2dVertex
 10
40.37374486551684
 20
19.46762371097644
 30
0.0
  0
SEQEND
  5
92B
330
927
100
AcDbEntity
  8
0
  0
LINE
  5
92C
330
1F
100
AcDbEntity
  8
0
100
AcDbLine
 10
40.26832486551685
 20
19.45832171097643
 30
0.0
 11
40.39234886551684
 21
19.50000771097643
 31
0.0
  0
POLYLINE
  5
92D
330
1F
100
AcDbEntity
  8
0
100
AcDb2dPolyline
 66
     1
 10
0.0
 20
0.0
 30
0.0
  0
VERTEX
  5
92E
330
92D
100
AcDbEntity
  8
0
100
AcDbVertex
100
AcDb2dVertex
 10
40.08917986551685
 20
19.38252971097643
 30
0.0
  0
VERTEX
  5
92F
330
92D
100
AcDbEntity
  8
0
100
AcDbVertex
100
AcDb2dVertex
 10
40.07333286551684
 20
19.37288371097644
 30
0.0
  0
VERTEX
  5
930
330
92D
100
AcDbEntity
  8
0
100
AcDbVertex
100
AcDb2dVertex
 10
40.06299786551685
 20
19.36530371097643
 30
0.0
  0
VERTEX
  5
931
330
92D
100
AcDbEntity
  8
0
100
AcDbVertex
100
AcDb2dVertex
 10
40.06024186551684
 20
19.35944771097644
 30
0.0
  0
SEQEND
  5
932
330
92D
100
AcDbEntity
  8
0
  0
POLYLINE
  5
933
330
1F
100
AcDbEntity
  8
0
100
AcDb2dPolyline
 66
     1
 10
0.0
 20
0.0
 30
0.0
  0
VERTEX
  5
934
330
933
100
AcDbEntity
  8
0
100
AcDbVertex
100
AcDb2dVertex
 10
40.42059886551683
 20
19.49036071097644
 30
0.0
  0
VERTEX
  5
935
330
933
100
AcDbEntity
  8
0
100
AcDbVertex
100
AcDb2dVertex
 10
40.41164086551683
 20
19.48691571097644
 30
0.0
  0
VERTEX
  5
936
330
933
100
AcDbEntity
  8
0
100
AcDbVertex
100
AcDb2dVertex
 10
40.40475086551686
 20
19.47692571097643
 30
0.0
  0
VERTEX
  5
937
330
933
100
AcDbEntity
  8
0
100
AcDbVertex
100
AcDb2dVertex
 10
40.40268386551685
 20
19.46486771097644
 30
0.0
  0
SEQEND
  5
938
330
933
100
AcDbEntity
  8
0
  0
POLYLINE
  5
939
330
1F
100
AcDbEntity
  8
0
100
AcDb2dPolyline
 66
     1
 10
0.0
 20
0.0
 30
0.0
  0
VERTEX
  5
93A
330
939
100
AcDbEntity
  8
0
100
AcDbVertex
100
AcDb2dVertex
 10
40.37374486551684
 20
19.46762371097644
 30
0.0
  0
VERTEX
  5
93B
330
939
100
AcDbEntity
  8
0
100
AcDbVertex
100
AcDb2dVertex
 10
40.38959286551684
 20
19.47692571097643
 30
0.0
  0
VERTEX
  5
93C
330
939
100
AcDbEntity
  8
0
100
AcDbVertex
100
AcDb2dVertex
 10
40.39923886551685
 20
19.48450471097643
 30
0.0
  0
VERTEX
  5
93D
330
939
100
AcDbEntity
  8
0
100
AcDbVertex
100
AcDb2dVertex
 10
40.40268386551685
 20
19.48071471097643
 30
0.0
  0
SEQEND
  5
93E
330
939
100
AcDbEntity
  8
0
  0
LINE
  5
93F
330
1F
100
AcDbEntity
  8
0
100
AcDbLine
 10
40.42404386551683
 20
19.50586371097643
 30
0.0
 11
40.42059886551683
 21
19.49036071097644
 31
0.0
  0
LINE
  5
940
330
1F
100
AcDbEntity
  8
0
100
AcDbLine
 10
40.42059886551683
 20
19.49036071097644
 30
0.0
 11
40.42059886551683
 21
19.48691571097644
 31
0.0
  0
POLYLINE
  5
941
330
1F
100
AcDbEntity
  8
0
100
AcDb2dPolyline
 66
     1
 10
0.0
 20
0.0
 30
0.0
  0
VERTEX
  5
942
330
941
100
AcDbEntity
  8
0
100
AcDbVertex
100
AcDb2dVertex
 10
40.40268386551685
 20
19.48071471097643
 30
0.0
  0
VERTEX
  5
943
330
941
100
AcDbEntity
  8
0
100
AcDbVertex
100
AcDb2dVertex
 10
40.40475086551686
 20
19.49380571097643
 30
0.0
  0
VERTEX
  5
944
330
941
100
AcDbEntity
  8
0
100
AcDbVertex
100
AcDb2dVertex
 10
40.41164086551683
 20
19.50000771097643
 30
0.0
  0
VERTEX
  5
945
330
941
100
AcDbEntity
  8
0
100
AcDbVertex
100
AcDb2dVertex
 10
40.42404386551683
 20
19.50586371097643
 30
0.0
  0
SEQEND
  5
946
330
941
100
AcDbEntity
  8
0
  0
POLYLINE
  5
947
330
1F
100
AcDbEntity
  8
0
100
AcDb2dPolyline
 66
     1
 10
0.0
 20
0.0
 30
0.0
  0
VERTEX
  5
948
330
947
100
AcDbEntity
  8
0
100
AcDbVertex
100
AcDb2dVertex
 10
40.07953386551685
 20
19.40457771097643
 30
0.0
  0
VERTEX
  5
949
330
947
100
AcDbEntity
  8
0
100
AcDbVertex
100
AcDb2dVertex
 10
40.08297886551685
 20
19.40147771097644
 30
0.0
  0
VERTEX
  5
94A
330
947
100
AcDbEntity
  8
0
100
AcDbVertex
100
AcDb2dVertex
 10
40.08573486551685
 20
19.39148671097643
 30
0.0
  0
VERTEX
  5
94B
330
947
100
AcDbEntity
  8
0
100
AcDbVertex
100
AcDb2dVertex
 10
40.08917986551685
 20
19.38252971097643
 30
0.0
  0
SEQEND
  5
94C
330
947
100
AcDbEntity
  8
0
  0
POLYLINE
  5
94D
330
1F
100
AcDbEntity
  8
0
100
AcDb2dPolyline
 66
     1
 10
0.0
 20
0.0
 30
0.0
  0
VERTEX
  5
94E
330
94D
100
AcDbEntity
  8
0
100
AcDbVertex
100
AcDb2dVertex
 10
40.36340986551684
 20
19.49036071097644
 30
0.0
  0
VERTEX
  5
94F
330
94D
100
AcDbEntity
  8
0
100
AcDbVertex
100
AcDb2dVertex
 10
40.36340986551684
 20
19.48691571097644
 30
0.0
  0
VERTEX
  5
950
330
94D
100
AcDbEntity
  8
0
100
AcDbVertex
100
AcDb2dVertex
 10
40.36754386551684
 20
19.47692571097643
 30
0.0
  0
VERTEX
  5
951
330
94D
100
AcDbEntity
  8
0
100
AcDbVertex
100
AcDb2dVertex
 10
40.37374486551684
 20
19.46762371097644
 30
0.0
  0
SEQEND
  5
952
330
94D
100
AcDbEntity
  8
0
  0
LINE
  5
953
330
1F
100
AcDbEntity
  8
0
100
AcDbLine
 10
40.42059886551683
 20
19.48691571097644
 30
0.0
 11
40.40268386551685
 21
19.46142271097643
 31
0.0
  0
LINE
  5
954
330
1F
100
AcDbEntity
  8
0
100
AcDbLine
 10
40.02510186551686
 20
19.37495071097643
 30
0.0
 11
40.02510186551686
 21
19.38494071097643
 31
0.0
  0
POLYLINE
  5
955
330
1F
100
AcDbEntity
  8
0
100
AcDb2dPolyline
 66
     1
 10
0.0
 20
0.0
 30
0.0
  0
VERTEX
  5
956
330
955
100
AcDbEntity
  8
0
100
AcDbVertex
100
AcDb2dVertex
 10
40.32826986551683
 20
18.97325271097644
 30
0.0
  0
VERTEX
  5
957
330
955
100
AcDbEntity
  8
0
100
AcDbVertex
100
AcDb2dVertex
 10
40.32206886551685
 20
18.87368871097644
 30
0.0
  0
VERTEX
  5
958
330
955
100
AcDbEntity
  8
0
100
AcDbVertex
100
AcDb2dVertex
 10
40.12983286551684
 20
18.87368871097644
 30
0.0
  0
SEQEND
  5
959
330
955
100
AcDbEntity
  8
0
  0
POLYLINE
  5
95A
330
1F
100
AcDbEntity
  8
0
100
AcDb2dPolyline
 66
     1
 10
0.0
 20
0.0
 30
0.0
  0
VERTEX
  5
95B
330
95A
100
AcDbEntity
  8
0
100
AcDbVertex
100
AcDb2dVertex
 10
40.32206886551685
 20
18.87368871097644
 30
0.0
  0
VERTEX
  5
95C
330
95A
100
AcDbEntity
  8
0
100
AcDbVertex
100
AcDb2dVertex
 10
40.34136086551685
 20
18.87988971097643
 30
0.0
  0
VERTEX
  5
95D
330
95A
100
AcDbEntity
  8
0
100
AcDbVertex
100
AcDb2dVertex
 10
40.35169686551685
 20
18.89918271097643
 30
0.0
  0
SEQEND
  5
95E
330
95A
100
AcDbEntity
  8
0
  0
LINE
  5
95F
330
1F
100
AcDbEntity
  8
0
100
AcDbLine
 10
40.12431986551684
 20
18.97325271097644
 30
0.0
 11
40.12983286551684
 21
18.87368871097644
 31
0.0
  0
POLYLINE
  5
960
330
1F
100
AcDbEntity
  8
0
100
AcDb2dPolyline
 66
     1
 10
0.0
 20
0.0
 30
0.0
  0
VERTEX
  5
961
330
960
100
AcDbEntity
  8
0
100
AcDbVertex
100
AcDb2dVertex
 10
40.10227186551685
 20
18.89918271097643
 30
0.0
  0
VERTEX
  5
962
330
960
100
AcDbEntity
  8
0
100
AcDbVertex
100
AcDb2dVertex
 10
40.11053986551684
 20
18.87988971097643
 30
0.0
  0
VERTEX
  5
963
330
960
100
AcDbEntity
  8
0
100
AcDbVertex
100
AcDb2dVertex
 10
40.12983286551684
 20
18.87368871097644
 30
0.0
  0
SEQEND
  5
964
330
960
100
AcDbEntity
  8
0
  0
POLYLINE
  5
965
330
1F
100
AcDbEntity
  8
0
100
AcDb2dPolyline
 66
     1
 10
0.0
 20
0.0
 30
0.0
  0
VERTEX
  5
966
330
965
100
AcDbEntity
  8
0
100
AcDbVertex
100
AcDb2dVertex
 10
32.04694986551684
 20
19.23680171097643
 30
0.0
  0
VERTEX
  5
967
330
965
100
AcDbEntity
  8
0
100
AcDbVertex
100
AcDb2dVertex
 10
32.03110186551686
 20
19.23680171097643
 30
0.0
  0
VERTEX
  5
968
330
965
100
AcDbEntity
  8
0
100
AcDbVertex
100
AcDb2dVertex
 10
32.01801086551686
 20
19.22681171097643
 30
0.0
  0
VERTEX
  5
969
330
965
100
AcDbEntity
  8
0
100
AcDbVertex
100
AcDb2dVertex
 10
32.01112086551683
 20
19.21061971097644
 30
0.0
  0
SEQEND
  5
96A
330
965
100
AcDbEntity
  8
0
  0
POLYLINE
  5
96B
330
1F
100
AcDbEntity
  8
0
100
AcDb2dPolyline
 66
     1
 10
0.0
 20
0.0
 30
0.0
  0
VERTEX
  5
96C
330
96B
100
AcDbEntity
  8
0
100
AcDbVertex
100
AcDb2dVertex
 10
32.05039486551684
 20
19.24610371097643
 30
0.0
  0
VERTEX
  5
96D
330
96B
100
AcDbEntity
  8
0
100
AcDbVertex
100
AcDb2dVertex
 10
32.03110186551686
 20
19.24610371097643
 30
0.0
  0
VERTEX
  5
96E
330
96B
100
AcDbEntity
  8
0
100
AcDbVertex
100
AcDb2dVertex
 10
32.01801086551686
 20
19.23680171097643
 30
0.0
  0
VERTEX
  5
96F
330
96B
100
AcDbEntity
  8
0
100
AcDbVertex
100
AcDb2dVertex
 10
32.01112086551683
 20
19.21992071097644
 30
0.0
  0
SEQEND
  5
970
330
96B
100
AcDbEntity
  8
0
  0
POLYLINE
  5
971
330
1F
100
AcDbEntity
  8
0
100
AcDb2dPolyline
 66
     1
 10
0.0
 20
0.0
 30
0.0
  0
VERTEX
  5
972
330
971
100
AcDbEntity
  8
0
100
AcDbVertex
100
AcDb2dVertex
 10
31.94841986551685
 20
18.83269271097644
 30
0.0
  0
VERTEX
  5
973
330
971
100
AcDbEntity
  8
0
100
AcDbVertex
100
AcDb2dVertex
 10
31.96426686551684
 20
18.83096971097643
 30
0.0
  0
VERTEX
  5
974
330
971
100
AcDbEntity
  8
0
100
AcDbVertex
100
AcDb2dVertex
 10
31.97391286551684
 20
18.83269271097644
 30
0.0
  0
VERTEX
  5
975
330
971
100
AcDbEntity
  8
0
100
AcDbVertex
100
AcDb2dVertex
 10
31.98011486551684
 20
18.83269271097644
 30
0.0
  0
SEQEND
  5
976
330
971
100
AcDbEntity
  8
0
  0
LINE
  5
977
330
1F
100
AcDbEntity
  8
0
100
AcDbLine
 10
31.98769386551683
 20
19.24265871097643
 30
0.0
 11
31.88709686551684
 21
19.26815271097644
 31
0.0
  0
POLYLINE
  5
978
330
1F
100
AcDbEntity
  8
0
100
AcDb2dPolyline
 66
     1
 10
0.0
 20
0.0
 30
0.0
  0
VERTEX
  5
979
330
978
100
AcDbEntity
  8
0
100
AcDbVertex
100
AcDb2dVertex
 10
31.90018786551684
 20
19.28951171097643
 30
0.0
  0
VERTEX
  5
97A
330
978
100
AcDbEntity
  8
0
100
AcDbVertex
100
AcDb2dVertex
 10
32.01801086551686
 20
19.25816171097643
 30
0.0
  0
VERTEX
  5
97B
330
978
100
AcDbEntity
  8
0
100
AcDbVertex
100
AcDb2dVertex
 10
32.04143686551683
 20
19.24851571097643
 30
0.0
  0
VERTEX
  5
97C
330
978
100
AcDbEntity
  8
0
100
AcDbVertex
100
AcDb2dVertex
 10
32.05039486551684
 20
19.24610371097643
 30
0.0
  0
SEQEND
  5
97D
330
978
100
AcDbEntity
  8
0
  0
POLYLINE
  5
97E
330
1F
100
AcDbEntity
  8
0
100
AcDb2dPolyline
 66
     1
 10
0.0
 20
0.0
 30
0.0
  0
VERTEX
  5
97F
330
97E
100
AcDbEntity
  8
0
100
AcDbVertex
100
AcDb2dVertex
 10
31.94841986551685
 20
18.83269271097644
 30
0.0
  0
VERTEX
  5
980
330
97E
100
AcDbEntity
  8
0
100
AcDbVertex
100
AcDb2dVertex
 10
31.98769386551683
 20
19.24265871097643
 30
0.0
  0
VERTEX
  5
981
330
97E
100
AcDbEntity
  8
0
100
AcDbVertex
100
AcDb2dVertex
 10
31.99871786551685
 20
19.23301271097643
 30
0.0
  0
VERTEX
  5
982
330
97E
100
AcDbEntity
  8
0
100
AcDbVertex
100
AcDb2dVertex
 10
32.00905286551685
 20
19.22681171097643
 30
0.0
  0
VERTEX
  5
983
330
97E
100
AcDbEntity
  8
0
100
AcDbVertex
100
AcDb2dVertex
 10
32.01112086551683
 20
19.21992071097644
 30
0.0
  0
SEQEND
  5
984
330
97E
100
AcDbEntity
  8
0
  0
LINE
  5
985
330
1F
100
AcDbEntity
  8
0
100
AcDbLine
 10
31.97391286551684
 20
18.76034571097644
 30
0.0
 11
32.01112086551683
 21
19.21992071097644
 31
0.0
  0
LINE
  5
986
330
1F
100
AcDbEntity
  8
0
100
AcDbLine
 10
32.04694986551684
 20
19.23680171097643
 30
0.0
 11
32.05039486551684
 21
19.24610371097643
 31
0.0
  0
POLYLINE
  5
987
330
1F
100
AcDbEntity
  8
0
100
AcDb2dPolyline
 66
     1
 10
0.0
 20
0.0
 30
0.0
  0
VERTEX
  5
988
330
987
100
AcDbEntity
  8
0
100
AcDbVertex
100
AcDb2dVertex
 10
31.99251686551685
 20
19.26470771097644
 30
0.0
  0
VERTEX
  5
989
330
987
100
AcDbEntity
  8
0
100
AcDbVertex
100
AcDb2dVertex
 10
31.98907186551685
 20
19.26160671097644
 30
0.0
  0
VERTEX
  5
98A
330
987
100
AcDbEntity
  8
0
100
AcDbVertex
100
AcDb2dVertex
 10
31.98907186551685
 20
19.25230471097644
 30
0.0
  0
VERTEX
  5
98B
330
987
100
AcDbEntity
  8
0
100
AcDbVertex
100
AcDb2dVertex
 10
31.98769386551683
 20
19.24265871097643
 30
0.0
  0
SEQEND
  5
98C
330
987
100
AcDbEntity
  8
0
  0
POLYLINE
  5
98D
330
1F
100
AcDbEntity
  8
0
100
AcDb2dPolyline
 66
     1
 10
0.0
 20
0.0
 30
0.0
  0
VERTEX
  5
98E
330
98D
100
AcDbEntity
  8
0
100
AcDbVertex
100
AcDb2dVertex
 10
32.04694986551684
 20
19.23680171097643
 30
0.0
  0
VERTEX
  5
98F
330
98D
100
AcDbEntity
  8
0
100
AcDbVertex
100
AcDb2dVertex
 10
32.02558986551685
 20
19.22956771097644
 30
0.0
  0
VERTEX
  5
990
330
98D
100
AcDbEntity
  8
0
100
AcDbVertex
100
AcDb2dVertex
 10
32.01112086551683
 20
19.20717471097643
 30
0.0
  0
SEQEND
  5
991
330
98D
100
AcDbEntity
  8
0
  0
POLYLINE
  5
992
330
1F
100
AcDbEntity
  8
0
100
AcDb2dPolyline
 66
     1
 10
0.0
 20
0.0
 30
0.0
  0
VERTEX
  5
993
330
992
100
AcDbEntity
  8
0
100
AcDbVertex
100
AcDb2dVertex
 10
31.74446986551684
 20
18.83269271097644
 30
0.0
  0
VERTEX
  5
994
330
992
100
AcDbEntity
  8
0
100
AcDbVertex
100
AcDb2dVertex
 10
31.72862286551686
 20
18.83096971097643
 30
0.0
  0
VERTEX
  5
995
330
992
100
AcDbEntity
  8
0
100
AcDbVertex
100
AcDb2dVertex
 10
31.71828686551683
 20
18.83269271097644
 30
0.0
  0
VERTEX
  5
996
330
992
100
AcDbEntity
  8
0
100
AcDbVertex
100
AcDb2dVertex
 10
31.71484186551683
 20
18.83269271097644
 30
0.0
  0
SEQEND
  5
997
330
992
100
AcDbEntity
  8
0
  0
POLYLINE
  5
998
330
1F
100
AcDbEntity
  8
0
100
AcDb2dPolyline
 66
     1
 10
0.0
 20
0.0
 30
0.0
  0
VERTEX
  5
999
330
998
100
AcDbEntity
  8
0
100
AcDbVertex
100
AcDb2dVertex
 10
31.80510386551686
 20
19.31913971097644
 30
0.0
  0
VERTEX
  5
99A
330
998
100
AcDbEntity
  8
0
100
AcDbVertex
100
AcDb2dVertex
 10
31.67970186551685
 20
19.36013671097643
 30
0.0
  0
VERTEX
  5
99B
330
998
100
AcDbEntity
  8
0
100
AcDbVertex
100
AcDb2dVertex
 10
31.65765386551687
 20
19.36771571097643
 30
0.0
  0
VERTEX
  5
99C
330
998
100
AcDbEntity
  8
0
100
AcDbVertex
100
AcDb2dVertex
 10
31.65076386551684
 20
19.36771571097643
 30
0.0
  0
SEQEND
  5
99D
330
998
100
AcDbEntity
  8
0
  0
POLYLINE
  5
99E
330
1F
100
AcDbEntity
  8
0
100
AcDb2dPolyline
 66
     1
 10
0.0
 20
0.0
 30
0.0
  0
VERTEX
  5
99F
330
99E
100
AcDbEntity
  8
0
100
AcDbVertex
100
AcDb2dVertex
 10
31.65076386551684
 20
19.35048971097643
 30
0.0
  0
VERTEX
  5
9A0
330
99E
100
AcDbEntity
  8
0
100
AcDbVertex
100
AcDb2dVertex
 10
31.66040986551687
 20
19.34807871097644
 30
0.0
  0
VERTEX
  5
9A1
330
99E
100
AcDbEntity
  8
0
100
AcDbVertex
100
AcDb2dVertex
 10
31.66661086551684
 20
19.33877671097643
 30
0.0
  0
VERTEX
  5
9A2
330
99E
100
AcDbEntity
  8
0
100
AcDbVertex
100
AcDb2dVertex
 10
31.67074486551684
 20
19.32568571097643
 30
0.0
  0
SEQEND
  5
9A3
330
99E
100
AcDbEntity
  8
0
  0
POLYLINE
  5
9A4
330
1F
100
AcDbEntity
  8
0
100
AcDb2dPolyline
 66
     1
 10
0.0
 20
0.0
 30
0.0
  0
VERTEX
  5
9A5
330
9A4
100
AcDbEntity
  8
0
100
AcDbVertex
100
AcDb2dVertex
 10
31.69899486551685
 20
19.32878571097644
 30
0.0
  0
VERTEX
  5
9A6
330
9A4
100
AcDbEntity
  8
0
100
AcDbVertex
100
AcDb2dVertex
 10
31.68590386551685
 20
19.33877671097643
 30
0.0
  0
VERTEX
  5
9A7
330
9A4
100
AcDbEntity
  8
0
100
AcDbVertex
100
AcDb2dVertex
 10
31.67281186551685
 20
19.34359971097643
 30
0.0
  0
VERTEX
  5
9A8
330
9A4
100
AcDbEntity
  8
0
100
AcDbVertex
100
AcDb2dVertex
 10
31.67074486551684
 20
19.34153271097644
 30
0.0
  0
SEQEND
  5
9A9
330
9A4
100
AcDbEntity
  8
0
  0
LINE
  5
9AA
330
1F
100
AcDbEntity
  8
0
100
AcDbLine
 10
31.72173286551686
 20
18.76034571097644
 30
0.0
 11
31.67074486551684
 21
19.34153271097644
 31
0.0
  0
LINE
  5
9AB
330
1F
100
AcDbEntity
  8
0
100
AcDbLine
 10
31.74446986551684
 20
18.83269271097644
 30
0.0
 11
31.69899486551685
 21
19.32878571097644
 31
0.0
  0
LINE
  5
9AC
330
1F
100
AcDbEntity
  8
0
100
AcDbLine
 10
31.65076386551684
 20
19.36771571097643
 30
0.0
 11
31.65076386551684
 21
19.35048971097643
 31
0.0
  0
LINE
  5
9AD
330
1F
100
AcDbEntity
  8
0
100
AcDbLine
 10
31.65076386551684
 20
19.35048971097643
 30
0.0
 11
31.65076386551684
 21
19.34807871097644
 31
0.0
  0
POLYLINE
  5
9AE
330
1F
100
AcDbEntity
  8
0
100
AcDb2dPolyline
 66
     1
 10
0.0
 20
0.0
 30
0.0
  0
VERTEX
  5
9AF
330
9AE
100
AcDbEntity
  8
0
100
AcDbVertex
100
AcDb2dVertex
 10
31.67074486551684
 20
19.34153271097644
 30
0.0
  0
VERTEX
  5
9B0
330
9AE
100
AcDbEntity
  8
0
100
AcDbVertex
100
AcDb2dVertex
 10
31.66661086551684
 20
19.35359071097643
 30
0.0
  0
VERTEX
  5
9B1
330
9AE
100
AcDbEntity
  8
0
100
AcDbVertex
100
AcDb2dVertex
 10
31.66040986551687
 20
19.36013671097643
 30
0.0
  0
VERTEX
  5
9B2
330
9AE
100
AcDbEntity
  8
0
100
AcDbVertex
100
AcDb2dVertex
 10
31.65076386551684
 20
19.36771571097643
 30
0.0
  0
SEQEND
  5
9B3
330
9AE
100
AcDbEntity
  8
0
  0
POLYLINE
  5
9B4
330
1F
100
AcDbEntity
  8
0
100
AcDb2dPolyline
 66
     1
 10
0.0
 20
0.0
 30
0.0
  0
VERTEX
  5
9B5
330
9B4
100
AcDbEntity
  8
0
100
AcDbVertex
100
AcDb2dVertex
 10
31.70932986551685
 20
19.35048971097643
 30
0.0
  0
VERTEX
  5
9B6
330
9B4
100
AcDbEntity
  8
0
100
AcDbVertex
100
AcDb2dVertex
 10
31.70932986551685
 20
19.34807871097644
 30
0.0
  0
VERTEX
  5
9B7
330
9B4
100
AcDbEntity
  8
0
100
AcDbVertex
100
AcDb2dVertex
 10
31.70519586551686
 20
19.33877671097643
 30
0.0
  0
VERTEX
  5
9B8
330
9B4
100
AcDbEntity
  8
0
100
AcDbVertex
100
AcDb2dVertex
 10
31.69899486551685
 20
19.32878571097644
 30
0.0
  0
SEQEND
  5
9B9
330
9B4
100
AcDbEntity
  8
0
  0
LINE
  5
9BA
330
1F
100
AcDbEntity
  8
0
100
AcDbLine
 10
31.67005586551685
 20
19.32189571097643
 30
0.0
 11
31.65076386551684
 21
19.34807871097644
 31
0.0
  0
LINE
  5
9BB
330
1F
100
AcDbEntity
  8
0
100
AcDbLine
 10
31.90018786551684
 20
19.28951171097643
 30
0.0
 11
31.80510386551686
 21
19.31913971097644
 31
0.0
  0
POLYLINE
  5
9BC
330
1F
100
AcDbEntity
  8
0
100
AcDb2dPolyline
 66
     1
 10
0.0
 20
0.0
 30
0.0
  0
VERTEX
  5
9BD
330
9BC
100
AcDbEntity
  8
0
100
AcDbVertex
100
AcDb2dVertex
 10
31.88709686551684
 20
19.26780771097643
 30
0.0
  0
VERTEX
  5
9BE
330
9BC
100
AcDbEntity
  8
0
100
AcDbVertex
100
AcDb2dVertex
 10
31.79476886551683
 20
19.29674671097643
 30
0.0
  0
VERTEX
  5
9BF
330
9BC
100
AcDbEntity
  8
0
100
AcDbVertex
100
AcDb2dVertex
 10
31.69899486551685
 20
19.32878571097644
 30
0.0
  0
SEQEND
  5
9C0
330
9BC
100
AcDbEntity
  8
0
  0
POLYLINE
  5
9C1
330
1F
100
AcDbEntity
  8
0
100
AcDb2dPolyline
 66
     1
 10
0.0
 20
0.0
 30
0.0
  0
VERTEX
  5
9C2
330
9C1
100
AcDbEntity
  8
0
100
AcDbVertex
100
AcDb2dVertex
 10
31.74446986551684
 20
18.83269271097644
 30
0.0
  0
VERTEX
  5
9C3
330
9C1
100
AcDbEntity
  8
0
100
AcDbVertex
100
AcDb2dVertex
 10
31.75067086551684
 20
18.73416271097643
 30
0.0
  0
VERTEX
  5
9C4
330
9C1
100
AcDbEntity
  8
0
100
AcDbVertex
100
AcDb2dVertex
 10
31.94221886551685
 20
18.73416271097643
 30
0.0
  0
SEQEND
  5
9C5
330
9C1
100
AcDbEntity
  8
0
  0
LINE
  5
9C6
330
1F
100
AcDbEntity
  8
0
100
AcDbLine
 10
31.94773086551686
 20
18.83269271097644
 30
0.0
 11
31.94221886551685
 21
18.73416271097643
 31
0.0
  0
POLYLINE
  5
9C7
330
1F
100
AcDbEntity
  8
0
100
AcDb2dPolyline
 66
     1
 10
0.0
 20
0.0
 30
0.0
  0
VERTEX
  5
9C8
330
9C7
100
AcDbEntity
  8
0
100
AcDbVertex
100
AcDb2dVertex
 10
31.94221886551685
 20
18.73416271097643
 30
0.0
  0
VERTEX
  5
9C9
330
9C7
100
AcDbEntity
  8
0
100
AcDbVertex
100
AcDb2dVertex
 10
31.96426686551684
 20
18.74139771097643
 30
0.0
  0
VERTEX
  5
9CA
330
9C7
100
AcDbEntity
  8
0
100
AcDbVertex
100
AcDb2dVertex
 10
31.97391286551684
 20
18.76034571097644
 30
0.0
  0
SEQEND
  5
9CB
330
9C7
100
AcDbEntity
  8
0
  0
POLYLINE
  5
9CC
330
1F
100
AcDbEntity
  8
0
100
AcDb2dPolyline
 66
     1
 10
0.0
 20
0.0
 30
0.0
  0
VERTEX
  5
9CD
330
9CC
100
AcDbEntity
  8
0
100
AcDbVertex
100
AcDb2dVertex
 10
31.72173286551686
 20
18.76034571097644
 30
0.0
  0
VERTEX
  5
9CE
330
9CC
100
AcDbEntity
  8
0
100
AcDbVertex
100
AcDb2dVertex
 10
31.73137886551686
 20
18.74105271097643
 30
0.0
  0
VERTEX
  5
9CF
330
9CC
100
AcDbEntity
  8
0
100
AcDbVertex
100
AcDb2dVertex
 10
31.75067086551684
 20
18.73416271097643
 30
0.0
  0
SEQEND
  5
9D0
330
9CC
100
AcDbEntity
  8
0
  0
SPLINE
  5
9D3
330
1F
100
AcDbEntity
  8
0
100
AcDbSpline
210
0.0
220
0.0
230
1.0
 70
     8
 71
     3
 72
     8
 73
     4
 74
     0
 42
0.0000000001
 43
0.0000000001
 40
0.0
 40
0.0
 40
0.0
 40
0.0
 40
1.0
 40
1.0
 40
1.0
 40
1.0
 10
38.52097282385017
 20
19.13138213719171
 30
0.0
 10
38.52097282385017
 20
19.13138213719171
 30
0.0
 10
39.05978575787796
 20
19.04766631687921
 30
0.0
 10
39.96240077523902
 20
19.40561173788615
 30
0.0
  0
SPLINE
  5
9D4
330
1F
100
AcDbEntity
  8
0
100
AcDbSpline
210
0.0
220
0.0
230
1.0
 70
     8
 71
     3
 72
     8
 73
     4
 74
     0
 42
0.0000000001
 43
0.0000000001
 40
0.0
 40
0.0
 40
0.0
 40
0.0
 40
1.0
 40
1.0
 40
1.0
 40
1.0
 10
28.98839361378072
 20
21.80891034899727
 30
0.0
 10
28.98839361378072
 20
21.80891034899727
 30
0.0
 10
29.99091640023903
 20
19.37598391670561
 30
0.0
 10
31.51916075787799
 20
19.28434437677504
 30
0.0
  0
SPLINE
  5
9D5
330
1F
100
AcDbEntity
  8
0
100
AcDbSpline
210
0.0
220
0.0
230
1.0
 70
     8
 71
     3
 72
     8
 73
     4
 74
     0
 42
0.0000000001
 43
0.0000000001
 40
0.0
 40
0.0
 40
0.0
 40
0.0
 40
1.0
 40
1.0
 40
1.0
 40
1.0
 10
35.10963927350292
 20
27.76169083944866
 30
0.0
 10
35.05934087940571
 20
27.64180151653197
 30
0.0
 10
35.12617573183624
 20
27.43647382555977
 30
0.0
 10
35.26053445579459
 20
27.44164146878894
 30
0.0
  0
LINE
  5
9D6
330
1F
100
AcDbEntity
  8
0
100
AcDbLine
 10
33.36573186551686
 20
26.41259171097644
 30
0.0
 11
33.36573186551686
 21
25.77387071097643
 31
0.0
  0
LINE
  5
9D7
330
1F
100
AcDbEntity
  8
0
100
AcDbLine
 10
41.24742186551685
 20
27.46506771097644
 30
0.0
 11
41.24742186551685
 21
23.52008971097644
 31
0.0
  0
SPLINE
  5
9D8
330
1F
100
AcDbEntity
  8
0
100
AcDbSpline
210
0.0
220
0.0
230
1.0
 70
    11
 71
     3
 72
    20
 73
    16
 74
     0
 42
0.0000000001
 43
0.0000000001
 40
0.0
 40
0.0
 40
0.0
 40
0.0
 40
1.0
 40
1.0
 40
1.0
 40
2.0
 40
2.0
 40
2.0
 40
3.0
 40
3.0
 40
3.0
 40
4.0
 40
4.0
 40
4.0
 40
5.0
 40
5.0
 40
5.0
 40
5.0
 10
27.20107807558628
 20
24.89881649049032
 30
0.0
 10
27.20107807558628
 20
24.89881649049032
 30
0.0
 10
28.38756896100298
 20
24.89881649049032
 30
0.0
 10
28.38756896100298
 20
24.89881649049032
 30
0.0
 10
28.38756896100298
 20
24.89881649049032
 30
0.0
 10
28.40755051482239
 20
23.37849585246948
 30
0.0
 10
28.40755051482239
 20
23.37849585246948
 30
0.0
 10
28.40755051482239
 20
23.37849585246948
 30
0.0
 10
27.20934630475298
 20
23.37849585246948
 30
0.0
 10
27.20934630475298
 20
23.37849585246948
 30
0.0
 10
26.75734977697516
 20
23.86080922052504
 30
0.0
 10
26.62574712940571
 20
24.361381594657
 30
0.0
 10
27.20107807558628
 20
24.89881649049032
 30
0.0
 10
27.20107807558628
 20
24.89881649049032
 30
0.0
 10
27.20107807558628
 20
24.89881649049032
 30
0.0
 10
27.20107807558628
 20
24.89881649049032
 30
0.0
  0
LINE
  5
9D9
330
1F
100
AcDbEntity
  8
0
100
AcDbLine
 10
29.93855086551685
 20
24.31625071097644
 30
0.0
 11
28.62665886551685
 21
24.31625071097644
 31
0.0
  0
POLYLINE
  5
9DA
330
1F
100
AcDbEntity
  8
0
100
AcDb2dPolyline
 66
     1
 10
0.0
 20
0.0
 30
0.0
  0
VERTEX
  5
9DB
330
9DA
100
AcDbEntity
  8
0
100
AcDbVertex
100
AcDb2dVertex
 10
30.44773586551685
 20
25.22058871097644
 30
0.0
  0
VERTEX
  5
9DC
330
9DA
100
AcDbEntity
  8
0
100
AcDbVertex
100
AcDb2dVertex
 10
30.04190386551684
 20
25.05453471097644
 30
0.0
  0
VERTEX
  5
9DD
330
9DA
100
AcDbEntity
  8
0
100
AcDbVertex
100
AcDb2dVertex
 10
30.04190386551684
 20
23.92006471097643
 30
0.0
  0
VERTEX
  5
9DE
330
9DA
100
AcDbEntity
  8
0
100
AcDbVertex
100
AcDb2dVertex
 10
30.49941286551683
 20
23.72231671097644
 30
0.0
  0
SEQEND
  5
9DF
330
9DA
100
AcDbEntity
  8
0
  0
LINE
  5
9E0
330
1F
100
AcDbEntity
  8
0
100
AcDbLine
 10
31.60390986551687
 20
23.95244871097644
 30
0.0
 11
33.77431986551684
 21
23.95244871097644
 31
0.0
  0
POLYLINE
  5
9E1
330
1F
100
AcDbEntity
  8
0
100
AcDb2dPolyline
 66
     1
 10
0.0
 20
0.0
 30
0.0
 70
     1
  0
VERTEX
  5
9E2
330
9E1
100
AcDbEntity
  8
0
100
AcDbVertex
100
AcDb2dVertex
 10
30.56624686551683
 20
25.50997671097644
 30
0.0
  0
VERTEX
  5
9E3
330
9E1
100
AcDbEntity
  8
0
100
AcDbVertex
100
AcDb2dVertex
 10
31.50951486551685
 20
25.50997671097644
 30
0.0
  0
VERTEX
  5
9E4
330
9E1
100
AcDbEntity
  8
0
100
AcDbVertex
100
AcDb2dVertex
 10
31.50951486551685
 20
23.57452171097643
 30
0.0
  0
VERTEX
  5
9E5
330
9E1
100
AcDbEntity
  8
0
100
AcDbVertex
100
AcDb2dVertex
 10
30.56624686551683
 20
23.57452171097643
 30
0.0
  0
SEQEND
  5
9E6
330
9E1
100
AcDbEntity
  8
0
  0
SPLINE
  5
9E7
330
1F
100
AcDbEntity
  8
0
100
AcDbSpline
210
0.0
220
0.0
230
1.0
 70
     8
 71
     3
 72
    11
 73
     7
 74
     0
 42
0.0000000001
 43
0.0000000001
 40
0.0
 40
0.0
 40
0.0
 40
0.0
 40
1.0
 40
1.0
 40
1.0
 40
2.0
 40
2.0
 40
2.0
 40
2.0
 10
32.74699278912795
 20
26.23999216323337
 30
0.0
 10
33.05567334468347
 20
26.29752525785143
 30
0.0
 10
33.35126253739182
 20
26.45634415976116
 30
0.0
 10
33.56003532385017
 20
26.64410186375422
 30
0.0
 10
33.72126579260018
 20
26.7894848932681
 30
0.0
 10
33.8528684401696
 20
26.9786206354556
 30
0.0
 10
33.81290533253074
 20
27.14846384292088
 30
0.0
  0
SPLINE
  5
9E8
330
1F
100
AcDbEntity
  8
0
100
AcDbSpline
210
0.0
220
0.0
230
1.0
 70
     8
 71
     3
 72
    11
 73
     7
 74
     0
 42
0.0000000001
 43
0.0000000001
 40
0.0
 40
0.0
 40
0.0
 40
0.0
 40
1.0
 40
1.0
 40
1.0
 40
2.0
 40
2.0
 40
2.0
 40
2.0
 10
34.24009717280851
 20
27.76513593493477
 30
0.0
 10
34.24974344016959
 20
27.49297339153198
 30
0.0
 10
34.05475103565573
 20
27.42958363458754
 30
0.0
 10
33.93486171273906
 20
27.38858699830282
 30
0.0
 10
33.93486171273906
 20
27.38858699830282
 30
0.0
 10
31.56877013287795
 20
25.00079131687922
 30
0.0
 10
31.56877013287795
 20
25.00079131687922
 30
0.0
  0
LINE
  5
9E9
330
1F
100
AcDbEntity
  8
0
100
AcDbLine
 10
34.79475786551686
 20
28.72872871097644
 30
0.0
 11
34.79475786551686
 21
27.84609571097643
 31
0.0
  0
LINE
  5
9EA
330
1F
100
AcDbEntity
  8
0
100
AcDbLine
 10
34.39443786551684
 20
28.71322671097644
 30
0.0
 11
34.39443786551684
 21
27.83231571097644
 31
0.0
  0
LINE
  5
9EB
330
1F
100
AcDbEntity
  8
0
100
AcDbLine
 10
35.29429686551686
 20
28.64225771097644
 30
0.0
 11
35.29429686551686
 21
27.81061071097644
 31
0.0
  0
LINE
  5
9EC
330
1F
100
AcDbEntity
  8
0
100
AcDbLine
 10
33.89420986551687
 20
28.67739771097644
 30
0.0
 11
33.89420986551687
 21
27.84609571097643
 31
0.0
  0
LINE
  5
9ED
330
1F
100
AcDbEntity
  8
0
100
AcDbLine
 10
33.63720586551685
 20
28.28396771097644
 30
0.0
 11
35.60917786551684
 21
28.27638771097644
 31
0.0
  0
POLYLINE
  5
9EE
330
1F
100
AcDbEntity
  8
0
100
AcDb2dPolyline
 66
     1
 10
0.0
 20
0.0
 30
0.0
 70
     1
  0
VERTEX
  5
9EF
330
9EE
100
AcDbEntity
  8
0
100
AcDbVertex
100
AcDb2dVertex
 10
33.53729786551685
 20
28.73561971097644
 30
0.0
  0
VERTEX
  5
9F0
330
9EE
100
AcDbEntity
  8
0
100
AcDbVertex
100
AcDb2dVertex
 10
35.63053786551683
 20
28.73561971097644
 30
0.0
  0
VERTEX
  5
9F1
330
9EE
100
AcDbEntity
  8
0
100
AcDbVertex
100
AcDb2dVertex
 10
35.63053786551683
 20
27.80337671097644
 30
0.0
  0
VERTEX
  5
9F2
330
9EE
100
AcDbEntity
  8
0
100
AcDbVertex
100
AcDb2dVertex
 10
33.53729786551685
 20
27.80337671097644
 30
0.0
  0
SEQEND
  5
9F3
330
9EE
100
AcDbEntity
  8
0
  0
POLYLINE
  5
9F4
330
1F
100
AcDbEntity
  8
0
100
AcDb2dPolyline
 66
     1
 10
0.0
 20
0.0
 30
0.0
  0
VERTEX
  5
9F5
330
9F4
100
AcDbEntity
  8
0
100
AcDbVertex
100
AcDb2dVertex
 10
33.95346486551685
 20
28.78109471097643
 30
0.0
  0
VERTEX
  5
9F6
330
9F4
100
AcDbEntity
  8
0
100
AcDbVertex
100
AcDb2dVertex
 10
33.95139786551684
 20
29.07220471097644
 30
0.0
  0
VERTEX
  5
9F7
330
9F4
100
AcDbEntity
  8
0
100
AcDbVertex
100
AcDb2dVertex
 10
35.37560086551684
 20
29.08116271097643
 30
0.0
  0
VERTEX
  5
9F8
330
9F4
100
AcDbEntity
  8
0
100
AcDbVertex
100
AcDb2dVertex
 10
35.37491186551682
 20
28.72183871097643
 30
0.0
  0
SEQEND
  5
9F9
330
9F4
100
AcDbEntity
  8
0
  0
LINE
  5
9FA
330
1F
100
AcDbEntity
  8
0
100
AcDbLine
 10
34.36756586551684
 20
30.00995971097644
 30
0.0
 11
34.31451086551687
 21
29.07220471097644
 31
0.0
  0
LINE
  5
9FB
330
1F
100
AcDbEntity
  8
0
100
AcDbLine
 10
35.36526486551685
 20
24.48712771097644
 30
0.0
 11
33.89765486551684
 21
24.48712771097644
 31
0.0
  0
LINE
  5
9FC
330
1F
100
AcDbEntity
  8
0
100
AcDbLine
 10
35.36526486551685
 20
24.12263671097643
 30
0.0
 11
33.89765486551684
 21
24.12263671097643
 31
0.0
  0
LINE
  5
9FD
330
1F
100
AcDbEntity
  8
0
100
AcDbLine
 10
35.33839386551685
 20
26.62377571097643
 30
0.0
 11
33.95001986551685
 21
26.62377571097643
 31
0.0
  0
POLYLINE
  5
9FE
330
1F
100
AcDbEntity
  8
0
100
AcDb2dPolyline
 66
     1
 10
0.0
 20
0.0
 30
0.0
  0
VERTEX
  5
9FF
330
9FE
100
AcDbEntity
  8
0
100
AcDbVertex
100
AcDb2dVertex
 10
35.25226586551685
 20
26.98826671097644
 30
0.0
  0
VERTEX
  5
A00
330
9FE
100
AcDbEntity
  8
0
100
AcDbVertex
100
AcDb2dVertex
 10
33.84666686551685
 20
26.98826671097644
 30
0.0
  0
VERTEX
  5
A01
330
9FE
100
AcDbEntity
  8
0
100
AcDbVertex
100
AcDb2dVertex
 10
33.84666686551685
 20
23.70577971097644
 30
0.0
  0
VERTEX
  5
A02
330
9FE
100
AcDbEntity
  8
0
100
AcDbVertex
100
AcDb2dVertex
 10
35.30394286551683
 20
23.70577971097644
 30
0.0
  0
SEQEND
  5
A03
330
9FE
100
AcDbEntity
  8
0
  0
POLYLINE
  5
A04
330
1F
100
AcDbEntity
  8
0
100
AcDb2dPolyline
 66
     1
 10
0.0
 20
0.0
 30
0.0
  0
VERTEX
  5
A05
330
A04
100
AcDbEntity
  8
0
100
AcDbVertex
100
AcDb2dVertex
 10
37.89327686551684
 20
27.28385571097643
 30
0.0
  0
VERTEX
  5
A06
330
A04
100
AcDbEntity
  8
0
100
AcDbVertex
100
AcDb2dVertex
 10
37.89327686551684
 20
23.42569371097643
 30
0.0
  0
VERTEX
  5
A07
330
A04
100
AcDbEntity
  8
0
100
AcDbVertex
100
AcDb2dVertex
 10
37.45299286551685
 20
23.42569371097643
 30
0.0
  0
VERTEX
  5
A08
330
A04
100
AcDbEntity
  8
0
100
AcDbVertex
100
AcDb2dVertex
 10
37.45299286551685
 20
22.80040871097643
 30
0.0
  0
SEQEND
  5
A09
330
A04
100
AcDbEntity
  8
0
  0
POLYLINE
  5
A0A
330
1F
100
AcDbEntity
  8
0
100
AcDb2dPolyline
 66
     1
 10
0.0
 20
0.0
 30
0.0
  0
VERTEX
  5
A0B
330
A0A
100
AcDbEntity
  8
0
100
AcDbVertex
100
AcDb2dVertex
 10
38.99777386551685
 20
27.28385571097643
 30
0.0
  0
VERTEX
  5
A0C
330
A0A
100
AcDbEntity
  8
0
100
AcDbVertex
100
AcDb2dVertex
 10
38.99777386551685
 20
23.42569371097643
 30
0.0
  0
VERTEX
  5
A0D
330
A0A
100
AcDbEntity
  8
0
100
AcDbVertex
100
AcDb2dVertex
 10
39.43736786551685
 20
23.42569371097643
 30
0.0
  0
VERTEX
  5
A0E
330
A0A
100
AcDbEntity
  8
0
100
AcDbVertex
100
AcDb2dVertex
 10
39.43736786551685
 20
22.80040871097643
 30
0.0
  0
SEQEND
  5
A0F
330
A0A
100
AcDbEntity
  8
0
  0
POLYLINE
  5
A10
330
1F
100
AcDbEntity
  8
0
100
AcDb2dPolyline
 66
     1
 10
0.0
 20
0.0
 30
0.0
  0
VERTEX
  5
A11
330
A10
100
AcDbEntity
  8
0
100
AcDbVertex
100
AcDb2dVertex
 10
41.99707386551685
 20
23.56797571097644
 30
0.0
  0
VERTEX
  5
A12
330
A10
100
AcDbEntity
  8
0
100
AcDbVertex
100
AcDb2dVertex
 10
35.34046086551686
 20
23.51113171097644
 30
0.0
  0
VERTEX
  5
A13
330
A10
100
AcDbEntity
  8
0
100
AcDbVertex
100
AcDb2dVertex
 10
35.34046086551686
 20
27.34035571097643
 30
0.0
  0
SEQEND
  5
A14
330
A10
100
AcDbEntity
  8
0
  0
POLYLINE
  5
A15
330
1F
100
AcDbEntity
  8
0
100
AcDb2dPolyline
 66
     1
 10
0.0
 20
0.0
 30
0.0
 70
     1
  0
VERTEX
  5
A16
330
A15
100
AcDbEntity
  8
0
100
AcDbVertex
100
AcDb2dVertex
 10
41.85582486551683
 20
23.62550871097643
 30
0.0
  0
VERTEX
  5
A17
330
A15
100
AcDbEntity
  8
0
100
AcDbVertex
100
AcDb2dVertex
 10
41.79932586551683
 20
27.39719971097643
 30
0.0
  0
VERTEX
  5
A18
330
A15
100
AcDbEntity
  8
0
100
AcDbVertex
100
AcDb2dVertex
 10
35.16889486551685
 20
27.45473271097644
 30
0.0
  0
VERTEX
  5
A19
330
A15
100
AcDbEntity
  8
0
100
AcDbVertex
100
AcDb2dVertex
 10
41.85582486551683
 20
23.62550871097643
 30
0.0
  0
SEQEND
  5
A1A
330
A15
100
AcDbEntity
  8
0
  0
POLYLINE
  5
A1B
330
1F
100
AcDbEntity
  8
0
100
AcDb2dPolyline
 66
     1
 10
0.0
 20
0.0
 30
0.0
  0
VERTEX
  5
A1C
330
A1B
100
AcDbEntity
  8
0
100
AcDbVertex
100
AcDb2dVertex
 10
35.88960886551686
 20
28.52030071097644
 30
0.0
  0
VERTEX
  5
A1D
330
A1B
100
AcDbEntity
  8
0
100
AcDbVertex
100
AcDb2dVertex
 10
39.78532286551683
 20
28.52030071097644
 30
0.0
  0
VERTEX
  5
A1E
330
A1B
100
AcDbEntity
  8
0
100
AcDbVertex
100
AcDb2dVertex
 10
39.78532286551683
 20
27.47126971097644
 30
0.0
  0
SEQEND
  5
A1F
330
A1B
100
AcDbEntity
  8
0
  0
LINE
  5
A20
330
1F
100
AcDbEntity
  8
0
100
AcDbLine
 10
35.95093186551685
 20
27.54809471097644
 30
0.0
 11
35.95093186551685
 21
28.55957471097644
 31
0.0
  0
SPLINE
  5
A21
330
1F
100
AcDbEntity
  8
0
100
AcDbSpline
210
0.0
220
0.0
230
1.0
 70
     8
 71
     3
 72
    14
 73
    10
 74
     0
 42
0.0000000001
 43
0.0000000001
 40
0.0
 40
0.0
 40
0.0
 40
0.0
 40
1.0
 40
1.0
 40
1.0
 40
2.0
 40
2.0
 40
2.0
 40
3.0
 40
3.0
 40
3.0
 40
3.0
 10
40.32344678218348
 20
29.63478925524725
 30
0.0
 10
40.07126579260017
 20
29.70300214587227
 30
0.0
 10
39.89556592280849
 20
29.46287899049032
 30
0.0
 10
40.10916184294737
 20
29.22137779691393
 30
0.0
 10
40.10916184294737
 20
29.22137779691393
 30
0.0
 10
41.11650776308628
 20
28.98780032295561
 30
0.0
 10
41.11650776308628
 20
28.98780032295561
 30
0.0
 10
41.38522521100296
 20
29.012260500907
 30
0.0
 10
41.3314817214196
 20
29.10217749309448
 30
0.0
 10
41.31563428218348
 20
29.36538278823338
 30
0.0
  0
POLYLINE
  5
A22
330
1F
100
AcDbEntity
  8
0
100
AcDb2dPolyline
 66
     1
 10
0.0
 20
0.0
 30
0.0
  0
VERTEX
  5
A23
330
A22
100
AcDbEntity
  8
0
100
AcDbVertex
100
AcDb2dVertex
 10
36.32920286551686
 20
28.52030071097644
 30
0.0
  0
VERTEX
  5
A24
330
A22
100
AcDbEntity
  8
0
100
AcDbVertex
100
AcDb2dVertex
 10
36.32920286551686
 20
29.33058771097643
 30
0.0
  0
VERTEX
  5
A25
330
A22
100
AcDbEntity
  8
0
100
AcDbVertex
100
AcDb2dVertex
 10
39.40774086551684
 20
29.33058771097643
 30
0.0
  0
VERTEX
  5
A26
330
A22
100
AcDbEntity
  8
0
100
AcDbVertex
100
AcDb2dVertex
 10
39.40774086551684
 20
28.52030071097644
 30
0.0
  0
SEQEND
  5
A27
330
A22
100
AcDbEntity
  8
0
  0
SPLINE
  5
A28
330
1F
100
AcDbEntity
  8
0
100
AcDbSpline
210
0.0
220
0.0
230
1.0
 70
     8
 71
     3
 72
     8
 73
     4
 74
     0
 42
0.0000000001
 43
0.0000000001
 40
0.0
 40
0.0
 40
0.0
 40
0.0
 40
1.0
 40
1.0
 40
1.0
 40
1.0
 10
26.55271110510017
 20
27.92567738458755
 30
0.0
 10
32.83725429086405
 20
31.00387020142782
 30
0.0
 10
39.11835238114182
 20
30.66315025785144
 30
0.0
 10
45.40082850961403
 20
27.97976538371948
 30
0.0
  0
POLYLINE
  5
A29
330
1F
100
AcDbEntity
  8
0
100
AcDb2dPolyline
 66
     1
 10
0.0
 20
0.0
 30
0.0
  0
VERTEX
  5
A2A
330
A29
100
AcDbEntity
  8
0
100
AcDbVertex
100
AcDb2dVertex
 10
25.71141886551683
 20
31.45827871097644
 30
0.0
  0
VERTEX
  5
A2B
330
A29
100
AcDbEntity
  8
0
100
AcDbVertex
100
AcDb2dVertex
 10
25.43856686551683
 20
31.39144371097644
 30
0.0
  0
VERTEX
  5
A2C
330
A29
100
AcDbEntity
  8
0
100
AcDbVertex
100
AcDb2dVertex
 10
25.22772786551684
 20
31.20644171097644
 30
0.0
  0
VERTEX
  5
A2D
330
A29
100
AcDbEntity
  8
0
100
AcDbVertex
100
AcDb2dVertex
 10
25.13126486551684
 20
30.94116971097644
 30
0.0
  0
VERTEX
  5
A2E
330
A29
100
AcDbEntity
  8
0
100
AcDbVertex
100
AcDb2dVertex
 10
25.13264286551683
 20
30.94116971097644
 30
0.0
  0
SEQEND
  5
A2F
330
A29
100
AcDbEntity
  8
0
  0
POLYLINE
  5
A30
330
1F
100
AcDbEntity
  8
0
100
AcDb2dPolyline
 66
     1
 10
0.0
 20
0.0
 30
0.0
  0
VERTEX
  5
A31
330
A30
100
AcDbEntity
  8
0
100
AcDbVertex
100
AcDb2dVertex
 10
26.88550686551685
 20
31.46447971097644
 30
0.0
  0
VERTEX
  5
A32
330
A30
100
AcDbEntity
  8
0
100
AcDbVertex
100
AcDb2dVertex
 10
26.83589786551684
 20
31.46103471097643
 30
0.0
  0
VERTEX
  5
A33
330
A30
100
AcDbEntity
  8
0
100
AcDbVertex
100
AcDb2dVertex
 10
26.84003186551687
 20
31.46103471097643
 30
0.0
  0
SEQEND
  5
A34
330
A30
100
AcDbEntity
  8
0
  0
POLYLINE
  5
A35
330
1F
100
AcDbEntity
  8
0
100
AcDb2dPolyline
 66
     1
 10
0.0
 20
0.0
 30
0.0
  0
VERTEX
  5
A36
330
A35
100
AcDbEntity
  8
0
100
AcDbVertex
100
AcDb2dVertex
 10
27.01573186551684
 20
31.46792471097644
 30
0.0
  0
VERTEX
  5
A37
330
A35
100
AcDbEntity
  8
0
100
AcDbVertex
100
AcDb2dVertex
 10
26.99092686551685
 20
31.46792471097644
 30
0.0
  0
VERTEX
  5
A38
330
A35
100
AcDbEntity
  8
0
100
AcDbVertex
100
AcDb2dVertex
 10
26.99437186551686
 20
31.46792471097644
 30
0.0
  0
SEQEND
  5
A39
330
A35
100
AcDbEntity
  8
0
  0
POLYLINE
  5
A3A
330
1F
100
AcDbEntity
  8
0
100
AcDb2dPolyline
 66
     1
 10
0.0
 20
0.0
 30
0.0
  0
VERTEX
  5
A3B
330
A3A
100
AcDbEntity
  8
0
100
AcDbVertex
100
AcDb2dVertex
 10
26.99092686551685
 20
31.46792471097644
 30
0.0
  0
VERTEX
  5
A3C
330
A3A
100
AcDbEntity
  8
0
100
AcDbVertex
100
AcDb2dVertex
 10
26.97232386551684
 20
31.46447971097644
 30
0.0
  0
VERTEX
  5
A3D
330
A3A
100
AcDbEntity
  8
0
100
AcDbVertex
100
AcDb2dVertex
 10
26.97576886551684
 20
31.46447971097644
 30
0.0
  0
SEQEND
  5
A3E
330
A3A
100
AcDbEntity
  8
0
  0
POLYLINE
  5
A3F
330
1F
100
AcDbEntity
  8
0
100
AcDb2dPolyline
 66
     1
 10
0.0
 20
0.0
 30
0.0
  0
VERTEX
  5
A40
330
A3F
100
AcDbEntity
  8
0
100
AcDbVertex
100
AcDb2dVertex
 10
26.97232386551684
 20
31.46447971097644
 30
0.0
  0
VERTEX
  5
A41
330
A3F
100
AcDbEntity
  8
0
100
AcDbVertex
100
AcDb2dVertex
 10
26.87930586551684
 20
31.46103471097643
 30
0.0
  0
VERTEX
  5
A42
330
A3F
100
AcDbEntity
  8
0
100
AcDbVertex
100
AcDb2dVertex
 10
26.88137286551685
 20
31.46103471097643
 30
0.0
  0
SEQEND
  5
A43
330
A3F
100
AcDbEntity
  8
0
  0
POLYLINE
  5
A44
330
1F
100
AcDbEntity
  8
0
100
AcDb2dPolyline
 66
     1
 10
0.0
 20
0.0
 30
0.0
  0
VERTEX
  5
A45
330
A44
100
AcDbEntity
  8
0
100
AcDbVertex
100
AcDb2dVertex
 10
26.83589786551684
 20
31.46103471097643
 30
0.0
  0
VERTEX
  5
A46
330
A44
100
AcDbEntity
  8
0
100
AcDbVertex
100
AcDb2dVertex
 10
26.79111186551683
 20
31.46103471097643
 30
0.0
  0
VERTEX
  5
A47
330
A44
100
AcDbEntity
  8
0
100
AcDbVertex
100
AcDb2dVertex
 10
26.79386786551683
 20
31.46103471097643
 30
0.0
  0
SEQEND
  5
A48
330
A44
100
AcDbEntity
  8
0
  0
POLYLINE
  5
A49
330
1F
100
AcDbEntity
  8
0
100
AcDb2dPolyline
 66
     1
 10
0.0
 20
0.0
 30
0.0
  0
VERTEX
  5
A4A
330
A49
100
AcDbEntity
  8
0
100
AcDbVertex
100
AcDb2dVertex
 10
26.87930586551684
 20
31.46103471097643
 30
0.0
  0
VERTEX
  5
A4B
330
A49
100
AcDbEntity
  8
0
100
AcDbVertex
100
AcDb2dVertex
 10
26.84898886551684
 20
31.46103471097643
 30
0.0
  0
VERTEX
  5
A4C
330
A49
100
AcDbEntity
  8
0
100
AcDbVertex
100
AcDb2dVertex
 10
26.85174586551685
 20
31.46103471097643
 30
0.0
  0
SEQEND
  5
A4D
330
A49
100
AcDbEntity
  8
0
  0
POLYLINE
  5
A4E
330
1F
100
AcDbEntity
  8
0
100
AcDb2dPolyline
 66
     1
 10
0.0
 20
0.0
 30
0.0
  0
VERTEX
  5
A4F
330
A4E
100
AcDbEntity
  8
0
100
AcDbVertex
100
AcDb2dVertex
 10
26.84898886551684
 20
31.46103471097643
 30
0.0
  0
VERTEX
  5
A50
330
A4E
100
AcDbEntity
  8
0
100
AcDbVertex
100
AcDb2dVertex
 10
26.81867286551685
 20
31.46103471097643
 30
0.0
  0
VERTEX
  5
A51
330
A4E
100
AcDbEntity
  8
0
100
AcDbVertex
100
AcDb2dVertex
 10
26.82211786551685
 20
31.46103471097643
 30
0.0
  0
SEQEND
  5
A52
330
A4E
100
AcDbEntity
  8
0
  0
POLYLINE
  5
A53
330
1F
100
AcDbEntity
  8
0
100
AcDb2dPolyline
 66
     1
 10
0.0
 20
0.0
 30
0.0
  0
VERTEX
  5
A54
330
A53
100
AcDbEntity
  8
0
100
AcDbVertex
100
AcDb2dVertex
 10
26.79111186551683
 20
31.46103471097643
 30
0.0
  0
VERTEX
  5
A55
330
A53
100
AcDbEntity
  8
0
100
AcDbVertex
100
AcDb2dVertex
 10
26.75183786551685
 20
31.45827871097644
 30
0.0
  0
VERTEX
  5
A56
330
A53
100
AcDbEntity
  8
0
100
AcDbVertex
100
AcDb2dVertex
 10
26.71187486551685
 20
31.45827871097644
 30
0.0
  0
VERTEX
  5
A57
330
A53
100
AcDbEntity
  8
0
100
AcDbVertex
100
AcDb2dVertex
 10
26.71394186551683
 20
31.45827871097644
 30
0.0
  0
SEQEND
  5
A58
330
A53
100
AcDbEntity
  8
0
  0
POLYLINE
  5
A59
330
1F
100
AcDbEntity
  8
0
100
AcDb2dPolyline
 66
     1
 10
0.0
 20
0.0
 30
0.0
  0
VERTEX
  5
A5A
330
A59
100
AcDbEntity
  8
0
100
AcDbVertex
100
AcDb2dVertex
 10
26.81867286551685
 20
31.46103471097643
 30
0.0
  0
VERTEX
  5
A5B
330
A59
100
AcDbEntity
  8
0
100
AcDbVertex
100
AcDb2dVertex
 10
26.79111186551683
 20
31.46103471097643
 30
0.0
  0
VERTEX
  5
A5C
330
A59
100
AcDbEntity
  8
0
100
AcDbVertex
100
AcDb2dVertex
 10
26.79386786551683
 20
31.46103471097643
 30
0.0
  0
SEQEND
  5
A5D
330
A59
100
AcDbEntity
  8
0
  0
POLYLINE
  5
A5E
330
1F
100
AcDbEntity
  8
0
100
AcDb2dPolyline
 66
     1
 10
0.0
 20
0.0
 30
0.0
  0
VERTEX
  5
A5F
330
A5E
100
AcDbEntity
  8
0
100
AcDbVertex
100
AcDb2dVertex
 10
26.89722086551686
 20
31.45827871097644
 30
0.0
  0
VERTEX
  5
A60
330
A5E
100
AcDbEntity
  8
0
100
AcDbVertex
100
AcDb2dVertex
 10
26.91513486551685
 20
31.45827871097644
 30
0.0
  0
VERTEX
  5
A61
330
A5E
100
AcDbEntity
  8
0
100
AcDbVertex
100
AcDb2dVertex
 10
26.92202486551685
 20
31.46103471097643
 30
0.0
  0
VERTEX
  5
A62
330
A5E
100
AcDbEntity
  8
0
100
AcDbVertex
100
AcDb2dVertex
 10
26.93993986551684
 20
31.46103471097643
 30
0.0
  0
VERTEX
  5
A63
330
A5E
100
AcDbEntity
  8
0
100
AcDbVertex
100
AcDb2dVertex
 10
26.94614086551684
 20
31.46447971097644
 30
0.0
  0
VERTEX
  5
A64
330
A5E
100
AcDbEntity
  8
0
100
AcDbVertex
100
AcDb2dVertex
 10
26.95509786551685
 20
31.46447971097644
 30
0.0
  0
SEQEND
  5
A65
330
A5E
100
AcDbEntity
  8
0
  0
POLYLINE
  5
A66
330
1F
100
AcDbEntity
  8
0
100
AcDb2dPolyline
 66
     1
 10
0.0
 20
0.0
 30
0.0
  0
VERTEX
  5
A67
330
A66
100
AcDbEntity
  8
0
100
AcDbVertex
100
AcDb2dVertex
 10
26.78491086551685
 20
31.45827871097644
 30
0.0
  0
VERTEX
  5
A68
330
A66
100
AcDbEntity
  8
0
100
AcDbVertex
100
AcDb2dVertex
 10
26.75183786551685
 20
31.45827871097644
 30
0.0
  0
VERTEX
  5
A69
330
A66
100
AcDbEntity
  8
0
100
AcDbVertex
100
AcDb2dVertex
 10
26.75459386551685
 20
31.45827871097644
 30
0.0
  0
SEQEND
  5
A6A
330
A66
100
AcDbEntity
  8
0
  0
POLYLINE
  5
A6B
330
1F
100
AcDbEntity
  8
0
100
AcDb2dPolyline
 66
     1
 10
0.0
 20
0.0
 30
0.0
  0
VERTEX
  5
A6C
330
A6B
100
AcDbEntity
  8
0
100
AcDbVertex
100
AcDb2dVertex
 10
27.01573186551684
 20
31.47412571097644
 30
0.0
  0
VERTEX
  5
A6D
330
A6B
100
AcDbEntity
  8
0
100
AcDbVertex
100
AcDb2dVertex
 10
27.00608586551687
 20
31.47412571097644
 30
0.0
  0
VERTEX
  5
A6E
330
A6B
100
AcDbEntity
  8
0
100
AcDbVertex
100
AcDb2dVertex
 10
26.95303086551687
 20
31.46447971097644
 30
0.0
  0
VERTEX
  5
A6F
330
A6B
100
AcDbEntity
  8
0
100
AcDbVertex
100
AcDb2dVertex
 10
26.95509786551685
 20
31.46447971097644
 30
0.0
  0
SEQEND
  5
A70
330
A6B
100
AcDbEntity
  8
0
  0
POLYLINE
  5
A71
330
1F
100
AcDbEntity
  8
0
100
AcDb2dPolyline
 66
     1
 10
0.0
 20
0.0
 30
0.0
  0
VERTEX
  5
A72
330
A71
100
AcDbEntity
  8
0
100
AcDbVertex
100
AcDb2dVertex
 10
27.08325586551686
 20
31.47412571097644
 30
0.0
  0
VERTEX
  5
A73
330
A71
100
AcDbEntity
  8
0
100
AcDbVertex
100
AcDb2dVertex
 10
27.06878686551684
 20
31.47068071097644
 30
0.0
  0
VERTEX
  5
A74
330
A71
100
AcDbEntity
  8
0
100
AcDbVertex
100
AcDb2dVertex
 10
27.04053686551683
 20
31.47068071097644
 30
0.0
  0
VERTEX
  5
A75
330
A71
100
AcDbEntity
  8
0
100
AcDbVertex
100
AcDb2dVertex
 10
27.02882286551684
 20
31.46792471097644
 30
0.0
  0
VERTEX
  5
A76
330
A71
100
AcDbEntity
  8
0
100
AcDbVertex
100
AcDb2dVertex
 10
27.01573186551684
 20
31.46792471097644
 30
0.0
  0
VERTEX
  5
A77
330
A71
100
AcDbEntity
  8
0
100
AcDbVertex
100
AcDb2dVertex
 10
27.01848786551685
 20
31.46792471097644
 30
0.0
  0
SEQEND
  5
A78
330
A71
100
AcDbEntity
  8
0
  0
POLYLINE
  5
A79
330
1F
100
AcDbEntity
  8
0
100
AcDb2dPolyline
 66
     1
 10
0.0
 20
0.0
 30
0.0
  0
VERTEX
  5
A7A
330
A79
100
AcDbEntity
  8
0
100
AcDbVertex
100
AcDb2dVertex
 10
27.01573186551684
 20
31.47412571097644
 30
0.0
  0
VERTEX
  5
A7B
330
A79
100
AcDbEntity
  8
0
100
AcDbVertex
100
AcDb2dVertex
 10
26.93787286551685
 20
31.46792471097644
 30
0.0
  0
VERTEX
  5
A7C
330
A79
100
AcDbEntity
  8
0
100
AcDbVertex
100
AcDb2dVertex
 10
26.93993986551684
 20
31.46792471097644
 30
0.0
  0
SEQEND
  5
A7D
330
A79
100
AcDbEntity
  8
0
  0
POLYLINE
  5
A7E
330
1F
100
AcDbEntity
  8
0
100
AcDb2dPolyline
 66
     1
 10
0.0
 20
0.0
 30
0.0
  0
VERTEX
  5
A7F
330
A7E
100
AcDbEntity
  8
0
100
AcDbVertex
100
AcDb2dVertex
 10
27.02124386551685
 20
31.47412571097644
 30
0.0
  0
VERTEX
  5
A80
330
A7E
100
AcDbEntity
  8
0
100
AcDbVertex
100
AcDb2dVertex
 10
27.01573186551684
 20
31.47412571097644
 30
0.0
  0
VERTEX
  5
A81
330
A7E
100
AcDbEntity
  8
0
100
AcDbVertex
100
AcDb2dVertex
 10
27.01848786551685
 20
31.47412571097644
 30
0.0
  0
SEQEND
  5
A82
330
A7E
100
AcDbEntity
  8
0
  0
POLYLINE
  5
A83
330
1F
100
AcDbEntity
  8
0
100
AcDb2dPolyline
 66
     1
 10
0.0
 20
0.0
 30
0.0
  0
VERTEX
  5
A84
330
A83
100
AcDbEntity
  8
0
100
AcDbVertex
100
AcDb2dVertex
 10
26.93718386551686
 20
31.46792471097644
 30
0.0
  0
VERTEX
  5
A85
330
A83
100
AcDbEntity
  8
0
100
AcDbVertex
100
AcDb2dVertex
 10
26.88481786551685
 20
31.46413471097643
 30
0.0
  0
VERTEX
  5
A86
330
A83
100
AcDbEntity
  8
0
100
AcDbVertex
100
AcDb2dVertex
 10
26.88826386551685
 20
31.46413471097643
 30
0.0
  0
SEQEND
  5
A87
330
A83
100
AcDbEntity
  8
0
  0
POLYLINE
  5
A88
330
1F
100
AcDbEntity
  8
0
100
AcDb2dPolyline
 66
     1
 10
0.0
 20
0.0
 30
0.0
  0
VERTEX
  5
A89
330
A88
100
AcDbEntity
  8
0
100
AcDbVertex
100
AcDb2dVertex
 10
27.44636886551683
 20
31.52476871097644
 30
0.0
  0
VERTEX
  5
A8A
330
A88
100
AcDbEntity
  8
0
100
AcDbVertex
100
AcDb2dVertex
 10
27.30443086551685
 20
31.50030871097643
 30
0.0
  0
VERTEX
  5
A8B
330
A88
100
AcDbEntity
  8
0
100
AcDbVertex
100
AcDb2dVertex
 10
27.27755886551685
 20
31.49755271097644
 30
0.0
  0
VERTEX
  5
A8C
330
A88
100
AcDbEntity
  8
0
100
AcDbVertex
100
AcDb2dVertex
 10
27.25551086551687
 20
31.49479671097643
 30
0.0
  0
VERTEX
  5
A8D
330
A88
100
AcDbEntity
  8
0
100
AcDbVertex
100
AcDb2dVertex
 10
27.23139486551685
 20
31.49100671097644
 30
0.0
  0
VERTEX
  5
A8E
330
A88
100
AcDbEntity
  8
0
100
AcDbVertex
100
AcDb2dVertex
 10
27.21003486551686
 20
31.48790571097644
 30
0.0
  0
VERTEX
  5
A8F
330
A88
100
AcDbEntity
  8
0
100
AcDbVertex
100
AcDb2dVertex
 10
27.21279186551683
 20
31.48790571097644
 30
0.0
  0
SEQEND
  5
A90
330
A88
100
AcDbEntity
  8
0
  0
SPLINE
  5
A91
330
1F
100
AcDbEntity
  8
0
100
AcDbSpline
210
0.0
220
0.0
230
1.0
 70
     8
 71
     3
 72
    17
 73
    13
 74
     0
 42
0.0000000001
 43
0.0000000001
 40
0.0
 40
0.0
 40
0.0
 40
0.0
 40
1.0
 40
1.0
 40
1.0
 40
2.0
 40
2.0
 40
2.0
 40
3.0
 40
3.0
 40
3.0
 40
4.0
 40
4.0
 40
4.0
 40
4.0
 10
27.21003532385018
 20
31.48790611722644
 30
0.0
 10
27.21003532385018
 20
31.48790611722644
 30
0.0
 10
27.18867573183624
 20
31.48618356948337
 30
0.0
 10
27.18867573183624
 20
31.48618356948337
 30
0.0
 10
27.15146870058627
 20
31.47860435941393
 30
0.0
 10
27.13493224225294
 20
31.47688181167087
 30
0.0
 10
27.09772521100294
 20
31.47412573528198
 30
0.0
 10
27.09772521100294
 20
31.47412573528198
 30
0.0
 10
27.08325580996129
 20
31.47412573528198
 30
0.0
 10
27.08325580996129
 20
31.47412573528198
 30
0.0
 10
27.08325580996129
 20
31.47412573528198
 30
0.0
 10
27.0867009054474
 20
31.47412573528198
 30
0.0
 10
27.0867009054474
 20
31.47412573528198
 30
0.0
  0
POLYLINE
  5
A92
330
1F
100
AcDbEntity
  8
0
100
AcDb2dPolyline
 66
     1
 10
0.0
 20
0.0
 30
0.0
  0
VERTEX
  5
A93
330
A92
100
AcDbEntity
  8
0
100
AcDbVertex
100
AcDb2dVertex
 10
27.81568286551686
 20
29.94002471097643
 30
0.0
  0
VERTEX
  5
A94
330
A92
100
AcDbEntity
  8
0
100
AcDbVertex
100
AcDb2dVertex
 10
27.79156786551684
 20
30.11365771097644
 30
0.0
  0
VERTEX
  5
A95
330
A92
100
AcDbEntity
  8
0
100
AcDbVertex
100
AcDb2dVertex
 10
27.79363486551685
 20
30.11365771097644
 30
0.0
  0
SEQEND
  5
A96
330
A92
100
AcDbEntity
  8
0
  0
POLYLINE
  5
A97
330
1F
100
AcDbEntity
  8
0
100
AcDb2dPolyline
 66
     1
 10
0.0
 20
0.0
 30
0.0
  0
VERTEX
  5
A98
330
A97
100
AcDbEntity
  8
0
100
AcDbVertex
100
AcDb2dVertex
 10
27.90249986551686
 20
29.99101171097643
 30
0.0
  0
VERTEX
  5
A99
330
A97
100
AcDbEntity
  8
0
100
AcDbVertex
100
AcDb2dVertex
 10
27.88251786551683
 20
30.17119071097644
 30
0.0
  0
VERTEX
  5
A9A
330
A97
100
AcDbEntity
  8
0
100
AcDbVertex
100
AcDb2dVertex
 10
27.88389586551685
 20
30.17119071097644
 30
0.0
  0
SEQEND
  5
A9B
330
A97
100
AcDbEntity
  8
0
  0
POLYLINE
  5
A9C
330
1F
100
AcDbEntity
  8
0
100
AcDb2dPolyline
 66
     1
 10
0.0
 20
0.0
 30
0.0
  0
VERTEX
  5
A9D
330
A9C
100
AcDbEntity
  8
0
100
AcDbVertex
100
AcDb2dVertex
 10
27.79156786551684
 20
30.11365771097644
 30
0.0
  0
VERTEX
  5
A9E
330
A9C
100
AcDbEntity
  8
0
100
AcDbVertex
100
AcDb2dVertex
 10
27.76056186551685
 20
30.35688171097644
 30
0.0
  0
VERTEX
  5
A9F
330
A9C
100
AcDbEntity
  8
0
100
AcDbVertex
100
AcDb2dVertex
 10
27.75436086551684
 20
30.40924671097644
 30
0.0
  0
VERTEX
  5
AA0
330
A9C
100
AcDbEntity
  8
0
100
AcDbVertex
100
AcDb2dVertex
 10
27.75780586551685
 20
30.40924671097644
 30
0.0
  0
SEQEND
  5
AA1
330
A9C
100
AcDbEntity
  8
0
  0
POLYLINE
  5
AA2
330
1F
100
AcDbEntity
  8
0
100
AcDb2dPolyline
 66
     1
 10
0.0
 20
0.0
 30
0.0
  0
VERTEX
  5
AA3
330
AA2
100
AcDbEntity
  8
0
100
AcDbVertex
100
AcDb2dVertex
 10
27.88251786551683
 20
30.17119071097644
 30
0.0
  0
VERTEX
  5
AA4
330
AA2
100
AcDbEntity
  8
0
100
AcDbVertex
100
AcDb2dVertex
 10
27.85426786551685
 20
30.36652771097644
 30
0.0
  0
VERTEX
  5
AA5
330
AA2
100
AcDbEntity
  8
0
100
AcDbVertex
100
AcDb2dVertex
 10
27.84944486551683
 20
30.41751471097644
 30
0.0
  0
VERTEX
  5
AA6
330
AA2
100
AcDbEntity
  8
0
100
AcDbVertex
100
AcDb2dVertex
 10
27.85220086551684
 20
30.41751471097644
 30
0.0
  0
SEQEND
  5
AA7
330
AA2
100
AcDbEntity
  8
0
  0
POLYLINE
  5
AA8
330
1F
100
AcDbEntity
  8
0
100
AcDb2dPolyline
 66
     1
 10
0.0
 20
0.0
 30
0.0
  0
VERTEX
  5
AA9
330
AA8
100
AcDbEntity
  8
0
100
AcDbVertex
100
AcDb2dVertex
 10
27.84944486551683
 20
30.41751471097644
 30
0.0
  0
VERTEX
  5
AAA
330
AA8
100
AcDbEntity
  8
0
100
AcDbVertex
100
AcDb2dVertex
 10
27.82670786551685
 20
30.59769371097644
 30
0.0
  0
VERTEX
  5
AAB
330
AA8
100
AcDbEntity
  8
0
100
AcDbVertex
100
AcDb2dVertex
 10
27.81912786551686
 20
30.68519871097643
 30
0.0
  0
VERTEX
  5
AAC
330
AA8
100
AcDbEntity
  8
0
100
AcDbVertex
100
AcDb2dVertex
 10
27.79363486551685
 20
30.85056371097644
 30
0.0
  0
VERTEX
  5
AAD
330
AA8
100
AcDbEntity
  8
0
100
AcDbVertex
100
AcDb2dVertex
 10
27.77916486551684
 20
30.92911171097644
 30
0.0
  0
VERTEX
  5
AAE
330
AA8
100
AcDbEntity
  8
0
100
AcDbVertex
100
AcDb2dVertex
 10
27.77571986551683
 20
30.94116971097644
 30
0.0
  0
VERTEX
  5
AAF
330
AA8
100
AcDbEntity
  8
0
100
AcDbVertex
100
AcDb2dVertex
 10
27.77916486551684
 20
30.94116971097644
 30
0.0
  0
SEQEND
  5
AB0
330
AA8
100
AcDbEntity
  8
0
  0
SPLINE
  5
AB1
330
1F
100
AcDbEntity
  8
0
100
AcDbSpline
210
0.0
220
0.0
230
1.0
 70
     8
 71
     3
 72
    17
 73
    13
 74
     0
 42
0.0000000001
 43
0.0000000001
 40
0.0
 40
0.0
 40
0.0
 40
0.0
 40
1.0
 40
1.0
 40
1.0
 40
2.0
 40
2.0
 40
2.0
 40
3.0
 40
3.0
 40
3.0
 40
4.0
 40
4.0
 40
4.0
 40
4.0
 10
27.75436041065572
 20
30.40924672052504
 30
0.0
 10
27.75436041065572
 20
30.40924672052504
 30
0.0
 10
27.74264708600294
 20
30.50088626045559
 30
0.0
 10
27.74264708600294
 20
30.50088626045559
 30
0.0
 10
27.73093376135018
 20
30.63800106080283
 30
0.0
 10
27.70612907385018
 20
30.7768384088931
 30
0.0
 10
27.68476948183624
 20
30.9132641901431
 30
0.0
 10
27.68476948183624
 20
30.9132641901431
 30
0.0
 10
27.67856830996127
 20
30.9411694635806
 30
0.0
 10
27.67856830996127
 20
30.9411694635806
 30
0.0
 10
27.67856830996127
 20
30.9411694635806
 30
0.0
 10
27.68201340544738
 20
30.9411694635806
 30
0.0
 10
27.68201340544738
 20
30.9411694635806
 30
0.0
  0
POLYLINE
  5
AB2
330
1F
100
AcDbEntity
  8
0
100
AcDb2dPolyline
 66
     1
 10
0.0
 20
0.0
 30
0.0
  0
VERTEX
  5
AB3
330
AB2
100
AcDbEntity
  8
0
100
AcDbVertex
100
AcDb2dVertex
 10
26.52308286551687
 20
30.46023371097643
 30
0.0
  0
VERTEX
  5
AB4
330
AB2
100
AcDbEntity
  8
0
100
AcDbVertex
100
AcDb2dVertex
 10
26.52652886551684
 20
30.41751471097644
 30
0.0
  0
VERTEX
  5
AB5
330
AB2
100
AcDbEntity
  8
0
100
AcDbVertex
100
AcDb2dVertex
 10
26.52928486551687
 20
30.41751471097644
 30
0.0
  0
SEQEND
  5
AB6
330
AB2
100
AcDbEntity
  8
0
  0
SPLINE
  5
AB7
330
1F
100
AcDbEntity
  8
0
100
AcDbSpline
210
0.0
220
0.0
230
1.0
 70
     8
 71
     3
 72
    14
 73
    10
 74
     0
 42
0.0000000001
 43
0.0000000001
 40
0.0
 40
0.0
 40
0.0
 40
0.0
 40
1.0
 40
1.0
 40
1.0
 40
2.0
 40
2.0
 40
2.0
 40
3.0
 40
3.0
 40
3.0
 40
3.0
 10
27.75436041065572
 20
30.40924672052504
 30
0.0
 10
27.75436041065572
 20
30.40924672052504
 30
0.0
 10
27.76056158253073
 20
30.41200279691394
 30
0.0
 10
27.76056158253073
 20
30.41200279691394
 30
0.0
 10
27.79018940371128
 20
30.41785945924032
 30
0.0
 10
27.82119526308628
 20
30.42853925524727
 30
0.0
 10
27.84944504607239
 20
30.41751494969171
 30
0.0
 10
27.84944504607239
 20
30.41751494969171
 30
0.0
 10
27.85220112246128
 20
30.41751494969171
 30
0.0
 10
27.85220112246128
 20
30.41751494969171
 30
0.0
  0
POLYLINE
  5
AB8
330
1F
100
AcDbEntity
  8
0
100
AcDb2dPolyline
 66
     1
 10
0.0
 20
0.0
 30
0.0
  0
VERTEX
  5
AB9
330
AB8
100
AcDbEntity
  8
0
100
AcDbVertex
100
AcDb2dVertex
 10
26.43213286551685
 20
30.94116971097644
 30
0.0
  0
VERTEX
  5
ABA
330
AB8
100
AcDbEntity
  8
0
100
AcDbVertex
100
AcDb2dVertex
 10
26.45349186551684
 20
30.87640171097644
 30
0.0
  0
VERTEX
  5
ABB
330
AB8
100
AcDbEntity
  8
0
100
AcDbVertex
100
AcDb2dVertex
 10
26.46865086551685
 20
30.81370071097643
 30
0.0
  0
VERTEX
  5
ABC
330
AB8
100
AcDbEntity
  8
0
100
AcDbVertex
100
AcDb2dVertex
 10
26.48311986551684
 20
30.74376571097644
 30
0.0
  0
VERTEX
  5
ABD
330
AB8
100
AcDbEntity
  8
0
100
AcDbVertex
100
AcDb2dVertex
 10
26.49552286551685
 20
30.67693071097643
 30
0.0
  0
VERTEX
  5
ABE
330
AB8
100
AcDbEntity
  8
0
100
AcDbVertex
100
AcDb2dVertex
 10
26.50447986551686
 20
30.60699471097644
 30
0.0
  0
VERTEX
  5
ABF
330
AB8
100
AcDbEntity
  8
0
100
AcDbVertex
100
AcDb2dVertex
 10
26.52308286551687
 20
30.46023371097643
 30
0.0
  0
VERTEX
  5
AC0
330
AB8
100
AcDbEntity
  8
0
100
AcDbVertex
100
AcDb2dVertex
 10
26.52652886551684
 20
30.46023371097643
 30
0.0
  0
SEQEND
  5
AC1
330
AB8
100
AcDbEntity
  8
0
  0
POLYLINE
  5
AC2
330
1F
100
AcDbEntity
  8
0
100
AcDb2dPolyline
 66
     1
 10
0.0
 20
0.0
 30
0.0
  0
VERTEX
  5
AC3
330
AC2
100
AcDbEntity
  8
0
100
AcDbVertex
100
AcDb2dVertex
 10
27.93074886551685
 20
29.23205771097644
 30
0.0
  0
VERTEX
  5
AC4
330
AC2
100
AcDbEntity
  8
0
100
AcDbVertex
100
AcDb2dVertex
 10
27.92799286551684
 20
29.24032571097644
 30
0.0
  0
VERTEX
  5
AC5
330
AC2
100
AcDbEntity
  8
0
100
AcDbVertex
100
AcDb2dVertex
 10
27.92454786551684
 20
29.25272771097644
 30
0.0
  0
VERTEX
  5
AC6
330
AC2
100
AcDbEntity
  8
0
100
AcDbVertex
100
AcDb2dVertex
 10
27.92799286551684
 20
29.25272771097644
 30
0.0
  0
SEQEND
  5
AC7
330
AC2
100
AcDbEntity
  8
0
  0
POLYLINE
  5
AC8
330
1F
100
AcDbEntity
  8
0
100
AcDb2dPolyline
 66
     1
 10
0.0
 20
0.0
 30
0.0
  0
VERTEX
  5
AC9
330
AC8
100
AcDbEntity
  8
0
100
AcDbVertex
100
AcDb2dVertex
 10
27.91559086551683
 20
29.27477671097643
 30
0.0
  0
VERTEX
  5
ACA
330
AC8
100
AcDbEntity
  8
0
100
AcDbVertex
100
AcDb2dVertex
 10
27.91352386551685
 20
29.28407871097644
 30
0.0
  0
VERTEX
  5
ACB
330
AC8
100
AcDbEntity
  8
0
100
AcDbVertex
100
AcDb2dVertex
 10
27.91007886551685
 20
29.29303571097644
 30
0.0
  0
VERTEX
  5
ACC
330
AC8
100
AcDbEntity
  8
0
100
AcDbVertex
100
AcDb2dVertex
 10
27.91352386551685
 20
29.29303571097644
 30
0.0
  0
SEQEND
  5
ACD
330
AC8
100
AcDbEntity
  8
0
  0
POLYLINE
  5
ACE
330
1F
100
AcDbEntity
  8
0
100
AcDb2dPolyline
 66
     1
 10
0.0
 20
0.0
 30
0.0
  0
VERTEX
  5
ACF
330
ACE
100
AcDbEntity
  8
0
100
AcDbVertex
100
AcDb2dVertex
 10
27.92454786551684
 20
29.25272771097644
 30
0.0
  0
VERTEX
  5
AD0
330
ACE
100
AcDbEntity
  8
0
100
AcDbVertex
100
AcDb2dVertex
 10
27.91559086551683
 20
29.27477671097643
 30
0.0
  0
VERTEX
  5
AD1
330
ACE
100
AcDbEntity
  8
0
100
AcDbVertex
100
AcDb2dVertex
 10
27.91834686551684
 20
29.27477671097643
 30
0.0
  0
SEQEND
  5
AD2
330
ACE
100
AcDbEntity
  8
0
  0
POLYLINE
  5
AD3
330
1F
100
AcDbEntity
  8
0
100
AcDb2dPolyline
 66
     1
 10
0.0
 20
0.0
 30
0.0
  0
VERTEX
  5
AD4
330
AD3
100
AcDbEntity
  8
0
100
AcDbVertex
100
AcDb2dVertex
 10
27.91007886551685
 20
29.29544771097644
 30
0.0
  0
VERTEX
  5
AD5
330
AD3
100
AcDbEntity
  8
0
100
AcDbVertex
100
AcDb2dVertex
 10
27.89009686551685
 20
29.39604371097644
 30
0.0
  0
VERTEX
  5
AD6
330
AD3
100
AcDbEntity
  8
0
100
AcDbVertex
100
AcDb2dVertex
 10
27.89491986551684
 20
29.39604371097644
 30
0.0
  0
SEQEND
  5
AD7
330
AD3
100
AcDbEntity
  8
0
  0
POLYLINE
  5
AD8
330
1F
100
AcDbEntity
  8
0
100
AcDb2dPolyline
 66
     1
 10
0.0
 20
0.0
 30
0.0
  0
VERTEX
  5
AD9
330
AD8
100
AcDbEntity
  8
0
100
AcDbVertex
100
AcDb2dVertex
 10
27.89009686551685
 20
29.39604371097644
 30
0.0
  0
VERTEX
  5
ADA
330
AD8
100
AcDbEntity
  8
0
100
AcDbVertex
100
AcDb2dVertex
 10
27.87700586551685
 20
29.51179971097643
 30
0.0
  0
VERTEX
  5
ADB
330
AD8
100
AcDbEntity
  8
0
100
AcDbVertex
100
AcDb2dVertex
 10
27.87907286551683
 20
29.51179971097643
 30
0.0
  0
SEQEND
  5
ADC
330
AD8
100
AcDbEntity
  8
0
  0
POLYLINE
  5
ADD
330
1F
100
AcDbEntity
  8
0
100
AcDb2dPolyline
 66
     1
 10
0.0
 20
0.0
 30
0.0
  0
VERTEX
  5
ADE
330
ADD
100
AcDbEntity
  8
0
100
AcDbVertex
100
AcDb2dVertex
 10
27.87700586551685
 20
29.51179971097643
 30
0.0
  0
VERTEX
  5
ADF
330
ADD
100
AcDbEntity
  8
0
100
AcDbVertex
100
AcDb2dVertex
 10
27.85426786551685
 20
29.63892371097644
 30
0.0
  0
VERTEX
  5
AE0
330
ADD
100
AcDbEntity
  8
0
100
AcDbVertex
100
AcDb2dVertex
 10
27.85840186551684
 20
29.63892371097644
 30
0.0
  0
SEQEND
  5
AE1
330
ADD
100
AcDbEntity
  8
0
  0
POLYLINE
  5
AE2
330
1F
100
AcDbEntity
  8
0
100
AcDb2dPolyline
 66
     1
 10
0.0
 20
0.0
 30
0.0
  0
VERTEX
  5
AE3
330
AE2
100
AcDbEntity
  8
0
100
AcDbVertex
100
AcDb2dVertex
 10
27.85495686551684
 20
29.63926771097644
 30
0.0
  0
VERTEX
  5
AE4
330
AE2
100
AcDbEntity
  8
0
100
AcDbVertex
100
AcDb2dVertex
 10
27.83635386551686
 20
29.78327271097644
 30
0.0
  0
VERTEX
  5
AE5
330
AE2
100
AcDbEntity
  8
0
100
AcDbVertex
100
AcDb2dVertex
 10
27.83979886551686
 20
29.78327271097644
 30
0.0
  0
SEQEND
  5
AE6
330
AE2
100
AcDbEntity
  8
0
  0
POLYLINE
  5
AE7
330
1F
100
AcDbEntity
  8
0
100
AcDb2dPolyline
 66
     1
 10
0.0
 20
0.0
 30
0.0
  0
VERTEX
  5
AE8
330
AE7
100
AcDbEntity
  8
0
100
AcDbVertex
100
AcDb2dVertex
 10
26.71118586551685
 20
29.17693571097644
 30
0.0
  0
VERTEX
  5
AE9
330
AE7
100
AcDbEntity
  8
0
100
AcDbVertex
100
AcDb2dVertex
 10
26.73254486551684
 20
29.07427271097644
 30
0.0
  0
VERTEX
  5
AEA
330
AE7
100
AcDbEntity
  8
0
100
AcDbVertex
100
AcDb2dVertex
 10
26.73598986551684
 20
29.07427271097644
 30
0.0
  0
SEQEND
  5
AEB
330
AE7
100
AcDbEntity
  8
0
  0
POLYLINE
  5
AEC
330
1F
100
AcDbEntity
  8
0
100
AcDb2dPolyline
 66
     1
 10
0.0
 20
0.0
 30
0.0
  0
VERTEX
  5
AED
330
AEC
100
AcDbEntity
  8
0
100
AcDbVertex
100
AcDb2dVertex
 10
26.69327086551684
 20
29.28063371097644
 30
0.0
  0
VERTEX
  5
AEE
330
AEC
100
AcDbEntity
  8
0
100
AcDbVertex
100
AcDb2dVertex
 10
26.71118586551685
 20
29.17693571097644
 30
0.0
  0
VERTEX
  5
AEF
330
AEC
100
AcDbEntity
  8
0
100
AcDbVertex
100
AcDb2dVertex
 10
26.71394186551683
 20
29.17693571097644
 30
0.0
  0
SEQEND
  5
AF0
330
AEC
100
AcDbEntity
  8
0
  0
POLYLINE
  5
AF1
330
1F
100
AcDbEntity
  8
0
100
AcDb2dPolyline
 66
     1
 10
0.0
 20
0.0
 30
0.0
  0
VERTEX
  5
AF2
330
AF1
100
AcDbEntity
  8
0
100
AcDbVertex
100
AcDb2dVertex
 10
26.67880186551685
 20
29.38123071097643
 30
0.0
  0
VERTEX
  5
AF3
330
AF1
100
AcDbEntity
  8
0
100
AcDbVertex
100
AcDb2dVertex
 10
26.69327086551684
 20
29.28063371097644
 30
0.0
  0
VERTEX
  5
AF4
330
AF1
100
AcDbEntity
  8
0
100
AcDbVertex
100
AcDb2dVertex
 10
26.69533786551685
 20
29.28063371097644
 30
0.0
  0
SEQEND
  5
AF5
330
AF1
100
AcDbEntity
  8
0
  0
POLYLINE
  5
AF6
330
1F
100
AcDbEntity
  8
0
100
AcDb2dPolyline
 66
     1
 10
0.0
 20
0.0
 30
0.0
  0
VERTEX
  5
AF7
330
AF6
100
AcDbEntity
  8
0
100
AcDbVertex
100
AcDb2dVertex
 10
26.66019786551684
 20
29.48492771097644
 30
0.0
  0
VERTEX
  5
AF8
330
AF6
100
AcDbEntity
  8
0
100
AcDbVertex
100
AcDb2dVertex
 10
26.66019786551684
 20
29.47803771097644
 30
0.0
  0
VERTEX
  5
AF9
330
AF6
100
AcDbEntity
  8
0
100
AcDbVertex
100
AcDb2dVertex
 10
26.66295386551684
 20
29.47803771097644
 30
0.0
  0
SEQEND
  5
AFA
330
AF6
100
AcDbEntity
  8
0
  0
POLYLINE
  5
AFB
330
1F
100
AcDbEntity
  8
0
100
AcDb2dPolyline
 66
     1
 10
0.0
 20
0.0
 30
0.0
  0
VERTEX
  5
AFC
330
AFB
100
AcDbEntity
  8
0
100
AcDbVertex
100
AcDb2dVertex
 10
26.66019786551684
 20
29.47803771097644
 30
0.0
  0
VERTEX
  5
AFD
330
AFB
100
AcDbEntity
  8
0
100
AcDbVertex
100
AcDb2dVertex
 10
26.67880186551685
 20
29.38123071097643
 30
0.0
  0
VERTEX
  5
AFE
330
AFB
100
AcDbEntity
  8
0
100
AcDbVertex
100
AcDb2dVertex
 10
26.68086886551683
 20
29.38123071097643
 30
0.0
  0
SEQEND
  5
AFF
330
AFB
100
AcDbEntity
  8
0
  0
POLYLINE
  5
B00
330
1F
100
AcDbEntity
  8
0
100
AcDb2dPolyline
 66
     1
 10
0.0
 20
0.0
 30
0.0
  0
VERTEX
  5
B01
330
B00
100
AcDbEntity
  8
0
100
AcDbVertex
100
AcDb2dVertex
 10
26.64779586551686
 20
29.57553371097644
 30
0.0
  0
VERTEX
  5
B02
330
B00
100
AcDbEntity
  8
0
100
AcDbVertex
100
AcDb2dVertex
 10
26.64779586551686
 20
29.57036571097644
 30
0.0
  0
VERTEX
  5
B03
330
B00
100
AcDbEntity
  8
0
100
AcDbVertex
100
AcDb2dVertex
 10
26.65055186551686
 20
29.57036571097644
 30
0.0
  0
SEQEND
  5
B04
330
B00
100
AcDbEntity
  8
0
  0
POLYLINE
  5
B05
330
1F
100
AcDbEntity
  8
0
100
AcDb2dPolyline
 66
     1
 10
0.0
 20
0.0
 30
0.0
  0
VERTEX
  5
B06
330
B05
100
AcDbEntity
  8
0
100
AcDbVertex
100
AcDb2dVertex
 10
26.63814986551685
 20
29.62169771097644
 30
0.0
  0
VERTEX
  5
B07
330
B05
100
AcDbEntity
  8
0
100
AcDbVertex
100
AcDb2dVertex
 10
26.64779586551686
 20
29.57553371097644
 30
0.0
  0
VERTEX
  5
B08
330
B05
100
AcDbEntity
  8
0
100
AcDbVertex
100
AcDb2dVertex
 10
26.66019786551684
 20
29.47803771097644
 30
0.0
  0
VERTEX
  5
B09
330
B05
100
AcDbEntity
  8
0
100
AcDbVertex
100
AcDb2dVertex
 10
26.66295386551684
 20
29.47803771097644
 30
0.0
  0
SEQEND
  5
B0A
330
B05
100
AcDbEntity
  8
0
  0
POLYLINE
  5
B0B
330
1F
100
AcDbEntity
  8
0
100
AcDb2dPolyline
 66
     1
 10
0.0
 20
0.0
 30
0.0
  0
VERTEX
  5
B0C
330
B0B
100
AcDbEntity
  8
0
100
AcDbVertex
100
AcDb2dVertex
 10
26.63814986551685
 20
29.62169771097644
 30
0.0
  0
VERTEX
  5
B0D
330
B0B
100
AcDbEntity
  8
0
100
AcDbVertex
100
AcDb2dVertex
 10
26.64159486551685
 20
29.61205171097644
 30
0.0
  0
VERTEX
  5
B0E
330
B0B
100
AcDbEntity
  8
0
100
AcDbVertex
100
AcDb2dVertex
 10
26.64503986551685
 20
29.61205171097644
 30
0.0
  0
SEQEND
  5
B0F
330
B0B
100
AcDbEntity
  8
0
  0
POLYLINE
  5
B10
330
1F
100
AcDbEntity
  8
0
100
AcDb2dPolyline
 66
     1
 10
0.0
 20
0.0
 30
0.0
  0
VERTEX
  5
B11
330
B10
100
AcDbEntity
  8
0
100
AcDbVertex
100
AcDb2dVertex
 10
27.91007886551685
 20
29.29303571097644
 30
0.0
  0
VERTEX
  5
B12
330
B10
100
AcDbEntity
  8
0
100
AcDbVertex
100
AcDb2dVertex
 10
26.73598986551684
 20
30.94116971097644
 30
0.0
  0
VERTEX
  5
B13
330
B10
100
AcDbEntity
  8
0
100
AcDbVertex
100
AcDb2dVertex
 10
26.73874586551685
 20
30.94116971097644
 30
0.0
  0
SEQEND
  5
B14
330
B10
100
AcDbEntity
  8
0
  0
POLYLINE
  5
B15
330
1F
100
AcDbEntity
  8
0
100
AcDb2dPolyline
 66
     1
 10
0.0
 20
0.0
 30
0.0
  0
VERTEX
  5
B16
330
B15
100
AcDbEntity
  8
0
100
AcDbVertex
100
AcDb2dVertex
 10
27.83635386551686
 20
29.78327271097644
 30
0.0
  0
VERTEX
  5
B17
330
B15
100
AcDbEntity
  8
0
100
AcDbVertex
100
AcDb2dVertex
 10
27.81568286551686
 20
29.94002471097643
 30
0.0
  0
VERTEX
  5
B18
330
B15
100
AcDbEntity
  8
0
100
AcDbVertex
100
AcDb2dVertex
 10
27.81912786551686
 20
29.94002471097643
 30
0.0
  0
SEQEND
  5
B19
330
B15
100
AcDbEntity
  8
0
  0
POLYLINE
  5
B1A
330
1F
100
AcDbEntity
  8
0
100
AcDb2dPolyline
 66
     1
 10
0.0
 20
0.0
 30
0.0
  0
VERTEX
  5
B1B
330
B1A
100
AcDbEntity
  8
0
100
AcDbVertex
100
AcDb2dVertex
 10
27.92454786551684
 20
29.83115971097644
 30
0.0
  0
VERTEX
  5
B1C
330
B1A
100
AcDbEntity
  8
0
100
AcDbVertex
100
AcDb2dVertex
 10
27.90249986551686
 20
29.99135671097644
 30
0.0
  0
VERTEX
  5
B1D
330
B1A
100
AcDbEntity
  8
0
100
AcDbVertex
100
AcDb2dVertex
 10
27.90663386551685
 20
29.99135671097644
 30
0.0
  0
SEQEND
  5
B1E
330
B1A
100
AcDbEntity
  8
0
  0
POLYLINE
  5
B1F
330
1F
100
AcDbEntity
  8
0
100
AcDb2dPolyline
 66
     1
 10
0.0
 20
0.0
 30
0.0
  0
VERTEX
  5
B20
330
B1F
100
AcDbEntity
  8
0
100
AcDbVertex
100
AcDb2dVertex
 10
26.52652886551684
 20
30.41785971097643
 30
0.0
  0
VERTEX
  5
B21
330
B1F
100
AcDbEntity
  8
0
100
AcDbVertex
100
AcDb2dVertex
 10
26.63814986551685
 20
29.62169771097644
 30
0.0
  0
VERTEX
  5
B22
330
B1F
100
AcDbEntity
  8
0
100
AcDbVertex
100
AcDb2dVertex
 10
26.64159486551685
 20
29.62169771097644
 30
0.0
  0
SEQEND
  5
B23
330
B1F
100
AcDbEntity
  8
0
  0
POLYLINE
  5
B24
330
1F
100
AcDbEntity
  8
0
100
AcDb2dPolyline
 66
     1
 10
0.0
 20
0.0
 30
0.0
  0
VERTEX
  5
B25
330
B24
100
AcDbEntity
  8
0
100
AcDbVertex
100
AcDb2dVertex
 10
28.64939586551685
 20
31.61365171097644
 30
0.0
  0
VERTEX
  5
B26
330
B24
100
AcDbEntity
  8
0
100
AcDbVertex
100
AcDb2dVertex
 10
28.40755086551684
 20
31.60745071097644
 30
0.0
  0
VERTEX
  5
B27
330
B24
100
AcDbEntity
  8
0
100
AcDbVertex
100
AcDb2dVertex
 10
28.41237386551686
 20
31.60745071097644
 30
0.0
  0
SEQEND
  5
B28
330
B24
100
AcDbEntity
  8
0
  0
POLYLINE
  5
B29
330
1F
100
AcDbEntity
  8
0
100
AcDb2dPolyline
 66
     1
 10
0.0
 20
0.0
 30
0.0
  0
VERTEX
  5
B2A
330
B29
100
AcDbEntity
  8
0
100
AcDbVertex
100
AcDb2dVertex
 10
28.91949186551685
 20
31.61881971097644
 30
0.0
  0
VERTEX
  5
B2B
330
B29
100
AcDbEntity
  8
0
100
AcDbVertex
100
AcDb2dVertex
 10
28.64939586551685
 20
31.61365171097644
 30
0.0
  0
VERTEX
  5
B2C
330
B29
100
AcDbEntity
  8
0
100
AcDbVertex
100
AcDb2dVertex
 10
28.65146286551683
 20
31.61365171097644
 30
0.0
  0
SEQEND
  5
B2D
330
B29
100
AcDbEntity
  8
0
  0
POLYLINE
  5
B2E
330
1F
100
AcDbEntity
  8
0
100
AcDb2dPolyline
 66
     1
 10
0.0
 20
0.0
 30
0.0
  0
VERTEX
  5
B2F
330
B2E
100
AcDbEntity
  8
0
100
AcDbVertex
100
AcDb2dVertex
 10
29.36390886551686
 20
31.62743271097645
 30
0.0
  0
VERTEX
  5
B30
330
B2E
100
AcDbEntity
  8
0
100
AcDbVertex
100
AcDb2dVertex
 10
28.91949186551685
 20
31.61881971097644
 30
0.0
  0
VERTEX
  5
B31
330
B2E
100
AcDbEntity
  8
0
100
AcDbVertex
100
AcDb2dVertex
 10
28.92224786551685
 20
31.61881971097644
 30
0.0
  0
SEQEND
  5
B32
330
B2E
100
AcDbEntity
  8
0
  0
POLYLINE
  5
B33
330
1F
100
AcDbEntity
  8
0
100
AcDb2dPolyline
 66
     1
 10
0.0
 20
0.0
 30
0.0
  0
VERTEX
  5
B34
330
B33
100
AcDbEntity
  8
0
100
AcDbVertex
100
AcDb2dVertex
 10
30.78328786551683
 20
31.64327971097644
 30
0.0
  0
VERTEX
  5
B35
330
B33
100
AcDbEntity
  8
0
100
AcDbVertex
100
AcDb2dVertex
 10
30.08462286551685
 20
31.63707871097644
 30
0.0
  0
VERTEX
  5
B36
330
B33
100
AcDbEntity
  8
0
100
AcDbVertex
100
AcDb2dVertex
 10
30.08668986551683
 20
31.63707871097644
 30
0.0
  0
SEQEND
  5
B37
330
B33
100
AcDbEntity
  8
0
  0
POLYLINE
  5
B38
330
1F
100
AcDbEntity
  8
0
100
AcDb2dPolyline
 66
     1
 10
0.0
 20
0.0
 30
0.0
  0
VERTEX
  5
B39
330
B38
100
AcDbEntity
  8
0
100
AcDbVertex
100
AcDb2dVertex
 10
30.08462286551685
 20
31.63707871097644
 30
0.0
  0
VERTEX
  5
B3A
330
B38
100
AcDbEntity
  8
0
100
AcDbVertex
100
AcDb2dVertex
 10
29.36390886551686
 20
31.62743271097645
 30
0.0
  0
VERTEX
  5
B3B
330
B38
100
AcDbEntity
  8
0
100
AcDbVertex
100
AcDb2dVertex
 10
29.36735386551686
 20
31.62743271097645
 30
0.0
  0
SEQEND
  5
B3C
330
B38
100
AcDbEntity
  8
0
  0
POLYLINE
  5
B3D
330
1F
100
AcDbEntity
  8
0
100
AcDb2dPolyline
 66
     1
 10
0.0
 20
0.0
 30
0.0
  0
VERTEX
  5
B3E
330
B3D
100
AcDbEntity
  8
0
100
AcDbVertex
100
AcDb2dVertex
 10
27.93695086551685
 20
29.07048271097643
 30
0.0
  0
VERTEX
  5
B3F
330
B3D
100
AcDbEntity
  8
0
100
AcDbVertex
100
AcDb2dVertex
 10
27.94039586551685
 20
29.06703771097644
 30
0.0
  0
VERTEX
  5
B40
330
B3D
100
AcDbEntity
  8
0
100
AcDbVertex
100
AcDb2dVertex
 10
27.94315186551685
 20
29.05842471097643
 30
0.0
  0
VERTEX
  5
B41
330
B3D
100
AcDbEntity
  8
0
100
AcDbVertex
100
AcDb2dVertex
 10
27.94866386551684
 20
29.04981171097644
 30
0.0
  0
VERTEX
  5
B42
330
B3D
100
AcDbEntity
  8
0
100
AcDbVertex
100
AcDb2dVertex
 10
27.95279786551686
 20
29.04636671097644
 30
0.0
  0
VERTEX
  5
B43
330
B3D
100
AcDbEntity
  8
0
100
AcDbVertex
100
AcDb2dVertex
 10
27.97002386551685
 20
29.04636671097644
 30
0.0
  0
VERTEX
  5
B44
330
B3D
100
AcDbEntity
  8
0
100
AcDbVertex
100
AcDb2dVertex
 10
27.97346886551685
 20
29.04981171097644
 30
0.0
  0
VERTEX
  5
B45
330
B3D
100
AcDbEntity
  8
0
100
AcDbVertex
100
AcDb2dVertex
 10
27.97691386551685
 20
29.04981171097644
 30
0.0
  0
SEQEND
  5
B46
330
B3D
100
AcDbEntity
  8
0
  0
POLYLINE
  5
B47
330
1F
100
AcDbEntity
  8
0
100
AcDb2dPolyline
 66
     1
 10
0.0
 20
0.0
 30
0.0
  0
VERTEX
  5
B48
330
B47
100
AcDbEntity
  8
0
100
AcDbVertex
100
AcDb2dVertex
 10
27.94315186551685
 20
29.06462571097644
 30
0.0
  0
VERTEX
  5
B49
330
B47
100
AcDbEntity
  8
0
100
AcDbVertex
100
AcDb2dVertex
 10
27.94866386551684
 20
29.06462571097644
 30
0.0
  0
VERTEX
  5
B4A
330
B47
100
AcDbEntity
  8
0
100
AcDbVertex
100
AcDb2dVertex
 10
27.94866386551684
 20
29.06703771097644
 30
0.0
  0
VERTEX
  5
B4B
330
B47
100
AcDbEntity
  8
0
100
AcDbVertex
100
AcDb2dVertex
 10
27.95279786551686
 20
29.06703771097644
 30
0.0
  0
SEQEND
  5
B4C
330
B47
100
AcDbEntity
  8
0
  0
POLYLINE
  5
B4D
330
1F
100
AcDbEntity
  8
0
100
AcDb2dPolyline
 66
     1
 10
0.0
 20
0.0
 30
0.0
  0
VERTEX
  5
B4E
330
B4D
100
AcDbEntity
  8
0
100
AcDbVertex
100
AcDb2dVertex
 10
27.93695086551685
 20
29.07048271097643
 30
0.0
  0
VERTEX
  5
B4F
330
B4D
100
AcDbEntity
  8
0
100
AcDbVertex
100
AcDb2dVertex
 10
27.94039586551685
 20
29.07048271097643
 30
0.0
  0
VERTEX
  5
B50
330
B4D
100
AcDbEntity
  8
0
100
AcDbVertex
100
AcDb2dVertex
 10
27.94039586551685
 20
29.06703771097644
 30
0.0
  0
VERTEX
  5
B51
330
B4D
100
AcDbEntity
  8
0
100
AcDbVertex
100
AcDb2dVertex
 10
27.94521886551684
 20
29.06703771097644
 30
0.0
  0
SEQEND
  5
B52
330
B4D
100
AcDbEntity
  8
0
  0
POLYLINE
  5
B53
330
1F
100
AcDbEntity
  8
0
100
AcDb2dPolyline
 66
     1
 10
0.0
 20
0.0
 30
0.0
  0
VERTEX
  5
B54
330
B53
100
AcDbEntity
  8
0
100
AcDbVertex
100
AcDb2dVertex
 10
27.94521886551684
 20
29.08254071097644
 30
0.0
  0
VERTEX
  5
B55
330
B53
100
AcDbEntity
  8
0
100
AcDbVertex
100
AcDb2dVertex
 10
27.94866386551684
 20
29.07943971097644
 30
0.0
  0
VERTEX
  5
B56
330
B53
100
AcDbEntity
  8
0
100
AcDbVertex
100
AcDb2dVertex
 10
27.95486486551684
 20
29.07943971097644
 30
0.0
  0
VERTEX
  5
B57
330
B53
100
AcDbEntity
  8
0
100
AcDbVertex
100
AcDb2dVertex
 10
27.95830986551687
 20
29.07771771097644
 30
0.0
  0
VERTEX
  5
B58
330
B53
100
AcDbEntity
  8
0
100
AcDbVertex
100
AcDb2dVertex
 10
27.96451086551687
 20
29.07427271097644
 30
0.0
  0
VERTEX
  5
B59
330
B53
100
AcDbEntity
  8
0
100
AcDbVertex
100
AcDb2dVertex
 10
27.96726686551685
 20
29.06703771097644
 30
0.0
  0
VERTEX
  5
B5A
330
B53
100
AcDbEntity
  8
0
100
AcDbVertex
100
AcDb2dVertex
 10
27.97002386551685
 20
29.06462571097644
 30
0.0
  0
VERTEX
  5
B5B
330
B53
100
AcDbEntity
  8
0
100
AcDbVertex
100
AcDb2dVertex
 10
27.97346886551685
 20
29.06186971097643
 30
0.0
  0
VERTEX
  5
B5C
330
B53
100
AcDbEntity
  8
0
100
AcDbVertex
100
AcDb2dVertex
 10
27.97691386551685
 20
29.05566871097644
 30
0.0
  0
VERTEX
  5
B5D
330
B53
100
AcDbEntity
  8
0
100
AcDbVertex
100
AcDb2dVertex
 10
27.98035886551685
 20
29.05222371097644
 30
0.0
  0
VERTEX
  5
B5E
330
B53
100
AcDbEntity
  8
0
100
AcDbVertex
100
AcDb2dVertex
 10
27.98311486551682
 20
29.05222371097644
 30
0.0
  0
SEQEND
  5
B5F
330
B53
100
AcDbEntity
  8
0
  0
SPLINE
  5
B60
330
1F
100
AcDbEntity
  8
0
100
AcDbSpline
210
0.0
220
0.0
230
1.0
 70
     8
 71
     3
 72
    17
 73
    13
 74
     0
 42
0.0000000001
 43
0.0000000001
 40
0.0
 40
0.0
 40
0.0
 40
0.0
 40
1.0
 40
1.0
 40
1.0
 40
2.0
 40
2.0
 40
2.0
 40
3.0
 40
3.0
 40
3.0
 40
4.0
 40
4.0
 40
4.0
 40
4.0
 10
27.96106613982238
 20
29.12284806601116
 30
0.0
 10
27.96106613982238
 20
29.12284806601116
 30
0.0
 10
27.96726731169739
 20
29.11940297052505
 30
0.0
 10
27.96726731169739
 20
29.11940297052505
 30
0.0
 10
27.97898063635017
 20
29.12043649917087
 30
0.0
 10
27.98862690371127
 20
29.10493356948337
 30
0.0
 10
27.99551709468346
 20
29.09597632121948
 30
0.0
 10
27.99551709468346
 20
29.09597632121948
 30
0.0
 10
27.99551709468346
 20
29.09149769708753
 30
0.0
 10
27.99551709468346
 20
29.09149769708753
 30
0.0
 10
27.99551709468346
 20
29.09149769708753
 30
0.0
 10
27.99896219016961
 20
29.09149769708753
 30
0.0
 10
27.99896219016961
 20
29.09149769708753
 30
0.0
  0
POLYLINE
  5
B61
330
1F
100
AcDbEntity
  8
0
100
AcDb2dPolyline
 66
     1
 10
0.0
 20
0.0
 30
0.0
  0
VERTEX
  5
B62
330
B61
100
AcDbEntity
  8
0
100
AcDbVertex
100
AcDb2dVertex
 10
27.95486486551684
 20
29.14730871097644
 30
0.0
  0
VERTEX
  5
B63
330
B61
100
AcDbEntity
  8
0
100
AcDbVertex
100
AcDb2dVertex
 10
27.95486486551684
 20
29.15626571097643
 30
0.0
  0
VERTEX
  5
B64
330
B61
100
AcDbEntity
  8
0
100
AcDbVertex
100
AcDb2dVertex
 10
27.95279786551686
 20
29.16556771097644
 30
0.0
  0
VERTEX
  5
B65
330
B61
100
AcDbEntity
  8
0
100
AcDbVertex
100
AcDb2dVertex
 10
27.94866386551684
 20
29.17452471097643
 30
0.0
  0
VERTEX
  5
B66
330
B61
100
AcDbEntity
  8
0
100
AcDbVertex
100
AcDb2dVertex
 10
27.94521886551684
 20
29.18382671097644
 30
0.0
  0
VERTEX
  5
B67
330
B61
100
AcDbEntity
  8
0
100
AcDbVertex
100
AcDb2dVertex
 10
27.94039586551685
 20
29.20242971097644
 30
0.0
  0
VERTEX
  5
B68
330
B61
100
AcDbEntity
  8
0
100
AcDbVertex
100
AcDb2dVertex
 10
27.94315186551685
 20
29.20242971097644
 30
0.0
  0
SEQEND
  5
B69
330
B61
100
AcDbEntity
  8
0
  0
POLYLINE
  5
B6A
330
1F
100
AcDbEntity
  8
0
100
AcDb2dPolyline
 66
     1
 10
0.0
 20
0.0
 30
0.0
  0
VERTEX
  5
B6B
330
B6A
100
AcDbEntity
  8
0
100
AcDbVertex
100
AcDb2dVertex
 10
27.95830986551687
 20
29.13766171097643
 30
0.0
  0
VERTEX
  5
B6C
330
B6A
100
AcDbEntity
  8
0
100
AcDbVertex
100
AcDb2dVertex
 10
27.95486486551684
 20
29.14730871097644
 30
0.0
  0
VERTEX
  5
B6D
330
B6A
100
AcDbEntity
  8
0
100
AcDbVertex
100
AcDb2dVertex
 10
27.95830986551687
 20
29.14730871097644
 30
0.0
  0
SEQEND
  5
B6E
330
B6A
100
AcDbEntity
  8
0
  0
POLYLINE
  5
B6F
330
1F
100
AcDbEntity
  8
0
100
AcDb2dPolyline
 66
     1
 10
0.0
 20
0.0
 30
0.0
  0
VERTEX
  5
B70
330
B6F
100
AcDbEntity
  8
0
100
AcDbVertex
100
AcDb2dVertex
 10
27.96106586551684
 20
29.12284771097644
 30
0.0
  0
VERTEX
  5
B71
330
B6F
100
AcDbEntity
  8
0
100
AcDbVertex
100
AcDb2dVertex
 10
27.95830986551687
 20
29.13766171097643
 30
0.0
  0
VERTEX
  5
B72
330
B6F
100
AcDbEntity
  8
0
100
AcDbVertex
100
AcDb2dVertex
 10
27.96106586551684
 20
29.13766171097643
 30
0.0
  0
SEQEND
  5
B73
330
B6F
100
AcDbEntity
  8
0
  0
POLYLINE
  5
B74
330
1F
100
AcDbEntity
  8
0
100
AcDb2dPolyline
 66
     1
 10
0.0
 20
0.0
 30
0.0
  0
VERTEX
  5
B75
330
B74
100
AcDbEntity
  8
0
100
AcDbVertex
100
AcDb2dVertex
 10
28.00378486551685
 20
29.30784971097644
 30
0.0
  0
VERTEX
  5
B76
330
B74
100
AcDbEntity
  8
0
100
AcDbVertex
100
AcDb2dVertex
 10
27.98311486551682
 20
29.43531871097643
 30
0.0
  0
VERTEX
  5
B77
330
B74
100
AcDbEntity
  8
0
100
AcDbVertex
100
AcDb2dVertex
 10
27.98518186551687
 20
29.43531871097643
 30
0.0
  0
SEQEND
  5
B78
330
B74
100
AcDbEntity
  8
0
  0
POLYLINE
  5
B79
330
1F
100
AcDbEntity
  8
0
100
AcDb2dPolyline
 66
     1
 10
0.0
 20
0.0
 30
0.0
  0
VERTEX
  5
B7A
330
B79
100
AcDbEntity
  8
0
100
AcDbVertex
100
AcDb2dVertex
 10
27.98311486551682
 20
29.43531871097643
 30
0.0
  0
VERTEX
  5
B7B
330
B79
100
AcDbEntity
  8
0
100
AcDbVertex
100
AcDb2dVertex
 10
27.96451086551687
 20
29.55348471097643
 30
0.0
  0
VERTEX
  5
B7C
330
B79
100
AcDbEntity
  8
0
100
AcDbVertex
100
AcDb2dVertex
 10
27.96726686551685
 20
29.55348471097643
 30
0.0
  0
SEQEND
  5
B7D
330
B79
100
AcDbEntity
  8
0
  0
POLYLINE
  5
B7E
330
1F
100
AcDbEntity
  8
0
100
AcDb2dPolyline
 66
     1
 10
0.0
 20
0.0
 30
0.0
  0
VERTEX
  5
B7F
330
B7E
100
AcDbEntity
  8
0
100
AcDbVertex
100
AcDb2dVertex
 10
27.96451086551687
 20
29.55348471097643
 30
0.0
  0
VERTEX
  5
B80
330
B7E
100
AcDbEntity
  8
0
100
AcDbVertex
100
AcDb2dVertex
 10
27.94521886551684
 20
29.68543171097643
 30
0.0
  0
VERTEX
  5
B81
330
B7E
100
AcDbEntity
  8
0
100
AcDbVertex
100
AcDb2dVertex
 10
27.94866386551684
 20
29.68543171097643
 30
0.0
  0
SEQEND
  5
B82
330
B7E
100
AcDbEntity
  8
0
  0
POLYLINE
  5
B83
330
1F
100
AcDbEntity
  8
0
100
AcDb2dPolyline
 66
     1
 10
0.0
 20
0.0
 30
0.0
  0
VERTEX
  5
B84
330
B83
100
AcDbEntity
  8
0
100
AcDbVertex
100
AcDb2dVertex
 10
28.00998686551682
 20
29.25031671097644
 30
0.0
  0
VERTEX
  5
B85
330
B83
100
AcDbEntity
  8
0
100
AcDbVertex
100
AcDb2dVertex
 10
28.00998686551682
 20
29.26237471097643
 30
0.0
  0
VERTEX
  5
B86
330
B83
100
AcDbEntity
  8
0
100
AcDbVertex
100
AcDb2dVertex
 10
28.00723086551684
 20
29.27718871097643
 30
0.0
  0
VERTEX
  5
B87
330
B83
100
AcDbEntity
  8
0
100
AcDbVertex
100
AcDb2dVertex
 10
28.00723086551684
 20
29.29303571097644
 30
0.0
  0
VERTEX
  5
B88
330
B83
100
AcDbEntity
  8
0
100
AcDbVertex
100
AcDb2dVertex
 10
28.00378486551685
 20
29.30784971097644
 30
0.0
  0
VERTEX
  5
B89
330
B83
100
AcDbEntity
  8
0
100
AcDbVertex
100
AcDb2dVertex
 10
28.00723086551684
 20
29.30784971097644
 30
0.0
  0
SEQEND
  5
B8A
330
B83
100
AcDbEntity
  8
0
  0
POLYLINE
  5
B8B
330
1F
100
AcDbEntity
  8
0
100
AcDb2dPolyline
 66
     1
 10
0.0
 20
0.0
 30
0.0
  0
VERTEX
  5
B8C
330
B8B
100
AcDbEntity
  8
0
100
AcDbVertex
100
AcDb2dVertex
 10
27.94866386551684
 20
29.06703771097644
 30
0.0
  0
VERTEX
  5
B8D
330
B8B
100
AcDbEntity
  8
0
100
AcDbVertex
100
AcDb2dVertex
 10
27.94866386551684
 20
29.07048271097643
 30
0.0
  0
VERTEX
  5
B8E
330
B8B
100
AcDbEntity
  8
0
100
AcDbVertex
100
AcDb2dVertex
 10
27.94521886551684
 20
29.07771771097644
 30
0.0
  0
VERTEX
  5
B8F
330
B8B
100
AcDbEntity
  8
0
100
AcDbVertex
100
AcDb2dVertex
 10
27.94521886551684
 20
29.08254071097644
 30
0.0
  0
VERTEX
  5
B90
330
B8B
100
AcDbEntity
  8
0
100
AcDbVertex
100
AcDb2dVertex
 10
27.94866386551684
 20
29.08254071097644
 30
0.0
  0
SEQEND
  5
B91
330
B8B
100
AcDbEntity
  8
0
  0
POLYLINE
  5
B92
330
1F
100
AcDbEntity
  8
0
100
AcDb2dPolyline
 66
     1
 10
0.0
 20
0.0
 30
0.0
  0
VERTEX
  5
B93
330
B92
100
AcDbEntity
  8
0
100
AcDbVertex
100
AcDb2dVertex
 10
28.00998686551682
 20
29.14903071097644
 30
0.0
  0
VERTEX
  5
B94
330
B92
100
AcDbEntity
  8
0
100
AcDbVertex
100
AcDb2dVertex
 10
28.00998686551682
 20
29.25031671097644
 30
0.0
  0
VERTEX
  5
B95
330
B92
100
AcDbEntity
  8
0
100
AcDbVertex
100
AcDb2dVertex
 10
28.01343186551685
 20
29.25031671097644
 30
0.0
  0
SEQEND
  5
B96
330
B92
100
AcDbEntity
  8
0
  0
POLYLINE
  5
B97
330
1F
100
AcDbEntity
  8
0
100
AcDb2dPolyline
 66
     1
 10
0.0
 20
0.0
 30
0.0
  0
VERTEX
  5
B98
330
B97
100
AcDbEntity
  8
0
100
AcDbVertex
100
AcDb2dVertex
 10
27.99551686551684
 20
29.09149771097644
 30
0.0
  0
VERTEX
  5
B99
330
B97
100
AcDbEntity
  8
0
100
AcDbVertex
100
AcDb2dVertex
 10
27.99896186551683
 20
29.10114371097643
 30
0.0
  0
VERTEX
  5
B9A
330
B97
100
AcDbEntity
  8
0
100
AcDbVertex
100
AcDb2dVertex
 10
28.00033986551685
 20
29.11079071097644
 30
0.0
  0
VERTEX
  5
B9B
330
B97
100
AcDbEntity
  8
0
100
AcDbVertex
100
AcDb2dVertex
 10
28.00723086551684
 20
29.12904971097643
 30
0.0
  0
VERTEX
  5
B9C
330
B97
100
AcDbEntity
  8
0
100
AcDbVertex
100
AcDb2dVertex
 10
28.00723086551684
 20
29.13766171097643
 30
0.0
  0
VERTEX
  5
B9D
330
B97
100
AcDbEntity
  8
0
100
AcDbVertex
100
AcDb2dVertex
 10
28.00998686551682
 20
29.14903071097644
 30
0.0
  0
VERTEX
  5
B9E
330
B97
100
AcDbEntity
  8
0
100
AcDbVertex
100
AcDb2dVertex
 10
28.01343186551685
 20
29.14903071097644
 30
0.0
  0
SEQEND
  5
B9F
330
B97
100
AcDbEntity
  8
0
  0
POLYLINE
  5
BA0
330
1F
100
AcDbEntity
  8
0
100
AcDb2dPolyline
 66
     1
 10
0.0
 20
0.0
 30
0.0
  0
VERTEX
  5
BA1
330
BA0
100
AcDbEntity
  8
0
100
AcDbVertex
100
AcDb2dVertex
 10
27.98035886551685
 20
29.05187871097644
 30
0.0
  0
VERTEX
  5
BA2
330
BA0
100
AcDbEntity
  8
0
100
AcDbVertex
100
AcDb2dVertex
 10
27.99551686551684
 20
29.09149771097644
 30
0.0
  0
VERTEX
  5
BA3
330
BA0
100
AcDbEntity
  8
0
100
AcDbVertex
100
AcDb2dVertex
 10
27.99896186551683
 20
29.09149771097644
 30
0.0
  0
SEQEND
  5
BA4
330
BA0
100
AcDbEntity
  8
0
  0
POLYLINE
  5
BA5
330
1F
100
AcDbEntity
  8
0
100
AcDb2dPolyline
 66
     1
 10
0.0
 20
0.0
 30
0.0
  0
VERTEX
  5
BA6
330
BA5
100
AcDbEntity
  8
0
100
AcDbVertex
100
AcDb2dVertex
 10
27.94521886551684
 20
29.08254071097644
 30
0.0
  0
VERTEX
  5
BA7
330
BA5
100
AcDbEntity
  8
0
100
AcDbVertex
100
AcDb2dVertex
 10
27.96106586551684
 20
29.12284771097644
 30
0.0
  0
VERTEX
  5
BA8
330
BA5
100
AcDbEntity
  8
0
100
AcDbVertex
100
AcDb2dVertex
 10
27.96451086551687
 20
29.12284771097644
 30
0.0
  0
SEQEND
  5
BA9
330
BA5
100
AcDbEntity
  8
0
  0
POLYLINE
  5
BAA
330
1F
100
AcDbEntity
  8
0
100
AcDb2dPolyline
 66
     1
 10
0.0
 20
0.0
 30
0.0
  0
VERTEX
  5
BAB
330
BAA
100
AcDbEntity
  8
0
100
AcDbVertex
100
AcDb2dVertex
 10
27.97346886551685
 20
29.04981171097644
 30
0.0
  0
VERTEX
  5
BAC
330
BAA
100
AcDbEntity
  8
0
100
AcDbVertex
100
AcDb2dVertex
 10
27.98035886551685
 20
29.05187871097644
 30
0.0
  0
VERTEX
  5
BAD
330
BAA
100
AcDbEntity
  8
0
100
AcDbVertex
100
AcDb2dVertex
 10
27.98311486551682
 20
29.05187871097644
 30
0.0
  0
SEQEND
  5
BAE
330
BAA
100
AcDbEntity
  8
0
  0
POLYLINE
  5
BAF
330
1F
100
AcDbEntity
  8
0
100
AcDb2dPolyline
 66
     1
 10
0.0
 20
0.0
 30
0.0
  0
VERTEX
  5
BB0
330
BAF
100
AcDbEntity
  8
0
100
AcDbVertex
100
AcDb2dVertex
 10
27.94039586551685
 20
29.20242971097644
 30
0.0
  0
VERTEX
  5
BB1
330
BAF
100
AcDbEntity
  8
0
100
AcDbVertex
100
AcDb2dVertex
 10
27.93695086551685
 20
29.21104271097643
 30
0.0
  0
VERTEX
  5
BB2
330
BAF
100
AcDbEntity
  8
0
100
AcDbVertex
100
AcDb2dVertex
 10
27.93074886551685
 20
29.23205771097644
 30
0.0
  0
VERTEX
  5
BB3
330
BAF
100
AcDbEntity
  8
0
100
AcDbVertex
100
AcDb2dVertex
 10
27.93419486551684
 20
29.23205771097644
 30
0.0
  0
SEQEND
  5
BB4
330
BAF
100
AcDbEntity
  8
0
  0
POLYLINE
  5
BB5
330
1F
100
AcDbEntity
  8
0
100
AcDb2dPolyline
 66
     1
 10
0.0
 20
0.0
 30
0.0
  0
VERTEX
  5
BB6
330
BB5
100
AcDbEntity
  8
0
100
AcDbVertex
100
AcDb2dVertex
 10
27.94315186551685
 20
29.06462571097644
 30
0.0
  0
VERTEX
  5
BB7
330
BB5
100
AcDbEntity
  8
0
100
AcDbVertex
100
AcDb2dVertex
 10
26.60507686551685
 20
30.94116971097644
 30
0.0
  0
VERTEX
  5
BB8
330
BB5
100
AcDbEntity
  8
0
100
AcDbVertex
100
AcDb2dVertex
 10
26.60852186551685
 20
30.94116971097644
 30
0.0
  0
SEQEND
  5
BB9
330
BB5
100
AcDbEntity
  8
0
  0
POLYLINE
  5
BBA
330
1F
100
AcDbEntity
  8
0
100
AcDb2dPolyline
 66
     1
 10
0.0
 20
0.0
 30
0.0
  0
VERTEX
  5
BBB
330
BBA
100
AcDbEntity
  8
0
100
AcDbVertex
100
AcDb2dVertex
 10
26.62023486551686
 20
30.94116971097644
 30
0.0
  0
VERTEX
  5
BBC
330
BBA
100
AcDbEntity
  8
0
100
AcDbVertex
100
AcDb2dVertex
 10
27.94521886551684
 20
29.08254071097644
 30
0.0
  0
VERTEX
  5
BBD
330
BBA
100
AcDbEntity
  8
0
100
AcDbVertex
100
AcDb2dVertex
 10
27.94866386551684
 20
29.08254071097644
 30
0.0
  0
SEQEND
  5
BBE
330
BBA
100
AcDbEntity
  8
0
  0
POLYLINE
  5
BBF
330
1F
100
AcDbEntity
  8
0
100
AcDb2dPolyline
 66
     1
 10
0.0
 20
0.0
 30
0.0
  0
VERTEX
  5
BC0
330
BBF
100
AcDbEntity
  8
0
100
AcDbVertex
100
AcDb2dVertex
 10
27.96106586551684
 20
29.12284771097644
 30
0.0
  0
VERTEX
  5
BC1
330
BBF
100
AcDbEntity
  8
0
100
AcDbVertex
100
AcDb2dVertex
 10
26.66570986551685
 20
30.94116971097644
 30
0.0
  0
VERTEX
  5
BC2
330
BBF
100
AcDbEntity
  8
0
100
AcDbVertex
100
AcDb2dVertex
 10
26.66915486551685
 20
30.94116971097644
 30
0.0
  0
SEQEND
  5
BC3
330
BBF
100
AcDbEntity
  8
0
  0
POLYLINE
  5
BC4
330
1F
100
AcDbEntity
  8
0
100
AcDb2dPolyline
 66
     1
 10
0.0
 20
0.0
 30
0.0
  0
VERTEX
  5
BC5
330
BC4
100
AcDbEntity
  8
0
100
AcDbVertex
100
AcDb2dVertex
 10
27.94521886551684
 20
29.68543171097643
 30
0.0
  0
VERTEX
  5
BC6
330
BC4
100
AcDbEntity
  8
0
100
AcDbVertex
100
AcDb2dVertex
 10
27.92454786551684
 20
29.83115971097644
 30
0.0
  0
VERTEX
  5
BC7
330
BC4
100
AcDbEntity
  8
0
100
AcDbVertex
100
AcDb2dVertex
 10
27.92799286551684
 20
29.83115971097644
 30
0.0
  0
SEQEND
  5
BC8
330
BC4
100
AcDbEntity
  8
0
  0
SPLINE
  5
BC9
330
1F
100
AcDbEntity
  8
0
100
AcDbSpline
210
0.0
220
0.0
230
1.0
 70
     8
 71
     3
 72
    17
 73
    13
 74
     0
 42
0.0000000001
 43
0.0000000001
 40
0.0
 40
0.0
 40
0.0
 40
0.0
 40
1.0
 40
1.0
 40
1.0
 40
2.0
 40
2.0
 40
2.0
 40
3.0
 40
3.0
 40
3.0
 40
4.0
 40
4.0
 40
4.0
 40
4.0
 10
28.40755051482239
 20
31.60745093059448
 30
0.0
 10
28.40755051482239
 20
31.60745093059448
 30
0.0
 10
28.30213059294738
 20
31.60124975871948
 30
0.0
 10
28.30213059294738
 20
31.60124975871948
 30
0.0
 10
28.04305941239184
 20
31.59298152955283
 30
0.0
 10
27.77089686898904
 20
31.57541154257366
 30
0.0
 10
27.51389274572517
 20
31.53407039674032
 30
0.0
 10
27.51389274572517
 20
31.53407039674032
 30
0.0
 10
27.44636887419739
 20
31.52476863892782
 30
0.0
 10
27.44636887419739
 20
31.52476863892782
 30
0.0
 10
27.44636887419739
 20
31.52476863892782
 30
0.0
 10
27.44981396968351
 20
31.52476863892782
 30
0.0
 10
27.44981396968351
 20
31.52476863892782
 30
0.0
  0
POLYLINE
  5
BCA
330
1F
100
AcDbEntity
  8
0
100
AcDb2dPolyline
 66
     1
 10
0.0
 20
0.0
 30
0.0
  0
VERTEX
  5
BCB
330
BCA
100
AcDbEntity
  8
0
100
AcDbVertex
100
AcDb2dVertex
 10
27.91007886551685
 20
29.29544771097644
 30
0.0
  0
VERTEX
  5
BCC
330
BCA
100
AcDbEntity
  8
0
100
AcDbVertex
100
AcDb2dVertex
 10
27.91559086551683
 20
29.29923671097643
 30
0.0
  0
VERTEX
  5
BCD
330
BCA
100
AcDbEntity
  8
0
100
AcDbVertex
100
AcDb2dVertex
 10
27.92799286551684
 20
29.30233771097643
 30
0.0
  0
VERTEX
  5
BCE
330
BCA
100
AcDbEntity
  8
0
100
AcDbVertex
100
AcDb2dVertex
 10
27.93695086551685
 20
29.30784971097644
 30
0.0
  0
VERTEX
  5
BCF
330
BCA
100
AcDbEntity
  8
0
100
AcDbVertex
100
AcDb2dVertex
 10
27.95279786551686
 20
29.30784971097644
 30
0.0
  0
VERTEX
  5
BD0
330
BCA
100
AcDbEntity
  8
0
100
AcDbVertex
100
AcDb2dVertex
 10
27.96451086551687
 20
29.31129471097643
 30
0.0
  0
VERTEX
  5
BD1
330
BCA
100
AcDbEntity
  8
0
100
AcDbVertex
100
AcDb2dVertex
 10
27.99896186551683
 20
29.31129471097643
 30
0.0
  0
VERTEX
  5
BD2
330
BCA
100
AcDbEntity
  8
0
100
AcDbVertex
100
AcDb2dVertex
 10
28.00378486551685
 20
29.30784971097644
 30
0.0
  0
VERTEX
  5
BD3
330
BCA
100
AcDbEntity
  8
0
100
AcDbVertex
100
AcDb2dVertex
 10
28.00723086551684
 20
29.30784971097644
 30
0.0
  0
SEQEND
  5
BD4
330
BCA
100
AcDbEntity
  8
0
  0
POLYLINE
  5
BD5
330
1F
100
AcDbEntity
  8
0
100
AcDb2dPolyline
 66
     1
 10
0.0
 20
0.0
 30
0.0
  0
VERTEX
  5
BD6
330
BD5
100
AcDbEntity
  8
0
100
AcDbVertex
100
AcDb2dVertex
 10
27.31063186551685
 20
27.02995271097644
 30
0.0
  0
VERTEX
  5
BD7
330
BD5
100
AcDbEntity
  8
0
100
AcDbVertex
100
AcDb2dVertex
 10
27.34094886551685
 20
26.95416071097644
 30
0.0
  0
VERTEX
  5
BD8
330
BD5
100
AcDbEntity
  8
0
100
AcDbVertex
100
AcDb2dVertex
 10
27.37195486551684
 20
26.87216671097644
 30
0.0
  0
VERTEX
  5
BD9
330
BD5
100
AcDbEntity
  8
0
100
AcDbVertex
100
AcDb2dVertex
 10
27.40433886551685
 20
26.78397271097644
 30
0.0
  0
VERTEX
  5
BDA
330
BD5
100
AcDbEntity
  8
0
100
AcDbVertex
100
AcDb2dVertex
 10
27.44499086551684
 20
26.69267771097644
 30
0.0
  0
VERTEX
  5
BDB
330
BD5
100
AcDbEntity
  8
0
100
AcDbVertex
100
AcDb2dVertex
 10
27.44636886551683
 20
26.69267771097644
 30
0.0
  0
SEQEND
  5
BDC
330
BD5
100
AcDbEntity
  8
0
  0
POLYLINE
  5
BDD
330
1F
100
AcDbEntity
  8
0
100
AcDb2dPolyline
 66
     1
 10
0.0
 20
0.0
 30
0.0
  0
VERTEX
  5
BDE
330
BDD
100
AcDbEntity
  8
0
100
AcDbVertex
100
AcDb2dVertex
 10
27.18867586551684
 20
27.47471471097644
 30
0.0
  0
VERTEX
  5
BDF
330
BDD
100
AcDbEntity
  8
0
100
AcDbVertex
100
AcDb2dVertex
 10
27.22588286551687
 20
27.37101671097644
 30
0.0
  0
VERTEX
  5
BE0
330
BDD
100
AcDbEntity
  8
0
100
AcDbVertex
100
AcDb2dVertex
 10
27.22863886551684
 20
27.37101671097644
 30
0.0
  0
SEQEND
  5
BE1
330
BDD
100
AcDbEntity
  8
0
  0
POLYLINE
  5
BE2
330
1F
100
AcDbEntity
  8
0
100
AcDb2dPolyline
 66
     1
 10
0.0
 20
0.0
 30
0.0
  0
VERTEX
  5
BE3
330
BE2
100
AcDbEntity
  8
0
100
AcDbVertex
100
AcDb2dVertex
 10
27.79845786551687
 20
26.01847271097644
 30
0.0
  0
VERTEX
  5
BE4
330
BE2
100
AcDbEntity
  8
0
100
AcDbVertex
100
AcDb2dVertex
 10
27.80052486551685
 20
26.01502771097643
 30
0.0
  0
VERTEX
  5
BE5
330
BE2
100
AcDbEntity
  8
0
100
AcDbVertex
100
AcDb2dVertex
 10
27.80328086551686
 20
26.01502771097643
 30
0.0
  0
SEQEND
  5
BE6
330
BE2
100
AcDbEntity
  8
0
  0
POLYLINE
  5
BE7
330
1F
100
AcDbEntity
  8
0
100
AcDb2dPolyline
 66
     1
 10
0.0
 20
0.0
 30
0.0
  0
VERTEX
  5
BE8
330
BE7
100
AcDbEntity
  8
0
100
AcDbVertex
100
AcDb2dVertex
 10
27.53525186551684
 20
26.49423971097644
 30
0.0
  0
VERTEX
  5
BE9
330
BE7
100
AcDbEntity
  8
0
100
AcDbVertex
100
AcDb2dVertex
 10
27.58486186551684
 20
26.38813171097643
 30
0.0
  0
VERTEX
  5
BEA
330
BE7
100
AcDbEntity
  8
0
100
AcDbVertex
100
AcDb2dVertex
 10
27.64204986551684
 20
26.28512271097644
 30
0.0
  0
VERTEX
  5
BEB
330
BE7
100
AcDbEntity
  8
0
100
AcDbVertex
100
AcDb2dVertex
 10
27.70061686551685
 20
26.18142571097644
 30
0.0
  0
VERTEX
  5
BEC
330
BE7
100
AcDbEntity
  8
0
100
AcDbVertex
100
AcDb2dVertex
 10
27.76056186551685
 20
26.07841671097644
 30
0.0
  0
VERTEX
  5
BED
330
BE7
100
AcDbEntity
  8
0
100
AcDbVertex
100
AcDb2dVertex
 10
27.80052486551685
 20
26.01502771097643
 30
0.0
  0
VERTEX
  5
BEE
330
BE7
100
AcDbEntity
  8
0
100
AcDbVertex
100
AcDb2dVertex
 10
27.80328086551686
 20
26.01502771097643
 30
0.0
  0
SEQEND
  5
BEF
330
BE7
100
AcDbEntity
  8
0
  0
POLYLINE
  5
BF0
330
1F
100
AcDbEntity
  8
0
100
AcDb2dPolyline
 66
     1
 10
0.0
 20
0.0
 30
0.0
  0
VERTEX
  5
BF1
330
BF0
100
AcDbEntity
  8
0
100
AcDbVertex
100
AcDb2dVertex
 10
27.44499086551684
 20
26.69267771097644
 30
0.0
  0
VERTEX
  5
BF2
330
BF0
100
AcDbEntity
  8
0
100
AcDbVertex
100
AcDb2dVertex
 10
27.48702086551686
 20
26.59587071097643
 30
0.0
  0
VERTEX
  5
BF3
330
BF0
100
AcDbEntity
  8
0
100
AcDbVertex
100
AcDb2dVertex
 10
27.53525186551684
 20
26.49423971097644
 30
0.0
  0
VERTEX
  5
BF4
330
BF0
100
AcDbEntity
  8
0
100
AcDbVertex
100
AcDb2dVertex
 10
27.53938686551683
 20
26.49423971097644
 30
0.0
  0
SEQEND
  5
BF5
330
BF0
100
AcDbEntity
  8
0
  0
POLYLINE
  5
BF6
330
1F
100
AcDbEntity
  8
0
100
AcDb2dPolyline
 66
     1
 10
0.0
 20
0.0
 30
0.0
  0
VERTEX
  5
BF7
330
BF6
100
AcDbEntity
  8
0
100
AcDbVertex
100
AcDb2dVertex
 10
29.23023886551684
 20
24.77617071097644
 30
0.0
  0
VERTEX
  5
BF8
330
BF6
100
AcDbEntity
  8
0
100
AcDbVertex
100
AcDb2dVertex
 10
29.23299586551684
 20
24.77410371097644
 30
0.0
  0
VERTEX
  5
BF9
330
BF6
100
AcDbEntity
  8
0
100
AcDbVertex
100
AcDb2dVertex
 10
29.23506286551683
 20
24.77065871097643
 30
0.0
  0
VERTEX
  5
BFA
330
BF6
100
AcDbEntity
  8
0
100
AcDbVertex
100
AcDb2dVertex
 10
29.23506286551683
 20
24.76790271097644
 30
0.0
  0
VERTEX
  5
BFB
330
BF6
100
AcDbEntity
  8
0
100
AcDbVertex
100
AcDb2dVertex
 10
29.23781886551683
 20
24.76445771097644
 30
0.0
  0
VERTEX
  5
BFC
330
BF6
100
AcDbEntity
  8
0
100
AcDbVertex
100
AcDb2dVertex
 10
29.24126386551683
 20
24.76170171097643
 30
0.0
  0
VERTEX
  5
BFD
330
BF6
100
AcDbEntity
  8
0
100
AcDbVertex
100
AcDb2dVertex
 10
29.24470886551686
 20
24.75825671097644
 30
0.0
  0
VERTEX
  5
BFE
330
BF6
100
AcDbEntity
  8
0
100
AcDbVertex
100
AcDb2dVertex
 10
29.24815386551685
 20
24.75825671097644
 30
0.0
  0
SEQEND
  5
BFF
330
BF6
100
AcDbEntity
  8
0
  0
POLYLINE
  5
C00
330
1F
100
AcDbEntity
  8
0
100
AcDb2dPolyline
 66
     1
 10
0.0
 20
0.0
 30
0.0
  0
VERTEX
  5
C01
330
C00
100
AcDbEntity
  8
0
100
AcDbVertex
100
AcDb2dVertex
 10
28.89606486551685
 20
24.96048371097643
 30
0.0
  0
VERTEX
  5
C02
330
C00
100
AcDbEntity
  8
0
100
AcDbVertex
100
AcDb2dVertex
 10
29.44796886551685
 20
24.65455971097644
 30
0.0
  0
VERTEX
  5
C03
330
C00
100
AcDbEntity
  8
0
100
AcDbVertex
100
AcDb2dVertex
 10
29.45348186551687
 20
24.65455971097644
 30
0.0
  0
SEQEND
  5
C04
330
C00
100
AcDbEntity
  8
0
  0
SPLINE
  5
C05
330
1F
100
AcDbEntity
  8
0
100
AcDbSpline
210
0.0
220
0.0
230
1.0
 70
     8
 71
     3
 72
    14
 73
    10
 74
     0
 42
0.0000000001
 43
0.0000000001
 40
0.0
 40
0.0
 40
0.0
 40
0.0
 40
1.0
 40
1.0
 40
1.0
 40
2.0
 40
2.0
 40
2.0
 40
3.0
 40
3.0
 40
3.0
 40
3.0
 10
27.79845763287799
 20
26.01847252347643
 30
0.0
 10
27.79845763287799
 20
26.01847252347643
 30
0.0
 10
27.88251796273903
 20
25.8903149713931
 30
0.0
 10
27.88251796273903
 20
25.8903149713931
 30
0.0
 10
28.1657048116974
 20
25.49585153823338
 30
0.0
 10
28.53915316239184
 20
25.16822295750421
 30
0.0
 10
28.95945481169738
 20
24.92672176392782
 30
0.0
 10
28.95945481169738
 20
24.92672176392782
 30
0.0
 10
28.96152186898905
 20
24.92672176392782
 30
0.0
 10
28.96152186898905
 20
24.92672176392782
 30
0.0
  0
SPLINE
  5
C06
330
1F
100
AcDbEntity
  8
0
100
AcDbSpline
210
0.0
220
0.0
230
1.0
 70
     8
 71
     3
 72
    17
 73
    13
 74
     0
 42
0.0000000001
 43
0.0000000001
 40
0.0
 40
0.0
 40
0.0
 40
0.0
 40
1.0
 40
1.0
 40
1.0
 40
2.0
 40
2.0
 40
2.0
 40
3.0
 40
3.0
 40
3.0
 40
4.0
 40
4.0
 40
4.0
 40
4.0
 10
26.73254508947517
 20
29.074272219657
 30
0.0
 10
26.73254508947517
 20
29.074272219657
 30
0.0
 10
26.74288037593351
 20
29.02259578736532
 30
0.0
 10
26.74288037593351
 20
29.02259578736532
 30
0.0
 10
26.86759283253073
 20
28.39421037069866
 30
0.0
 10
27.04329270232239
 20
27.77616024049033
 30
0.0
 10
27.25964469885017
 20
27.17292402087227
 30
0.0
 10
27.25964469885017
 20
27.17292402087227
 30
0.0
 10
27.3106321120446
 20
27.02995255819866
 30
0.0
 10
27.3106321120446
 20
27.02995255819866
 30
0.0
 10
27.3106321120446
 20
27.02995255819866
 30
0.0
 10
27.31407720753072
 20
27.02995255819866
 30
0.0
 10
27.31407720753072
 20
27.02995255819866
 30
0.0
  0
SPLINE
  5
C07
330
1F
100
AcDbEntity
  8
0
100
AcDbSpline
210
0.0
220
0.0
230
1.0
 70
     8
 71
     3
 72
    17
 73
    13
 74
     0
 42
0.0000000001
 43
0.0000000001
 40
0.0
 40
0.0
 40
0.0
 40
0.0
 40
1.0
 40
1.0
 40
1.0
 40
2.0
 40
2.0
 40
2.0
 40
3.0
 40
3.0
 40
3.0
 40
4.0
 40
4.0
 40
4.0
 40
4.0
 10
26.67535650440573
 20
29.39604413805977
 30
0.0
 10
26.67535650440573
 20
29.39604413805977
 30
0.0
 10
26.68431375266962
 20
29.34677927260838
 30
0.0
 10
26.68431375266962
 20
29.34677927260838
 30
0.0
 10
26.78697759815572
 20
28.75112226305976
 30
0.0
 10
26.9468300287113
 20
28.15270917712227
 30
0.0
 10
27.14940164329462
 20
27.58254587417088
 30
0.0
 10
27.14940164329462
 20
27.58254587417088
 30
0.0
 10
27.18867573183624
 20
27.4747143854556
 30
0.0
 10
27.18867573183624
 20
27.4747143854556
 30
0.0
 10
27.18867573183624
 20
27.4747143854556
 30
0.0
 10
27.19212082732239
 20
27.4747143854556
 30
0.0
 10
27.19212082732239
 20
27.4747143854556
 30
0.0
  0
POLYLINE
  5
C08
330
1F
100
AcDbEntity
  8
0
100
AcDb2dPolyline
 66
     1
 10
0.0
 20
0.0
 30
0.0
  0
VERTEX
  5
C09
330
C08
100
AcDbEntity
  8
0
100
AcDbVertex
100
AcDb2dVertex
 10
28.50539086551683
 20
25.23609171097644
 30
0.0
  0
VERTEX
  5
C0A
330
C08
100
AcDbEntity
  8
0
100
AcDbVertex
100
AcDb2dVertex
 10
28.98425986551686
 20
21.84370571097643
 30
0.0
  0
VERTEX
  5
C0B
330
C08
100
AcDbEntity
  8
0
100
AcDbVertex
100
AcDb2dVertex
 10
28.98770486551686
 20
21.84370571097643
 30
0.0
  0
SEQEND
  5
C0C
330
C08
100
AcDbEntity
  8
0
  0
SPLINE
  5
C0D
330
1F
100
AcDbEntity
  8
0
100
AcDbSpline
210
0.0
220
0.0
230
1.0
 70
     8
 71
     3
 72
    17
 73
    13
 74
     0
 42
0.0000000001
 43
0.0000000001
 40
0.0
 40
0.0
 40
0.0
 40
0.0
 40
1.0
 40
1.0
 40
1.0
 40
2.0
 40
2.0
 40
2.0
 40
3.0
 40
3.0
 40
3.0
 40
4.0
 40
4.0
 40
4.0
 40
4.0
 10
29.22334912593351
 20
24.78616186809448
 30
0.0
 10
29.22334912593351
 20
24.78616186809448
 30
0.0
 10
29.22679422141963
 20
24.48437150351116
 30
0.0
 10
29.22679422141963
 20
24.48437150351116
 30
0.0
 10
29.2336844123918
 20
23.88526939847644
 30
0.0
 10
29.26675732905847
 20
23.29202395576811
 30
0.0
 10
29.3018973030168
 20
22.69395537937921
 30
0.0
 10
29.3018973030168
 20
22.69395537937921
 30
0.0
 10
29.34461648704459
 20
22.10449954170561
 30
0.0
 10
29.34461648704459
 20
22.10449954170561
 30
0.0
 10
29.34461648704459
 20
22.10449954170561
 30
0.0
 10
29.34875060162799
 20
22.10449954170561
 30
0.0
 10
29.34875060162799
 20
22.10449954170561
 30
0.0
  0
POLYLINE
  5
C0E
330
1F
100
AcDbEntity
  8
0
100
AcDb2dPolyline
 66
     1
 10
0.0
 20
0.0
 30
0.0
  0
VERTEX
  5
C0F
330
C0E
100
AcDbEntity
  8
0
100
AcDbVertex
100
AcDb2dVertex
 10
32.64226186551685
 20
31.65637171097643
 30
0.0
  0
VERTEX
  5
C10
330
C0E
100
AcDbEntity
  8
0
100
AcDbVertex
100
AcDb2dVertex
 10
31.63147086551683
 20
31.65258171097644
 30
0.0
  0
VERTEX
  5
C11
330
C0E
100
AcDbEntity
  8
0
100
AcDbVertex
100
AcDb2dVertex
 10
31.63422686551684
 20
31.65258171097644
 30
0.0
  0
SEQEND
  5
C12
330
C0E
100
AcDbEntity
  8
0
  0
POLYLINE
  5
C13
330
1F
100
AcDbEntity
  8
0
100
AcDb2dPolyline
 66
     1
 10
0.0
 20
0.0
 30
0.0
  0
VERTEX
  5
C14
330
C13
100
AcDbEntity
  8
0
100
AcDbVertex
100
AcDb2dVertex
 10
34.05543986551683
 20
31.45827871097644
 30
0.0
  0
VERTEX
  5
C15
330
C13
100
AcDbEntity
  8
0
100
AcDbVertex
100
AcDb2dVertex
 10
33.77914386551683
 20
31.45827871097644
 30
0.0
  0
VERTEX
  5
C16
330
C13
100
AcDbEntity
  8
0
100
AcDbVertex
100
AcDb2dVertex
 10
33.78258886551683
 20
31.45827871097644
 30
0.0
  0
SEQEND
  5
C17
330
C13
100
AcDbEntity
  8
0
  0
POLYLINE
  5
C18
330
1F
100
AcDbEntity
  8
0
100
AcDb2dPolyline
 66
     1
 10
0.0
 20
0.0
 30
0.0
  0
VERTEX
  5
C19
330
C18
100
AcDbEntity
  8
0
100
AcDbVertex
100
AcDb2dVertex
 10
34.24216386551683
 20
31.65878271097644
 30
0.0
  0
VERTEX
  5
C1A
330
C18
100
AcDbEntity
  8
0
100
AcDbVertex
100
AcDb2dVertex
 10
33.96173386551686
 20
31.66222771097644
 30
0.0
  0
VERTEX
  5
C1B
330
C18
100
AcDbEntity
  8
0
100
AcDbVertex
100
AcDb2dVertex
 10
33.96448986551684
 20
31.66222771097644
 30
0.0
  0
SEQEND
  5
C1C
330
C18
100
AcDbEntity
  8
0
  0
POLYLINE
  5
C1D
330
1F
100
AcDbEntity
  8
0
100
AcDb2dPolyline
 66
     1
 10
0.0
 20
0.0
 30
0.0
  0
VERTEX
  5
C1E
330
C1D
100
AcDbEntity
  8
0
100
AcDbVertex
100
AcDb2dVertex
 10
34.98906086551685
 20
31.44828771097644
 30
0.0
  0
VERTEX
  5
C1F
330
C1D
100
AcDbEntity
  8
0
100
AcDbVertex
100
AcDb2dVertex
 10
34.05543986551683
 20
31.45827871097644
 30
0.0
  0
VERTEX
  5
C20
330
C1D
100
AcDbEntity
  8
0
100
AcDbVertex
100
AcDb2dVertex
 10
34.05888486551686
 20
31.45827871097644
 30
0.0
  0
SEQEND
  5
C21
330
C1D
100
AcDbEntity
  8
0
  0
POLYLINE
  5
C22
330
1F
100
AcDbEntity
  8
0
100
AcDb2dPolyline
 66
     1
 10
0.0
 20
0.0
 30
0.0
  0
VERTEX
  5
C23
330
C22
100
AcDbEntity
  8
0
100
AcDbVertex
100
AcDb2dVertex
 10
35.17509586551685
 20
31.64672471097644
 30
0.0
  0
VERTEX
  5
C24
330
C22
100
AcDbEntity
  8
0
100
AcDbVertex
100
AcDb2dVertex
 10
34.84505586551686
 20
31.65016971097645
 30
0.0
  0
VERTEX
  5
C25
330
C22
100
AcDbEntity
  8
0
100
AcDbVertex
100
AcDb2dVertex
 10
34.84850086551686
 20
31.65016971097645
 30
0.0
  0
SEQEND
  5
C26
330
C22
100
AcDbEntity
  8
0
  0
POLYLINE
  5
C27
330
1F
100
AcDbEntity
  8
0
100
AcDb2dPolyline
 66
     1
 10
0.0
 20
0.0
 30
0.0
  0
VERTEX
  5
C28
330
C27
100
AcDbEntity
  8
0
100
AcDbVertex
100
AcDb2dVertex
 10
34.84505586551686
 20
31.65016971097645
 30
0.0
  0
VERTEX
  5
C29
330
C27
100
AcDbEntity
  8
0
100
AcDbVertex
100
AcDb2dVertex
 10
34.24216386551683
 20
31.65878271097644
 30
0.0
  0
VERTEX
  5
C2A
330
C27
100
AcDbEntity
  8
0
100
AcDbVertex
100
AcDb2dVertex
 10
34.24423086551684
 20
31.65878271097644
 30
0.0
  0
SEQEND
  5
C2B
330
C27
100
AcDbEntity
  8
0
  0
POLYLINE
  5
C2C
330
1F
100
AcDbEntity
  8
0
100
AcDb2dPolyline
 66
     1
 10
0.0
 20
0.0
 30
0.0
  0
VERTEX
  5
C2D
330
C2C
100
AcDbEntity
  8
0
100
AcDbVertex
100
AcDb2dVertex
 10
35.70701886551683
 20
31.44277571097644
 30
0.0
  0
VERTEX
  5
C2E
330
C2C
100
AcDbEntity
  8
0
100
AcDbVertex
100
AcDb2dVertex
 10
35.89236486551684
 20
31.44277571097644
 30
0.0
  0
VERTEX
  5
C2F
330
C2C
100
AcDbEntity
  8
0
100
AcDbVertex
100
AcDb2dVertex
 10
36.25203286551687
 20
31.44622071097644
 30
0.0
  0
VERTEX
  5
C30
330
C2C
100
AcDbEntity
  8
0
100
AcDbVertex
100
AcDb2dVertex
 10
36.25409986551685
 20
31.44622071097644
 30
0.0
  0
SEQEND
  5
C31
330
C2C
100
AcDbEntity
  8
0
  0
POLYLINE
  5
C32
330
1F
100
AcDbEntity
  8
0
100
AcDb2dPolyline
 66
     1
 10
0.0
 20
0.0
 30
0.0
  0
VERTEX
  5
C33
330
C32
100
AcDbEntity
  8
0
100
AcDbVertex
100
AcDb2dVertex
 10
35.70701886551683
 20
31.64327971097644
 30
0.0
  0
VERTEX
  5
C34
330
C32
100
AcDbEntity
  8
0
100
AcDbVertex
100
AcDb2dVertex
 10
35.88616386551684
 20
31.64327971097644
 30
0.0
  0
VERTEX
  5
C35
330
C32
100
AcDbEntity
  8
0
100
AcDbVertex
100
AcDb2dVertex
 10
36.23549686551684
 20
31.64672471097644
 30
0.0
  0
VERTEX
  5
C36
330
C32
100
AcDbEntity
  8
0
100
AcDbVertex
100
AcDb2dVertex
 10
36.23825286551684
 20
31.64672471097644
 30
0.0
  0
SEQEND
  5
C37
330
C32
100
AcDbEntity
  8
0
  0
POLYLINE
  5
C38
330
1F
100
AcDbEntity
  8
0
100
AcDb2dPolyline
 66
     1
 10
0.0
 20
0.0
 30
0.0
  0
VERTEX
  5
C39
330
C38
100
AcDbEntity
  8
0
100
AcDbVertex
100
AcDb2dVertex
 10
35.70701886551683
 20
31.64327971097644
 30
0.0
  0
VERTEX
  5
C3A
330
C38
100
AcDbEntity
  8
0
100
AcDbVertex
100
AcDb2dVertex
 10
35.52373986551683
 20
31.64327971097644
 30
0.0
  0
VERTEX
  5
C3B
330
C38
100
AcDbEntity
  8
0
100
AcDbVertex
100
AcDb2dVertex
 10
35.52787386551685
 20
31.64327971097644
 30
0.0
  0
SEQEND
  5
C3C
330
C38
100
AcDbEntity
  8
0
  0
POLYLINE
  5
C3D
330
1F
100
AcDbEntity
  8
0
100
AcDb2dPolyline
 66
     1
 10
0.0
 20
0.0
 30
0.0
  0
VERTEX
  5
C3E
330
C3D
100
AcDbEntity
  8
0
100
AcDbVertex
100
AcDb2dVertex
 10
35.70701886551683
 20
31.44277571097644
 30
0.0
  0
VERTEX
  5
C3F
330
C3D
100
AcDbEntity
  8
0
100
AcDbVertex
100
AcDb2dVertex
 10
35.33908286551684
 20
31.44622071097644
 30
0.0
  0
VERTEX
  5
C40
330
C3D
100
AcDbEntity
  8
0
100
AcDbVertex
100
AcDb2dVertex
 10
35.34183886551685
 20
31.44622071097644
 30
0.0
  0
SEQEND
  5
C41
330
C3D
100
AcDbEntity
  8
0
  0
POLYLINE
  5
C42
330
1F
100
AcDbEntity
  8
0
100
AcDb2dPolyline
 66
     1
 10
0.0
 20
0.0
 30
0.0
  0
VERTEX
  5
C43
330
C42
100
AcDbEntity
  8
0
100
AcDbVertex
100
AcDb2dVertex
 10
35.33908286551684
 20
31.44622071097644
 30
0.0
  0
VERTEX
  5
C44
330
C42
100
AcDbEntity
  8
0
100
AcDbVertex
100
AcDb2dVertex
 10
34.98906086551685
 20
31.44828771097644
 30
0.0
  0
VERTEX
  5
C45
330
C42
100
AcDbEntity
  8
0
100
AcDbVertex
100
AcDb2dVertex
 10
34.99181686551685
 20
31.44828771097644
 30
0.0
  0
SEQEND
  5
C46
330
C42
100
AcDbEntity
  8
0
  0
POLYLINE
  5
C47
330
1F
100
AcDbEntity
  8
0
100
AcDb2dPolyline
 66
     1
 10
0.0
 20
0.0
 30
0.0
  0
VERTEX
  5
C48
330
C47
100
AcDbEntity
  8
0
100
AcDbVertex
100
AcDb2dVertex
 10
35.52373986551683
 20
31.64327971097644
 30
0.0
  0
VERTEX
  5
C49
330
C47
100
AcDbEntity
  8
0
100
AcDbVertex
100
AcDb2dVertex
 10
35.17509586551685
 20
31.64672471097644
 30
0.0
  0
VERTEX
  5
C4A
330
C47
100
AcDbEntity
  8
0
100
AcDbVertex
100
AcDb2dVertex
 10
35.17785186551686
 20
31.64672471097644
 30
0.0
  0
SEQEND
  5
C4B
330
C47
100
AcDbEntity
  8
0
  0
POLYLINE
  5
C4C
330
1F
100
AcDbEntity
  8
0
100
AcDb2dPolyline
 66
     1
 10
0.0
 20
0.0
 30
0.0
  0
VERTEX
  5
C4D
330
C4C
100
AcDbEntity
  8
0
100
AcDbVertex
100
AcDb2dVertex
 10
33.96173386551686
 20
31.66222771097644
 30
0.0
  0
VERTEX
  5
C4E
330
C4C
100
AcDbEntity
  8
0
100
AcDbVertex
100
AcDb2dVertex
 10
32.64226186551685
 20
31.65637171097643
 30
0.0
  0
VERTEX
  5
C4F
330
C4C
100
AcDbEntity
  8
0
100
AcDbVertex
100
AcDb2dVertex
 10
32.64432886551686
 20
31.65637171097643
 30
0.0
  0
SEQEND
  5
C50
330
C4C
100
AcDbEntity
  8
0
  0
POLYLINE
  5
C51
330
1F
100
AcDbEntity
  8
0
100
AcDb2dPolyline
 66
     1
 10
0.0
 20
0.0
 30
0.0
  0
VERTEX
  5
C52
330
C51
100
AcDbEntity
  8
0
100
AcDbVertex
100
AcDb2dVertex
 10
37.02786886551684
 20
31.65637171097643
 30
0.0
  0
VERTEX
  5
C53
330
C51
100
AcDbEntity
  8
0
100
AcDbVertex
100
AcDb2dVertex
 10
37.31174386551683
 20
31.65878271097644
 30
0.0
  0
VERTEX
  5
C54
330
C51
100
AcDbEntity
  8
0
100
AcDbVertex
100
AcDb2dVertex
 10
37.44954786551685
 20
31.66222771097644
 30
0.0
  0
VERTEX
  5
C55
330
C51
100
AcDbEntity
  8
0
100
AcDbVertex
100
AcDb2dVertex
 10
37.45299286551685
 20
31.66222771097644
 30
0.0
  0
SEQEND
  5
C56
330
C51
100
AcDbEntity
  8
0
  0
POLYLINE
  5
C57
330
1F
100
AcDbEntity
  8
0
100
AcDb2dPolyline
 66
     1
 10
0.0
 20
0.0
 30
0.0
  0
VERTEX
  5
C58
330
C57
100
AcDbEntity
  8
0
100
AcDbVertex
100
AcDb2dVertex
 10
37.20839186551683
 20
31.45586671097644
 30
0.0
  0
VERTEX
  5
C59
330
C57
100
AcDbEntity
  8
0
100
AcDbVertex
100
AcDb2dVertex
 10
37.49846886551686
 20
31.45827871097644
 30
0.0
  0
VERTEX
  5
C5A
330
C57
100
AcDbEntity
  8
0
100
AcDbVertex
100
AcDb2dVertex
 10
37.63833886551683
 20
31.45827871097644
 30
0.0
  0
SEQEND
  5
C5B
330
C57
100
AcDbEntity
  8
0
  0
POLYLINE
  5
C5C
330
1F
100
AcDbEntity
  8
0
100
AcDb2dPolyline
 66
     1
 10
0.0
 20
0.0
 30
0.0
  0
VERTEX
  5
C5D
330
C5C
100
AcDbEntity
  8
0
100
AcDbVertex
100
AcDb2dVertex
 10
37.44954786551685
 20
31.66222771097644
 30
0.0
  0
VERTEX
  5
C5E
330
C5C
100
AcDbEntity
  8
0
100
AcDbVertex
100
AcDb2dVertex
 10
38.00076386551683
 20
31.65878271097644
 30
0.0
  0
VERTEX
  5
C5F
330
C5C
100
AcDbEntity
  8
0
100
AcDbVertex
100
AcDb2dVertex
 10
38.00283086551684
 20
31.65878271097644
 30
0.0
  0
SEQEND
  5
C60
330
C5C
100
AcDbEntity
  8
0
  0
POLYLINE
  5
C61
330
1F
100
AcDbEntity
  8
0
100
AcDb2dPolyline
 66
     1
 10
0.0
 20
0.0
 30
0.0
  0
VERTEX
  5
C62
330
C61
100
AcDbEntity
  8
0
100
AcDbVertex
100
AcDb2dVertex
 10
38.77315386551686
 20
31.65637171097643
 30
0.0
  0
VERTEX
  5
C63
330
C61
100
AcDbEntity
  8
0
100
AcDbVertex
100
AcDb2dVertex
 10
39.46286186551683
 20
31.65258171097644
 30
0.0
  0
VERTEX
  5
C64
330
C61
100
AcDbEntity
  8
0
100
AcDbVertex
100
AcDb2dVertex
 10
39.46630686551685
 20
31.65258171097644
 30
0.0
  0
SEQEND
  5
C65
330
C61
100
AcDbEntity
  8
0
  0
POLYLINE
  5
C66
330
1F
100
AcDbEntity
  8
0
100
AcDb2dPolyline
 66
     1
 10
0.0
 20
0.0
 30
0.0
  0
VERTEX
  5
C67
330
C66
100
AcDbEntity
  8
0
100
AcDbVertex
100
AcDb2dVertex
 10
38.00076386551683
 20
31.65878271097644
 30
0.0
  0
VERTEX
  5
C68
330
C66
100
AcDbEntity
  8
0
100
AcDbVertex
100
AcDb2dVertex
 10
38.77315386551686
 20
31.65637171097643
 30
0.0
  0
VERTEX
  5
C69
330
C66
100
AcDbEntity
  8
0
100
AcDbVertex
100
AcDb2dVertex
 10
38.77453186551685
 20
31.65637171097643
 30
0.0
  0
SEQEND
  5
C6A
330
C66
100
AcDbEntity
  8
0
  0
POLYLINE
  5
C6B
330
1F
100
AcDbEntity
  8
0
100
AcDb2dPolyline
 66
     1
 10
0.0
 20
0.0
 30
0.0
  0
VERTEX
  5
C6C
330
C6B
100
AcDbEntity
  8
0
100
AcDbVertex
100
AcDb2dVertex
 10
40.08022286551685
 20
31.65016971097645
 30
0.0
  0
VERTEX
  5
C6D
330
C6B
100
AcDbEntity
  8
0
100
AcDbVertex
100
AcDb2dVertex
 10
40.87672886551684
 20
31.64327971097644
 30
0.0
  0
VERTEX
  5
C6E
330
C6B
100
AcDbEntity
  8
0
100
AcDbVertex
100
AcDb2dVertex
 10
40.87879586551685
 20
31.64327971097644
 30
0.0
  0
SEQEND
  5
C6F
330
C6B
100
AcDbEntity
  8
0
  0
POLYLINE
  5
C70
330
1F
100
AcDbEntity
  8
0
100
AcDb2dPolyline
 66
     1
 10
0.0
 20
0.0
 30
0.0
  0
VERTEX
  5
C71
330
C70
100
AcDbEntity
  8
0
100
AcDbVertex
100
AcDb2dVertex
 10
41.52785186551684
 20
31.63432271097644
 30
0.0
  0
VERTEX
  5
C72
330
C70
100
AcDbEntity
  8
0
100
AcDbVertex
100
AcDb2dVertex
 10
42.04737286551685
 20
31.62743271097645
 30
0.0
  0
VERTEX
  5
C73
330
C70
100
AcDbEntity
  8
0
100
AcDbVertex
100
AcDb2dVertex
 10
42.05012886551685
 20
31.62743271097645
 30
0.0
  0
SEQEND
  5
C74
330
C70
100
AcDbEntity
  8
0
  0
POLYLINE
  5
C75
330
1F
100
AcDbEntity
  8
0
100
AcDb2dPolyline
 66
     1
 10
0.0
 20
0.0
 30
0.0
  0
VERTEX
  5
C76
330
C75
100
AcDbEntity
  8
0
100
AcDbVertex
100
AcDb2dVertex
 10
42.04737286551685
 20
31.62743271097645
 30
0.0
  0
VERTEX
  5
C77
330
C75
100
AcDbEntity
  8
0
100
AcDbVertex
100
AcDb2dVertex
 10
42.34847386551684
 20
31.62226471097644
 30
0.0
  0
VERTEX
  5
C78
330
C75
100
AcDbEntity
  8
0
100
AcDbVertex
100
AcDb2dVertex
 10
42.35191886551683
 20
31.62226471097644
 30
0.0
  0
SEQEND
  5
C79
330
C75
100
AcDbEntity
  8
0
  0
POLYLINE
  5
C7A
330
1F
100
AcDbEntity
  8
0
100
AcDb2dPolyline
 66
     1
 10
0.0
 20
0.0
 30
0.0
  0
VERTEX
  5
C7B
330
C7A
100
AcDbEntity
  8
0
100
AcDbVertex
100
AcDb2dVertex
 10
40.87672886551684
 20
31.64327971097644
 30
0.0
  0
VERTEX
  5
C7C
330
C7A
100
AcDbEntity
  8
0
100
AcDbVertex
100
AcDb2dVertex
 10
41.52785186551684
 20
31.63432271097644
 30
0.0
  0
VERTEX
  5
C7D
330
C7A
100
AcDbEntity
  8
0
100
AcDbVertex
100
AcDb2dVertex
 10
41.52991886551683
 20
31.63432271097644
 30
0.0
  0
SEQEND
  5
C7E
330
C7A
100
AcDbEntity
  8
0
  0
POLYLINE
  5
C7F
330
1F
100
AcDbEntity
  8
0
100
AcDb2dPolyline
 66
     1
 10
0.0
 20
0.0
 30
0.0
  0
VERTEX
  5
C80
330
C7F
100
AcDbEntity
  8
0
100
AcDbVertex
100
AcDb2dVertex
 10
39.46286186551683
 20
31.65258171097644
 30
0.0
  0
VERTEX
  5
C81
330
C7F
100
AcDbEntity
  8
0
100
AcDbVertex
100
AcDb2dVertex
 10
40.08022286551685
 20
31.65016971097645
 30
0.0
  0
VERTEX
  5
C82
330
C7F
100
AcDbEntity
  8
0
100
AcDbVertex
100
AcDb2dVertex
 10
40.08297886551685
 20
31.65016971097645
 30
0.0
  0
SEQEND
  5
C83
330
C7F
100
AcDbEntity
  8
0
  0
POLYLINE
  5
C84
330
1F
100
AcDbEntity
  8
0
100
AcDb2dPolyline
 66
     1
 10
0.0
 20
0.0
 30
0.0
  0
VERTEX
  5
C85
330
C84
100
AcDbEntity
  8
0
100
AcDbVertex
100
AcDb2dVertex
 10
42.19068886551684
 20
24.77996071097644
 30
0.0
  0
VERTEX
  5
C86
330
C84
100
AcDbEntity
  8
0
100
AcDbVertex
100
AcDb2dVertex
 10
42.44562586551686
 20
24.92189871097644
 30
0.0
  0
VERTEX
  5
C87
330
C84
100
AcDbEntity
  8
0
100
AcDbVertex
100
AcDb2dVertex
 10
42.44907086551683
 20
24.92189871097644
 30
0.0
  0
SEQEND
  5
C88
330
C84
100
AcDbEntity
  8
0
  0
POLYLINE
  5
C89
330
1F
100
AcDbEntity
  8
0
100
AcDb2dPolyline
 66
     1
 10
0.0
 20
0.0
 30
0.0
  0
VERTEX
  5
C8A
330
C89
100
AcDbEntity
  8
0
100
AcDbVertex
100
AcDb2dVertex
 10
41.92679386551683
 20
24.65180271097644
 30
0.0
  0
VERTEX
  5
C8B
330
C89
100
AcDbEntity
  8
0
100
AcDbVertex
100
AcDb2dVertex
 10
42.19068886551684
 20
24.77996071097644
 30
0.0
  0
VERTEX
  5
C8C
330
C89
100
AcDbEntity
  8
0
100
AcDbVertex
100
AcDb2dVertex
 10
42.19413386551685
 20
24.77996071097644
 30
0.0
  0
SEQEND
  5
C8D
330
C89
100
AcDbEntity
  8
0
  0
POLYLINE
  5
C8E
330
1F
100
AcDbEntity
  8
0
100
AcDb2dPolyline
 66
     1
 10
0.0
 20
0.0
 30
0.0
  0
VERTEX
  5
C8F
330
C8E
100
AcDbEntity
  8
0
100
AcDbVertex
100
AcDb2dVertex
 10
36.23549686551684
 20
31.64672471097644
 30
0.0
  0
VERTEX
  5
C90
330
C8E
100
AcDbEntity
  8
0
100
AcDbVertex
100
AcDb2dVertex
 10
37.02786886551684
 20
31.65637171097643
 30
0.0
  0
VERTEX
  5
C91
330
C8E
100
AcDbEntity
  8
0
100
AcDbVertex
100
AcDb2dVertex
 10
37.02924686551686
 20
31.65637171097643
 30
0.0
  0
SEQEND
  5
C92
330
C8E
100
AcDbEntity
  8
0
  0
POLYLINE
  5
C93
330
1F
100
AcDbEntity
  8
0
100
AcDb2dPolyline
 66
     1
 10
0.0
 20
0.0
 30
0.0
  0
VERTEX
  5
C94
330
C93
100
AcDbEntity
  8
0
100
AcDbVertex
100
AcDb2dVertex
 10
36.25203286551687
 20
31.44622071097644
 30
0.0
  0
VERTEX
  5
C95
330
C93
100
AcDbEntity
  8
0
100
AcDbVertex
100
AcDb2dVertex
 10
37.20839186551683
 20
31.45586671097644
 30
0.0
  0
VERTEX
  5
C96
330
C93
100
AcDbEntity
  8
0
100
AcDbVertex
100
AcDb2dVertex
 10
37.21183686551683
 20
31.45586671097644
 30
0.0
  0
SEQEND
  5
C97
330
C93
100
AcDbEntity
  8
0
  0
POLYLINE
  5
C98
330
1F
100
AcDbEntity
  8
0
100
AcDb2dPolyline
 66
     1
 10
0.0
 20
0.0
 30
0.0
  0
VERTEX
  5
C99
330
C98
100
AcDbEntity
  8
0
100
AcDbVertex
100
AcDb2dVertex
 10
34.84850086551686
 20
18.82580171097643
 30
0.0
  0
VERTEX
  5
C9A
330
C98
100
AcDbEntity
  8
0
100
AcDbVertex
100
AcDb2dVertex
 10
34.71827686551686
 20
19.01355971097643
 30
0.0
  0
VERTEX
  5
C9B
330
C98
100
AcDbEntity
  8
0
100
AcDbVertex
100
AcDb2dVertex
 10
34.50261386551685
 20
19.09348571097644
 30
0.0
  0
VERTEX
  5
C9C
330
C98
100
AcDbEntity
  8
0
100
AcDbVertex
100
AcDb2dVertex
 10
34.50468086551686
 20
19.09348571097644
 30
0.0
  0
SEQEND
  5
C9D
330
C98
100
AcDbEntity
  8
0
  0
POLYLINE
  5
C9E
330
1F
100
AcDbEntity
  8
0
100
AcDb2dPolyline
 66
     1
 10
0.0
 20
0.0
 30
0.0
  0
VERTEX
  5
C9F
330
C9E
100
AcDbEntity
  8
0
100
AcDbVertex
100
AcDb2dVertex
 10
35.85377986551686
 20
19.80489871097644
 30
0.0
  0
VERTEX
  5
CA0
330
C9E
100
AcDbEntity
  8
0
100
AcDbVertex
100
AcDb2dVertex
 10
36.56484786551684
 20
19.80145271097643
 30
0.0
  0
VERTEX
  5
CA1
330
C9E
100
AcDbEntity
  8
0
100
AcDbVertex
100
AcDb2dVertex
 10
36.56760386551685
 20
19.80145271097643
 30
0.0
  0
SEQEND
  5
CA2
330
C9E
100
AcDbEntity
  8
0
  0
POLYLINE
  5
CA3
330
1F
100
AcDbEntity
  8
0
100
AcDb2dPolyline
 66
     1
 10
0.0
 20
0.0
 30
0.0
  0
VERTEX
  5
CA4
330
CA3
100
AcDbEntity
  8
0
100
AcDbVertex
100
AcDb2dVertex
 10
36.56140286551684
 20
18.82580171097643
 30
0.0
  0
VERTEX
  5
CA5
330
CA3
100
AcDbEntity
  8
0
100
AcDbVertex
100
AcDb2dVertex
 10
34.84850086551686
 20
18.82580171097643
 30
0.0
  0
VERTEX
  5
CA6
330
CA3
100
AcDbEntity
  8
0
100
AcDbVertex
100
AcDb2dVertex
 10
34.85263486551685
 20
18.82580171097643
 30
0.0
  0
SEQEND
  5
CA7
330
CA3
100
AcDbEntity
  8
0
  0
POLYLINE
  5
CA8
330
1F
100
AcDbEntity
  8
0
100
AcDb2dPolyline
 66
     1
 10
0.0
 20
0.0
 30
0.0
  0
VERTEX
  5
CA9
330
CA8
100
AcDbEntity
  8
0
100
AcDbVertex
100
AcDb2dVertex
 10
32.97299086551684
 20
19.79628571097643
 30
0.0
  0
VERTEX
  5
CAA
330
CA8
100
AcDbEntity
  8
0
100
AcDbVertex
100
AcDb2dVertex
 10
35.85377986551686
 20
19.80489871097644
 30
0.0
  0
VERTEX
  5
CAB
330
CA8
100
AcDbEntity
  8
0
100
AcDbVertex
100
AcDb2dVertex
 10
35.85584686551684
 20
19.80489871097644
 30
0.0
  0
SEQEND
  5
CAC
330
CA8
100
AcDbEntity
  8
0
  0
POLYLINE
  5
CAD
330
1F
100
AcDbEntity
  8
0
100
AcDb2dPolyline
 66
     1
 10
0.0
 20
0.0
 30
0.0
  0
VERTEX
  5
CAE
330
CAD
100
AcDbEntity
  8
0
100
AcDbVertex
100
AcDb2dVertex
 10
32.17441786551683
 20
19.15101871097643
 30
0.0
  0
VERTEX
  5
CAF
330
CAD
100
AcDbEntity
  8
0
100
AcDbVertex
100
AcDb2dVertex
 10
34.50261386551685
 20
19.09348571097644
 30
0.0
  0
VERTEX
  5
CB0
330
CAD
100
AcDbEntity
  8
0
100
AcDbVertex
100
AcDb2dVertex
 10
34.50468086551686
 20
19.09348571097644
 30
0.0
  0
SEQEND
  5
CB1
330
CAD
100
AcDbEntity
  8
0
  0
POLYLINE
  5
CB2
330
1F
100
AcDbEntity
  8
0
100
AcDb2dPolyline
 66
     1
 10
0.0
 20
0.0
 30
0.0
  0
VERTEX
  5
CB3
330
CB2
100
AcDbEntity
  8
0
100
AcDbVertex
100
AcDb2dVertex
 10
36.90866786551683
 20
19.09348571097644
 30
0.0
  0
VERTEX
  5
CB4
330
CB2
100
AcDbEntity
  8
0
100
AcDbVertex
100
AcDb2dVertex
 10
38.82689686551686
 20
19.15101871097643
 30
0.0
  0
VERTEX
  5
CB5
330
CB2
100
AcDbEntity
  8
0
100
AcDbVertex
100
AcDb2dVertex
 10
38.83034286551686
 20
19.15101871097643
 30
0.0
  0
SEQEND
  5
CB6
330
CB2
100
AcDbEntity
  8
0
  0
SPLINE
  5
CB7
330
1F
100
AcDbEntity
  8
0
100
AcDbSpline
210
0.0
220
0.0
230
1.0
 70
     8
 71
     3
 72
    17
 73
    13
 74
     0
 42
0.0000000001
 43
0.0000000001
 40
0.0
 40
0.0
 40
0.0
 40
0.0
 40
1.0
 40
1.0
 40
1.0
 40
2.0
 40
2.0
 40
2.0
 40
3.0
 40
3.0
 40
3.0
 40
4.0
 40
4.0
 40
4.0
 40
4.0
 10
40.53084153044738
 20
19.54789418146254
 30
0.0
 10
40.53084153044738
 20
19.54789418146254
 30
0.0
 10
40.87121696447517
 20
19.68121937677505
 30
0.0
 10
40.87121696447517
 20
19.68121937677505
 30
0.0
 10
41.63947325787797
 20
20.14424021010837
 30
0.0
 10
42.28784022836402
 20
20.86564320490005
 30
0.0
 10
42.4166867995446
 20
21.77962703736533
 30
0.0
 10
42.4166867995446
 20
21.77962703736533
 30
0.0
 10
42.44011344885016
 20
21.9153637995181
 30
0.0
 10
42.44011344885016
 20
21.9153637995181
 30
0.0
 10
42.44011344885016
 20
21.9153637995181
 30
0.0
 10
42.44218050614179
 20
21.9153637995181
 30
0.0
 10
42.44218050614179
 20
21.9153637995181
 30
0.0
  0
SPLINE
  5
CB8
330
1F
100
AcDbEntity
  8
0
100
AcDbSpline
210
0.0
220
0.0
230
1.0
 70
     8
 71
     3
 72
    17
 73
    13
 74
     0
 42
0.0000000001
 43
0.0000000001
 40
0.0
 40
0.0
 40
0.0
 40
0.0
 40
1.0
 40
1.0
 40
1.0
 40
2.0
 40
2.0
 40
2.0
 40
3.0
 40
3.0
 40
3.0
 40
4.0
 40
4.0
 40
4.0
 40
4.0
 10
39.24995502871124
 20
19.77182538805976
 30
0.0
 10
39.24995502871124
 20
19.77182538805976
 30
0.0
 10
39.47457525440575
 20
19.78319420316392
 30
0.0
 10
39.47457525440575
 20
19.78319420316392
 30
0.0
 10
40.72238883947517
 20
19.91341881253893
 30
0.0
 10
41.7352469123918
 20
20.80294246705283
 30
0.0
 10
42.02325689503072
 20
22.02526234552504
 30
0.0
 10
42.02325689503072
 20
22.02526234552504
 30
0.0
 10
42.06597607905848
 20
22.24678198528198
 30
0.0
 10
42.06597607905848
 20
22.24678198528198
 30
0.0
 10
42.06597607905848
 20
22.24678198528198
 30
0.0
 10
42.06873215544738
 20
22.24678198528198
 30
0.0
 10
42.06873215544738
 20
22.24678198528198
 30
0.0
  0
POLYLINE
  5
CB9
330
1F
100
AcDbEntity
  8
0
100
AcDb2dPolyline
 66
     1
 10
0.0
 20
0.0
 30
0.0
  0
VERTEX
  5
CBA
330
CB9
100
AcDbEntity
  8
0
100
AcDbVertex
100
AcDb2dVertex
 10
36.90866786551683
 20
19.09348571097644
 30
0.0
  0
VERTEX
  5
CBB
330
CB9
100
AcDbEntity
  8
0
100
AcDbVertex
100
AcDb2dVertex
 10
34.50261386551685
 20
19.09348571097644
 30
0.0
  0
VERTEX
  5
CBC
330
CB9
100
AcDbEntity
  8
0
100
AcDbVertex
100
AcDb2dVertex
 10
34.50468086551686
 20
19.09348571097644
 30
0.0
  0
SEQEND
  5
CBD
330
CB9
100
AcDbEntity
  8
0
  0
LINE
  5
CBE
330
1F
100
AcDbEntity
  8
0
100
AcDbLine
 10
36.56484786551684
 20
19.80145271097643
 30
0.0
 11
39.42014286551685
 21
19.78319371097643
 31
0.0
  0
POLYLINE
  5
CBF
330
1F
100
AcDbEntity
  8
0
100
AcDb2dPolyline
 66
     1
 10
0.0
 20
0.0
 30
0.0
  0
VERTEX
  5
CC0
330
CBF
100
AcDbEntity
  8
0
100
AcDbVertex
100
AcDb2dVertex
 10
36.90866786551683
 20
19.09348571097644
 30
0.0
  0
VERTEX
  5
CC1
330
CBF
100
AcDbEntity
  8
0
100
AcDbVertex
100
AcDb2dVertex
 10
36.69231586551684
 20
19.01390471097644
 30
0.0
  0
VERTEX
  5
CC2
330
CBF
100
AcDbEntity
  8
0
100
AcDbVertex
100
AcDb2dVertex
 10
36.56140286551684
 20
18.82614671097644
 30
0.0
  0
VERTEX
  5
CC3
330
CBF
100
AcDbEntity
  8
0
100
AcDbVertex
100
AcDb2dVertex
 10
36.56484786551684
 20
18.82614671097644
 30
0.0
  0
SEQEND
  5
CC4
330
CBF
100
AcDbEntity
  8
0
  0
POLYLINE
  5
CC5
330
1F
100
AcDbEntity
  8
0
100
AcDb2dPolyline
 66
     1
 10
0.0
 20
0.0
 30
0.0
  0
VERTEX
  5
CC6
330
CC5
100
AcDbEntity
  8
0
100
AcDbVertex
100
AcDb2dVertex
 10
42.19068886551684
 20
24.78616171097643
 30
0.0
  0
VERTEX
  5
CC7
330
CC5
100
AcDbEntity
  8
0
100
AcDbVertex
100
AcDb2dVertex
 10
42.18724386551684
 20
24.46817971097644
 30
0.0
  0
VERTEX
  5
CC8
330
CC5
100
AcDbEntity
  8
0
100
AcDbVertex
100
AcDb2dVertex
 10
42.16863986551683
 20
23.83118171097644
 30
0.0
  0
VERTEX
  5
CC9
330
CC5
100
AcDbEntity
  8
0
100
AcDbVertex
100
AcDb2dVertex
 10
42.14590186551686
 20
23.20176271097643
 30
0.0
  0
VERTEX
  5
CCA
330
CC5
100
AcDbEntity
  8
0
100
AcDbVertex
100
AcDb2dVertex
 10
42.08940286551686
 20
22.26676371097644
 30
0.0
  0
VERTEX
  5
CCB
330
CC5
100
AcDbEntity
  8
0
100
AcDbVertex
100
AcDb2dVertex
 10
42.06873186551686
 20
21.95567171097644
 30
0.0
  0
VERTEX
  5
CCC
330
CC5
100
AcDbEntity
  8
0
100
AcDbVertex
100
AcDb2dVertex
 10
42.07079886551684
 20
21.95567171097644
 30
0.0
  0
SEQEND
  5
CCD
330
CC5
100
AcDbEntity
  8
0
  0
SPLINE
  5
CCE
330
1F
100
AcDbEntity
  8
0
100
AcDbSpline
210
0.0
220
0.0
230
1.0
 70
     8
 71
     3
 72
    14
 73
    10
 74
     0
 42
0.0000000001
 43
0.0000000001
 40
0.0
 40
0.0
 40
0.0
 40
0.0
 40
1.0
 40
1.0
 40
1.0
 40
2.0
 40
2.0
 40
2.0
 40
3.0
 40
3.0
 40
3.0
 40
3.0
 10
42.63166075787796
 20
31.61606366930977
 30
0.0
 10
42.63166075787796
 20
31.61606366930977
 30
0.0
 10
42.88659782385017
 20
31.61020700698337
 30
0.0
 10
42.88659782385017
 20
31.61020700698337
 30
0.0
 10
43.21939404780849
 20
31.5984936823306
 30
0.0
 10
43.56597065371127
 20
31.58850290542087
 30
0.0
 10
43.89532178218348
 20
31.53407039674032
 30
0.0
 10
43.89532178218348
 20
31.53407039674032
 30
0.0
 10
43.90014491586401
 20
31.53407039674032
 30
0.0
 10
43.90014491586401
 20
31.53407039674032
 30
0.0
  0
SPLINE
  5
CCF
330
1F
100
AcDbEntity
  8
0
100
AcDbSpline
210
0.0
220
0.0
230
1.0
 70
     8
 71
     3
 72
    17
 73
    13
 74
     0
 42
0.0000000001
 43
0.0000000001
 40
0.0
 40
0.0
 40
0.0
 40
0.0
 40
1.0
 40
1.0
 40
1.0
 40
2.0
 40
2.0
 40
2.0
 40
3.0
 40
3.0
 40
3.0
 40
4.0
 40
4.0
 40
4.0
 40
4.0
 10
43.65898823183627
 20
30.40959123007366
 30
0.0
 10
43.65898823183627
 20
30.40959123007366
 30
0.0
 10
43.66863449919742
 20
30.50088626045559
 30
0.0
 10
43.66863449919742
 20
30.50088626045559
 30
0.0
 10
43.6879270339196
 20
30.63627851305977
 30
0.0
 10
43.69757330128073
 20
30.7799389948306
 30
0.0
 10
43.72926817975295
 20
30.9132641901431
 30
0.0
 10
43.72926817975295
 20
30.9132641901431
 30
0.0
 10
43.73409131343348
 20
30.9411694635806
 30
0.0
 10
43.73409131343348
 20
30.9411694635806
 30
0.0
 10
43.73409131343348
 20
30.9411694635806
 30
0.0
 10
43.73891444711401
 20
30.9411694635806
 30
0.0
 10
43.73891444711401
 20
30.9411694635806
 30
0.0
  0
POLYLINE
  5
CD0
330
1F
100
AcDbEntity
  8
0
100
AcDb2dPolyline
 66
     1
 10
0.0
 20
0.0
 30
0.0
  0
VERTEX
  5
CD1
330
CD0
100
AcDbEntity
  8
0
100
AcDbVertex
100
AcDb2dVertex
 10
43.56252586551685
 20
30.41785971097643
 30
0.0
  0
VERTEX
  5
CD2
330
CD0
100
AcDbEntity
  8
0
100
AcDbVertex
100
AcDb2dVertex
 10
43.58250686551684
 20
30.59803771097644
 30
0.0
  0
VERTEX
  5
CD3
330
CD0
100
AcDbEntity
  8
0
100
AcDbVertex
100
AcDb2dVertex
 10
43.58664086551684
 20
30.59803771097644
 30
0.0
  0
SEQEND
  5
CD4
330
CD0
100
AcDbEntity
  8
0
  0
POLYLINE
  5
CD5
330
1F
100
AcDbEntity
  8
0
100
AcDb2dPolyline
 66
     1
 10
0.0
 20
0.0
 30
0.0
  0
VERTEX
  5
CD6
330
CD5
100
AcDbEntity
  8
0
100
AcDbVertex
100
AcDb2dVertex
 10
43.58250686551684
 20
30.59803771097644
 30
0.0
  0
VERTEX
  5
CD7
330
CD5
100
AcDbEntity
  8
0
100
AcDbVertex
100
AcDb2dVertex
 10
43.59559886551685
 20
30.68588771097643
 30
0.0
  0
VERTEX
  5
CD8
330
CD5
100
AcDbEntity
  8
0
100
AcDbVertex
100
AcDb2dVertex
 10
43.60455586551686
 20
30.76753671097643
 30
0.0
  0
VERTEX
  5
CD9
330
CD5
100
AcDbEntity
  8
0
100
AcDbVertex
100
AcDb2dVertex
 10
43.61902486551684
 20
30.85090771097644
 30
0.0
  0
VERTEX
  5
CDA
330
CD5
100
AcDbEntity
  8
0
100
AcDbVertex
100
AcDb2dVertex
 10
43.63073886551683
 20
30.92911171097644
 30
0.0
  0
VERTEX
  5
CDB
330
CD5
100
AcDbEntity
  8
0
100
AcDbVertex
100
AcDb2dVertex
 10
43.63487286551685
 20
30.94116971097644
 30
0.0
  0
VERTEX
  5
CDC
330
CD5
100
AcDbEntity
  8
0
100
AcDbVertex
100
AcDb2dVertex
 10
43.63762886551685
 20
30.94116971097644
 30
0.0
  0
SEQEND
  5
CDD
330
CD5
100
AcDbEntity
  8
0
  0
POLYLINE
  5
CDE
330
1F
100
AcDbEntity
  8
0
100
AcDb2dPolyline
 66
     1
 10
0.0
 20
0.0
 30
0.0
  0
VERTEX
  5
CDF
330
CDE
100
AcDbEntity
  8
0
100
AcDbVertex
100
AcDb2dVertex
 10
43.53703186551686
 20
30.21769971097644
 30
0.0
  0
VERTEX
  5
CE0
330
CDE
100
AcDbEntity
  8
0
100
AcDbVertex
100
AcDb2dVertex
 10
43.56252586551685
 20
30.41785971097643
 30
0.0
  0
VERTEX
  5
CE1
330
CDE
100
AcDbEntity
  8
0
100
AcDbVertex
100
AcDb2dVertex
 10
43.56528186551685
 20
30.41785971097643
 30
0.0
  0
SEQEND
  5
CE2
330
CDE
100
AcDbEntity
  8
0
  0
POLYLINE
  5
CE3
330
1F
100
AcDbEntity
  8
0
100
AcDb2dPolyline
 66
     1
 10
0.0
 20
0.0
 30
0.0
  0
VERTEX
  5
CE4
330
CE3
100
AcDbEntity
  8
0
100
AcDbVertex
100
AcDb2dVertex
 10
43.62591486551685
 20
30.16257771097644
 30
0.0
  0
VERTEX
  5
CE5
330
CE3
100
AcDbEntity
  8
0
100
AcDbVertex
100
AcDb2dVertex
 10
43.65898786551684
 20
30.40959171097644
 30
0.0
  0
VERTEX
  5
CE6
330
CE3
100
AcDbEntity
  8
0
100
AcDbVertex
100
AcDb2dVertex
 10
43.66243286551685
 20
30.40959171097644
 30
0.0
  0
SEQEND
  5
CE7
330
CE3
100
AcDbEntity
  8
0
  0
POLYLINE
  5
CE8
330
1F
100
AcDbEntity
  8
0
100
AcDb2dPolyline
 66
     1
 10
0.0
 20
0.0
 30
0.0
  0
VERTEX
  5
CE9
330
CE8
100
AcDbEntity
  8
0
100
AcDbVertex
100
AcDb2dVertex
 10
43.51429386551683
 20
30.03510971097643
 30
0.0
  0
VERTEX
  5
CEA
330
CE8
100
AcDbEntity
  8
0
100
AcDbVertex
100
AcDb2dVertex
 10
43.53703186551686
 20
30.21769971097644
 30
0.0
  0
VERTEX
  5
CEB
330
CE8
100
AcDbEntity
  8
0
100
AcDbVertex
100
AcDb2dVertex
 10
43.54047686551683
 20
30.21769971097644
 30
0.0
  0
SEQEND
  5
CEC
330
CE8
100
AcDbEntity
  8
0
  0
POLYLINE
  5
CED
330
1F
100
AcDbEntity
  8
0
100
AcDb2dPolyline
 66
     1
 10
0.0
 20
0.0
 30
0.0
  0
VERTEX
  5
CEE
330
CED
100
AcDbEntity
  8
0
100
AcDbVertex
100
AcDb2dVertex
 10
43.60455586551686
 20
29.98308871097643
 30
0.0
  0
VERTEX
  5
CEF
330
CED
100
AcDbEntity
  8
0
100
AcDbVertex
100
AcDb2dVertex
 10
43.62591486551685
 20
30.16257771097644
 30
0.0
  0
VERTEX
  5
CF0
330
CED
100
AcDbEntity
  8
0
100
AcDbVertex
100
AcDb2dVertex
 10
43.62936086551684
 20
30.16257771097644
 30
0.0
  0
SEQEND
  5
CF1
330
CED
100
AcDbEntity
  8
0
  0
SPLINE
  5
CF2
330
1F
100
AcDbEntity
  8
0
100
AcDbSpline
210
0.0
220
0.0
230
1.0
 70
     8
 71
     3
 72
    17
 73
    13
 74
     0
 42
0.0000000001
 43
0.0000000001
 40
0.0
 40
0.0
 40
0.0
 40
0.0
 40
1.0
 40
1.0
 40
1.0
 40
2.0
 40
2.0
 40
2.0
 40
3.0
 40
3.0
 40
3.0
 40
4.0
 40
4.0
 40
4.0
 40
4.0
 10
43.65898823183627
 20
30.40959123007366
 30
0.0
 10
43.65898823183627
 20
30.40959123007366
 30
0.0
 10
43.6507200026696
 20
30.41200279691394
 30
0.0
 10
43.6507200026696
 20
30.41200279691394
 30
0.0
 10
43.62315923878074
 20
30.41992651653198
 30
0.0
 10
43.5955984748918
 20
30.42543866930977
 30
0.0
 10
43.56803771100294
 20
30.42061553562921
 30
0.0
 10
43.56803771100294
 20
30.42061553562921
 30
0.0
 10
43.56252555822516
 20
30.41785945924032
 30
0.0
 10
43.56252555822516
 20
30.41785945924032
 30
0.0
 10
43.56252555822516
 20
30.41785945924032
 30
0.0
 10
43.56528163461402
 20
30.41785945924032
 30
0.0
 10
43.56528163461402
 20
30.41785945924032
 30
0.0
  0
POLYLINE
  5
CF3
330
1F
100
AcDbEntity
  8
0
100
AcDb2dPolyline
 66
     1
 10
0.0
 20
0.0
 30
0.0
  0
VERTEX
  5
CF4
330
CF3
100
AcDbEntity
  8
0
100
AcDbVertex
100
AcDb2dVertex
 10
44.69940686551686
 20
31.45827871097644
 30
0.0
  0
VERTEX
  5
CF5
330
CF3
100
AcDbEntity
  8
0
100
AcDbVertex
100
AcDb2dVertex
 10
44.66288886551683
 20
31.45827871097644
 30
0.0
  0
VERTEX
  5
CF6
330
CF3
100
AcDbEntity
  8
0
100
AcDbVertex
100
AcDb2dVertex
 10
44.62085886551685
 20
31.46103471097643
 30
0.0
  0
VERTEX
  5
CF7
330
CF3
100
AcDbEntity
  8
0
100
AcDbVertex
100
AcDb2dVertex
 10
44.62361486551682
 20
31.46103471097643
 30
0.0
  0
SEQEND
  5
CF8
330
CF3
100
AcDbEntity
  8
0
  0
LINE
  5
CF9
330
1F
100
AcDbEntity
  8
0
100
AcDbLine
 10
44.64428586551685
 20
31.45827871097644
 30
0.0
 11
44.66564486551684
 21
31.45827871097644
 31
0.0
  0
POLYLINE
  5
CFA
330
1F
100
AcDbEntity
  8
0
100
AcDb2dPolyline
 66
     1
 10
0.0
 20
0.0
 30
0.0
  0
VERTEX
  5
CFB
330
CFA
100
AcDbEntity
  8
0
100
AcDbVertex
100
AcDb2dVertex
 10
44.51681686551682
 20
31.45827871097644
 30
0.0
  0
VERTEX
  5
CFC
330
CFA
100
AcDbEntity
  8
0
100
AcDbVertex
100
AcDb2dVertex
 10
44.49545786551687
 20
31.45827871097644
 30
0.0
  0
VERTEX
  5
CFD
330
CFA
100
AcDbEntity
  8
0
100
AcDbVertex
100
AcDb2dVertex
 10
44.48925586551687
 20
31.46103471097643
 30
0.0
  0
VERTEX
  5
CFE
330
CFA
100
AcDbEntity
  8
0
100
AcDbVertex
100
AcDb2dVertex
 10
44.47065286551685
 20
31.46103471097643
 30
0.0
  0
VERTEX
  5
CFF
330
CFA
100
AcDbEntity
  8
0
100
AcDbVertex
100
AcDb2dVertex
 10
44.46514086551684
 20
31.46447971097644
 30
0.0
  0
VERTEX
  5
D00
330
CFA
100
AcDbEntity
  8
0
100
AcDbVertex
100
AcDb2dVertex
 10
44.45962886551686
 20
31.46447971097644
 30
0.0
  0
VERTEX
  5
D01
330
CFA
100
AcDbEntity
  8
0
100
AcDbVertex
100
AcDb2dVertex
 10
44.46169586551684
 20
31.46447971097644
 30
0.0
  0
SEQEND
  5
D02
330
CFA
100
AcDbEntity
  8
0
  0
LINE
  5
D03
330
1F
100
AcDbEntity
  8
0
100
AcDbLine
 10
44.61052386551685
 20
31.45827871097644
 30
0.0
 11
44.64704186551685
 21
31.45827871097644
 31
0.0
  0
POLYLINE
  5
D04
330
1F
100
AcDbEntity
  8
0
100
AcDb2dPolyline
 66
     1
 10
0.0
 20
0.0
 30
0.0
  0
VERTEX
  5
D05
330
D04
100
AcDbEntity
  8
0
100
AcDbVertex
100
AcDb2dVertex
 10
44.58089586551685
 20
31.46103471097643
 30
0.0
  0
VERTEX
  5
D06
330
D04
100
AcDbEntity
  8
0
100
AcDbVertex
100
AcDb2dVertex
 10
44.61052386551685
 20
31.45827871097644
 30
0.0
  0
VERTEX
  5
D07
330
D04
100
AcDbEntity
  8
0
100
AcDbVertex
100
AcDb2dVertex
 10
44.61396886551685
 20
31.45827871097644
 30
0.0
  0
SEQEND
  5
D08
330
D04
100
AcDbEntity
  8
0
  0
LINE
  5
D09
330
1F
100
AcDbEntity
  8
0
100
AcDbLine
 10
44.54713386551685
 20
31.46103471097643
 30
0.0
 11
44.58365186551685
 21
31.46103471097643
 31
0.0
  0
POLYLINE
  5
D0A
330
1F
100
AcDbEntity
  8
0
100
AcDb2dPolyline
 66
     1
 10
0.0
 20
0.0
 30
0.0
  0
VERTEX
  5
D0B
330
D0A
100
AcDbEntity
  8
0
100
AcDbVertex
100
AcDb2dVertex
 10
44.62085886551685
 20
31.46103471097643
 30
0.0
  0
VERTEX
  5
D0C
330
D0A
100
AcDbEntity
  8
0
100
AcDbVertex
100
AcDb2dVertex
 10
44.57469486551684
 20
31.46103471097643
 30
0.0
  0
VERTEX
  5
D0D
330
D0A
100
AcDbEntity
  8
0
100
AcDbVertex
100
AcDb2dVertex
 10
44.52577386551683
 20
31.46447971097644
 30
0.0
  0
VERTEX
  5
D0E
330
D0A
100
AcDbEntity
  8
0
100
AcDbVertex
100
AcDb2dVertex
 10
44.47478686551685
 20
31.46792471097644
 30
0.0
  0
VERTEX
  5
D0F
330
D0A
100
AcDbEntity
  8
0
100
AcDbVertex
100
AcDb2dVertex
 10
44.39554986551684
 20
31.47412571097644
 30
0.0
  0
VERTEX
  5
D10
330
D0A
100
AcDbEntity
  8
0
100
AcDbVertex
100
AcDb2dVertex
 10
44.39830586551685
 20
31.47412571097644
 30
0.0
  0
SEQEND
  5
D11
330
D0A
100
AcDbEntity
  8
0
  0
POLYLINE
  5
D12
330
1F
100
AcDbEntity
  8
0
100
AcDb2dPolyline
 66
     1
 10
0.0
 20
0.0
 30
0.0
  0
VERTEX
  5
D13
330
D12
100
AcDbEntity
  8
0
100
AcDbVertex
100
AcDb2dVertex
 10
44.50165886551684
 20
31.46447971097644
 30
0.0
  0
VERTEX
  5
D14
330
D12
100
AcDbEntity
  8
0
100
AcDbVertex
100
AcDb2dVertex
 10
44.54713386551685
 20
31.46103471097643
 30
0.0
  0
VERTEX
  5
D15
330
D12
100
AcDbEntity
  8
0
100
AcDbVertex
100
AcDb2dVertex
 10
44.54988986551683
 20
31.46103471097643
 30
0.0
  0
SEQEND
  5
D16
330
D12
100
AcDbEntity
  8
0
  0
POLYLINE
  5
D17
330
1F
100
AcDbEntity
  8
0
100
AcDb2dPolyline
 66
     1
 10
0.0
 20
0.0
 30
0.0
  0
VERTEX
  5
D18
330
D17
100
AcDbEntity
  8
0
100
AcDbVertex
100
AcDb2dVertex
 10
44.42862286551684
 20
31.46792471097644
 30
0.0
  0
VERTEX
  5
D19
330
D17
100
AcDbEntity
  8
0
100
AcDbVertex
100
AcDb2dVertex
 10
44.44171386551684
 20
31.46447971097644
 30
0.0
  0
VERTEX
  5
D1A
330
D17
100
AcDbEntity
  8
0
100
AcDbVertex
100
AcDb2dVertex
 10
44.50510386551684
 20
31.46447971097644
 30
0.0
  0
SEQEND
  5
D1B
330
D17
100
AcDbEntity
  8
0
  0
LINE
  5
D1C
330
1F
100
AcDbEntity
  8
0
100
AcDbLine
 10
44.38934886551684
 20
31.47412571097644
 30
0.0
 11
44.39830586551685
 21
31.47412571097644
 31
0.0
  0
POLYLINE
  5
D1D
330
1F
100
AcDbEntity
  8
0
100
AcDb2dPolyline
 66
     1
 10
0.0
 20
0.0
 30
0.0
  0
VERTEX
  5
D1E
330
D1D
100
AcDbEntity
  8
0
100
AcDbVertex
100
AcDb2dVertex
 10
44.33078186551685
 20
31.47412571097644
 30
0.0
  0
VERTEX
  5
D1F
330
D1D
100
AcDbEntity
  8
0
100
AcDbVertex
100
AcDb2dVertex
 10
44.34387286551685
 20
31.47068071097644
 30
0.0
  0
VERTEX
  5
D20
330
D1D
100
AcDbEntity
  8
0
100
AcDbVertex
100
AcDb2dVertex
 10
44.37074486551686
 20
31.47068071097644
 30
0.0
  0
VERTEX
  5
D21
330
D1D
100
AcDbEntity
  8
0
100
AcDbVertex
100
AcDb2dVertex
 10
44.38659286551683
 20
31.46792471097644
 30
0.0
  0
VERTEX
  5
D22
330
D1D
100
AcDbEntity
  8
0
100
AcDbVertex
100
AcDb2dVertex
 10
44.43137886551684
 20
31.46792471097644
 30
0.0
  0
SEQEND
  5
D23
330
D1D
100
AcDbEntity
  8
0
  0
POLYLINE
  5
D24
330
1F
100
AcDbEntity
  8
0
100
AcDb2dPolyline
 66
     1
 10
0.0
 20
0.0
 30
0.0
  0
VERTEX
  5
D25
330
D24
100
AcDbEntity
  8
0
100
AcDbVertex
100
AcDb2dVertex
 10
44.39554986551684
 20
31.47412571097644
 30
0.0
  0
VERTEX
  5
D26
330
D24
100
AcDbEntity
  8
0
100
AcDbVertex
100
AcDb2dVertex
 10
44.40519586551684
 20
31.47412571097644
 30
0.0
  0
VERTEX
  5
D27
330
D24
100
AcDbEntity
  8
0
100
AcDbVertex
100
AcDb2dVertex
 10
44.45962886551686
 20
31.46447971097644
 30
0.0
  0
VERTEX
  5
D28
330
D24
100
AcDbEntity
  8
0
100
AcDbVertex
100
AcDb2dVertex
 10
44.46169586551684
 20
31.46447971097644
 30
0.0
  0
SEQEND
  5
D29
330
D24
100
AcDbEntity
  8
0
  0
SPLINE
  5
D2A
330
1F
100
AcDbEntity
  8
0
100
AcDbSpline
210
0.0
220
0.0
230
1.0
 70
     8
 71
     3
 72
    14
 73
    10
 74
     0
 42
0.0000000001
 43
0.0000000001
 40
0.0
 40
0.0
 40
0.0
 40
0.0
 40
1.0
 40
1.0
 40
1.0
 40
2.0
 40
2.0
 40
2.0
 40
3.0
 40
3.0
 40
3.0
 40
3.0
 10
44.20331331864182
 20
31.48790611722644
 30
0.0
 10
44.20331331864182
 20
31.48790611722644
 30
0.0
 10
44.22536192975295
 20
31.48618356948337
 30
0.0
 10
44.22536192975295
 20
31.48618356948337
 30
0.0
 10
44.25912386551684
 20
31.47791534031672
 30
0.0
 10
44.28117247662794
 20
31.47791534031672
 30
0.0
 10
44.31355637419739
 20
31.47412573528198
 30
0.0
 10
44.31355637419739
 20
31.47412573528198
 30
0.0
 10
44.33422694711402
 20
31.47412573528198
 30
0.0
 10
44.33422694711402
 20
31.47412573528198
 30
0.0
  0
POLYLINE
  5
D2B
330
1F
100
AcDbEntity
  8
0
100
AcDb2dPolyline
 66
     1
 10
0.0
 20
0.0
 30
0.0
  0
VERTEX
  5
D2C
330
D2B
100
AcDbEntity
  8
0
100
AcDbVertex
100
AcDb2dVertex
 10
44.13372286551686
 20
31.49755271097644
 30
0.0
  0
VERTEX
  5
D2D
330
D2B
100
AcDbEntity
  8
0
100
AcDbVertex
100
AcDb2dVertex
 10
44.15783786551682
 20
31.49514071097644
 30
0.0
  0
VERTEX
  5
D2E
330
D2B
100
AcDbEntity
  8
0
100
AcDbVertex
100
AcDb2dVertex
 10
44.17988686551683
 20
31.49135171097644
 30
0.0
  0
VERTEX
  5
D2F
330
D2B
100
AcDbEntity
  8
0
100
AcDbVertex
100
AcDb2dVertex
 10
44.20331286551683
 20
31.48790571097644
 30
0.0
  0
VERTEX
  5
D30
330
D2B
100
AcDbEntity
  8
0
100
AcDbVertex
100
AcDb2dVertex
 10
44.20675886551686
 20
31.48790571097644
 30
0.0
  0
SEQEND
  5
D31
330
D2B
100
AcDbEntity
  8
0
  0
POLYLINE
  5
D32
330
1F
100
AcDbEntity
  8
0
100
AcDb2dPolyline
 66
     1
 10
0.0
 20
0.0
 30
0.0
  0
VERTEX
  5
D33
330
D32
100
AcDbEntity
  8
0
100
AcDbVertex
100
AcDb2dVertex
 10
44.08204586551685
 20
31.50719871097643
 30
0.0
  0
VERTEX
  5
D34
330
D32
100
AcDbEntity
  8
0
100
AcDbVertex
100
AcDb2dVertex
 10
44.13372286551686
 20
31.49755271097644
 30
0.0
  0
VERTEX
  5
D35
330
D32
100
AcDbEntity
  8
0
100
AcDbVertex
100
AcDb2dVertex
 10
44.13647886551686
 20
31.49755271097644
 30
0.0
  0
SEQEND
  5
D36
330
D32
100
AcDbEntity
  8
0
  0
POLYLINE
  5
D37
330
1F
100
AcDbEntity
  8
0
100
AcDb2dPolyline
 66
     1
 10
0.0
 20
0.0
 30
0.0
  0
VERTEX
  5
D38
330
D37
100
AcDbEntity
  8
0
100
AcDbVertex
100
AcDb2dVertex
 10
43.96353486551686
 20
31.52511271097644
 30
0.0
  0
VERTEX
  5
D39
330
D37
100
AcDbEntity
  8
0
100
AcDbVertex
100
AcDb2dVertex
 10
44.08204586551685
 20
31.50719871097643
 30
0.0
  0
VERTEX
  5
D3A
330
D37
100
AcDbEntity
  8
0
100
AcDbVertex
100
AcDb2dVertex
 10
44.08549086551684
 20
31.50719871097643
 30
0.0
  0
SEQEND
  5
D3B
330
D37
100
AcDbEntity
  8
0
  0
POLYLINE
  5
D3C
330
1F
100
AcDbEntity
  8
0
100
AcDb2dPolyline
 66
     1
 10
0.0
 20
0.0
 30
0.0
  0
VERTEX
  5
D3D
330
D3C
100
AcDbEntity
  8
0
100
AcDbVertex
100
AcDb2dVertex
 10
44.88475286551684
 20
30.41785971097643
 30
0.0
  0
VERTEX
  5
D3E
330
D3C
100
AcDbEntity
  8
0
100
AcDbVertex
100
AcDb2dVertex
 10
44.89164386551684
 20
30.46057871097644
 30
0.0
  0
VERTEX
  5
D3F
330
D3C
100
AcDbEntity
  8
0
100
AcDbVertex
100
AcDb2dVertex
 10
44.90886886551684
 20
30.60733971097644
 30
0.0
  0
VERTEX
  5
D40
330
D3C
100
AcDbEntity
  8
0
100
AcDbVertex
100
AcDb2dVertex
 10
44.91300286551686
 20
30.60733971097644
 30
0.0
  0
SEQEND
  5
D41
330
D3C
100
AcDbEntity
  8
0
  0
POLYLINE
  5
D42
330
1F
100
AcDbEntity
  8
0
100
AcDb2dPolyline
 66
     1
 10
0.0
 20
0.0
 30
0.0
  0
VERTEX
  5
D43
330
D42
100
AcDbEntity
  8
0
100
AcDbVertex
100
AcDb2dVertex
 10
43.89532186551685
 20
31.53407071097645
 30
0.0
  0
VERTEX
  5
D44
330
D42
100
AcDbEntity
  8
0
100
AcDbVertex
100
AcDb2dVertex
 10
43.96353486551686
 20
31.52511271097644
 30
0.0
  0
VERTEX
  5
D45
330
D42
100
AcDbEntity
  8
0
100
AcDbVertex
100
AcDb2dVertex
 10
43.96697986551686
 20
31.52511271097644
 30
0.0
  0
SEQEND
  5
D46
330
D42
100
AcDbEntity
  8
0
  0
POLYLINE
  5
D47
330
1F
100
AcDbEntity
  8
0
100
AcDb2dPolyline
 66
     1
 10
0.0
 20
0.0
 30
0.0
  0
VERTEX
  5
D48
330
D47
100
AcDbEntity
  8
0
100
AcDbVertex
100
AcDb2dVertex
 10
43.40129486551683
 20
29.25031671097644
 30
0.0
  0
VERTEX
  5
D49
330
D47
100
AcDbEntity
  8
0
100
AcDbVertex
100
AcDb2dVertex
 10
43.40405086551683
 20
29.26271871097643
 30
0.0
  0
VERTEX
  5
D4A
330
D47
100
AcDbEntity
  8
0
100
AcDbVertex
100
AcDb2dVertex
 10
43.40405086551683
 20
29.27753271097644
 30
0.0
  0
VERTEX
  5
D4B
330
D47
100
AcDbEntity
  8
0
100
AcDbVertex
100
AcDb2dVertex
 10
43.40611786551685
 20
29.29303571097644
 30
0.0
  0
VERTEX
  5
D4C
330
D47
100
AcDbEntity
  8
0
100
AcDbVertex
100
AcDb2dVertex
 10
43.40956286551684
 20
29.30784971097644
 30
0.0
  0
VERTEX
  5
D4D
330
D47
100
AcDbEntity
  8
0
100
AcDbVertex
100
AcDb2dVertex
 10
43.41300886551684
 20
29.30784971097644
 30
0.0
  0
SEQEND
  5
D4E
330
D47
100
AcDbEntity
  8
0
  0
POLYLINE
  5
D4F
330
1F
100
AcDbEntity
  8
0
100
AcDb2dPolyline
 66
     1
 10
0.0
 20
0.0
 30
0.0
  0
VERTEX
  5
D50
330
D4F
100
AcDbEntity
  8
0
100
AcDbVertex
100
AcDb2dVertex
 10
43.47088586551686
 20
29.72194971097643
 30
0.0
  0
VERTEX
  5
D51
330
D4F
100
AcDbEntity
  8
0
100
AcDbVertex
100
AcDb2dVertex
 10
43.49293486551684
 20
29.87112271097644
 30
0.0
  0
VERTEX
  5
D52
330
D4F
100
AcDbEntity
  8
0
100
AcDbVertex
100
AcDb2dVertex
 10
43.49500186551686
 20
29.87112271097644
 30
0.0
  0
SEQEND
  5
D53
330
D4F
100
AcDbEntity
  8
0
  0
POLYLINE
  5
D54
330
1F
100
AcDbEntity
  8
0
100
AcDb2dPolyline
 66
     1
 10
0.0
 20
0.0
 30
0.0
  0
VERTEX
  5
D55
330
D54
100
AcDbEntity
  8
0
100
AcDbVertex
100
AcDb2dVertex
 10
43.56252586551685
 20
29.67371871097643
 30
0.0
  0
VERTEX
  5
D56
330
D54
100
AcDbEntity
  8
0
100
AcDbVertex
100
AcDb2dVertex
 10
43.58043986551684
 20
29.82151371097643
 30
0.0
  0
VERTEX
  5
D57
330
D54
100
AcDbEntity
  8
0
100
AcDbVertex
100
AcDb2dVertex
 10
43.58250686551684
 20
29.82151371097643
 30
0.0
  0
SEQEND
  5
D58
330
D54
100
AcDbEntity
  8
0
  0
POLYLINE
  5
D59
330
1F
100
AcDbEntity
  8
0
100
AcDb2dPolyline
 66
     1
 10
0.0
 20
0.0
 30
0.0
  0
VERTEX
  5
D5A
330
D59
100
AcDbEntity
  8
0
100
AcDbVertex
100
AcDb2dVertex
 10
43.45021586551683
 20
29.58552471097643
 30
0.0
  0
VERTEX
  5
D5B
330
D59
100
AcDbEntity
  8
0
100
AcDbVertex
100
AcDb2dVertex
 10
43.47088586551686
 20
29.72194971097643
 30
0.0
  0
VERTEX
  5
D5C
330
D59
100
AcDbEntity
  8
0
100
AcDbVertex
100
AcDb2dVertex
 10
43.47433086551686
 20
29.72194971097643
 30
0.0
  0
SEQEND
  5
D5D
330
D59
100
AcDbEntity
  8
0
  0
POLYLINE
  5
D5E
330
1F
100
AcDbEntity
  8
0
100
AcDb2dPolyline
 66
     1
 10
0.0
 20
0.0
 30
0.0
  0
VERTEX
  5
D5F
330
D5E
100
AcDbEntity
  8
0
100
AcDbVertex
100
AcDb2dVertex
 10
43.54047686551683
 20
29.54246071097644
 30
0.0
  0
VERTEX
  5
D60
330
D5E
100
AcDbEntity
  8
0
100
AcDbVertex
100
AcDb2dVertex
 10
43.56252586551685
 20
29.67371871097643
 30
0.0
  0
VERTEX
  5
D61
330
D5E
100
AcDbEntity
  8
0
100
AcDbVertex
100
AcDb2dVertex
 10
43.56528186551685
 20
29.67371871097643
 30
0.0
  0
SEQEND
  5
D62
330
D5E
100
AcDbEntity
  8
0
  0
POLYLINE
  5
D63
330
1F
100
AcDbEntity
  8
0
100
AcDb2dPolyline
 66
     1
 10
0.0
 20
0.0
 30
0.0
  0
VERTEX
  5
D64
330
D63
100
AcDbEntity
  8
0
100
AcDbVertex
100
AcDb2dVertex
 10
43.43436786551683
 20
29.46597971097644
 30
0.0
  0
VERTEX
  5
D65
330
D63
100
AcDbEntity
  8
0
100
AcDbVertex
100
AcDb2dVertex
 10
43.45021586551683
 20
29.58552471097643
 30
0.0
  0
VERTEX
  5
D66
330
D63
100
AcDbEntity
  8
0
100
AcDbVertex
100
AcDb2dVertex
 10
43.45228286551685
 20
29.58552471097643
 30
0.0
  0
SEQEND
  5
D67
330
D63
100
AcDbEntity
  8
0
  0
POLYLINE
  5
D68
330
1F
100
AcDbEntity
  8
0
100
AcDb2dPolyline
 66
     1
 10
0.0
 20
0.0
 30
0.0
  0
VERTEX
  5
D69
330
D68
100
AcDbEntity
  8
0
100
AcDbVertex
100
AcDb2dVertex
 10
43.52256286551685
 20
29.42429371097644
 30
0.0
  0
VERTEX
  5
D6A
330
D68
100
AcDbEntity
  8
0
100
AcDbVertex
100
AcDb2dVertex
 10
43.54047686551683
 20
29.54246071097644
 30
0.0
  0
VERTEX
  5
D6B
330
D68
100
AcDbEntity
  8
0
100
AcDbVertex
100
AcDb2dVertex
 10
43.54392186551684
 20
29.54246071097644
 30
0.0
  0
SEQEND
  5
D6C
330
D68
100
AcDbEntity
  8
0
  0
POLYLINE
  5
D6D
330
1F
100
AcDbEntity
  8
0
100
AcDb2dPolyline
 66
     1
 10
0.0
 20
0.0
 30
0.0
  0
VERTEX
  5
D6E
330
D6D
100
AcDbEntity
  8
0
100
AcDbVertex
100
AcDb2dVertex
 10
43.41576486551685
 20
29.35676971097644
 30
0.0
  0
VERTEX
  5
D6F
330
D6D
100
AcDbEntity
  8
0
100
AcDbVertex
100
AcDb2dVertex
 10
43.43436786551683
 20
29.46597971097644
 30
0.0
  0
VERTEX
  5
D70
330
D6D
100
AcDbEntity
  8
0
100
AcDbVertex
100
AcDb2dVertex
 10
43.43712386551684
 20
29.46597971097644
 30
0.0
  0
SEQEND
  5
D71
330
D6D
100
AcDbEntity
  8
0
  0
POLYLINE
  5
D72
330
1F
100
AcDbEntity
  8
0
100
AcDb2dPolyline
 66
     1
 10
0.0
 20
0.0
 30
0.0
  0
VERTEX
  5
D73
330
D72
100
AcDbEntity
  8
0
100
AcDbVertex
100
AcDb2dVertex
 10
43.40956286551684
 20
29.30784971097644
 30
0.0
  0
VERTEX
  5
D74
330
D72
100
AcDbEntity
  8
0
100
AcDbVertex
100
AcDb2dVertex
 10
43.41576486551685
 20
29.35676971097644
 30
0.0
  0
VERTEX
  5
D75
330
D72
100
AcDbEntity
  8
0
100
AcDbVertex
100
AcDb2dVertex
 10
43.41852086551685
 20
29.35676971097644
 30
0.0
  0
SEQEND
  5
D76
330
D72
100
AcDbEntity
  8
0
  0
POLYLINE
  5
D77
330
1F
100
AcDbEntity
  8
0
100
AcDb2dPolyline
 66
     1
 10
0.0
 20
0.0
 30
0.0
  0
VERTEX
  5
D78
330
D77
100
AcDbEntity
  8
0
100
AcDbVertex
100
AcDb2dVertex
 10
43.50395886551686
 20
29.29544771097644
 30
0.0
  0
VERTEX
  5
D79
330
D77
100
AcDbEntity
  8
0
100
AcDbVertex
100
AcDb2dVertex
 10
43.50740386551686
 20
29.32025171097644
 30
0.0
  0
VERTEX
  5
D7A
330
D77
100
AcDbEntity
  8
0
100
AcDbVertex
100
AcDb2dVertex
 10
43.52256286551685
 20
29.42429371097644
 30
0.0
  0
VERTEX
  5
D7B
330
D77
100
AcDbEntity
  8
0
100
AcDbVertex
100
AcDb2dVertex
 10
43.52600786551684
 20
29.42429371097644
 30
0.0
  0
SEQEND
  5
D7C
330
D77
100
AcDbEntity
  8
0
  0
POLYLINE
  5
D7D
330
1F
100
AcDbEntity
  8
0
100
AcDb2dPolyline
 66
     1
 10
0.0
 20
0.0
 30
0.0
  0
VERTEX
  5
D7E
330
D7D
100
AcDbEntity
  8
0
100
AcDbVertex
100
AcDb2dVertex
 10
43.45021586551683
 20
29.12284771097644
 30
0.0
  0
VERTEX
  5
D7F
330
D7D
100
AcDbEntity
  8
0
100
AcDbVertex
100
AcDb2dVertex
 10
43.45228286551685
 20
29.13766171097643
 30
0.0
  0
VERTEX
  5
D80
330
D7D
100
AcDbEntity
  8
0
100
AcDbVertex
100
AcDb2dVertex
 10
43.45503886551682
 20
29.14730871097644
 30
0.0
  0
VERTEX
  5
D81
330
D7D
100
AcDbEntity
  8
0
100
AcDbVertex
100
AcDb2dVertex
 10
43.45848386551685
 20
29.15626571097643
 30
0.0
  0
VERTEX
  5
D82
330
D7D
100
AcDbEntity
  8
0
100
AcDbVertex
100
AcDb2dVertex
 10
43.46123986551683
 20
29.16556771097644
 30
0.0
  0
VERTEX
  5
D83
330
D7D
100
AcDbEntity
  8
0
100
AcDbVertex
100
AcDb2dVertex
 10
43.46123986551683
 20
29.17452471097643
 30
0.0
  0
VERTEX
  5
D84
330
D7D
100
AcDbEntity
  8
0
100
AcDbVertex
100
AcDb2dVertex
 10
43.46537386551685
 20
29.18382671097644
 30
0.0
  0
VERTEX
  5
D85
330
D7D
100
AcDbEntity
  8
0
100
AcDbVertex
100
AcDb2dVertex
 10
43.46744086551683
 20
29.18382671097644
 30
0.0
  0
SEQEND
  5
D86
330
D7D
100
AcDbEntity
  8
0
  0
POLYLINE
  5
D87
330
1F
100
AcDbEntity
  8
0
100
AcDb2dPolyline
 66
     1
 10
0.0
 20
0.0
 30
0.0
  0
VERTEX
  5
D88
330
D87
100
AcDbEntity
  8
0
100
AcDbVertex
100
AcDb2dVertex
 10
43.47433086551686
 20
29.07427271097644
 30
0.0
  0
VERTEX
  5
D89
330
D87
100
AcDbEntity
  8
0
100
AcDbVertex
100
AcDb2dVertex
 10
43.47433086551686
 20
29.06703771097644
 30
0.0
  0
VERTEX
  5
D8A
330
D87
100
AcDbEntity
  8
0
100
AcDbVertex
100
AcDb2dVertex
 10
43.46744086551683
 20
29.05842471097643
 30
0.0
  0
VERTEX
  5
D8B
330
D87
100
AcDbEntity
  8
0
100
AcDbVertex
100
AcDb2dVertex
 10
43.46537386551685
 20
29.04981171097644
 30
0.0
  0
VERTEX
  5
D8C
330
D87
100
AcDbEntity
  8
0
100
AcDbVertex
100
AcDb2dVertex
 10
43.45848386551685
 20
29.04636671097644
 30
0.0
  0
VERTEX
  5
D8D
330
D87
100
AcDbEntity
  8
0
100
AcDbVertex
100
AcDb2dVertex
 10
43.44332486551684
 20
29.04636671097644
 30
0.0
  0
VERTEX
  5
D8E
330
D87
100
AcDbEntity
  8
0
100
AcDbVertex
100
AcDb2dVertex
 10
43.43712386551684
 20
29.04981171097644
 30
0.0
  0
VERTEX
  5
D8F
330
D87
100
AcDbEntity
  8
0
100
AcDbVertex
100
AcDb2dVertex
 10
43.44056886551683
 20
29.04981171097644
 30
0.0
  0
SEQEND
  5
D90
330
D87
100
AcDbEntity
  8
0
  0
POLYLINE
  5
D91
330
1F
100
AcDbEntity
  8
0
100
AcDb2dPolyline
 66
     1
 10
0.0
 20
0.0
 30
0.0
  0
VERTEX
  5
D92
330
D91
100
AcDbEntity
  8
0
100
AcDbVertex
100
AcDb2dVertex
 10
43.46537386551685
 20
29.18382671097644
 30
0.0
  0
VERTEX
  5
D93
330
D91
100
AcDbEntity
  8
0
100
AcDbVertex
100
AcDb2dVertex
 10
43.47088586551686
 20
29.20277471097644
 30
0.0
  0
VERTEX
  5
D94
330
D91
100
AcDbEntity
  8
0
100
AcDbVertex
100
AcDb2dVertex
 10
43.47433086551686
 20
29.21104271097643
 30
0.0
  0
VERTEX
  5
D95
330
D91
100
AcDbEntity
  8
0
100
AcDbVertex
100
AcDb2dVertex
 10
43.47708686551683
 20
29.21104271097643
 30
0.0
  0
SEQEND
  5
D96
330
D91
100
AcDbEntity
  8
0
  0
POLYLINE
  5
D97
330
1F
100
AcDbEntity
  8
0
100
AcDb2dPolyline
 66
     1
 10
0.0
 20
0.0
 30
0.0
  0
VERTEX
  5
D98
330
D97
100
AcDbEntity
  8
0
100
AcDbVertex
100
AcDb2dVertex
 10
43.47433086551686
 20
29.21104271097643
 30
0.0
  0
VERTEX
  5
D99
330
D97
100
AcDbEntity
  8
0
100
AcDbVertex
100
AcDb2dVertex
 10
43.47984286551684
 20
29.23240171097643
 30
0.0
  0
VERTEX
  5
D9A
330
D97
100
AcDbEntity
  8
0
100
AcDbVertex
100
AcDb2dVertex
 10
43.48328786551684
 20
29.24067071097644
 30
0.0
  0
VERTEX
  5
D9B
330
D97
100
AcDbEntity
  8
0
100
AcDbVertex
100
AcDb2dVertex
 10
43.48604486551685
 20
29.24067071097644
 30
0.0
  0
SEQEND
  5
D9C
330
D97
100
AcDbEntity
  8
0
  0
POLYLINE
  5
D9D
330
1F
100
AcDbEntity
  8
0
100
AcDb2dPolyline
 66
     1
 10
0.0
 20
0.0
 30
0.0
  0
VERTEX
  5
D9E
330
D9D
100
AcDbEntity
  8
0
100
AcDbVertex
100
AcDb2dVertex
 10
43.48328786551684
 20
29.24067071097644
 30
0.0
  0
VERTEX
  5
D9F
330
D9D
100
AcDbEntity
  8
0
100
AcDbVertex
100
AcDb2dVertex
 10
43.49293486551684
 20
29.26271871097643
 30
0.0
  0
VERTEX
  5
DA0
330
D9D
100
AcDbEntity
  8
0
100
AcDbVertex
100
AcDb2dVertex
 10
43.49500186551686
 20
29.27512171097644
 30
0.0
  0
VERTEX
  5
DA1
330
D9D
100
AcDbEntity
  8
0
100
AcDbVertex
100
AcDb2dVertex
 10
43.49775786551686
 20
29.28442271097644
 30
0.0
  0
VERTEX
  5
DA2
330
D9D
100
AcDbEntity
  8
0
100
AcDbVertex
100
AcDb2dVertex
 10
43.50051386551683
 20
29.29303571097644
 30
0.0
  0
VERTEX
  5
DA3
330
D9D
100
AcDbEntity
  8
0
100
AcDbVertex
100
AcDb2dVertex
 10
43.50395886551686
 20
29.29303571097644
 30
0.0
  0
SEQEND
  5
DA4
330
D9D
100
AcDbEntity
  8
0
  0
LINE
  5
DA5
330
1F
100
AcDbEntity
  8
0
100
AcDbLine
 10
43.46744086551683
 20
29.06462571097644
 30
0.0
 11
43.47088586551686
 21
29.06462571097644
 31
0.0
  0
POLYLINE
  5
DA6
330
1F
100
AcDbEntity
  8
0
100
AcDb2dPolyline
 66
     1
 10
0.0
 20
0.0
 30
0.0
  0
VERTEX
  5
DA7
330
DA6
100
AcDbEntity
  8
0
100
AcDbVertex
100
AcDb2dVertex
 10
43.46744086551683
 20
29.06462571097644
 30
0.0
  0
VERTEX
  5
DA8
330
DA6
100
AcDbEntity
  8
0
100
AcDbVertex
100
AcDb2dVertex
 10
43.46537386551685
 20
29.06462571097644
 30
0.0
  0
VERTEX
  5
DA9
330
DA6
100
AcDbEntity
  8
0
100
AcDbVertex
100
AcDb2dVertex
 10
43.46537386551685
 20
29.07771771097644
 30
0.0
  0
VERTEX
  5
DAA
330
DA6
100
AcDbEntity
  8
0
100
AcDbVertex
100
AcDb2dVertex
 10
43.46744086551683
 20
29.08288471097644
 30
0.0
  0
VERTEX
  5
DAB
330
DA6
100
AcDbEntity
  8
0
100
AcDbVertex
100
AcDb2dVertex
 10
43.47088586551686
 20
29.08288471097644
 30
0.0
  0
SEQEND
  5
DAC
330
DA6
100
AcDbEntity
  8
0
  0
POLYLINE
  5
DAD
330
1F
100
AcDbEntity
  8
0
100
AcDb2dPolyline
 66
     1
 10
0.0
 20
0.0
 30
0.0
  0
VERTEX
  5
DAE
330
DAD
100
AcDbEntity
  8
0
100
AcDbVertex
100
AcDb2dVertex
 10
43.45021586551683
 20
29.12284771097644
 30
0.0
  0
VERTEX
  5
DAF
330
DAD
100
AcDbEntity
  8
0
100
AcDbVertex
100
AcDb2dVertex
 10
43.44332486551684
 20
29.11940271097644
 30
0.0
  0
VERTEX
  5
DB0
330
DAD
100
AcDbEntity
  8
0
100
AcDbVertex
100
AcDb2dVertex
 10
43.44056886551683
 20
29.11940271097644
 30
0.0
  0
VERTEX
  5
DB1
330
DAD
100
AcDbEntity
  8
0
100
AcDbVertex
100
AcDb2dVertex
 10
43.43436786551683
 20
29.11595771097644
 30
0.0
  0
VERTEX
  5
DB2
330
DAD
100
AcDbEntity
  8
0
100
AcDbVertex
100
AcDb2dVertex
 10
43.43161186551682
 20
29.11457971097643
 30
0.0
  0
VERTEX
  5
DB3
330
DAD
100
AcDbEntity
  8
0
100
AcDbVertex
100
AcDb2dVertex
 10
43.42816686551683
 20
29.11079071097644
 30
0.0
  0
VERTEX
  5
DB4
330
DAD
100
AcDbEntity
  8
0
100
AcDbVertex
100
AcDb2dVertex
 10
43.42541086551685
 20
29.10458871097644
 30
0.0
  0
VERTEX
  5
DB5
330
DAD
100
AcDbEntity
  8
0
100
AcDbVertex
100
AcDb2dVertex
 10
43.42196586551685
 20
29.10114371097643
 30
0.0
  0
VERTEX
  5
DB6
330
DAD
100
AcDbEntity
  8
0
100
AcDbVertex
100
AcDb2dVertex
 10
43.41852086551685
 20
29.09597671097644
 30
0.0
  0
VERTEX
  5
DB7
330
DAD
100
AcDbEntity
  8
0
100
AcDbVertex
100
AcDb2dVertex
 10
43.41576486551685
 20
29.09149771097644
 30
0.0
  0
VERTEX
  5
DB8
330
DAD
100
AcDbEntity
  8
0
100
AcDbVertex
100
AcDb2dVertex
 10
43.41852086551685
 20
29.09149771097644
 30
0.0
  0
SEQEND
  5
DB9
330
DAD
100
AcDbEntity
  8
0
  0
POLYLINE
  5
DBA
330
1F
100
AcDbEntity
  8
0
100
AcDb2dPolyline
 66
     1
 10
0.0
 20
0.0
 30
0.0
  0
VERTEX
  5
DBB
330
DBA
100
AcDbEntity
  8
0
100
AcDbVertex
100
AcDb2dVertex
 10
43.46744086551683
 20
29.08288471097644
 30
0.0
  0
VERTEX
  5
DBC
330
DBA
100
AcDbEntity
  8
0
100
AcDbVertex
100
AcDb2dVertex
 10
43.46123986551683
 20
29.07943971097644
 30
0.0
  0
VERTEX
  5
DBD
330
DBA
100
AcDbEntity
  8
0
100
AcDbVertex
100
AcDb2dVertex
 10
43.45848386551685
 20
29.07943971097644
 30
0.0
  0
VERTEX
  5
DBE
330
DBA
100
AcDbEntity
  8
0
100
AcDbVertex
100
AcDb2dVertex
 10
43.45228286551685
 20
29.07771771097644
 30
0.0
  0
VERTEX
  5
DBF
330
DBA
100
AcDbEntity
  8
0
100
AcDbVertex
100
AcDb2dVertex
 10
43.45021586551683
 20
29.07427271097644
 30
0.0
  0
VERTEX
  5
DC0
330
DBA
100
AcDbEntity
  8
0
100
AcDbVertex
100
AcDb2dVertex
 10
43.44676986551684
 20
29.06703771097644
 30
0.0
  0
VERTEX
  5
DC1
330
DBA
100
AcDbEntity
  8
0
100
AcDbVertex
100
AcDb2dVertex
 10
43.44056886551683
 20
29.06462571097644
 30
0.0
  0
VERTEX
  5
DC2
330
DBA
100
AcDbEntity
  8
0
100
AcDbVertex
100
AcDb2dVertex
 10
43.43712386551684
 20
29.06186971097643
 30
0.0
  0
VERTEX
  5
DC3
330
DBA
100
AcDbEntity
  8
0
100
AcDbVertex
100
AcDb2dVertex
 10
43.43712386551684
 20
29.05601371097644
 30
0.0
  0
VERTEX
  5
DC4
330
DBA
100
AcDbEntity
  8
0
100
AcDbVertex
100
AcDb2dVertex
 10
43.43436786551683
 20
29.05222371097644
 30
0.0
  0
VERTEX
  5
DC5
330
DBA
100
AcDbEntity
  8
0
100
AcDbVertex
100
AcDb2dVertex
 10
43.43712386551684
 20
29.05222371097644
 30
0.0
  0
SEQEND
  5
DC6
330
DBA
100
AcDbEntity
  8
0
  0
SPLINE
  5
DC7
330
1F
100
AcDbEntity
  8
0
100
AcDbSpline
210
0.0
220
0.0
230
1.0
 70
     8
 71
     3
 72
    17
 73
    13
 74
     0
 42
0.0000000001
 43
0.0000000001
 40
0.0
 40
0.0
 40
0.0
 40
0.0
 40
1.0
 40
1.0
 40
1.0
 40
2.0
 40
2.0
 40
2.0
 40
3.0
 40
3.0
 40
3.0
 40
4.0
 40
4.0
 40
4.0
 40
4.0
 10
43.50395893496127
 20
29.29544734986532
 30
0.0
 10
43.50395893496127
 20
29.29544734986532
 30
0.0
 10
43.49500168669737
 20
29.29923695490003
 30
0.0
 10
43.49500168669737
 20
29.29923695490003
 30
0.0
 10
43.47708719016958
 20
29.30957224135838
 30
0.0
 10
43.43505702523901
 20
29.31301733684448
 30
0.0
 10
43.41576449051683
 20
29.31129478910144
 30
0.0
 10
43.41576449051683
 20
29.31129478910144
 30
0.0
 10
43.40956331864179
 20
29.30784969361532
 30
0.0
 10
43.40956331864179
 20
29.30784969361532
 30
0.0
 10
43.40956331864179
 20
29.30784969361532
 30
0.0
 10
43.41300841412794
 20
29.30784969361532
 30
0.0
 10
43.41300841412794
 20
29.30784969361532
 30
0.0
  0
POLYLINE
  5
DC8
330
1F
100
AcDbEntity
  8
0
100
AcDb2dPolyline
 66
     1
 10
0.0
 20
0.0
 30
0.0
  0
VERTEX
  5
DC9
330
DC8
100
AcDbEntity
  8
0
100
AcDbVertex
100
AcDb2dVertex
 10
43.43712386551684
 20
29.04981171097644
 30
0.0
  0
VERTEX
  5
DCA
330
DC8
100
AcDbEntity
  8
0
100
AcDbVertex
100
AcDb2dVertex
 10
43.43436786551683
 20
29.05222371097644
 30
0.0
  0
VERTEX
  5
DCB
330
DC8
100
AcDbEntity
  8
0
100
AcDbVertex
100
AcDb2dVertex
 10
43.43712386551684
 20
29.05222371097644
 30
0.0
  0
SEQEND
  5
DCC
330
DC8
100
AcDbEntity
  8
0
  0
POLYLINE
  5
DCD
330
1F
100
AcDbEntity
  8
0
100
AcDb2dPolyline
 66
     1
 10
0.0
 20
0.0
 30
0.0
  0
VERTEX
  5
DCE
330
DCD
100
AcDbEntity
  8
0
100
AcDbVertex
100
AcDb2dVertex
 10
43.46744086551683
 20
29.08288471097644
 30
0.0
  0
VERTEX
  5
DCF
330
DCD
100
AcDbEntity
  8
0
100
AcDbVertex
100
AcDb2dVertex
 10
43.45021586551683
 20
29.12284771097644
 30
0.0
  0
VERTEX
  5
DD0
330
DCD
100
AcDbEntity
  8
0
100
AcDbVertex
100
AcDb2dVertex
 10
43.45228286551685
 20
29.12284771097644
 30
0.0
  0
SEQEND
  5
DD1
330
DCD
100
AcDbEntity
  8
0
  0
POLYLINE
  5
DD2
330
1F
100
AcDbEntity
  8
0
100
AcDb2dPolyline
 66
     1
 10
0.0
 20
0.0
 30
0.0
  0
VERTEX
  5
DD3
330
DD2
100
AcDbEntity
  8
0
100
AcDbVertex
100
AcDb2dVertex
 10
43.43436786551683
 20
29.05222371097644
 30
0.0
  0
VERTEX
  5
DD4
330
DD2
100
AcDbEntity
  8
0
100
AcDbVertex
100
AcDb2dVertex
 10
43.41576486551685
 20
29.09149771097644
 30
0.0
  0
VERTEX
  5
DD5
330
DD2
100
AcDbEntity
  8
0
100
AcDbVertex
100
AcDb2dVertex
 10
43.41852086551685
 20
29.09149771097644
 30
0.0
  0
SEQEND
  5
DD6
330
DD2
100
AcDbEntity
  8
0
  0
SPLINE
  5
DD7
330
1F
100
AcDbEntity
  8
0
100
AcDbSpline
210
0.0
220
0.0
230
1.0
 70
     8
 71
     3
 72
    17
 73
    13
 74
     0
 42
0.0000000001
 43
0.0000000001
 40
0.0
 40
0.0
 40
0.0
 40
0.0
 40
1.0
 40
1.0
 40
1.0
 40
2.0
 40
2.0
 40
2.0
 40
3.0
 40
3.0
 40
3.0
 40
4.0
 40
4.0
 40
4.0
 40
4.0
 10
43.41576449051683
 20
29.09149769708753
 30
0.0
 10
43.41576449051683
 20
29.09149769708753
 30
0.0
 10
43.41300841412794
 20
29.10148847399726
 30
0.0
 10
43.41300841412794
 20
29.10148847399726
 30
0.0
 10
43.39991705128073
 20
29.12663767104587
 30
0.0
 10
43.40749626135016
 20
29.14971981080283
 30
0.0
 10
43.40129508947515
 20
29.17486900785144
 30
0.0
 10
43.40129508947515
 20
29.17486900785144
 30
0.0
 10
43.40129508947515
 20
29.25031659899726
 30
0.0
 10
43.40129508947515
 20
29.25031659899726
 30
0.0
 10
43.40129508947515
 20
29.25031659899726
 30
0.0
 10
43.40405116586402
 20
29.25031659899726
 30
0.0
 10
43.40405116586402
 20
29.25031659899726
 30
0.0
  0
POLYLINE
  5
DD8
330
1F
100
AcDbEntity
  8
0
100
AcDb2dPolyline
 66
     1
 10
0.0
 20
0.0
 30
0.0
  0
VERTEX
  5
DD9
330
DD8
100
AcDbEntity
  8
0
100
AcDbVertex
100
AcDb2dVertex
 10
44.78139986551684
 20
29.69163371097643
 30
0.0
  0
VERTEX
  5
DDA
330
DD8
100
AcDbEntity
  8
0
100
AcDbVertex
100
AcDb2dVertex
 10
44.77175386551684
 20
29.61205171097644
 30
0.0
  0
VERTEX
  5
DDB
330
DD8
100
AcDbEntity
  8
0
100
AcDbVertex
100
AcDb2dVertex
 10
44.77519886551684
 20
29.61205171097644
 30
0.0
  0
SEQEND
  5
DDC
330
DD8
100
AcDbEntity
  8
0
  0
POLYLINE
  5
DDD
330
1F
100
AcDbEntity
  8
0
100
AcDb2dPolyline
 66
     1
 10
0.0
 20
0.0
 30
0.0
  0
VERTEX
  5
DDE
330
DDD
100
AcDbEntity
  8
0
100
AcDbVertex
100
AcDb2dVertex
 10
44.73592486551683
 20
29.38123071097643
 30
0.0
  0
VERTEX
  5
DDF
330
DDD
100
AcDbEntity
  8
0
100
AcDbVertex
100
AcDb2dVertex
 10
44.78484586551684
 20
29.70989271097644
 30
0.0
  0
VERTEX
  5
DE0
330
DDD
100
AcDbEntity
  8
0
100
AcDbVertex
100
AcDb2dVertex
 10
44.78691286551682
 20
29.70989271097644
 30
0.0
  0
SEQEND
  5
DE1
330
DDD
100
AcDbEntity
  8
0
  0
POLYLINE
  5
DE2
330
1F
100
AcDbEntity
  8
0
100
AcDb2dPolyline
 66
     1
 10
0.0
 20
0.0
 30
0.0
  0
VERTEX
  5
DE3
330
DE2
100
AcDbEntity
  8
0
100
AcDbVertex
100
AcDb2dVertex
 10
44.77175386551684
 20
29.61205171097644
 30
0.0
  0
VERTEX
  5
DE4
330
DE2
100
AcDbEntity
  8
0
100
AcDbVertex
100
AcDb2dVertex
 10
44.75728486551685
 20
29.52695771097643
 30
0.0
  0
VERTEX
  5
DE5
330
DE2
100
AcDbEntity
  8
0
100
AcDbVertex
100
AcDb2dVertex
 10
44.76072986551685
 20
29.52695771097643
 30
0.0
  0
SEQEND
  5
DE6
330
DE2
100
AcDbEntity
  8
0
  0
POLYLINE
  5
DE7
330
1F
100
AcDbEntity
  8
0
100
AcDb2dPolyline
 66
     1
 10
0.0
 20
0.0
 30
0.0
  0
VERTEX
  5
DE8
330
DE7
100
AcDbEntity
  8
0
100
AcDbVertex
100
AcDb2dVertex
 10
44.75728486551685
 20
29.52695771097643
 30
0.0
  0
VERTEX
  5
DE9
330
DE7
100
AcDbEntity
  8
0
100
AcDbVertex
100
AcDb2dVertex
 10
44.74488186551684
 20
29.44220871097644
 30
0.0
  0
VERTEX
  5
DEA
330
DE7
100
AcDbEntity
  8
0
100
AcDbVertex
100
AcDb2dVertex
 10
44.73592486551683
 20
29.39604371097644
 30
0.0
  0
VERTEX
  5
DEB
330
DE7
100
AcDbEntity
  8
0
100
AcDbVertex
100
AcDb2dVertex
 10
44.72903486551686
 20
29.34712371097644
 30
0.0
  0
VERTEX
  5
DEC
330
DE7
100
AcDbEntity
  8
0
100
AcDbVertex
100
AcDb2dVertex
 10
44.73247986551686
 20
29.34712371097644
 30
0.0
  0
SEQEND
  5
DED
330
DE7
100
AcDbEntity
  8
0
  0
POLYLINE
  5
DEE
330
1F
100
AcDbEntity
  8
0
100
AcDb2dPolyline
 66
     1
 10
0.0
 20
0.0
 30
0.0
  0
VERTEX
  5
DEF
330
DEE
100
AcDbEntity
  8
0
100
AcDbVertex
100
AcDb2dVertex
 10
44.78139986551684
 20
29.69163371097643
 30
0.0
  0
VERTEX
  5
DF0
330
DEE
100
AcDbEntity
  8
0
100
AcDbVertex
100
AcDb2dVertex
 10
44.88475286551684
 20
30.41785971097643
 30
0.0
  0
VERTEX
  5
DF1
330
DEE
100
AcDbEntity
  8
0
100
AcDbVertex
100
AcDb2dVertex
 10
44.88681986551685
 20
30.41785971097643
 30
0.0
  0
SEQEND
  5
DF2
330
DEE
100
AcDbEntity
  8
0
  0
POLYLINE
  5
DF3
330
1F
100
AcDbEntity
  8
0
100
AcDb2dPolyline
 66
     1
 10
0.0
 20
0.0
 30
0.0
  0
VERTEX
  5
DF4
330
DF3
100
AcDbEntity
  8
0
100
AcDbVertex
100
AcDb2dVertex
 10
43.49293486551684
 20
29.87112271097644
 30
0.0
  0
VERTEX
  5
DF5
330
DF3
100
AcDbEntity
  8
0
100
AcDbVertex
100
AcDb2dVertex
 10
43.51429386551683
 20
30.03510971097643
 30
0.0
  0
VERTEX
  5
DF6
330
DF3
100
AcDbEntity
  8
0
100
AcDbVertex
100
AcDb2dVertex
 10
43.51636086551684
 20
30.03510971097643
 30
0.0
  0
SEQEND
  5
DF7
330
DF3
100
AcDbEntity
  8
0
  0
POLYLINE
  5
DF8
330
1F
100
AcDbEntity
  8
0
100
AcDb2dPolyline
 66
     1
 10
0.0
 20
0.0
 30
0.0
  0
VERTEX
  5
DF9
330
DF8
100
AcDbEntity
  8
0
100
AcDbVertex
100
AcDb2dVertex
 10
43.58043986551684
 20
29.82185771097644
 30
0.0
  0
VERTEX
  5
DFA
330
DF8
100
AcDbEntity
  8
0
100
AcDbVertex
100
AcDb2dVertex
 10
43.60455586551686
 20
29.98308871097643
 30
0.0
  0
VERTEX
  5
DFB
330
DF8
100
AcDbEntity
  8
0
100
AcDbVertex
100
AcDb2dVertex
 10
43.60800086551686
 20
29.98308871097643
 30
0.0
  0
SEQEND
  5
DFC
330
DF8
100
AcDbEntity
  8
0
  0
POLYLINE
  5
DFD
330
1F
100
AcDbEntity
  8
0
100
AcDb2dPolyline
 66
     1
 10
0.0
 20
0.0
 30
0.0
  0
VERTEX
  5
DFE
330
DFD
100
AcDbEntity
  8
0
100
AcDbVertex
100
AcDb2dVertex
 10
43.50051386551683
 20
29.29303571097644
 30
0.0
  0
VERTEX
  5
DFF
330
DFD
100
AcDbEntity
  8
0
100
AcDbVertex
100
AcDb2dVertex
 10
44.67804786551684
 20
30.94116971097644
 30
0.0
  0
VERTEX
  5
E00
330
DFD
100
AcDbEntity
  8
0
100
AcDbVertex
100
AcDb2dVertex
 10
44.68149286551684
 20
30.94116971097644
 30
0.0
  0
SEQEND
  5
E01
330
DFD
100
AcDbEntity
  8
0
  0
POLYLINE
  5
E02
330
1F
100
AcDbEntity
  8
0
100
AcDb2dPolyline
 66
     1
 10
0.0
 20
0.0
 30
0.0
  0
VERTEX
  5
E03
330
E02
100
AcDbEntity
  8
0
100
AcDbVertex
100
AcDb2dVertex
 10
44.80896086551687
 20
30.94116971097644
 30
0.0
  0
VERTEX
  5
E04
330
E02
100
AcDbEntity
  8
0
100
AcDbVertex
100
AcDb2dVertex
 10
43.46744086551683
 20
29.06462571097644
 30
0.0
  0
VERTEX
  5
E05
330
E02
100
AcDbEntity
  8
0
100
AcDbVertex
100
AcDb2dVertex
 10
43.47088586551686
 20
29.06462571097644
 30
0.0
  0
SEQEND
  5
E06
330
E02
100
AcDbEntity
  8
0
  0
POLYLINE
  5
E07
330
1F
100
AcDbEntity
  8
0
100
AcDb2dPolyline
 66
     1
 10
0.0
 20
0.0
 30
0.0
  0
VERTEX
  5
E08
330
E07
100
AcDbEntity
  8
0
100
AcDbVertex
100
AcDb2dVertex
 10
44.79380286551685
 20
30.94116971097644
 30
0.0
  0
VERTEX
  5
E09
330
E07
100
AcDbEntity
  8
0
100
AcDbVertex
100
AcDb2dVertex
 10
43.46744086551683
 20
29.08288471097644
 30
0.0
  0
VERTEX
  5
E0A
330
E07
100
AcDbEntity
  8
0
100
AcDbVertex
100
AcDb2dVertex
 10
43.47088586551686
 20
29.08288471097644
 30
0.0
  0
SEQEND
  5
E0B
330
E07
100
AcDbEntity
  8
0
  0
POLYLINE
  5
E0C
330
1F
100
AcDbEntity
  8
0
100
AcDb2dPolyline
 66
     1
 10
0.0
 20
0.0
 30
0.0
  0
VERTEX
  5
E0D
330
E0C
100
AcDbEntity
  8
0
100
AcDbVertex
100
AcDb2dVertex
 10
43.45021586551683
 20
29.12284771097644
 30
0.0
  0
VERTEX
  5
E0E
330
E0C
100
AcDbEntity
  8
0
100
AcDbVertex
100
AcDb2dVertex
 10
44.74763886551684
 20
30.94116971097644
 30
0.0
  0
VERTEX
  5
E0F
330
E0C
100
AcDbEntity
  8
0
100
AcDbVertex
100
AcDb2dVertex
 10
44.75177286551684
 20
30.94116971097644
 30
0.0
  0
SEQEND
  5
E10
330
E0C
100
AcDbEntity
  8
0
  0
POLYLINE
  5
E11
330
1F
100
AcDbEntity
  8
0
100
AcDb2dPolyline
 66
     1
 10
0.0
 20
0.0
 30
0.0
  0
VERTEX
  5
E12
330
E11
100
AcDbEntity
  8
0
100
AcDbVertex
100
AcDb2dVertex
 10
43.61557986551685
 20
26.02019471097643
 30
0.0
  0
VERTEX
  5
E13
330
E11
100
AcDbEntity
  8
0
100
AcDbVertex
100
AcDb2dVertex
 10
43.61420186551685
 20
26.01847271097644
 30
0.0
  0
VERTEX
  5
E14
330
E11
100
AcDbEntity
  8
0
100
AcDbVertex
100
AcDb2dVertex
 10
43.61557986551685
 20
26.01847271097644
 30
0.0
  0
SEQEND
  5
E15
330
E11
100
AcDbEntity
  8
0
  0
POLYLINE
  5
E16
330
1F
100
AcDbEntity
  8
0
100
AcDb2dPolyline
 66
     1
 10
0.0
 20
0.0
 30
0.0
  0
VERTEX
  5
E17
330
E16
100
AcDbEntity
  8
0
100
AcDbVertex
100
AcDb2dVertex
 10
44.26601386551683
 20
27.58289071097644
 30
0.0
  0
VERTEX
  5
E18
330
E16
100
AcDbEntity
  8
0
100
AcDbVertex
100
AcDb2dVertex
 10
44.22536186551684
 20
27.47471471097644
 30
0.0
  0
VERTEX
  5
E19
330
E16
100
AcDbEntity
  8
0
100
AcDbVertex
100
AcDb2dVertex
 10
44.22880686551684
 20
27.47471471097644
 30
0.0
  0
SEQEND
  5
E1A
330
E16
100
AcDbEntity
  8
0
  0
POLYLINE
  5
E1B
330
1F
100
AcDbEntity
  8
0
100
AcDb2dPolyline
 66
     1
 10
0.0
 20
0.0
 30
0.0
  0
VERTEX
  5
E1C
330
E1B
100
AcDbEntity
  8
0
100
AcDbVertex
100
AcDb2dVertex
 10
43.61557986551685
 20
26.02019471097643
 30
0.0
  0
VERTEX
  5
E1D
330
E1B
100
AcDbEntity
  8
0
100
AcDbVertex
100
AcDb2dVertex
 10
43.72306686551683
 20
26.20347371097644
 30
0.0
  0
VERTEX
  5
E1E
330
E1B
100
AcDbEntity
  8
0
100
AcDbVertex
100
AcDb2dVertex
 10
43.84502386551685
 20
26.42843871097644
 30
0.0
  0
VERTEX
  5
E1F
330
E1B
100
AcDbEntity
  8
0
100
AcDbVertex
100
AcDb2dVertex
 10
43.95113186551685
 20
26.65340371097644
 30
0.0
  0
VERTEX
  5
E20
330
E1B
100
AcDbEntity
  8
0
100
AcDbVertex
100
AcDb2dVertex
 10
43.95388886551683
 20
26.65340371097644
 30
0.0
  0
SEQEND
  5
E21
330
E1B
100
AcDbEntity
  8
0
  0
SPLINE
  5
E22
330
1F
100
AcDbEntity
  8
0
100
AcDbSpline
210
0.0
220
0.0
230
1.0
 70
     8
 71
     3
 72
    17
 73
    13
 74
     0
 42
0.0000000001
 43
0.0000000001
 40
0.0
 40
0.0
 40
0.0
 40
0.0
 40
1.0
 40
1.0
 40
1.0
 40
2.0
 40
2.0
 40
2.0
 40
3.0
 40
3.0
 40
3.0
 40
4.0
 40
4.0
 40
4.0
 40
4.0
 10
44.71112039329461
 20
29.25272816583753
 30
0.0
 10
44.71112039329461
 20
29.25272816583753
 30
0.0
 10
44.70285216412796
 20
29.20277428128894
 30
0.0
 10
44.70285216412796
 20
29.20277428128894
 30
0.0
 10
44.60087733773906
 20
28.67326310507366
 30
0.0
 10
44.46238449919738
 20
28.15029761028198
 30
0.0
 10
44.28255051482238
 20
27.64145700698338
 30
0.0
 10
44.28255051482238
 20
27.64145700698338
 30
0.0
 10
44.26601405648901
 20
27.58289038371948
 30
0.0
 10
44.26601405648901
 20
27.58289038371948
 30
0.0
 10
44.26601405648901
 20
27.58289038371948
 30
0.0
 10
44.26739209468348
 20
27.58289038371948
 30
0.0
 10
44.26739209468348
 20
27.58289038371948
 30
0.0
  0
SPLINE
  5
E23
330
1F
100
AcDbEntity
  8
0
100
AcDbSpline
210
0.0
220
0.0
230
1.0
 70
     8
 71
     3
 72
    17
 73
    13
 74
     0
 42
0.0000000001
 43
0.0000000001
 40
0.0
 40
0.0
 40
0.0
 40
0.0
 40
1.0
 40
1.0
 40
1.0
 40
2.0
 40
2.0
 40
2.0
 40
3.0
 40
3.0
 40
3.0
 40
4.0
 40
4.0
 40
4.0
 40
4.0
 10
43.95113232905848
 20
26.65340362156671
 30
0.0
 10
43.95113232905848
 20
26.65340362156671
 30
0.0
 10
44.03932677350295
 20
26.86872208944866
 30
0.0
 10
44.03932677350295
 20
26.86872208944866
 30
0.0
 10
44.31424539329458
 20
27.57565568319866
 30
0.0
 10
44.53197542801683
 20
28.3211743463931
 30
0.0
 10
44.67804747662796
 20
29.06462595229587
 30
0.0
 10
44.67804747662796
 20
29.06462595229587
 30
0.0
 10
44.7359250807946
 20
29.38123022746948
 30
0.0
 10
44.7359250807946
 20
29.38123022746948
 30
0.0
 10
44.7359250807946
 20
29.38123022746948
 30
0.0
 10
44.73868115718349
 20
29.38123022746948
 30
0.0
 10
44.73868115718349
 20
29.38123022746948
 30
0.0
  0
POLYLINE
  5
E24
330
1F
100
AcDbEntity
  8
0
100
AcDb2dPolyline
 66
     1
 10
0.0
 20
0.0
 30
0.0
  0
VERTEX
  5
E25
330
E24
100
AcDbEntity
  8
0
100
AcDbVertex
100
AcDb2dVertex
 10
42.44011386551685
 20
21.82510271097644
 30
0.0
  0
VERTEX
  5
E26
330
E24
100
AcDbEntity
  8
0
100
AcDbVertex
100
AcDb2dVertex
 10
42.90520086551686
 20
25.23609171097644
 30
0.0
  0
VERTEX
  5
E27
330
E24
100
AcDbEntity
  8
0
100
AcDbVertex
100
AcDb2dVertex
 10
42.90864686551685
 20
25.23609171097644
 30
0.0
  0
SEQEND
  5
E28
330
E24
100
AcDbEntity
  8
0
  0
SPLINE
  5
E29
330
1F
100
AcDbEntity
  8
0
100
AcDbSpline
210
0.0
220
0.0
230
1.0
 70
     8
 71
     3
 72
    17
 73
    13
 74
     0
 42
0.0000000001
 43
0.0000000001
 40
0.0
 40
0.0
 40
0.0
 40
0.0
 40
1.0
 40
1.0
 40
1.0
 40
2.0
 40
2.0
 40
2.0
 40
3.0
 40
3.0
 40
3.0
 40
4.0
 40
4.0
 40
4.0
 40
4.0
 10
42.44562560162797
 20
24.92224313979587
 30
0.0
 10
42.44562560162797
 20
24.92224313979587
 30
0.0
 10
42.67369092280847
 20
25.06624813111533
 30
0.0
 10
42.67369092280847
 20
25.06624813111533
 30
0.0
 10
42.99821891760015
 20
25.28466718493477
 30
0.0
 10
43.30276535857237
 20
25.57681128215698
 30
0.0
 10
43.53220871794738
 20
25.89410457642782
 30
0.0
 10
43.53220871794738
 20
25.89410457642782
 30
0.0
 10
43.61420199051681
 20
26.01847252347643
 30
0.0
 10
43.61420199051681
 20
26.01847252347643
 30
0.0
 10
43.61420199051681
 20
26.01847252347643
 30
0.0
 10
43.61558002871123
 20
26.01847252347643
 30
0.0
 10
43.61558002871123
 20
26.01847252347643
 30
0.0
  0
POLYLINE
  5
E2A
330
1F
100
AcDbEntity
  8
0
100
AcDb2dPolyline
 66
     1
 10
0.0
 20
0.0
 30
0.0
  0
VERTEX
  5
E2B
330
E2A
100
AcDbEntity
  8
0
100
AcDbVertex
100
AcDb2dVertex
 10
42.34847386551684
 20
31.62226471097644
 30
0.0
  0
VERTEX
  5
E2C
330
E2A
100
AcDbEntity
  8
0
100
AcDbVertex
100
AcDb2dVertex
 10
42.63166086551686
 20
31.61606371097644
 30
0.0
  0
VERTEX
  5
E2D
330
E2A
100
AcDbEntity
  8
0
100
AcDbVertex
100
AcDb2dVertex
 10
42.63579486551686
 20
31.61606371097644
 30
0.0
  0
SEQEND
  5
E2E
330
E2A
100
AcDbEntity
  8
0
  0
SPLINE
  5
E2F
330
1F
100
AcDbEntity
  8
0
100
AcDbSpline
210
0.0
220
0.0
230
1.0
 70
     8
 71
     3
 72
    17
 73
    13
 74
     0
 42
0.0000000001
 43
0.0000000001
 40
0.0
 40
0.0
 40
0.0
 40
0.0
 40
1.0
 40
1.0
 40
1.0
 40
2.0
 40
2.0
 40
2.0
 40
3.0
 40
3.0
 40
3.0
 40
4.0
 40
4.0
 40
4.0
 40
4.0
 10
33.09219135683628
 20
19.79800811375421
 30
0.0
 10
33.09219135683628
 20
19.79800811375421
 30
0.0
 10
31.93946240718347
 20
19.78319420316392
 30
0.0
 10
31.93946240718347
 20
19.78319420316392
 30
0.0
 10
30.69853901308631
 20
19.90618411201809
 30
0.0
 10
29.66914448183624
 20
20.81017716757366
 30
0.0
 10
29.3880246901696
 20
22.02526234552504
 30
0.0
 10
29.3880246901696
 20
22.02526234552504
 30
0.0
 10
29.34530550614184
 20
22.24678198528198
 30
0.0
 10
29.34530550614184
 20
22.24678198528198
 30
0.0
 10
29.34530550614184
 20
22.24678198528198
 30
0.0
 10
29.34943962072518
 20
22.24678198528198
 30
0.0
 10
29.34943962072518
 20
22.24678198528198
 30
0.0
  0
POLYLINE
  5
E30
330
1F
100
AcDbEntity
  8
0
100
AcDb2dPolyline
 66
     1
 10
0.0
 20
0.0
 30
0.0
  0
VERTEX
  5
E31
330
E30
100
AcDbEntity
  8
0
100
AcDbVertex
100
AcDb2dVertex
 10
31.63147086551683
 20
31.65292571097643
 30
0.0
  0
VERTEX
  5
E32
330
E30
100
AcDbEntity
  8
0
100
AcDbVertex
100
AcDb2dVertex
 10
30.78328786551683
 20
31.64327971097644
 30
0.0
  0
VERTEX
  5
E33
330
E30
100
AcDbEntity
  8
0
100
AcDbVertex
100
AcDb2dVertex
 10
30.78604486551686
 20
31.64327971097644
 30
0.0
  0
SEQEND
  5
E34
330
E30
100
AcDbEntity
  8
0
  0
LINE
  5
E35
330
1F
100
AcDbEntity
  8
0
100
AcDbLine
 10
25.71141886551683
 20
31.45827871097644
 30
0.0
 11
33.78258886551683
 21
31.45827871097644
 31
0.0
  0
SPLINE
  5
E36
330
1F
100
AcDbEntity
  8
0
100
AcDbSpline
210
0.0
220
0.0
230
1.0
 70
     8
 71
     3
 72
    17
 73
    13
 74
     0
 42
0.0000000001
 43
0.0000000001
 40
0.0
 40
0.0
 40
0.0
 40
0.0
 40
1.0
 40
1.0
 40
1.0
 40
2.0
 40
2.0
 40
2.0
 40
3.0
 40
3.0
 40
3.0
 40
4.0
 40
4.0
 40
4.0
 40
4.0
 10
35.7070188307946
 20
32.51351104344171
 30
0.0
 10
35.7070188307946
 20
32.51351104344171
 30
0.0
 10
35.27844895232238
 20
32.51351104344171
 30
0.0
 10
35.27844895232238
 20
32.51351104344171
 30
0.0
 10
32.54235411725299
 20
32.48595027955282
 30
0.0
 10
29.77249734641958
 20
32.2775220026431
 30
0.0
 10
27.14044439503073
 20
31.48790611722644
 30
0.0
 10
27.14044439503073
 20
31.48790611722644
 30
0.0
 10
27.02124409121129
 20
31.47412573528198
 30
0.0
 10
27.02124409121129
 20
31.47412573528198
 30
0.0
 10
27.02124409121129
 20
31.47412573528198
 30
0.0
 10
27.02537820579463
 20
31.47412573528198
 30
0.0
 10
27.02537820579463
 20
31.47412573528198
 30
0.0
  0
SPLINE
  5
E37
330
1F
100
AcDbEntity
  8
0
100
AcDbSpline
210
0.0
220
0.0
230
1.0
 70
     8
 71
     3
 72
    17
 73
    13
 74
     0
 42
0.0000000001
 43
0.0000000001
 40
0.0
 40
0.0
 40
0.0
 40
0.0
 40
1.0
 40
1.0
 40
1.0
 40
2.0
 40
2.0
 40
2.0
 40
3.0
 40
3.0
 40
3.0
 40
4.0
 40
4.0
 40
4.0
 40
4.0
 10
44.38934847489181
 20
31.47412573528198
 30
0.0
 10
44.38934847489181
 20
31.47412573528198
 30
0.0
 10
44.2708371901696
 20
31.48790611722644
 30
0.0
 10
44.2708371901696
 20
31.48790611722644
 30
0.0
 10
41.64016227697516
 20
32.27821102174032
 30
0.0
 10
38.87030550614182
 20
32.48560577000422
 30
0.0
 10
36.13489969016959
 20
32.51351104344171
 30
0.0
 10
36.13489969016959
 20
32.51351104344171
 30
0.0
 10
35.7070188307946
 20
32.51351104344171
 30
0.0
 10
35.7070188307946
 20
32.51351104344171
 30
0.0
 10
35.7070188307946
 20
32.51351104344171
 30
0.0
 10
35.70977490718346
 20
32.51351104344171
 30
0.0
 10
35.70977490718346
 20
32.51351104344171
 30
0.0
  0
POLYLINE
  5
E38
330
1F
100
AcDbEntity
  8
0
100
AcDb2dPolyline
 66
     1
 10
0.0
 20
0.0
 30
0.0
  0
VERTEX
  5
E39
330
E38
100
AcDbEntity
  8
0
100
AcDbVertex
100
AcDb2dVertex
 10
44.90886886551684
 20
30.60733971097644
 30
0.0
  0
VERTEX
  5
E3A
330
E38
100
AcDbEntity
  8
0
100
AcDbVertex
100
AcDb2dVertex
 10
44.91851486551683
 20
30.67693071097643
 30
0.0
  0
VERTEX
  5
E3B
330
E38
100
AcDbEntity
  8
0
100
AcDbVertex
100
AcDb2dVertex
 10
44.93091786551684
 20
30.74410971097643
 30
0.0
  0
VERTEX
  5
E3C
330
E38
100
AcDbEntity
  8
0
100
AcDbVertex
100
AcDb2dVertex
 10
44.94331986551685
 20
30.81404571097645
 30
0.0
  0
VERTEX
  5
E3D
330
E38
100
AcDbEntity
  8
0
100
AcDbVertex
100
AcDb2dVertex
 10
44.96192286551684
 20
30.87709071097644
 30
0.0
  0
VERTEX
  5
E3E
330
E38
100
AcDbEntity
  8
0
100
AcDbVertex
100
AcDb2dVertex
 10
44.98328286551685
 20
30.94116971097644
 30
0.0
  0
VERTEX
  5
E3F
330
E38
100
AcDbEntity
  8
0
100
AcDbVertex
100
AcDb2dVertex
 10
44.98397186551684
 20
30.94116971097644
 30
0.0
  0
SEQEND
  5
E40
330
E38
100
AcDbEntity
  8
0
  0
POLYLINE
  5
E41
330
1F
100
AcDbEntity
  8
0
100
AcDb2dPolyline
 66
     1
 10
0.0
 20
0.0
 30
0.0
  0
VERTEX
  5
E42
330
E41
100
AcDbEntity
  8
0
100
AcDbVertex
100
AcDb2dVertex
 10
46.28483986551683
 20
30.94116971097644
 30
0.0
  0
VERTEX
  5
E43
330
E41
100
AcDbEntity
  8
0
100
AcDbVertex
100
AcDb2dVertex
 10
46.18355386551684
 20
31.20644171097644
 30
0.0
  0
VERTEX
  5
E44
330
E41
100
AcDbEntity
  8
0
100
AcDbVertex
100
AcDb2dVertex
 10
45.97478186551685
 20
31.39144371097644
 30
0.0
  0
VERTEX
  5
E45
330
E41
100
AcDbEntity
  8
0
100
AcDbVertex
100
AcDb2dVertex
 10
45.69986286551684
 20
31.45827871097644
 30
0.0
  0
VERTEX
  5
E46
330
E41
100
AcDbEntity
  8
0
100
AcDbVertex
100
AcDb2dVertex
 10
45.70261886551685
 20
31.45827871097644
 30
0.0
  0
SEQEND
  5
E47
330
E41
100
AcDbEntity
  8
0
  0
POLYLINE
  5
E48
330
1F
100
AcDbEntity
  8
0
100
AcDb2dPolyline
 66
     1
 10
0.0
 20
0.0
 30
0.0
  0
VERTEX
  5
E49
330
E48
100
AcDbEntity
  8
0
100
AcDbVertex
100
AcDb2dVertex
 10
45.69986286551684
 20
31.45827871097644
 30
0.0
  0
VERTEX
  5
E4A
330
E48
100
AcDbEntity
  8
0
100
AcDbVertex
100
AcDb2dVertex
 10
37.63489386551683
 20
31.45827871097644
 30
0.0
  0
VERTEX
  5
E4B
330
E48
100
AcDbEntity
  8
0
100
AcDbVertex
100
AcDb2dVertex
 10
37.63902886551685
 20
31.45827871097644
 30
0.0
  0
SEQEND
  5
E4C
330
E48
100
AcDbEntity
  8
0
  0
POLYLINE
  5
E4D
330
1F
100
AcDbEntity
  8
0
100
AcDb2dPolyline
 66
     1
 10
0.0
 20
0.0
 30
0.0
  0
VERTEX
  5
E4E
330
E4D
100
AcDbEntity
  8
0
100
AcDbVertex
100
AcDb2dVertex
 10
46.28483986551683
 20
30.94116971097644
 30
0.0
  0
VERTEX
  5
E4F
330
E4D
100
AcDbEntity
  8
0
100
AcDbVertex
100
AcDb2dVertex
 10
25.13126486551684
 20
30.94116971097644
 30
0.0
  0
VERTEX
  5
E50
330
E4D
100
AcDbEntity
  8
0
100
AcDbVertex
100
AcDb2dVertex
 10
25.13264286551683
 20
30.94116971097644
 30
0.0
  0
SEQEND
  5
E51
330
E4D
100
AcDbEntity
  8
0
  0
LINE
  5
E52
330
1F
100
AcDbEntity
  8
0
100
AcDbLine
 10
45.52967486551685
 20
31.49755271097644
 30
0.0
 11
45.53311986551685
 21
31.49755271097644
 31
0.0
  0
LINE
  5
E53
330
1F
100
AcDbEntity
  8
0
100
AcDbLine
 10
46.11671886551684
 20
30.97768771097643
 30
0.0
 11
46.11947586551685
 21
30.97768771097643
 31
0.0
  0
ENDSEC
  0
SECTION
  2
OBJECTS
  0
DICTIONARY
  5
C
330
0
100
AcDbDictionary
281
     1
  3
ACAD_COLOR
350
C9
  3
ACAD_GROUP
350
D
  3
ACAD_LAYOUT
350
1A
  3
ACAD_MATERIAL
350
C8
  3
ACAD_MLEADERSTYLE
350
2EC
  3
ACAD_MLINESTYLE
350
17
  3
ACAD_PLOTSETTINGS
350
19
  3
ACAD_PLOTSTYLENAME
350
E
  3
ACAD_SCALELIST
350
2CA
  3
ACAD_TABLESTYLE
350
123
  3
ACAD_VISUALSTYLE
350
296
  3
ACDB_RECOMPOSE_DATA
350
30D
  3
AcDbVariableDictionary
350
9E
  3
AcmDictionary
350
63
  3
AMG
350
49
  3
AMGSNAPSETTINGS
350
8F4
  3
ASE_INDEX_DICTIONARY
350
E6C
  0
DICTIONARY
  5
E67
330
10
100
AcDbDictionary
280
     1
281
     1
  3
ADSK_XREC_LAYER_RECONCILED
360
E68
  0
DICTIONARY
  5
E69
330
38C
100
AcDbDictionary
280
     1
281
     1
  3
ADSK_XREC_LAYER_RECONCILED
360
E6A
  0
DICTIONARY
  5
99
330
1F
100
AcDbDictionary
280
     1
281
     1
  0
DICTIONARY
  5
C9
102
{ACAD_REACTORS
330
C
102
}
330
C
100
AcDbDictionary
281
     1
  0
DICTIONARY
  5
D
102
{ACAD_REACTORS
330
C
102
}
330
C
100
AcDbDictionary
281
     1
  0
DICTIONARY
  5
1A
102
{ACAD_REACTORS
330
C
102
}
330
C
100
AcDbDictionary
281
     1
  3
Layout1
350
1E
  3
Layout2
350
26
  3
Model
350
22
  0
DICTIONARY
  5
C8
102
{ACAD_REACTORS
330
C
102
}
330
C
100
AcDbDictionary
281
     1
  3
ByBlock
350
294
  3
ByLayer
350
293
  3
Global
350
295
  0
DICTIONARY
  5
2EC
102
{ACAD_REACTORS
330
C
102
}
330
C
100
AcDbDictionary
281
     1
  3
Standard
350
2ED
  0
DICTIONARY
  5
17
102
{ACAD_REACTORS
330
C
102
}
330
C
100
AcDbDictionary
281
     1
  3
Standard
350
18
  0
DICTIONARY
  5
19
102
{ACAD_REACTORS
330
C
102
}
330
C
100
AcDbDictionary
281
     1
  0
ACDBDICTIONARYWDFLT
  5
E
102
{ACAD_REACTORS
330
C
102
}
330
C
100
AcDbDictionary
281
     1
  3
Normal
350
F
100
AcDbDictionaryWithDefault
340
F
  0
DICTIONARY
  5
2CA
102
{ACAD_REACTORS
330
C
102
}
330
C
100
AcDbDictionary
281
     1
  3
A0
350
2CB
  3
A1
350
2CC
  3
A2
350
2CD
  3
A3
350
2CE
  3
A4
350
2CF
  3
A5
350
2D0
  3
A6
350
2D1
  3
A7
350
2D2
  3
A8
350
2D3
  3
A9
350
2D4
  3
B0
350
2D5
  3
B1
350
2D6
  3
B2
350
2D7
  3
B3
350
2D8
  3
B4
350
2D9
  3
B5
350
2DA
  3
B6
350
2DB
  3
B7
350
2DC
  3
B8
350
2DD
  3
B9
350
2DE
  3
C0
350
2DF
  3
C1
350
2E0
  3
C2
350
2E1
  3
C3
350
2E2
  3
C4
350
2E3
  3
C5
350
2E4
  3
C6
350
2E5
  3
C7
350
2E6
  3
C8
350
2E7
  3
C9
350
2E8
  3
D0
350
2E9
  3
D1
350
2EA
  3
D2
350
2EB
  0
DICTIONARY
  5
123
102
{ACAD_REACTORS
330
C
102
}
330
C
100
AcDbDictionary
281
     1
  3
Standard
350
124
  0
DICTIONARY
  5
296
102
{ACAD_REACTORS
330
C
102
}
330
C
100
AcDbDictionary
281
     1
  3
2dWireframe
350
29C
  3
3D Hidden
350
29E
  3
3dWireframe
350
29D
  3
Basic
350
29B
  3
Brighten
350
2A2
  3
ColorChange
350
2A6
  3
Conceptual
350
29F
  3
Dim
350
2A1
  3
Facepattern
350
2A5
  3
Flat
350
297
  3
FlatWithEdges
350
298
  3
Gouraud
350
299
  3
GouraudWithEdges
350
29A
  3
Linepattern
350
2A4
  3
Realistic
350
2A0
  3
Thicken
350
2A3
  0
XRECORD
  5
30D
102
{ACAD_REACTORS
330
C
102
}
330
C
100
AcDbXrecord
280
     1
 90
        1
330
124
  0
DICTIONARY
  5
9E
102
{ACAD_REACTORS
330
C
102
}
330
C
100
AcDbDictionary
281
     1
  3
CANNOSCALE
350
310
  3
CMLEADERSTYLE
350
30E
  3
CTABLESTYLE
350
144
  3
DIMASSOC
350
A0
  3
INDEXCTL
350
9F
  3
LAYEREVAL
350
36B
  3
LAYERNOTIFY
350
36C
  3
LIGHTINGUNITS
350
311
  3
MSLTSCALE
350
30F
  0
DICTIONARY
  5
63
102
{ACAD_REACTORS
330
C
102
}
330
C
100
AcDbDictionary
281
     1
  3
AcmStdDictionary
350
69
  3
AMDTSECTSYM_ARROWCOLOR
350
12C
  0
DICTIONARY
  5
49
102
{ACAD_REACTORS
330
C
102
}
330
C
100
AcDbDictionary
281
     1
  0
DICTIONARY
  5
8F4
102
{ACAD_REACTORS
330
C
102
}
330
C
100
AcDbDictionary
281
     1
  0
DICTIONARY
  5
E6C
102
{ACAD_REACTORS
330
C
102
}
330
C
100
AcDbDictionary
281
     1
  3
ASEBlockHierarchyIndexRecord
350
E6D
1001
DCO15
1040
1687863546.23
  0
XRECORD
  5
E68
102
{ACAD_REACTORS
330
E67
102
}
330
E67
100
AcDbXrecord
280
     1
290
     1
  0
XRECORD
  5
E6A
102
{ACAD_REACTORS
330
E69
102
}
330
E69
100
AcDbXrecord
280
     1
290
     1
  0
LAYOUT
  5
1E
102
{ACAD_REACTORS
330
1A
102
}
330
1A
100
AcDbPlotSettings
  1

  2

  4

  6

 40
0.0
 41
0.0
 42
0.0
 43
0.0
 44
0.0
 45
0.0
 46
0.0
 47
0.0
 48
0.0
 49
0.0
140
0.0
141
0.0
142
1.0
143
1.0
 70
   688
 72
     0
 73
     0
 74
     5
  7

 75
    16
147
1.0
 76
     0
 77
     2
 78
   300
148
0.0
149
0.0
100
AcDbLayout
  1
Layout1
 70
     1
 71
     1
 10
0.0
 20
0.0
 11
12.0
 21
9.0
 12
0.0
 22
0.0
 32
0.0
 14
1.000000000000000E+20
 24
1.000000000000000E+20
 34
1.000000000000000E+20
 15
-1.000000000000000E+20
 25
-1.000000000000000E+20
 35
-1.000000000000000E+20
146
0.0
 13
0.0
 23
0.0
 33
0.0
 16
1.0
 26
0.0
 36
0.0
 17
0.0
 27
1.0
 37
0.0
 76
     0
330
1B
  0
LAYOUT
  5
26
102
{ACAD_REACTORS
330
1A
102
}
330
1A
100
AcDbPlotSettings
  1

  2

  4

  6

 40
0.0
 41
0.0
 42
0.0
 43
0.0
 44
0.0
 45
0.0
 46
0.0
 47
0.0
 48
0.0
 49
0.0
140
0.0
141
0.0
142
1.0
143
1.0
 70
   688
 72
     0
 73
     0
 74
     5
  7

 75
    16
147
1.0
 76
     0
 77
     2
 78
   300
148
0.0
149
0.0
100
AcDbLayout
  1
Layout2
 70
     1
 71
     2
 10
0.0
 20
0.0
 11
12.0
 21
9.0
 12
0.0
 22
0.0
 32
0.0
 14
0.0
 24
0.0
 34
0.0
 15
0.0
 25
0.0
 35
0.0
146
0.0
 13
0.0
 23
0.0
 33
0.0
 16
1.0
 26
0.0
 36
0.0
 17
0.0
 27
1.0
 37
0.0
 76
     0
330
23
  0
LAYOUT
  5
22
102
{ACAD_REACTORS
330
1A
102
}
330
1A
100
AcDbPlotSettings
  1

  2

  4

  6

 40
0.0
 41
0.0
 42
0.0
 43
0.0
 44
0.0
 45
0.0
 46
0.0
 47
0.0
 48
0.0
 49
0.0
140
0.0
141
0.0
142
1.0
143
1.0
 70
  1712
 72
     0
 73
     0
 74
     0
  7

 75
     0
147
1.0
 76
     0
 77
     2
 78
   300
148
0.0
149
0.0
100
AcDbLayout
  1
Model
 70
     1
 71
     0
 10
0.0
 20
0.0
 11
12.0
 21
9.0
 12
0.0
 22
0.0
 32
0.0
 14
0.0
 24
0.0
 34
0.0
 15
0.0
 25
0.0
 35
0.0
146
0.0
 13
0.0
 23
0.0
 33
0.0
 16
1.0
 26
0.0
 36
0.0
 17
0.0
 27
1.0
 37
0.0
 76
     0
330
1F
331
291
  0
MATERIAL
  5
294
102
{ACAD_REACTORS
330
C8
102
}
330
C8
100
AcDbMaterial
  1
ByBlock
 73
     1
 78
     1
172
     1
176
     1
270
     1
274
     1
 94
       63
  0
MATERIAL
  5
293
102
{ACAD_REACTORS
330
C8
102
}
330
C8
100
AcDbMaterial
  1
ByLayer
 73
     1
 78
     1
172
     1
176
     1
270
     1
274
     1
 94
       63
  0
MATERIAL
  5
295
102
{ACAD_REACTORS
330
C8
102
}
330
C8
100
AcDbMaterial
  1
Global
 73
     1
 78
     1
172
     1
176
     1
270
     1
274
     1
 94
       63
  0
MLEADERSTYLE
  5
2ED
102
{ACAD_REACTORS
330
2EC
102
}
330
2EC
100
AcDbMLeaderStyle
170
     2
171
     1
172
     0
 90
        2
 40
0.0
 41
0.0
173
     1
 91
-1056964608
340
14
 92
       -2
290
     1
 42
0.09
291
     1
 43
0.36
  3
Standard
 44
0.18
300

342
11
174
     1
178
     6
175
     1
176
     0
 93
-1056964608
 45
0.18
292
     0
297
     0
 46
0.18
 94
-1056964608
 47
1.0
 49
1.0
140
1.0
293
     1
141
0.0
294
     1
177
     0
142
1.0
295
     0
296
     0
143
0.125
1001
ACAD_MLEADERVER
1070
     2
  0
MLINESTYLE
  5
18
102
{ACAD_REACTORS
330
17
102
}
330
17
100
AcDbMlineStyle
  2
STANDARD
 70
     0
  3

 62
   256
 51
90.0
 52
90.0
 71
     2
 49
0.5
 62
   256
  6
BYLAYER
 49
-0.5
 62
   256
  6
BYLAYER
  0
ACDBPLACEHOLDER
  5
F
102
{ACAD_REACTORS
330
E
102
}
330
E
  0
SCALE
  5
2CB
102
{ACAD_REACTORS
330
2CA
102
}
330
2CA
100
AcDbScale
 70
     0
300
1:1
140
1.0
141
1.0
290
     1
  0
SCALE
  5
2CC
102
{ACAD_REACTORS
330
2CA
102
}
330
2CA
100
AcDbScale
 70
     0
300
1:2
140
1.0
141
2.0
290
     0
  0
SCALE
  5
2CD
102
{ACAD_REACTORS
330
2CA
102
}
330
2CA
100
AcDbScale
 70
     0
300
1:4
140
1.0
141
4.0
290
     0
  0
SCALE
  5
2CE
102
{ACAD_REACTORS
330
2CA
102
}
330
2CA
100
AcDbScale
 70
     0
300
1:5
140
1.0
141
5.0
290
     0
  0
SCALE
  5
2CF
102
{ACAD_REACTORS
330
2CA
102
}
330
2CA
100
AcDbScale
 70
     0
300
1:8
140
1.0
141
8.0
290
     0
  0
SCALE
  5
2D0
102
{ACAD_REACTORS
330
2CA
102
}
330
2CA
100
AcDbScale
 70
     0
300
1:10
140
1.0
141
10.0
290
     0
  0
SCALE
  5
2D1
102
{ACAD_REACTORS
330
2CA
102
}
330
2CA
100
AcDbScale
 70
     0
300
1:16
140
1.0
141
16.0
290
     0
  0
SCALE
  5
2D2
102
{ACAD_REACTORS
330
2CA
102
}
330
2CA
100
AcDbScale
 70
     0
300
1:20
140
1.0
141
20.0
290
     0
  0
SCALE
  5
2D3
102
{ACAD_REACTORS
330
2CA
102
}
330
2CA
100
AcDbScale
 70
     0
300
1:30
140
1.0
141
30.0
290
     0
  0
SCALE
  5
2D4
102
{ACAD_REACTORS
330
2CA
102
}
330
2CA
100
AcDbScale
 70
     0
300
1:40
140
1.0
141
40.0
290
     0
  0
SCALE
  5
2D5
102
{ACAD_REACTORS
330
2CA
102
}
330
2CA
100
AcDbScale
 70
     0
300
1:50
140
1.0
141
50.0
290
     0
  0
SCALE
  5
2D6
102
{ACAD_REACTORS
330
2CA
102
}
330
2CA
100
AcDbScale
 70
     0
300
1:100
140
1.0
141
100.0
290
     0
  0
SCALE
  5
2D7
102
{ACAD_REACTORS
330
2CA
102
}
330
2CA
100
AcDbScale
 70
     0
300
2:1
140
2.0
141
1.0
290
     0
  0
SCALE
  5
2D8
102
{ACAD_REACTORS
330
2CA
102
}
330
2CA
100
AcDbScale
 70
     0
300
4:1
140
4.0
141
1.0
290
     0
  0
SCALE
  5
2D9
102
{ACAD_REACTORS
330
2CA
102
}
330
2CA
100
AcDbScale
 70
     0
300
8:1
140
8.0
141
1.0
290
     0
  0
SCALE
  5
2DA
102
{ACAD_REACTORS
330
2CA
102
}
330
2CA
100
AcDbScale
 70
     0
300
10:1
140
10.0
141
1.0
290
     0
  0
SCALE
  5
2DB
102
{ACAD_REACTORS
330
2CA
102
}
330
2CA
100
AcDbScale
 70
     0
300
100:1
140
100.0
141
1.0
290
     0
  0
SCALE
  5
2DC
102
{ACAD_REACTORS
330
2CA
102
}
330
2CA
100
AcDbScale
 70
     0
300
1/128" = 1'-0"
140
0.0078125
141
12.0
290
     0
  0
SCALE
  5
2DD
102
{ACAD_REACTORS
330
2CA
102
}
330
2CA
100
AcDbScale
 70
     0
300
1/64" = 1'-0"
140
0.015625
141
12.0
290
     0
  0
SCALE
  5
2DE
102
{ACAD_REACTORS
330
2CA
102
}
330
2CA
100
AcDbScale
 70
     0
300
1/32" = 1'-0"
140
0.03125
141
12.0
290
     0
  0
SCALE
  5
2DF
102
{ACAD_REACTORS
330
2CA
102
}
330
2CA
100
AcDbScale
 70
     0
300
1/16" = 1'-0"
140
0.0625
141
12.0
290
     0
  0
SCALE
  5
2E0
102
{ACAD_REACTORS
330
2CA
102
}
330
2CA
100
AcDbScale
 70
     0
300
3/32" = 1'-0"
140
0.09375
141
12.0
290
     0
  0
SCALE
  5
2E1
102
{ACAD_REACTORS
330
2CA
102
}
330
2CA
100
AcDbScale
 70
     0
300
1/8" = 1'-0"
140
0.125
141
12.0
290
     0
  0
SCALE
  5
2E2
102
{ACAD_REACTORS
330
2CA
102
}
330
2CA
100
AcDbScale
 70
     0
300
3/16" = 1'-0"
140
0.1875
141
12.0
290
     0
  0
SCALE
  5
2E3
102
{ACAD_REACTORS
330
2CA
102
}
330
2CA
100
AcDbScale
 70
     0
300
1/4" = 1'-0"
140
0.25
141
12.0
290
     0
  0
SCALE
  5
2E4
102
{ACAD_REACTORS
330
2CA
102
}
330
2CA
100
AcDbScale
 70
     0
300
3/8" = 1'-0"
140
0.375
141
12.0
290
     0
  0
SCALE
  5
2E5
102
{ACAD_REACTORS
330
2CA
102
}
330
2CA
100
AcDbScale
 70
     0
300
1/2" = 1'-0"
140
0.5
141
12.0
290
     0
  0
SCALE
  5
2E6
102
{ACAD_REACTORS
330
2CA
102
}
330
2CA
100
AcDbScale
 70
     0
300
3/4" = 1'-0"
140
0.75
141
12.0
290
     0
  0
SCALE
  5
2E7
102
{ACAD_REACTORS
330
2CA
102
}
330
2CA
100
AcDbScale
 70
     0
300
1" = 1'-0"
140
1.0
141
12.0
290
     0
  0
SCALE
  5
2E8
102
{ACAD_REACTORS
330
2CA
102
}
330
2CA
100
AcDbScale
 70
     0
300
1-1/2" = 1'-0"
140
1.5
141
12.0
290
     0
  0
SCALE
  5
2E9
102
{ACAD_REACTORS
330
2CA
102
}
330
2CA
100
AcDbScale
 70
     0
300
3" = 1'-0"
140
3.0
141
12.0
290
     0
  0
SCALE
  5
2EA
102
{ACAD_REACTORS
330
2CA
102
}
330
2CA
100
AcDbScale
 70
     0
300
6" = 1'-0"
140
6.0
141
12.0
290
     0
  0
SCALE
  5
2EB
102
{ACAD_REACTORS
330
2CA
102
}
330
2CA
100
AcDbScale
 70
     0
300
1'-0" = 1'-0"
140
12.0
141
12.0
290
     0
  0
TABLESTYLE
  5
124
102
{ACAD_XDICTIONARY
360
30B
102
}
102
{ACAD_REACTORS
330
123
102
}
330
123
100
AcDbTableStyle
  3
Standard
 70
     0
 71
     0
 40
0.06
 41
0.06
280
     0
281
     0
  7
STANDARD
140
0.18
170
     2
 62
     0
 63
     7
283
     0
 90
      512
 91
        0
  1

274
    -2
284
     1
 64
     0
275
    -2
285
     1
 65
     0
276
    -2
286
     1
 66
     0
277
    -2
287
     1
 67
     0
278
    -2
288
     1
 68
     0
279
    -2
289
     1
 69
     0
  7
STANDARD
140
0.25
170
     5
 62
     0
 63
     7
283
     0
 90
      512
 91
        0
  1

274
    -2
284
     1
 64
     0
275
    -2
285
     1
 65
     0
276
    -2
286
     1
 66
     0
277
    -2
287
     1
 67
     0
278
    -2
288
     1
 68
     0
279
    -2
289
     1
 69
     0
  7
STANDARD
140
0.18
170
     5
 62
     0
 63
     7
283
     0
 90
      512
 91
        0
  1

274
    -2
284
     1
 64
     0
275
    -2
285
     1
 65
     0
276
    -2
286
     1
 66
     0
277
    -2
287
     1
 67
     0
278
    -2
288
     1
 68
     0
279
    -2
289
     1
 69
     0
  0
VISUALSTYLE
  5
29C
102
{ACAD_REACTORS
330
296
102
}
330
296
100
AcDbVisualStyle
  2
2dWireframe
 70
     4
 71
     0
 72
     2
 73
     0
 90
        0
 40
-0.6
 41
-30.0
 62
     5
 63
     7
421
 16777215
 74
     1
 91
        4
 64
     7
 65
   257
 75
     1
175
     1
 42
1.0
 92
        0
 66
   257
 43
1.0
 76
     1
 77
     6
 78
     2
 67
     7
 79
     5
170
     0
171
     0
290
     0
174
     0
 93
        1
 44
0.0
173
     0
291
     0
 45
0.0
  0
VISUALSTYLE
  5
29E
102
{ACAD_REACTORS
330
296
102
}
330
296
100
AcDbVisualStyle
  2
3D Hidden
 70
     6
 71
     1
 72
     2
 73
     2
 90
        0
 40
-0.6
 41
-30.0
 62
     5
 63
     7
421
 16777215
 74
     2
 91
        2
 64
     7
 65
   257
 75
     2
175
     1
 42
40.0
 92
        0
 66
   257
 43
1.0
 76
     1
 77
     6
 78
     2
 67
     7
 79
     3
170
     0
171
     0
290
     0
174
     0
 93
        1
 44
0.0
173
     0
291
     0
 45
0.0
  0
VISUALSTYLE
  5
29D
102
{ACAD_REACTORS
330
296
102
}
330
296
100
AcDbVisualStyle
  2
3dWireframe
 70
     5
 71
     0
 72
     2
 73
     0
 90
        0
 40
-0.6
 41
-30.0
 62
     5
 63
     7
421
 16777215
 74
     1
 91
        4
 64
     7
 65
   257
 75
     1
175
     1
 42
1.0
 92
        0
 66
   257
 43
1.0
 76
     1
 77
     6
 78
     2
 67
     7
 79
     5
170
     0
171
     0
290
     0
174
     0
 93
        1
 44
0.0
173
     0
291
     0
 45
0.0
  0
VISUALSTYLE
  5
29B
102
{ACAD_REACTORS
330
296
102
}
330
296
100
AcDbVisualStyle
  2
Basic
 70
     7
 71
     1
 72
     0
 73
     1
 90
        0
 40
-0.6
 41
-30.0
 62
     5
 63
     7
421
 16777215
 74
     0
 91
        4
 64
     7
 65
   257
 75
     1
175
     1
 42
1.0
 92
        8
 66
     7
 43
1.0
 76
     1
 77
     6
 78
     2
 67
     7
 79
     5
170
     0
171
     0
290
     0
174
     0
 93
        1
 44
0.0
173
     0
291
     1
 45
0.0
  0
VISUALSTYLE
  5
2A2
102
{ACAD_REACTORS
330
296
102
}
330
296
100
AcDbVisualStyle
  2
Brighten
 70
    12
 71
     2
 72
     2
 73
     0
 90
        0
 40
-0.6
 41
-30.0
 62
     5
 63
     7
421
 16777215
 74
     1
 91
        4
 64
     7
 65
   257
 75
     1
175
     1
 42
1.0
 92
        8
 66
     7
 43
1.0
 76
     1
 77
     6
 78
     2
 67
     7
 79
     5
170
     0
171
     0
290
     0
174
     0
 93
        1
 44
50.0
173
     0
291
     1
 45
0.0
  0
VISUALSTYLE
  5
2A6
102
{ACAD_REACTORS
330
296
102
}
330
296
100
AcDbVisualStyle
  2
ColorChange
 70
    16
 71
     2
 72
     2
 73
     3
 90
        0
 40
-0.6
 41
-30.0
 62
     5
 63
     8
421
  8421504
 74
     1
 91
        4
 64
     7
 65
   257
 75
     1
175
     1
 42
1.0
 92
        8
 66
     8
424
  8421504
 43
1.0
 76
     1
 77
     6
 78
     2
 67
     7
 79
     5
170
     0
171
     0
290
     0
174
     0
 93
        1
 44
0.0
173
     0
291
     1
 45
0.0
  0
VISUALSTYLE
  5
29F
102
{ACAD_REACTORS
330
296
102
}
330
296
100
AcDbVisualStyle
  2
Conceptual
 70
     9
 71
     3
 72
     2
 73
     0
 90
        0
 40
-0.6
 41
-30.0
 62
     5
 63
     7
421
 16777215
 74
     2
 91
        2
 64
     7
 65
   257
 75
     1
175
     1
 42
40.0
 92
        8
 66
     7
 43
1.0
 76
     1
 77
     6
 78
     2
 67
     7
 79
     3
170
     0
171
     0
290
     0
174
     0
 93
        1
 44
0.0
173
     0
291
     0
 45
0.0
  0
VISUALSTYLE
  5
2A1
102
{ACAD_REACTORS
330
296
102
}
330
296
100
AcDbVisualStyle
  2
Dim
 70
    11
 71
     2
 72
     2
 73
     0
 90
        0
 40
-0.6
 41
-30.0
 62
     5
 63
     7
421
 16777215
 74
     1
 91
        4
 64
     7
 65
   257
 75
     1
175
     1
 42
1.0
 92
        8
 66
     7
 43
1.0
 76
     1
 77
     6
 78
     2
 67
     7
 79
     5
170
     0
171
     0
290
     0
174
     0
 93
        1
 44
-50.0
173
     0
291
     1
 45
0.0
  0
VISUALSTYLE
  5
2A5
102
{ACAD_REACTORS
330
296
102
}
330
296
100
AcDbVisualStyle
  2
Facepattern
 70
    15
 71
     2
 72
     2
 73
     0
 90
        0
 40
-0.6
 41
-30.0
 62
     5
 63
     7
421
 16777215
 74
     1
 91
        4
 64
     7
 65
   257
 75
     1
175
     1
 42
1.0
 92
        8
 66
     7
 43
1.0
 76
     1
 77
     6
 78
     2
 67
     7
 79
     5
170
     0
171
     0
290
     0
174
     0
 93
        1
 44
0.0
173
     0
291
     1
 45
0.0
  0
VISUALSTYLE
  5
297
102
{ACAD_REACTORS
330
296
102
}
330
296
100
AcDbVisualStyle
  2
Flat
 70
     0
 71
     2
 72
     1
 73
     1
 90
        2
 40
-0.6
 41
30.0
 62
     5
 63
     7
421
 16777215
 74
     0
 91
        4
 64
     7
 65
   257
 75
     1
175
     1
 42
1.0
 92
        8
 66
     7
 43
1.0
 76
     1
 77
     6
 78
     2
 67
     7
 79
     5
170
     0
171
     0
290
     0
174
     0
 93
       13
 44
0.0
173
     0
291
     1
 45
0.0
  0
VISUALSTYLE
  5
298
102
{ACAD_REACTORS
330
296
102
}
330
296
100
AcDbVisualStyle
  2
FlatWithEdges
 70
     1
 71
     2
 72
     1
 73
     1
 90
        2
 40
-0.6
 41
30.0
 62
     5
 63
     7
421
 16777215
 74
     1
 91
        4
 64
     7
 65
   257
 75
     1
175
     1
 42
1.0
 92
        0
 66
   257
 43
1.0
 76
     1
 77
     6
 78
     2
 67
     7
 79
     5
170
     0
171
     0
290
     0
174
     0
 93
       13
 44
0.0
173
     0
291
     1
 45
0.0
  0
VISUALSTYLE
  5
299
102
{ACAD_REACTORS
330
296
102
}
330
296
100
AcDbVisualStyle
  2
Gouraud
 70
     2
 71
     2
 72
     2
 73
     1
 90
        2
 40
-0.6
 41
30.0
 62
     5
 63
     7
421
 16777215
 74
     0
 91
        4
 64
     7
 65
   257
 75
     1
175
     1
 42
1.0
 92
        0
 66
     7
 43
1.0
 76
     1
 77
     6
 78
     2
 67
     7
 79
     5
170
     0
171
     0
290
     0
174
     0
 93
       13
 44
0.0
173
     0
291
     1
 45
0.0
  0
VISUALSTYLE
  5
29A
102
{ACAD_REACTORS
330
296
102
}
330
296
100
AcDbVisualStyle
  2
GouraudWithEdges
 70
     3
 71
     2
 72
     2
 73
     1
 90
        2
 40
-0.6
 41
30.0
 62
     5
 63
     7
421
 16777215
 74
     1
 91
        4
 64
     7
 65
   257
 75
     1
175
     1
 42
1.0
 92
        0
 66
   257
 43
1.0
 76
     1
 77
     6
 78
     2
 67
     7
 79
     5
170
     0
171
     0
290
     0
174
     0
 93
       13
 44
0.0
173
     0
291
     1
 45
0.0
  0
VISUALSTYLE
  5
2A4
102
{ACAD_REACTORS
330
296
102
}
330
296
100
AcDbVisualStyle
  2
Linepattern
 70
    14
 71
     2
 72
     2
 73
     0
 90
        0
 40
-0.6
 41
-30.0
 62
     5
 63
     7
421
 16777215
 74
     1
 91
        4
 64
     7
 65
   257
 75
     7
175
     7
 42
1.0
 92
        8
 66
     7
 43
1.0
 76
     1
 77
     6
 78
     2
 67
     7
 79
     5
170
     0
171
     0
290
     0
174
     0
 93
        1
 44
0.0
173
     0
291
     1
 45
0.0
  0
VISUALSTYLE
  5
2A0
102
{ACAD_REACTORS
330
296
102
}
330
296
100
AcDbVisualStyle
  2
Realistic
 70
     8
 71
     2
 72
     2
 73
     0
 90
        0
 40
-0.6
 41
-30.0
 62
     5
 63
     7
421
 16777215
 74
     1
 91
        0
 64
     7
 65
   257
 75
     1
175
     1
 42
1.0
 92
        8
 66
     8
424
  7895160
 43
1.0
 76
     1
 77
     6
 78
     2
 67
     7
 79
     5
170
     0
171
     0
290
     0
174
     0
 93
       13
 44
0.0
173
     0
291
     0
 45
0.0
  0
VISUALSTYLE
  5
2A3
102
{ACAD_REACTORS
330
296
102
}
330
296
100
AcDbVisualStyle
  2
Thicken
 70
    13
 71
     2
 72
     2
 73
     0
 90
        0
 40
-0.6
 41
-30.0
 62
     5
 63
     7
421
 16777215
 74
     1
 91
        4
 64
     7
 65
   257
 75
     1
175
     1
 42
1.0
 92
       12
 66
     7
 43
1.0
 76
     1
 77
     6
 78
     2
 67
     7
 79
     5
170
     0
171
     0
290
     0
174
     0
 93
        1
 44
0.0
173
     0
291
     1
 45
0.0
  0
DICTIONARYVAR
  5
310
102
{ACAD_REACTORS
330
9E
102
}
330
9E
100
DictionaryVariables
280
     0
  1
1:1
  0
DICTIONARYVAR
  5
30E
102
{ACAD_REACTORS
330
9E
102
}
330
9E
100
DictionaryVariables
280
     0
  1
STANDARD
  0
DICTIONARYVAR
  5
144
102
{ACAD_REACTORS
330
9E
102
}
330
9E
100
DictionaryVariables
280
     0
  1
STANDARD
  0
DICTIONARYVAR
  5
A0
102
{ACAD_REACTORS
330
9E
102
}
330
9E
100
DictionaryVariables
280
     0
  1
2
  0
DICTIONARYVAR
  5
9F
102
{ACAD_REACTORS
330
9E
102
}
330
9E
100
DictionaryVariables
280
     0
  1
1
  0
DICTIONARYVAR
  5
36B
102
{ACAD_REACTORS
330
9E
102
}
330
9E
100
DictionaryVariables
280
     0
  1
1
  0
DICTIONARYVAR
  5
36C
102
{ACAD_REACTORS
330
9E
102
}
330
9E
100
DictionaryVariables
280
     0
  1
15
  0
DICTIONARYVAR
  5
311
102
{ACAD_REACTORS
330
9E
102
}
330
9E
100
DictionaryVariables
280
     0
  1
0
  0
DICTIONARYVAR
  5
30F
102
{ACAD_REACTORS
330
9E
102
}
330
9E
100
DictionaryVariables
280
     0
  1
0
  0
DICTIONARY
  5
69
102
{ACAD_REACTORS
330
63
102
}
330
63
100
AcDbDictionary
281
     1
  0
XRECORD
  5
12C
102
{ACAD_REACTORS
330
63
102
}
330
63
100
AcDbXrecord
280
     1
 90
-1023410169
  0
XRECORD
  5
E6D
102
{ACAD_REACTORS
330
E6C
102
}
330
E6C
100
AcDbXrecord
280
     1
  0
DICTIONARY
  5
30B
330
124
100
AcDbDictionary
280
     1
281
     1
  3
ACAD_ROUNDTRIP_2008_TABLESTYLE_CELLSTYLEMAP
360
E6E
  0
CELLSTYLEMAP
  5
E6E
102
{ACAD_REACTORS
330
30B
102
}
330
30B
100
AcDbCellStyleMap
 90
        3
300
CELLSTYLE
  1
TABLEFORMAT_BEGIN
 90
        5
170
     1
 91
        0
 92
    32768
 62
   257
 93
        1
300
CONTENTFORMAT
  1
CONTENTFORMAT_BEGIN
 90
        0
 91
        0
 92
      512
 93
        0
300

 40
0.0
140
1.0
 94
        5
 62
     0
340
11
144
0.25
309
CONTENTFORMAT_END
171
     0
 94
        6
 95
        1
302
GRIDFORMAT
  1
GRIDFORMAT_BEGIN
 90
        0
 91
        1
 62
     0
 92
       -2
340
0
 93
        0
 40
0.045
309
GRIDFORMAT_END
 95
        2
302
GRIDFORMAT
  1
GRIDFORMAT_BEGIN
 90
        0
 91
        1
 62
     0
 92
       -2
340
0
 93
        0
 40
0.045
309
GRIDFORMAT_END
 95
        4
302
GRIDFORMAT
  1
GRIDFORMAT_BEGIN
 90
        0
 91
        1
 62
     0
 92
       -2
340
0
 93
        0
 40
0.045
309
GRIDFORMAT_END
 95
        8
302
GRIDFORMAT
  1
GRIDFORMAT_BEGIN
 90
        0
 91
        1
 62
     0
 92
       -2
340
0
 93
        0
 40
0.045
309
GRIDFORMAT_END
 95
       16
302
GRIDFORMAT
  1
GRIDFORMAT_BEGIN
 90
        0
 91
        1
 62
     0
 92
       -2
340
0
 93
        0
 40
0.045
309
GRIDFORMAT_END
 95
       32
302
GRIDFORMAT
  1
GRIDFORMAT_BEGIN
 90
        0
 91
        1
 62
     0
 92
       -2
340
0
 93
        0
 40
0.045
309
GRIDFORMAT_END
309
TABLEFORMAT_END
  1
CELLSTYLE_BEGIN
 90
        1
 91
        1
300
_TITLE
309
CELLSTYLE_END
300
CELLSTYLE
  1
TABLEFORMAT_BEGIN
 90
        5
170
     1
 91
        0
 92
        0
 62
   257
 93
        1
300
CONTENTFORMAT
  1
CONTENTFORMAT_BEGIN
 90
        0
 91
        0
 92
      512
 93
        0
300

 40
0.0
140
1.0
 94
        5
 62
     0
340
11
144
0.18
309
CONTENTFORMAT_END
171
     0
 94
        6
 95
        1
302
GRIDFORMAT
  1
GRIDFORMAT_BEGIN
 90
        0
 91
        1
 62
     0
 92
       -2
340
0
 93
        0
 40
0.045
309
GRIDFORMAT_END
 95
        2
302
GRIDFORMAT
  1
GRIDFORMAT_BEGIN
 90
        0
 91
        1
 62
     0
 92
       -2
340
0
 93
        0
 40
0.045
309
GRIDFORMAT_END
 95
        4
302
GRIDFORMAT
  1
GRIDFORMAT_BEGIN
 90
        0
 91
        1
 62
     0
 92
       -2
340
0
 93
        0
 40
0.045
309
GRIDFORMAT_END
 95
        8
302
GRIDFORMAT
  1
GRIDFORMAT_BEGIN
 90
        0
 91
        1
 62
     0
 92
       -2
340
0
 93
        0
 40
0.045
309
GRIDFORMAT_END
 95
       16
302
GRIDFORMAT
  1
GRIDFORMAT_BEGIN
 90
        0
 91
        1
 62
     0
 92
       -2
340
0
 93
        0
 40
0.045
309
GRIDFORMAT_END
 95
       32
302
GRIDFORMAT
  1
GRIDFORMAT_BEGIN
 90
        0
 91
        1
 62
     0
 92
       -2
340
0
 93
        0
 40
0.045
309
GRIDFORMAT_END
309
TABLEFORMAT_END
  1
CELLSTYLE_BEGIN
 90
        2
 91
        1
300
_HEADER
309
CELLSTYLE_END
300
CELLSTYLE
  1
TABLEFORMAT_BEGIN
 90
        5
170
     1
 91
        0
 92
        0
 62
   257
 93
        1
300
CONTENTFORMAT
  1
CONTENTFORMAT_BEGIN
 90
        0
 91
        0
 92
      512
 93
        0
300

 40
0.0
140
1.0
 94
        2
 62
     0
340
11
144
0.18
309
CONTENTFORMAT_END
171
     0
 94
        6
 95
        1
302
GRIDFORMAT
  1
GRIDFORMAT_BEGIN
 90
        0
 91
        1
 62
     0
 92
       -2
340
0
 93
        0
 40
0.045
309
GRIDFORMAT_END
 95
        2
302
GRIDFORMAT
  1
GRIDFORMAT_BEGIN
 90
        0
 91
        1
 62
     0
 92
       -2
340
0
 93
        0
 40
0.045
309
GRIDFORMAT_END
 95
        4
302
GRIDFORMAT
  1
GRIDFORMAT_BEGIN
 90
        0
 91
        1
 62
     0
 92
       -2
340
0
 93
        0
 40
0.045
309
GRIDFORMAT_END
 95
        8
302
GRIDFORMAT
  1
GRIDFORMAT_BEGIN
 90
        0
 91
        1
 62
     0
 92
       -2
340
0
 93
        0
 40
0.045
309
GRIDFORMAT_END
 95
       16
302
GRIDFORMAT
  1
GRIDFORMAT_BEGIN
 90
        0
 91
        1
 62
     0
 92
       -2
340
0
 93
        0
 40
0.045
309
GRIDFORMAT_END
 95
       32
302
GRIDFORMAT
  1
GRIDFORMAT_BEGIN
 90
        0
 91
        1
 62
     0
 92
       -2
340
0
 93
        0
 40
0.045
309
GRIDFORMAT_END
309
TABLEFORMAT_END
  1
CELLSTYLE_BEGIN
 90
        3
 91
        2
300
_DATA
309
CELLSTYLE_END
  0
ENDSEC
  0
EOF
