  0
SECTION
  2
HEADER
  9
$ACADVER
  1
AC1021
  9
$ACADMAINTVER
 70
    50
  9
$DWGCODEPAGE
  3
ANSI_936
  9
$LASTSAVEDBY
  1
ko69185
  9
$CUSTOMPROPERTYTAG
  1
AmdtFileType
  9
$CUSTOMPROPERTY
  1
84
  9
$INSBASE
 10
0.0
 20
0.0
 30
0.0
  9
$EXTMIN
 10
3.852917885771006
 20
14.92404919867684
 30
0.0
  9
$EXTMAX
 10
65.55272683120872
 20
49.05605121737163
 30
0.0
  9
$LIMMIN
 10
0.0
 20
0.0
  9
$LIMMAX
 10
17.0
 20
11.0
  9
$ORTHOMODE
 70
     0
  9
$REGENMODE
 70
     1
  9
$FILLMODE
 70
     1
  9
$QTEXTMODE
 70
     0
  9
$MIRRTEXT
 70
     1
  9
$LTSCALE
 40
1.0
  9
$ATTMODE
 70
     1
  9
$TEXTSIZE
 40
0.2
  9
$TRACEWID
 40
0.05
  9
$TEXTSTYLE
  7
STANDARD
  9
$CLAYER
  8
0
  9
$CELTYPE
  6
ByLayer
  9
$CECOLOR
 62
   256
  9
$CELTSCALE
 40
1.0
  9
$DISPSILH
 70
     0
  9
$DIMSCALE
 40
1.0
  9
$DIMASZ
 40
0.12
  9
$DIMEXO
 40
0.05
  9
$DIMDLI
 40
0.5
  9
$DIMRND
 40
0.0
  9
$DIMDLE
 40
0.0
  9
$DIMEXE
 40
0.1
  9
$DIMTP
 40
0.1
  9
$DIMTM
 40
0.1
  9
$DIMTXT
 40
0.12
  9
$DIMCEN
 40
0.0
  9
$DIMTSZ
 40
0.0
  9
$DIMTOL
 70
     0
  9
$DIMLIM
 70
     0
  9
$DIMTIH
 70
     1
  9
$DIMTOH
 70
     1
  9
$DIMSE1
 70
     0
  9
$DIMSE2
 70
     0
  9
$DIMTAD
 70
     0
  9
$DIMZIN
 70
     7
  9
$DIMBLK
  1

  9
$DIMASO
 70
     1
  9
$DIMSHO
 70
     1
  9
$DIMPOST
  1

  9
$DIMAPOST
  1
mm
  9
$DIMALT
 70
     0
  9
$DIMALTD
 70
     2
  9
$DIMALTF
 40
25.4
  9
$DIMLFAC
 40
1.0
  9
$DIMTOFL
 70
     0
  9
$DIMTVP
 40
0.0
  9
$DIMTIX
 70
     0
  9
$DIMSOXD
 70
     0
  9
$DIMSAH
 70
     0
  9
$DIMBLK1
  1

  9
$DIMBLK2
  1

  9
$DIMSTYLE
  2
AM_ANSI
  9
$DIMCLRD
 70
   256
  9
$DIMCLRE
 70
   256
  9
$DIMCLRT
 70
   140
  9
$DIMTFAC
 40
0.71
  9
$DIMGAP
 40
0.06
  9
$DIMJUST
 70
     0
  9
$DIMSD1
 70
     0
  9
$DIMSD2
 70
     0
  9
$DIMTOLJ
 70
     1
  9
$DIMTZIN
 70
     7
  9
$DIMALTZ
 70
     0
  9
$DIMALTTZ
 70
     0
  9
$DIMUPT
 70
     0
  9
$DIMDEC
 70
     4
  9
$DIMTDEC
 70
     4
  9
$DIMALTU
 70
     2
  9
$DIMALTTD
 70
     4
  9
$DIMTXSTY
  7
STANDARD
  9
$DIMAUNIT
 70
     0
  9
$DIMADEC
 70
     0
  9
$DIMALTRND
 40
0.0
  9
$DIMAZIN
 70
     2
  9
$DIMDSEP
 70
    46
  9
$DIMATFIT
 70
     3
  9
$DIMFRAC
 70
     0
  9
$DIMLDRBLK
  1

  9
$DIMLUNIT
 70
     2
  9
$DIMLWD
 70
    -1
  9
$DIMLWE
 70
    -1
  9
$DIMTMOVE
 70
     0
  9
$DIMFXL
 40
1.0
  9
$DIMFXLON
 70
     0
  9
$DIMJOGANG
 40
0.7853981633974483
  9
$DIMTFILL
 70
     0
  9
$DIMTFILLCLR
 70
     0
  9
$DIMARCSYM
 70
     1
  9
$DIMLTYPE
  6
ByBlock
  9
$DIMLTEX1
  6
ByBlock
  9
$DIMLTEX2
  6
ByBlock
  9
$LUNITS
 70
     2
  9
$LUPREC
 70
     4
  9
$SKETCHINC
 40
0.1
  9
$FILLETRAD
 40
0.125
  9
$AUNITS
 70
     0
  9
$AUPREC
 70
     0
  9
$MENU
  1
.
  9
$ELEVATION
 40
0.0
  9
$PELEVATION
 40
0.0
  9
$THICKNESS
 40
0.0
  9
$LIMCHECK
 70
     0
  9
$CHAMFERA
 40
0.125
  9
$CHAMFERB
 40
0.125
  9
$CHAMFERC
 40
1.0
  9
$CHAMFERD
 40
0.0
  9
$SKPOLY
 70
     0
  9
$TDCREATE
 40
2455338.666796910
  9
$TDUCREATE
 40
2455338.333463576
  9
$TDUPDATE
 40
2455338.667851968
  9
$TDUUPDATE
 40
2455338.334518634
  9
$TDINDWG
 40
0.0010561458
  9
$TDUSRTIMER
 40
0.0010559606
  9
$USRTIMER
 70
     1
  9
$ANGBASE
 50
0.0
  9
$ANGDIR
 70
     0
  9
$PDMODE
 70
     0
  9
$PDSIZE
 40
0.0
  9
$PLINEWID
 40
0.0
  9
$SPLFRAME
 70
     0
  9
$SPLINETYPE
 70
     6
  9
$SPLINESEGS
 70
     8
  9
$HANDSEED
  5
1140
  9
$SURFTAB1
 70
     6
  9
$SURFTAB2
 70
     6
  9
$SURFTYPE
 70
     6
  9
$SURFU
 70
     6
  9
$SURFV
 70
     6
  9
$UCSBASE
  2

  9
$UCSNAME
  2

  9
$UCSORG
 10
0.0
 20
0.0
 30
0.0
  9
$UCSXDIR
 10
1.0
 20
0.0
 30
0.0
  9
$UCSYDIR
 10
0.0
 20
1.0
 30
0.0
  9
$UCSORTHOREF
  2

  9
$UCSORTHOVIEW
 70
     0
  9
$UCSORGTOP
 10
0.0
 20
0.0
 30
0.0
  9
$UCSORGBOTTOM
 10
0.0
 20
0.0
 30
0.0
  9
$UCSORGLEFT
 10
0.0
 20
0.0
 30
0.0
  9
$UCSORGRIGHT
 10
0.0
 20
0.0
 30
0.0
  9
$UCSORGFRONT
 10
0.0
 20
0.0
 30
0.0
  9
$UCSORGBACK
 10
0.0
 20
0.0
 30
0.0
  9
$PUCSBASE
  2

  9
$PUCSNAME
  2

  9
$PUCSORG
 10
0.0
 20
0.0
 30
0.0
  9
$PUCSXDIR
 10
1.0
 20
0.0
 30
0.0
  9
$PUCSYDIR
 10
0.0
 20
1.0
 30
0.0
  9
$PUCSORTHOREF
  2

  9
$PUCSORTHOVIEW
 70
     0
  9
$PUCSORGTOP
 10
0.0
 20
0.0
 30
0.0
  9
$PUCSORGBOTTOM
 10
0.0
 20
0.0
 30
0.0
  9
$PUCSORGLEFT
 10
0.0
 20
0.0
 30
0.0
  9
$PUCSORGRIGHT
 10
0.0
 20
0.0
 30
0.0
  9
$PUCSORGFRONT
 10
0.0
 20
0.0
 30
0.0
  9
$PUCSORGBACK
 10
0.0
 20
0.0
 30
0.0
  9
$USERI1
 70
     0
  9
$USERI2
 70
     0
  9
$USERI3
 70
     0
  9
$USERI4
 70
     0
  9
$USERI5
 70
     0
  9
$USERR1
 40
0.0
  9
$USERR2
 40
0.0
  9
$USERR3
 40
0.0
  9
$USERR4
 40
0.0
  9
$USERR5
 40
0.0
  9
$WORLDVIEW
 70
     1
  9
$SHADEDGE
 70
     3
  9
$SHADEDIF
 70
    70
  9
$TILEMODE
 70
     1
  9
$MAXACTVP
 70
    64
  9
$PINSBASE
 10
0.0
 20
0.0
 30
0.0
  9
$PLIMCHECK
 70
     0
  9
$PEXTMIN
 10
1.000000000000000E+20
 20
1.000000000000000E+20
 30
1.000000000000000E+20
  9
$PEXTMAX
 10
-1.000000000000000E+20
 20
-1.000000000000000E+20
 30
-1.000000000000000E+20
  9
$PLIMMIN
 10
0.0
 20
0.0
  9
$PLIMMAX
 10
12.0
 20
9.0
  9
$UNITMODE
 70
     0
  9
$VISRETAIN
 70
     1
  9
$PLINEGEN
 70
     0
  9
$PSLTSCALE
 70
     1
  9
$TREEDEPTH
 70
  3020
  9
$CMLSTYLE
  2
Standard
  9
$CMLJUST
 70
     0
  9
$CMLSCALE
 40
1.0
  9
$PROXYGRAPHICS
 70
     1
  9
$MEASUREMENT
 70
     0
  9
$CELWEIGHT
370
    -1
  9
$ENDCAPS
280
     0
  9
$JOINSTYLE
280
     0
  9
$LWDISPLAY
290
     0
  9
$INSUNITS
 70
     1
  9
$HYPERLINKBASE
  1

  9
$STYLESHEET
  1

  9
$XEDIT
290
     1
  9
$CEPSNTYPE
380
     0
  9
$PSTYLEMODE
290
     1
  9
$FINGERPRINTGUID
  2
{2A6AF2FD-82FF-4F31-8B0A-CA1B4949D480}
  9
$VERSIONGUID
  2
{5B51B1F2-B100-47CE-88E2-4E5923AE2DA5}
  9
$EXTNAMES
290
     1
  9
$PSVPSCALE
 40
0.0
  9
$OLESTARTUP
290
     0
  9
$SORTENTS
280
   127
  9
$INDEXCTL
280
     0
  9
$HIDETEXT
280
     0
  9
$XCLIPFRAME
290
     0
  9
$HALOGAP
280
     0
  9
$OBSCOLOR
 70
   257
  9
$OBSLTYPE
280
     0
  9
$INTERSECTIONDISPLAY
280
     0
  9
$INTERSECTIONCOLOR
 70
   257
  9
$DIMASSOC
280
     2
  9
$PROJECTNAME
  1

  9
$CAMERADISPLAY
290
     0
  9
$LENSLENGTH
 40
50.0
  9
$CAMERAHEIGHT
 40
0.0
  9
$STEPSPERSEC
 40
2.0
  9
$STEPSIZE
 40
6.0
  9
$3DDWFPREC
 40
2.0
  9
$PSOLWIDTH
 40
0.25
  9
$PSOLHEIGHT
 40
4.0
  9
$LOFTANG1
 40
1.570796326794896
  9
$LOFTANG2
 40
1.570796326794896
  9
$LOFTMAG1
 40
0.0
  9
$LOFTMAG2
 40
0.0
  9
$LOFTPARAM
 70
     7
  9
$LOFTNORMALS
280
     1
  9
$LATITUDE
 40
37.795
  9
$LONGITUDE
 40
-122.394
  9
$NORTHDIRECTION
 40
0.0
  9
$TIMEZONE
 70
 -8000
  9
$LIGHTGLYPHDISPLAY
280
     1
  9
$TILEMODELIGHTSYNCH
280
     1
  9
$CMATERIAL
347
293
  9
$SOLIDHIST
280
     1
  9
$SHOWHIST
280
     1
  9
$DWFFRAME
280
     2
  9
$DGNFRAME
280
     0
  9
$REALWORLDSCALE
290
     1
  9
$INTERFERECOLOR
 62
     1
  9
$INTERFEREOBJVS
345
2A0
  9
$INTERFEREVPVS
346
29D
  9
$CSHADOW
280
     0
  9
$SHADOWPLANELOCATION
 40
0.0
  0
ENDSEC
  0
SECTION
  2
CLASSES
  0
CLASS
  1
ACDBDICTIONARYWDFLT
  2
AcDbDictionaryWithDefault
  3
ObjectDBX Classes
 90
        0
 91
        1
280
     0
281
     0
  0
CLASS
  1
ACME_DOCUMENT
  2
AcMeDbDoc
  3
AcMeServices
 90
     1024
 91
        2
280
     0
281
     0
  0
CLASS
  1
AMGSETTINGSOBJ
  2
AmgSettingsObj
  3
"AcadM|Product Description: AutoCAD Mechanical|Company: Autodesk, Inc."
 90
     1024
 91
        4
280
     0
281
     0
  0
CLASS
  1
ACMESCOPE
  2
AcMeScope
  3
AcMeServices
 90
     1024
 91
        1
280
     0
281
     0
  0
CLASS
  1
ACMECOMMANDHISTORY
  2
AcMeCommandHistory
  3
AcMeServices
 90
     1024
 91
        1
280
     0
281
     0
  0
CLASS
  1
ACIMSYSVARMAN
  2
AcImSysVarManager
  3
AcMeServices
 90
     1024
 91
        5
280
     0
281
     0
  0
CLASS
  1
ACIMREALSYSVAR
  2
AcImRealSysVar
  3
AcMeServices
 90
     1024
 91
        3
280
     0
281
     0
  0
CLASS
  1
ACIMINTSYSVAR
  2
AcImIntSysVar
  3
AcMeServices
 90
     1024
 91
       27
280
     0
281
     0
  0
CLASS
  1
ACMEDRAWINGMAN
  2
AcMeDrawingMan
  3
AcMeServices
 90
     1024
 91
        1
280
     0
281
     0
  0
CLASS
  1
ACMEVIEW
  2
AcMeView
  3
AcMeServices
 90
     1024
 91
        1
280
     0
281
     0
  0
CLASS
  1
ACDBENTITYCACHE
  2
AcMeEntityCache
  3
AcMeServices
 90
     1024
 91
        1
280
     0
281
     0
  0
CLASS
  1
GSMANAGER
  2
AcMeGSManager
  3
AcMeServices
 90
     1024
 91
        1
280
     0
281
     0
  0
CLASS
  1
AMDTINTERNALREACTOR
  2
AmdtInternalReactor
  3
AcMeServices
 90
     1024
 91
        2
280
     0
281
     0
  0
CLASS
  1
ACMESTATEMGR
  2
AcMeStateMgr
  3
AcMeServices
 90
     1024
 91
        1
280
     0
281
     0
  0
CLASS
  1
ACGREFMASTER
  2
AcGrefMaster
  3
AcAttribServices
 90
     1024
 91
        1
280
     0
281
     0
  0
CLASS
  1
ACME_DATABASE
  2
AcMeDbDatabase
  3
AcMeServices
 90
     1024
 91
        2
280
     0
281
     0
  0
CLASS
  1
ACRFINSADJUSTERMGR
  2
AcRfInsAdjusterMgr
  3
AcMeServices
 90
     1024
 91
        1
280
     0
281
     0
  0
CLASS
  1
ACGREFACADMASTER
  2
AcGrefacadMaster
  3
AcGrefServices
 90
     1024
 91
        1
280
     0
281
     0
  0
CLASS
  1
AMIMASTER
  2
AmiMaster
  3
AmiServices
 90
     1024
 91
        1
280
     0
281
     0
  0
CLASS
  1
ACMDATADICTIONARY
  2
AcmDataDictionary
  3
"AcmSymBB|Product Description: AutoCAD Mechanical|Company: Autodesk, Inc."
 90
     1024
 91
        1
280
     0
281
     0
  0
CLASS
  1
ACMDATAENTRYBLOCK
  2
AcmDataEntryBlock
  3
AcmSymBB|Product Description: AutoCAD Mechanical|Company: Autodesk, Inc.
 90
     1024
 91
        1
280
     0
281
     0
  0
CLASS
  1
ACIMSTRSYSVAR
  2
AcImStrSysVar
  3
AcMeServices
 90
     1024
 91
        5
280
     0
281
     0
  0
CLASS
  1
ACMSTANDARDANSI
  2
AcmStandardANSI
  3
"Amdt_StdImp|Product Description: AutoCAD Mechanical|Company: Autodesk, Inc."
 90
     1024
 91
        1
280
     0
281
     0
  0
CLASS
  1
AMGOBJPROPCFG
  2
AmgObjPropCfg
  3
"AmgLay|Product Description: AutoCAD Mechanical|Company: Autodesk, Inc."
 90
     1025
 91
        1
280
     0
281
     0
  0
CLASS
  1
ACMSURFSTANDARDANSI
  2
AcmSurfTextStdANSI
  3
"Amdt_StdImp|Product Description: AutoCAD Mechanical|Company: Autodesk, Inc."
 90
     1024
 91
        1
280
     0
281
     0
  0
CLASS
  1
ACMFCFSTANDARDANSI
  2
AcmFCFStdANSI
  3
"Amdt_StdImp|Product Description: AutoCAD Mechanical|Company: Autodesk, Inc."
 90
     1024
 91
        1
280
     0
281
     0
  0
CLASS
  1
ACMWELDSTANDARDANSI
  2
AcmWeldingStdANSI
  3
"Amdt_StdImp|Product Description: AutoCAD Mechanical|Company: Autodesk, Inc."
 90
     1024
 91
        1
280
     0
281
     0
  0
CLASS
  1
ACMIDSTANDARDANSI
  2
AcmIdStdANSI
  3
"Amdt_StdImp|Product Description: AutoCAD Mechanical|Company: Autodesk, Inc."
 90
     1024
 91
        1
280
     0
281
     0
  0
CLASS
  1
ACMDATUMSTANDARDANSI
  2
AcmDatumStdANSI
  3
"Amdt_StdImp|Product Description: AutoCAD Mechanical|Company: Autodesk, Inc."
 90
     1024
 91
        1
280
     0
281
     0
  0
CLASS
  1
ACMBOMSTANDARDANSI
  2
AcmBOMStdANSI
  3
"Amdt_StdImp|Product Description: AutoCAD Mechanical|Company: Autodesk, Inc."
 90
     1024
 91
        1
280
     0
281
     0
  0
CLASS
  1
ACMDETAILSTANDARDANSI
  2
AmdtDetailSymStdANSI
  3
"Amdt_StdImp|Product Description: AutoCAD Mechanical|Company: Autodesk, Inc."
 90
     1024
 91
        1
280
     0
281
     0
  0
CLASS
  1
ACMSECTIONSTANDARDANSI
  2
AmdtSectionSymStdANSI
  3
"Amdt_StdImp|Product Description: AutoCAD Mechanical|Company: Autodesk, Inc."
 90
     1024
 91
        1
280
     0
281
     0
  0
CLASS
  1
ACMCENTERLINESTANDARDANSI
  2
AmdtCenterLineStdANSI
  3
"Amdt_StdImp|Product Description: AutoCAD Mechanical|Company: Autodesk, Inc."
 90
     1024
 91
        1
280
     0
281
     0
  0
CLASS
  1
ACMNOTESTANDARDANSI
  2
AmdtNoteStdANSI
  3
"Amdt_StdImp|Product Description: AutoCAD Mechanical|Company: Autodesk, Inc."
 90
     1024
 91
        1
280
     0
281
     0
  0
CLASS
  1
ACAMGLAYSTD
  2
AcAmgLayStd
  3
"AmgLay|Product Description: AutoCAD Mechanical|Company: Autodesk, Inc."
 90
     1024
 91
        1
280
     0
281
     0
  0
CLASS
  1
ACAMGDIMSTD
  2
AcAmgDimStd
  3
"AmgDim|Product Description: AutoCAD Mechanical|Company: Autodesk, Inc."
 90
     1024
 91
        1
280
     0
281
     0
  0
CLASS
  1
ACAMGHOLECHARTSTDANSI
  2
AcAmgHoleChartStdANSI
  3
AmgDim|Product Description: AutoCAD Mechanical|Company: Autodesk, Inc.
 90
     1024
 91
        1
280
     0
281
     0
  0
CLASS
  1
ACAMGTITLESTD
  2
AcAmgTitleStd
  3
"AmgTitle|Product Description: AutoCAD Mechanical|Company: Autodesk, Inc."
 90
     4095
 91
        1
280
     0
281
     0
  0
CLASS
  1
LAYER_INDEX
  2
AcDbLayerIndex
  3
ObjectDBX Classes
 90
        0
 91
        0
280
     0
281
     0
  0
CLASS
  1
IDBUFFER
  2
AcDbIdBuffer
  3
ObjectDBX Classes
 90
        0
 91
        0
280
     0
281
     0
  0
CLASS
  1
DICTIONARYVAR
  2
AcDbDictionaryVar
  3
ObjectDBX Classes
 90
        0
 91
        9
280
     0
281
     0
  0
CLASS
  1
AM_DRAWING_MGR
  2
AcDmDwgMgr
  3
AcMechDwgViewMgmt
 90
     1024
 91
        1
280
     0
281
     0
  0
CLASS
  1
AM_DWG_DOCUMENT
  2
AcDmDwgDocument
  3
AcMechDwgViewMgmt
 90
     1024
 91
        1
280
     0
281
     0
  0
CLASS
  1
AM_DWG_SHEET
  2
AcDmSheet
  3
AcMechDwgViewMgmt
 90
     1024
 91
        2
280
     0
281
     0
  0
CLASS
  1
AM_VIEWDIMPARMAP
  2
AcDmViewDimParMap
  3
AcMechDwgViewMgmt
 90
     1024
 91
        2
280
     0
281
     0
  0
CLASS
  1
AM_DWGMGR_NAME
  2
AcDmDwgMgrName
  3
AcMechDwgViewMgmt
 90
     1024
 91
        1
280
     0
281
     0
  0
CLASS
  1
AMDTMENUSTATEMGR
  2
AmdtMenuStateMgr
  3
McadcomServices
 90
     1024
 91
        1
280
     0
281
     0
  0
CLASS
  1
AMDTMCOMMENUSTATE
  2
AmdtMcomMenuState
  3
McadcomServices
 90
     1024
 91
        1
280
     0
281
     0
  0
CLASS
  1
MAPIAMMOUDLE
  2
MApiAmModule
  3
MApiAmServices
 90
     1024
 91
        1
280
     0
281
     0
  0
CLASS
  1
AMDTADMENUSTATE
  2
AmdtAdMenuState
  3
DesignerServices
 90
     1024
 91
        1
280
     0
281
     0
  0
CLASS
  1
ADAPPL
  2
AcAdAppl
  3
DesignerServices
 90
     1024
 91
        1
280
     0
281
     0
  0
CLASS
  1
DEPMGR
  2
AcAdDepMgr
  3
DesignerServices
 90
     1024
 91
        1
280
     0
281
     0
  0
CLASS
  1
PARAMMGR
  2
AcAdParamMgr
  3
DesignerServices
 90
     1024
 91
        1
280
     0
281
     0
  0
CLASS
  1
PARAMSCOPE
  2
AcAdParamScope
  3
DesignerServices
 90
     1024
 91
        1
280
     0
281
     0
  0
CLASS
  1
NAMEDAPPL
  2
AcAdNamedAppl
  3
DesignerServices
 90
     1024
 91
        1
280
     0
281
     0
  0
CLASS
  1
AMDTDMMENUSTATE
  2
AmdtDmMenuState
  3
AcMechDwgViewMgmt
 90
     1024
 91
        1
280
     0
281
     0
  0
CLASS
  1
AMDTAMMENUSTATE
  2
AmdtAmMenuState
  3
DesignerAssemblies
 90
     1024
 91
        1
280
     0
281
     0
  0
CLASS
  1
ACAMPROJECT
  2
AcAmProject
  3
DesignerAssemblies
 90
     1024
 91
        1
280
     0
281
     0
  0
CLASS
  1
ACAMGRCOMPDEF
  2
AcAmGrCompDef
  3
DesignerAssemblies
 90
     1024
 91
        1
280
     0
281
     0
  0
CLASS
  1
ACCMCONTEXT
  2
AcCmContext
  3
DesignerAssemblies
 90
     1024
 91
        1
280
     0
281
     0
  0
CLASS
  1
ACAMCOMPDEF
  2
AcAmCompDef
  3
DesignerAssemblies
 90
     1024
 91
        1
280
     0
281
     0
  0
CLASS
  1
ACAMCOMPDEFMGR
  2
AcAmCompDefMgr
  3
DesignerAssemblies
 90
     1024
 91
        1
280
     0
281
     0
  0
CLASS
  1
AMCONTEXTMGR
  2
AcAmContextMgr
  3
DesignerAssemblies
 90
     1024
 91
        1
280
     0
281
     0
  0
CLASS
  1
ACAMCONTEXTMODELER
  2
AcAmContextModeler
  3
DesignerAssemblies
 90
     1024
 91
        1
280
     0
281
     0
  0
CLASS
  1
ACMTHREADLINESTANDARDANSI
  2
AmdtThreadLineStdANSI
  3
"Amdt_StdImp|Product Description: AutoCAD Mechanical|Company: Autodesk, Inc."
 90
     1024
 91
        1
280
     0
281
     0
  0
CLASS
  1
CATALOGSTATE
  2
AcAmCatalogState
  3
DesignerAssemblies
 90
     1024
 91
        1
280
     0
281
     0
  0
CLASS
  1
ACAMGRCOMPDEFSET
  2
AcAmGrCompDefSet
  3
DesignerAssemblies
 90
     1024
 91
        1
280
     0
281
     0
  0
CLASS
  1
AMDTBROWSERDBTAB
  2
AmdtBrowserDbTab
  3
McadcomServices
 90
     1024
 91
        1
280
     0
281
     0
  0
CLASS
  1
CBROWSERAPPOBJECT
  2
CBrowserAppObject
  3
McadcomServices
 90
     1024
 91
        3
280
     0
281
     0
  0
CLASS
  1
DM_PLACEHOLDER
  2
AcDmSelsetPlaceholder
  3
AcMechDwgViewMgmt
 90
     1024
 91
        1
280
     0
281
     0
  0
CLASS
  1
TABLESTYLE
  2
AcDbTableStyle
  3
ObjectDBX Classes
 90
     4095
 91
        1
280
     0
281
     0
  0
CLASS
  1
AMDTNOTETEMPLATEDB
  2
AmdtNoteTemplateDB
  3
AcmSymBB|Product Description: AutoCAD Mechanical|Company: Autodesk, Inc.
 90
     1024
 91
        6
280
     0
281
     0
  0
CLASS
  1
MATERIAL
  2
AcDbMaterial
  3
ObjectDBX Classes
 90
     1153
 91
        3
280
     0
281
     0
  0
CLASS
  1
VISUALSTYLE
  2
AcDbVisualStyle
  3
ObjectDBX Classes
 90
     4095
 91
       16
280
     0
281
     0
  0
CLASS
  1
ACRFATTGENMGR
  2
AcRfAttGeneralMgr
  3
AcAttribServices
 90
     1024
 91
        1
280
     0
281
     0
  0
CLASS
  1
ACRFOBJATTMGR
  2
AcRfObjAttGroupMgr
  3
AcAttribServices
 90
     1024
 91
        1
280
     0
281
     0
  0
CLASS
  1
ACRFMCADAPIATTHOLDER
  2
AcRfMCADAPIAttHolder
  3
AcAttribServices
 90
     1024
 91
        1
280
     0
281
     0
  0
CLASS
  1
AMDTSYSATTR
  2
AmdtSystemAttribute
  3
AcAttribServices
 90
     1024
 91
        1
280
     0
281
     0
  0
CLASS
  1
ACMTAPERSTANDARDANSI
  2
AcmTaperStdANSI
  3
"Amdt_StdImp|Product Description: AutoCAD Mechanical|Company: Autodesk, Inc."
 90
     1024
 91
        1
280
     0
281
     0
  0
CLASS
  1
CAMSSTRUCTBTNSTATE
  2
StructBtnState
  3
DesignerAssemblies
 90
     1024
 91
        1
280
     0
281
     0
  0
CLASS
  1
SCALE
  2
AcDbScale
  3
ObjectDBX Classes
 90
     1153
 91
       33
280
     0
281
     0
  0
CLASS
  1
MLEADERSTYLE
  2
AcDbMLeaderStyle
  3
ACDB_MLEADERSTYLE_CLASS
 90
     4095
 91
        1
280
     0
281
     0
  0
CLASS
  1
ACMANOOTATIONVIEWSTANDARDANSI
  2
AmdtAnViewStdANSI
  3
"Amdt_StdImp|Product Description: AutoCAD Mechanical|Company: Autodesk, Inc."
 90
     1024
 91
        1
280
     0
281
     0
  0
CLASS
  1
CELLSTYLEMAP
  2
AcDbCellStyleMap
  3
ObjectDBX Classes
 90
     1152
 91
        2
280
     0
281
     0
  0
CLASS
  1
EXACXREFPANELOBJECT
  2
ExAcXREFPanelObject
  3
EXAC_ESW
 90
     1025
 91
        1
280
     0
281
     0
  0
CLASS
  1
NPOCOLLECTION
  2
AcDbImpNonPersistentObjectsCollection
  3
ObjectDBX Classes
 90
     1153
 91
        1
280
     0
281
     0
  0
CLASS
  1
ACAMGFILTERDAT
  2
AcAmgFilterDat
  3
"AcadM|Product Description: AutoCAD Mechanical|Company: Autodesk, Inc."
 90
     1024
 91
        6
280
     0
281
     0
  0
ENDSEC
  0
SECTION
  2
TABLES
  0
TABLE
  2
VPORT
  5
8
330
0
100
AcDbSymbolTable
 70
     1
  0
VPORT
  5
291
330
8
100
AcDbSymbolTableRecord
100
AcDbViewportTableRecord
  2
*Active
 70
     0
 10
0.0
 20
0.0
 11
1.0
 21
1.0
 12
39.08668064054131
 22
30.52524440359846
 13
0.0
 23
0.0
 14
0.125
 24
0.125
 15
1.0
 25
1.0
 16
0.0
 26
0.0
 36
1.0
 17
0.0
 27
0.0
 37
0.0
 40
39.65212350494264
 41
1.439655172413793
 42
50.0
 43
0.0
 44
0.0
 50
0.0
 51
0.0
 71
     0
 72
   100
 73
     1
 74
     3
 75
     0
 76
     0
 77
     0
 78
     0
281
     0
 65
     1
110
0.0
120
0.0
130
0.0
111
1.0
121
0.0
131
0.0
112
0.0
122
1.0
132
0.0
 79
     0
146
0.0
348
29C
 60
     3
 61
     5
292
     1
282
     0
141
0.0
142
0.0
 63
   250
421
  3355443
  0
ENDTAB
  0
TABLE
  2
LTYPE
  5
5
330
0
100
AcDbSymbolTable
 70
    17
  0
LTYPE
  5
14
330
5
100
AcDbSymbolTableRecord
100
AcDbLinetypeTableRecord
  2
ByBlock
 70
     0
  3

 72
    65
 73
     0
 40
0.0
  0
LTYPE
  5
15
330
5
100
AcDbSymbolTableRecord
100
AcDbLinetypeTableRecord
  2
ByLayer
 70
     0
  3

 72
    65
 73
     0
 40
0.0
  0
LTYPE
  5
16
330
5
100
AcDbSymbolTableRecord
100
AcDbLinetypeTableRecord
  2
Continuous
 70
     0
  3
Solid line
 72
    65
 73
     0
 40
0.0
  0
LTYPE
  5
6C
330
5
100
AcDbSymbolTableRecord
100
AcDbLinetypeTableRecord
  2
AM_ISO02W050
 70
     0
  3
__ __ __ __ __ __ __ __ __ __ __ __ __ __ __
 72
    65
 73
     2
 40
7.5
 49
6.0
 74
     0
 49
-1.5
 74
     0
  0
LTYPE
  5
6D
330
5
100
AcDbSymbolTableRecord
100
AcDbLinetypeTableRecord
  2
AM_ISO08W050
 70
     0
  3
____ . ____ . ____ . ____ . ____ . ____ . ____
 72
    65
 73
     4
 40
18.0
 49
12.0
 74
     0
 49
-1.5
 74
     0
 49
3.0
 74
     0
 49
-1.5
 74
     0
  0
LTYPE
  5
6E
330
5
100
AcDbSymbolTableRecord
100
AcDbLinetypeTableRecord
  2
AM_ISO09W050
 70
     0
  3
_____ . . _____ . . _____ . . ____ .. ____
 72
    65
 73
     6
 40
22.5
 49
12.0
 74
     0
 49
-1.5
 74
     0
 49
3.0
 74
     0
 49
-1.5
 74
     0
 49
3.0
 74
     0
 49
-1.5
 74
     0
  0
LTYPE
  5
6F
330
5
100
AcDbSymbolTableRecord
100
AcDbLinetypeTableRecord
  2
Amconstr
 70
     0
  3
_______________________
 72
    65
 73
     2
 40
9999.0
 49
9999.0
 74
     0
 49
0.0
 74
     0
  0
LTYPE
  5
70
330
5
100
AcDbSymbolTableRecord
100
AcDbLinetypeTableRecord
  2
AM_ISO08W050x2
 70
     0
  3
__ . __ . __ . __ . __ . __
 72
    65
 73
     4
 40
9.0
 49
6.0
 74
     0
 49
-0.75
 74
     0
 49
1.5
 74
     0
 49
-0.75
 74
     0
  0
LTYPE
  5
71
330
5
100
AcDbSymbolTableRecord
100
AcDbLinetypeTableRecord
  2
AM_ISO02W050x2
 70
     0
  3
 _ _ _ _ _ _ _ _ _ _ _ _
 72
    65
 73
     2
 40
3.75
 49
3.0
 74
     0
 49
-0.75
 74
     0
  0
LTYPE
  5
74
330
5
100
AcDbSymbolTableRecord
100
AcDbLinetypeTableRecord
  2
Amzigzag
 70
     0
  3
/\/-/\/-/\/-/\/-/\/-/\/
 72
    65
 73
     2
 40
11.0001
 49
0.0001
 74
     4
 75
   136
340
254
 46
0.04
 50
0.0
 44
0.0
 45
0.0
 49
-11.0
 74
     0
  0
LTYPE
  5
75
330
5
100
AcDbSymbolTableRecord
100
AcDbLinetypeTableRecord
  2
HIDDEN
 70
     0
  3
Hidden __ __ __ __ __ __ __ __ __ __ __ __ __ _
 72
    65
 73
     2
 40
0.375
 49
0.25
 74
     0
 49
-0.125
 74
     0
  0
LTYPE
  5
76
330
5
100
AcDbSymbolTableRecord
100
AcDbLinetypeTableRecord
  2
CENTER
 70
     0
  3
Center ____ _ ____ _ ____ _ ____ _ ____ _ ____
 72
    65
 73
     4
 40
2.0
 49
1.25
 74
     0
 49
-0.25
 74
     0
 49
0.25
 74
     0
 49
-0.25
 74
     0
  0
LTYPE
  5
77
330
5
100
AcDbSymbolTableRecord
100
AcDbLinetypeTableRecord
  2
PHANTOM2
 70
     0
  3
Phantom (.5x) ___ _ _ ___ _ _ ___ _ _ ___ _ _
 72
    65
 73
     6
 40
1.25
 49
0.625
 74
     0
 49
-0.125
 74
     0
 49
0.125
 74
     0
 49
-0.125
 74
     0
 49
0.125
 74
     0
 49
-0.125
 74
     0
  0
LTYPE
  5
78
330
5
100
AcDbSymbolTableRecord
100
AcDbLinetypeTableRecord
  2
CENTER2
 70
     0
  3
Center (.5x) ___ _ ___ _ ___ _ ___ _ ___ _ ___
 72
    65
 73
     4
 40
1.125
 49
0.75
 74
     0
 49
-0.125
 74
     0
 49
0.125
 74
     0
 49
-0.125
 74
     0
  0
LTYPE
  5
79
330
5
100
AcDbSymbolTableRecord
100
AcDbLinetypeTableRecord
  2
HIDDEN2
 70
     0
  3
Hidden (.5x) _ _ _ _ _ _ _ _ _ _ _ _ _ _ _ _ _
 72
    65
 73
     2
 40
0.1875
 49
0.125
 74
     0
 49
-0.0625
 74
     0
  0
LTYPE
  5
7A
330
5
100
AcDbSymbolTableRecord
100
AcDbLinetypeTableRecord
  2
Amzigzag2
 70
     0
  3
/\/-/\/-/\/-/\/-/\/-/\/
 72
    65
 73
     2
 40
0.4401
 49
0.0001
 74
     4
 75
   136
340
254
 46
0.0016
 50
0.0
 44
0.0
 45
0.0
 49
-0.4400000000000001
 74
     0
  0
LTYPE
  5
87
330
5
100
AcDbSymbolTableRecord
100
AcDbLinetypeTableRecord
  2
ACANSTGB
 70
     0
  3
__ . . __ . .
 72
    65
 73
     6
 40
0.35433070866
 49
0.15748031496
 74
     0
 49
-0.03937007874
 74
     0
 49
0.03937007874
 74
     0
 49
-0.03937007874
 74
     0
 49
0.03937007874
 74
     0
 49
-0.03937007874
 74
     0
  0
LTYPE
  5
88
330
5
100
AcDbSymbolTableRecord
100
AcDbLinetypeTableRecord
  2
ACANSTGL
 70
     0
  3
_ _ _ _ _
 72
    65
 73
     2
 40
0.11811023622
 49
0.07874015748
 74
     0
 49
-0.03937007874
 74
     0
  0
ENDTAB
  0
TABLE
  2
LAYER
  5
2
330
0
100
AcDbSymbolTable
 70
     2
  0
LAYER
  5
10
102
{ACAD_XDICTIONARY
360
1138
102
}
330
2
100
AcDbSymbolTableRecord
100
AcDbLayerTableRecord
  2
0
 70
     0
 62
     7
  6
Continuous
370
    -3
390
F
347
295
  0
LAYER
  5
38C
102
{ACAD_XDICTIONARY
360
113A
102
}
330
2
100
AcDbSymbolTableRecord
100
AcDbLayerTableRecord
  2
LAYER_1
 70
     0
 62
   160
  6
Continuous
370
    -3
390
F
347
295
  0
ENDTAB
  0
TABLE
  2
STYLE
  5
3
330
0
100
AcDbSymbolTable
 70
    10
  0
STYLE
  5
11
330
3
100
AcDbSymbolTableRecord
100
AcDbTextStyleTableRecord
  2
STANDARD
 70
     0
 40
0.0
 41
1.0
 50
0.0
 71
     0
 42
0.2
  3
ROMANS.SHX
  4

  0
STYLE
  5
73
330
3
100
AcDbSymbolTableRecord
100
AcDbTextStyleTableRecord
  2

 70
     1
 40
0.0
 41
1.0
 50
0.0
 71
     0
 42
0.2
  3
ltypeshp.shx
  4

  0
STYLE
  5
7B
330
3
100
AcDbSymbolTableRecord
100
AcDbTextStyleTableRecord
  2
ACANSTS
 70
     0
 40
1.0
 41
1.0
 50
0.0
 71
     0
 42
0.2
  3
romans.shx
  4

  0
STYLE
  5
86
330
3
100
AcDbSymbolTableRecord
100
AcDbTextStyleTableRecord
  2
ACANSGDT
 70
     0
 40
0.0
 41
1.0
 50
0.0
 71
     0
 42
0.2
  3
amgdt.shx
  4

  0
STYLE
  5
13F
330
3
100
AcDbSymbolTableRecord
100
AcDbTextStyleTableRecord
  2
USER1
 70
     0
 40
0.0
 41
1.0
 50
0.0
 71
     0
 42
0.2
  3
TXT.SHX
  4

  0
STYLE
  5
140
330
3
100
AcDbSymbolTableRecord
100
AcDbTextStyleTableRecord
  2
USER2
 70
     0
 40
0.0
 41
1.0
 50
0.0
 71
     0
 42
0.2
  3
SIMPLEX.SHX
  4

  0
STYLE
  5
141
330
3
100
AcDbSymbolTableRecord
100
AcDbTextStyleTableRecord
  2
USER3
 70
     0
 40
0.0
 41
1.0
 50
0.0
 71
     0
 42
0.2
  3
ITALIC.SHX
  4

  0
STYLE
  5
254
330
3
100
AcDbSymbolTableRecord
100
AcDbTextStyleTableRecord
  2

 70
     1
 40
0.0
 41
1.0
 50
0.0
 71
     0
 42
0.2
  3
genltshp.shx
  4

  0
STYLE
  5
38D
330
3
100
AcDbSymbolTableRecord
100
AcDbTextStyleTableRecord
  2
STD
 70
     0
 40
0.0
 41
1.0
 50
0.0
 71
     0
 42
0.0
  3
txt
  4

  0
STYLE
  5
38E
330
3
100
AcDbSymbolTableRecord
100
AcDbTextStyleTableRecord
  2
KANJISTD
 70
     0
 40
0.0
 41
1.0
 50
0.0
 71
     0
 42
0.0
  3
txt
  4
extfont
  0
ENDTAB
  0
TABLE
  2
VIEW
  5
6
330
0
100
AcDbSymbolTable
 70
     0
  0
ENDTAB
  0
TABLE
  2
UCS
  5
7
330
0
100
AcDbSymbolTable
 70
     0
  0
ENDTAB
  0
TABLE
  2
APPID
  5
9
330
0
100
AcDbSymbolTable
 70
    13
  0
APPID
  5
12
330
9
100
AcDbSymbolTableRecord
100
AcDbRegAppTableRecord
  2
ACAD
 70
     0
  0
APPID
  5
4E
330
9
100
AcDbSymbolTableRecord
100
AcDbRegAppTableRecord
  2
MCAD_NO_VIS
 70
     0
  0
APPID
  5
4F
330
9
100
AcDbSymbolTableRecord
100
AcDbRegAppTableRecord
  2
ACAD_TEMP_GRAPHIC
 70
     0
  0
APPID
  5
60
330
9
100
AcDbSymbolTableRecord
100
AcDbRegAppTableRecord
  2
ACATTRIBSERVICES
 70
     0
  0
APPID
  5
F7
330
9
100
AcDbSymbolTableRecord
100
AcDbRegAppTableRecord
  2
AD_DRAW
 70
     0
  0
APPID
  5
115
330
9
100
AcDbSymbolTableRecord
100
AcDbRegAppTableRecord
  2
DESIGNERASSEMBLIES
 70
     0
  0
APPID
  5
11A
330
9
100
AcDbSymbolTableRecord
100
AcDbRegAppTableRecord
  2
ACADM_DIM_EDIT
 70
     0
  0
APPID
  5
11B
330
9
100
AcDbSymbolTableRecord
100
AcDbRegAppTableRecord
  2
AMDT_DM_ADJ
 70
     0
  0
APPID
  5
1D3
330
9
100
AcDbSymbolTableRecord
100
AcDbRegAppTableRecord
  2
ACAD_DSTYLE_DIMARC_LENGTH_SYMBOL
 70
     0
  0
APPID
  5
1D4
330
9
100
AcDbSymbolTableRecord
100
AcDbRegAppTableRecord
  2
ACAD_DSTYLE_DIMJOGGED_JOGANGLE_SYMBOL
 70
     0
  0
APPID
  5
2EE
330
9
100
AcDbSymbolTableRecord
100
AcDbRegAppTableRecord
  2
ACAD_MLEADERVER
 70
     0
  0
APPID
  5
38F
330
9
100
AcDbSymbolTableRecord
100
AcDbRegAppTableRecord
  2
DCO15
 70
     0
  0
APPID
  5
1131
330
9
100
AcDbSymbolTableRecord
100
AcDbRegAppTableRecord
  2
ACAD_EXEMPT_FROM_CAD_STANDARDS
 70
     0
  0
ENDTAB
  0
TABLE
  2
DIMSTYLE
  5
A
330
0
100
AcDbSymbolTable
 70
     8
100
AcDbDimStyleTable
 71
     1
340
8C
  0
DIMSTYLE
105
27
330
A
100
AcDbSymbolTableRecord
100
AcDbDimStyleTableRecord
  2
Standard
 70
     0
340
11
  0
DIMSTYLE
105
8C
102
{ACAD_REACTORS
330
6A
102
}
330
A
100
AcDbSymbolTableRecord
100
AcDbDimStyleTableRecord
  2
AM_ANSI
 70
     0
  4
mm
 41
0.12
 42
0.05
 43
0.5
 44
0.1
 47
0.1
 48
0.1
 78
     7
 79
     2
 90
     1
140
0.12
141
0.0
146
0.71
147
0.06
176
   256
177
   256
178
   140
274
     4
284
     7
340
11
345
14
346
14
347
14
371
    -1
372
    -1
1001
ACAD_DSTYLE_DIMJOGGED_JOGANGLE_SYMBOL
1070
   384
1040
0.7853981633974483
  0
DIMSTYLE
105
8D
330
A
100
AcDbSymbolTableRecord
100
AcDbDimStyleTableRecord
  2
AM_ANSI$3
 70
     0
  4
mm
 41
0.12
 42
0.05
 43
0.5
 44
0.1
 47
0.1
 48
0.1
 78
     7
 79
     2
 90
     1
140
0.12
141
0.0
146
0.71
147
0.06
176
   256
177
   256
178
   140
274
     4
284
     7
288
     1
289
     0
340
11
345
14
346
14
347
14
371
    -1
372
    -1
1001
ACAD_DSTYLE_DIMJOGGED_JOGANGLE_SYMBOL
1070
   384
1040
0.7853981633974483
  0
DIMSTYLE
105
8E
330
A
100
AcDbSymbolTableRecord
100
AcDbDimStyleTableRecord
  2
AM_ANSI$4
 70
     0
  4
mm
 41
0.12
 42
0.05
 43
0.5
 44
0.1
 47
0.1
 48
0.1
 78
     7
 79
     2
 90
     1
140
0.12
141
0.0
146
0.71
147
0.06
176
   256
177
   256
178
   140
274
     4
284
     7
340
11
345
14
346
14
347
14
371
    -1
372
    -1
1001
ACAD_DSTYLE_DIMJOGGED_JOGANGLE_SYMBOL
1070
   384
1040
0.7853981633974483
  0
DIMSTYLE
105
8F
330
A
100
AcDbSymbolTableRecord
100
AcDbDimStyleTableRecord
  2
AM_ANSI$7
 70
     0
  4
mm
 41
0.12
 42
0.05
 43
0.5
 44
0.1
 47
0.1
 48
0.1
 78
     7
 79
     2
 90
     1
140
0.12
141
0.0
146
0.71
147
0.06
176
   256
177
   256
178
   140
274
     4
284
     7
340
11
345
14
346
14
347
14
371
    -1
372
    -1
1001
ACAD_DSTYLE_DIMJOGGED_JOGANGLE_SYMBOL
1070
   384
1040
0.7853981633974483
  0
DIMSTYLE
105
90
330
A
100
AcDbSymbolTableRecord
100
AcDbDimStyleTableRecord
  2
AM_ANSI$SF
 70
     0
  4
mm
 41
0.12
 42
0.05
 43
0.5
 44
0.1
 47
0.1
 48
0.1
 75
     1
 76
     1
 78
     7
 79
     2
 90
     1
140
0.12
141
0.0
146
0.71
147
0.06
176
   256
177
   256
178
   140
274
     4
284
     7
340
11
345
14
346
14
347
14
371
    -1
372
    -1
1001
ACAD_DSTYLE_DIMJOGGED_JOGANGLE_SYMBOL
1070
   384
1040
0.7853981633974483
  0
DIMSTYLE
105
95
330
A
100
AcDbSymbolTableRecord
100
AcDbDimStyleTableRecord
  2
AM_ANSI$SH
 70
     0
  4
mm
 41
0.12
 42
0.05
 43
0.5
 44
0.1
 47
0.1
 48
0.1
 75
     1
 76
     1
 78
     7
 79
     2
 90
     1
140
0.12
141
0.0
146
0.71
147
0.06
173
     1
176
   256
177
   256
178
   140
274
     4
284
     7
340
11
343
91
345
14
346
14
347
14
371
    -1
372
    -1
1001
ACAD_DSTYLE_DIMJOGGED_JOGANGLE_SYMBOL
1070
   384
1040
0.7853981633974483
  0
ENDTAB
  0
TABLE
  2
BLOCK_RECORD
  5
1
330
0
100
AcDbSymbolTable
 70
     5
  0
BLOCK_RECORD
  5
1F
102
{ACAD_XDICTIONARY
360
99
102
}
330
1
100
AcDbSymbolTableRecord
100
AcDbBlockTableRecord
  2
*Model_Space
340
22
 70
     0
280
     1
281
     0
  0
BLOCK_RECORD
  5
1B
330
1
100
AcDbSymbolTableRecord
100
AcDbBlockTableRecord
  2
*Paper_Space
340
1E
 70
     0
280
     1
281
     0
  0
BLOCK_RECORD
  5
23
330
1
100
AcDbSymbolTableRecord
100
AcDbBlockTableRecord
  2
*Paper_Space0
340
26
 70
     0
280
     1
281
     0
  0
BLOCK_RECORD
  5
91
330
1
100
AcDbSymbolTableRecord
100
AcDbBlockTableRecord
  2
GENAXEH
340
0
 70
     0
280
     1
281
     0
  0
ENDTAB
  0
ENDSEC
  0
SECTION
  2
BLOCKS
  0
BLOCK
  5
20
330
1F
100
AcDbEntity
  8
0
100
AcDbBlockBegin
  2
*Model_Space
 70
     0
 10
0.0
 20
0.0
 30
0.0
  3
*Model_Space
  1

  0
ENDBLK
  5
21
330
1F
100
AcDbEntity
  8
0
100
AcDbBlockEnd
  0
BLOCK
  5
1C
330
1B
100
AcDbEntity
 67
     1
  8
0
100
AcDbBlockBegin
  2
*Paper_Space
 70
     0
 10
0.0
 20
0.0
 30
0.0
  3
*Paper_Space
  1

  0
ENDBLK
  5
1D
330
1B
100
AcDbEntity
 67
     1
  8
0
100
AcDbBlockEnd
  0
BLOCK
  5
24
330
23
100
AcDbEntity
 67
     1
  8
0
100
AcDbBlockBegin
  2
*Paper_Space0
 70
     0
 10
0.0
 20
0.0
 30
0.0
  3
*Paper_Space0
  1

  0
ENDBLK
  5
25
330
23
100
AcDbEntity
 67
     1
  8
0
100
AcDbBlockEnd
  0
BLOCK
  5
93
330
91
100
AcDbEntity
  8
0
100
AcDbBlockBegin
  2
GENAXEH
 70
     0
 10
0.0
 20
0.0
 30
0.0
  3
GENAXEH
  1

  0
LINE
  5
92
330
91
100
AcDbEntity
  8
0
100
AcDbLine
 10
-1.0
 20
0.0
 30
0.0
 11
1.0
 21
0.0
 31
0.0
  0
ENDBLK
  5
94
330
91
100
AcDbEntity
  8
0
100
AcDbBlockEnd
  0
ENDSEC
  0
SECTION
  2
ENTITIES
  0
POLYLINE
  5
A80
330
1F
100
AcDbEntity
  8
0
100
AcDb2dPolyline
 66
     1
 10
0.0
 20
0.0
 30
0.0
  0
VERTEX
  5
A81
330
A80
100
AcDbEntity
  8
0
100
AcDbVertex
100
AcDb2dVertex
 10
58.40363683120871
 20
33.88959027704599
 30
0.0
  0
VERTEX
  5
A82
330
A80
100
AcDbEntity
  8
0
100
AcDbVertex
100
AcDb2dVertex
 10
58.31130883120872
 20
34.06150127704599
 30
0.0
  0
VERTEX
  5
A83
330
A80
100
AcDbEntity
  8
0
100
AcDbVertex
100
AcDb2dVertex
 10
58.21708583120872
 20
34.228588277046
 30
0.0
  0
VERTEX
  5
A84
330
A80
100
AcDbEntity
  8
0
100
AcDbVertex
100
AcDb2dVertex
 10
58.12045083120871
 20
34.39395227704599
 30
0.0
  0
VERTEX
  5
A85
330
A80
100
AcDbEntity
  8
0
100
AcDbVertex
100
AcDb2dVertex
 10
58.02260983120871
 20
34.55552727704599
 30
0.0
  0
VERTEX
  5
A86
330
A80
100
AcDbEntity
  8
0
100
AcDbVertex
100
AcDb2dVertex
 10
57.9196018312087
 20
34.71365727704599
 30
0.0
  0
VERTEX
  5
A87
330
A80
100
AcDbEntity
  8
0
100
AcDbVertex
100
AcDb2dVertex
 10
57.81245883120871
 20
34.86489727704599
 30
0.0
  0
VERTEX
  5
A88
330
A80
100
AcDbEntity
  8
0
100
AcDbVertex
100
AcDb2dVertex
 10
57.81659283120871
 20
34.86489727704599
 30
0.0
  0
SEQEND
  5
A89
330
A80
100
AcDbEntity
  8
0
  0
LINE
  5
A8A
330
1F
100
AcDbEntity
  8
0
100
AcDbLine
 10
58.46392683120871
 20
24.82588927704599
 30
0.0
 11
57.80419083120872
 21
23.59288927704598
 31
0.0
  0
SPLINE
  5
A8B
330
1F
100
AcDbEntity
  8
0
100
AcDbSpline
210
0.0
220
0.0
230
1.0
 70
     8
 71
     3
 72
    17
 73
    13
 74
     0
 42
0.0000000001
 43
0.0000000001
 40
0.0
 40
0.0
 40
0.0
 40
0.0
 40
1.0
 40
1.0
 40
1.0
 40
2.0
 40
2.0
 40
2.0
 40
3.0
 40
3.0
 40
3.0
 40
4.0
 40
4.0
 40
4.0
 40
4.0
 10
57.92132389935106
 20
23.77651273017099
 30
0.0
 10
57.92132389935106
 20
23.77651273017099
 30
0.0
 10
57.72874306167746
 20
23.49298137166404
 30
0.0
 10
57.72874306167746
 20
23.49298137166404
 30
0.0
 10
57.04540837200731
 20
22.53868992201127
 30
0.0
 10
56.1334915968337
 20
21.85828356350432
 30
0.0
 10
55.06533974136496
 20
21.3863054819071
 30
0.0
 10
55.06533974136496
 20
21.3863054819071
 30
0.0
 10
54.7661331983962
 20
21.25883694892099
 30
0.0
 10
54.7661331983962
 20
21.25883694892099
 30
0.0
 10
54.7661331983962
 20
21.25883694892099
 30
0.0
 10
54.7690615295594
 20
21.25883694892099
 30
0.0
 10
54.7690615295594
 20
21.25883694892099
 30
0.0
  0
POLYLINE
  5
A8C
330
1F
100
AcDbEntity
  8
0
100
AcDb2dPolyline
 66
     1
 10
0.0
 20
0.0
 30
0.0
  0
VERTEX
  5
A8D
330
A8C
100
AcDbEntity
  8
0
100
AcDbVertex
100
AcDb2dVertex
 10
58.96243183120872
 20
26.24044527704599
 30
0.0
  0
VERTEX
  5
A8E
330
A8C
100
AcDbEntity
  8
0
100
AcDbVertex
100
AcDb2dVertex
 10
59.07784283120872
 20
26.71517927704599
 30
0.0
  0
VERTEX
  5
A8F
330
A8C
100
AcDbEntity
  8
0
100
AcDbVertex
100
AcDb2dVertex
 10
59.16913783120872
 20
27.20197127704599
 30
0.0
  0
VERTEX
  5
A90
330
A8C
100
AcDbEntity
  8
0
100
AcDbVertex
100
AcDb2dVertex
 10
59.24424083120872
 20
27.70633327704599
 30
0.0
  0
VERTEX
  5
A91
330
A8C
100
AcDbEntity
  8
0
100
AcDbVertex
100
AcDb2dVertex
 10
59.29936183120871
 20
28.21827427704599
 30
0.0
  0
VERTEX
  5
A92
330
A8C
100
AcDbEntity
  8
0
100
AcDbVertex
100
AcDb2dVertex
 10
59.33243483120872
 20
28.73951727704599
 30
0.0
  0
VERTEX
  5
A93
330
A8C
100
AcDbEntity
  8
0
100
AcDbVertex
100
AcDb2dVertex
 10
59.34380383120871
 20
29.26730627704599
 30
0.0
  0
VERTEX
  5
A94
330
A8C
100
AcDbEntity
  8
0
100
AcDbVertex
100
AcDb2dVertex
 10
59.34449283120871
 20
29.26730627704599
 30
0.0
  0
SEQEND
  5
A95
330
A8C
100
AcDbEntity
  8
0
  0
POLYLINE
  5
A96
330
1F
100
AcDbEntity
  8
0
100
AcDb2dPolyline
 66
     1
 10
0.0
 20
0.0
 30
0.0
  0
VERTEX
  5
A97
330
A96
100
AcDbEntity
  8
0
100
AcDbVertex
100
AcDb2dVertex
 10
58.96243183120872
 20
32.29588927704599
 30
0.0
  0
VERTEX
  5
A98
330
A96
100
AcDbEntity
  8
0
100
AcDbVertex
100
AcDb2dVertex
 10
58.87957683120871
 20
32.60009127704599
 30
0.0
  0
VERTEX
  5
A99
330
A96
100
AcDbEntity
  8
0
100
AcDbVertex
100
AcDb2dVertex
 10
58.78742083120872
 20
32.89223527704599
 30
0.0
  0
VERTEX
  5
A9A
330
A96
100
AcDbEntity
  8
0
100
AcDbVertex
100
AcDb2dVertex
 10
58.68802983120871
 20
33.17852327704599
 30
0.0
  0
VERTEX
  5
A9B
330
A96
100
AcDbEntity
  8
0
100
AcDbVertex
100
AcDb2dVertex
 10
58.58398783120872
 20
33.45240827704599
 30
0.0
  0
VERTEX
  5
A9C
330
A96
100
AcDbEntity
  8
0
100
AcDbVertex
100
AcDb2dVertex
 10
58.47495083120872
 20
33.71905827704599
 30
0.0
  0
VERTEX
  5
A9D
330
A96
100
AcDbEntity
  8
0
100
AcDbVertex
100
AcDb2dVertex
 10
58.35919583120872
 20
33.97261727704599
 30
0.0
  0
VERTEX
  5
A9E
330
A96
100
AcDbEntity
  8
0
100
AcDbVertex
100
AcDb2dVertex
 10
58.3609178312087
 20
33.97261727704599
 30
0.0
  0
SEQEND
  5
A9F
330
A96
100
AcDbEntity
  8
0
  0
POLYLINE
  5
AA0
330
1F
100
AcDbEntity
  8
0
100
AcDb2dPolyline
 66
     1
 10
0.0
 20
0.0
 30
0.0
  0
VERTEX
  5
AA1
330
AA0
100
AcDbEntity
  8
0
100
AcDbVertex
100
AcDb2dVertex
 10
58.96243183120872
 20
32.29588927704599
 30
0.0
  0
VERTEX
  5
AA2
330
AA0
100
AcDbEntity
  8
0
100
AcDbVertex
100
AcDb2dVertex
 10
59.07784283120872
 20
31.82253327704599
 30
0.0
  0
VERTEX
  5
AA3
330
AA0
100
AcDbEntity
  8
0
100
AcDbVertex
100
AcDb2dVertex
 10
59.16913783120872
 20
31.334707277046
 30
0.0
  0
VERTEX
  5
AA4
330
AA0
100
AcDbEntity
  8
0
100
AcDbVertex
100
AcDb2dVertex
 10
59.24424083120872
 20
30.83137927704599
 30
0.0
  0
VERTEX
  5
AA5
330
AA0
100
AcDbEntity
  8
0
100
AcDbVertex
100
AcDb2dVertex
 10
59.29936183120871
 20
30.31874927704599
 30
0.0
  0
VERTEX
  5
AA6
330
AA0
100
AcDbEntity
  8
0
100
AcDbVertex
100
AcDb2dVertex
 10
59.33243483120872
 20
29.79785027704599
 30
0.0
  0
VERTEX
  5
AA7
330
AA0
100
AcDbEntity
  8
0
100
AcDbVertex
100
AcDb2dVertex
 10
59.34380383120871
 20
29.26730627704599
 30
0.0
  0
VERTEX
  5
AA8
330
AA0
100
AcDbEntity
  8
0
100
AcDbVertex
100
AcDb2dVertex
 10
59.34449283120871
 20
29.26730627704599
 30
0.0
  0
SEQEND
  5
AA9
330
AA0
100
AcDbEntity
  8
0
  0
SPLINE
  5
AAA
330
1F
100
AcDbEntity
  8
0
100
AcDbSpline
210
0.0
220
0.0
230
1.0
 70
     8
 71
     3
 72
    17
 73
    13
 74
     0
 42
0.0000000001
 43
0.0000000001
 40
0.0
 40
0.0
 40
0.0
 40
0.0
 40
1.0
 40
1.0
 40
1.0
 40
2.0
 40
2.0
 40
2.0
 40
3.0
 40
3.0
 40
3.0
 40
4.0
 40
4.0
 40
4.0
 40
4.0
 10
57.92132389935106
 20
34.76085517808765
 30
0.0
 10
57.92132389935106
 20
34.76085517808765
 30
0.0
 10
57.72874306167746
 20
35.04300849840016
 30
0.0
 10
57.72874306167746
 20
35.04300849840016
 30
0.0
 10
57.04609739110454
 20
35.99523289076127
 30
0.0
 10
56.13314708728509
 20
36.68115140204599
 30
0.0
 10
55.06533974136496
 20
37.15106242635154
 30
0.0
 10
55.06533974136496
 20
37.15106242635154
 30
0.0
 10
54.7661331983962
 20
37.27543037340015
 30
0.0
 10
54.7661331983962
 20
37.27543037340015
 30
0.0
 10
54.7661331983962
 20
37.27543037340015
 30
0.0
 10
54.7690615295594
 20
37.27543037340015
 30
0.0
 10
54.7690615295594
 20
37.27543037340015
 30
0.0
  0
POLYLINE
  5
AAB
330
1F
100
AcDbEntity
  8
0
100
AcDb2dPolyline
 66
     1
 10
0.0
 20
0.0
 30
0.0
  0
VERTEX
  5
AAC
330
AAB
100
AcDbEntity
  8
0
100
AcDbVertex
100
AcDb2dVertex
 10
58.99912183120871
 20
26.28798727704599
 30
0.0
  0
VERTEX
  5
AAD
330
AAB
100
AcDbEntity
  8
0
100
AcDbVertex
100
AcDb2dVertex
 10
58.91299483120872
 20
25.98998627704599
 30
0.0
  0
VERTEX
  5
AAE
330
AAB
100
AcDbEntity
  8
0
100
AcDbVertex
100
AcDb2dVertex
 10
58.81704883120872
 20
25.700943277046
 30
0.0
  0
VERTEX
  5
AAF
330
AAB
100
AcDbEntity
  8
0
100
AcDbVertex
100
AcDb2dVertex
 10
58.71335183120871
 20
25.42499127704599
 30
0.0
  0
VERTEX
  5
AB0
330
AAB
100
AcDbEntity
  8
0
100
AcDbVertex
100
AcDb2dVertex
 10
58.6058648312087
 20
25.154206277046
 30
0.0
  0
VERTEX
  5
AB1
330
AAB
100
AcDbEntity
  8
0
100
AcDbVertex
100
AcDb2dVertex
 10
58.49079783120872
 20
24.89513527704599
 30
0.0
  0
VERTEX
  5
AB2
330
AAB
100
AcDbEntity
  8
0
100
AcDbVertex
100
AcDb2dVertex
 10
58.36866983120872
 20
24.64502127704598
 30
0.0
  0
VERTEX
  5
AB3
330
AAB
100
AcDbEntity
  8
0
100
AcDbVertex
100
AcDb2dVertex
 10
58.37125383120872
 20
24.64502127704598
 30
0.0
  0
SEQEND
  5
AB4
330
AAB
100
AcDbEntity
  8
0
  0
POLYLINE
  5
AB5
330
1F
100
AcDbEntity
  8
0
100
AcDb2dPolyline
 66
     1
 10
0.0
 20
0.0
 30
0.0
  0
VERTEX
  5
AB6
330
AB5
100
AcDbEntity
  8
0
100
AcDbVertex
100
AcDb2dVertex
 10
41.60690183120872
 20
21.80557327704599
 30
0.0
  0
VERTEX
  5
AB7
330
AB5
100
AcDbEntity
  8
0
100
AcDbVertex
100
AcDb2dVertex
 10
38.72387383120872
 20
21.79971727704599
 30
0.0
  0
VERTEX
  5
AB8
330
AB5
100
AcDbEntity
  8
0
100
AcDbVertex
100
AcDb2dVertex
 10
38.72542383120872
 20
21.79971727704599
 30
0.0
  0
SEQEND
  5
AB9
330
AB5
100
AcDbEntity
  8
0
  0
SPLINE
  5
ABA
330
1F
100
AcDbEntity
  8
0
100
AcDbSpline
210
0.0
220
0.0
230
1.0
 70
     8
 71
     3
 72
    14
 73
    10
 74
     0
 42
0.0000000001
 43
0.0000000001
 40
0.0
 40
0.0
 40
0.0
 40
0.0
 40
1.0
 40
1.0
 40
1.0
 40
2.0
 40
2.0
 40
2.0
 40
3.0
 40
3.0
 40
3.0
 40
3.0
 10
40.66139551393439
 20
36.70664510864322
 30
0.0
 10
40.66139551393439
 20
36.70664510864322
 30
0.0
 10
40.83072195707676
 20
36.69699884128209
 30
0.0
 10
40.83072195707676
 20
36.69699884128209
 30
0.0
 10
43.22816390586149
 20
36.60604832044877
 30
0.0
 10
45.62250526870871
 20
36.43861667982377
 30
0.0
 10
48.01047320490662
 20
36.20745077270572
 30
0.0
 10
48.01047320490662
 20
36.20745077270572
 30
0.0
 10
48.01391830039275
 20
36.20745077270572
 30
0.0
 10
48.01391830039275
 20
36.20745077270572
 30
0.0
  0
POLYLINE
  5
ABB
330
1F
100
AcDbEntity
  8
0
100
AcDb2dPolyline
 66
     1
 10
0.0
 20
0.0
 30
0.0
  0
VERTEX
  5
ABC
330
ABB
100
AcDbEntity
  8
0
100
AcDbVertex
100
AcDb2dVertex
 10
38.61311383120872
 20
36.76762327704599
 30
0.0
  0
VERTEX
  5
ABD
330
ABB
100
AcDbEntity
  8
0
100
AcDbVertex
100
AcDb2dVertex
 10
38.72542383120872
 20
36.76417827704599
 30
0.0
  0
VERTEX
  5
ABE
330
ABB
100
AcDbEntity
  8
0
100
AcDbVertex
100
AcDb2dVertex
 10
38.72990283120872
 20
36.76417827704599
 30
0.0
  0
SEQEND
  5
ABF
330
ABB
100
AcDbEntity
  8
0
  0
POLYLINE
  5
AC0
330
1F
100
AcDbEntity
  8
0
100
AcDb2dPolyline
 66
     1
 10
0.0
 20
0.0
 30
0.0
  0
VERTEX
  5
AC1
330
AC0
100
AcDbEntity
  8
0
100
AcDbVertex
100
AcDb2dVertex
 10
41.60690183120872
 20
36.70423327704599
 30
0.0
  0
VERTEX
  5
AC2
330
AC0
100
AcDbEntity
  8
0
100
AcDbVertex
100
AcDb2dVertex
 10
38.72387383120872
 20
36.70664527704599
 30
0.0
  0
VERTEX
  5
AC3
330
AC0
100
AcDbEntity
  8
0
100
AcDbVertex
100
AcDb2dVertex
 10
38.72542383120872
 20
36.70664527704599
 30
0.0
  0
SEQEND
  5
AC4
330
AC0
100
AcDbEntity
  8
0
  0
POLYLINE
  5
AC5
330
1F
100
AcDbEntity
  8
0
100
AcDb2dPolyline
 66
     1
 10
0.0
 20
0.0
 30
0.0
  0
VERTEX
  5
AC6
330
AC5
100
AcDbEntity
  8
0
100
AcDbVertex
100
AcDb2dVertex
 10
41.64875983120872
 20
38.33962027704599
 30
0.0
  0
VERTEX
  5
AC7
330
AC5
100
AcDbEntity
  8
0
100
AcDbVertex
100
AcDb2dVertex
 10
41.60690183120872
 20
36.70423327704599
 30
0.0
  0
VERTEX
  5
AC8
330
AC5
100
AcDbEntity
  8
0
100
AcDbVertex
100
AcDb2dVertex
 10
41.61034683120871
 20
36.70423327704599
 30
0.0
  0
SEQEND
  5
AC9
330
AC5
100
AcDbEntity
  8
0
  0
POLYLINE
  5
ACA
330
1F
100
AcDbEntity
  8
0
100
AcDb2dPolyline
 66
     1
 10
0.0
 20
0.0
 30
0.0
  0
VERTEX
  5
ACB
330
ACA
100
AcDbEntity
  8
0
100
AcDbVertex
100
AcDb2dVertex
 10
38.76900483120871
 20
38.33066327704599
 30
0.0
  0
VERTEX
  5
ACC
330
ACA
100
AcDbEntity
  8
0
100
AcDbVertex
100
AcDb2dVertex
 10
38.72387383120872
 20
36.70664527704599
 30
0.0
  0
VERTEX
  5
ACD
330
ACA
100
AcDbEntity
  8
0
100
AcDbVertex
100
AcDb2dVertex
 10
38.72542383120872
 20
36.70664527704599
 30
0.0
  0
SEQEND
  5
ACE
330
ACA
100
AcDbEntity
  8
0
  0
POLYLINE
  5
ACF
330
1F
100
AcDbEntity
  8
0
100
AcDb2dPolyline
 66
     1
 10
0.0
 20
0.0
 30
0.0
  0
VERTEX
  5
AD0
330
ACF
100
AcDbEntity
  8
0
100
AcDbVertex
100
AcDb2dVertex
 10
41.64875983120872
 20
20.16984227704599
 30
0.0
  0
VERTEX
  5
AD1
330
ACF
100
AcDbEntity
  8
0
100
AcDbVertex
100
AcDb2dVertex
 10
41.60690183120872
 20
21.80557327704599
 30
0.0
  0
VERTEX
  5
AD2
330
ACF
100
AcDbEntity
  8
0
100
AcDbVertex
100
AcDb2dVertex
 10
41.61034683120871
 20
21.80557327704599
 30
0.0
  0
SEQEND
  5
AD3
330
ACF
100
AcDbEntity
  8
0
  0
POLYLINE
  5
AD4
330
1F
100
AcDbEntity
  8
0
100
AcDb2dPolyline
 66
     1
 10
0.0
 20
0.0
 30
0.0
  0
VERTEX
  5
AD5
330
AD4
100
AcDbEntity
  8
0
100
AcDbVertex
100
AcDb2dVertex
 10
38.76900483120871
 20
20.17569927704599
 30
0.0
  0
VERTEX
  5
AD6
330
AD4
100
AcDbEntity
  8
0
100
AcDbVertex
100
AcDb2dVertex
 10
38.72387383120872
 20
21.79971727704599
 30
0.0
  0
VERTEX
  5
AD7
330
AD4
100
AcDbEntity
  8
0
100
AcDbVertex
100
AcDb2dVertex
 10
38.72542383120872
 20
21.79971727704599
 30
0.0
  0
SEQEND
  5
AD8
330
AD4
100
AcDbEntity
  8
0
  0
SPLINE
  5
AD9
330
1F
100
AcDbEntity
  8
0
100
AcDbSpline
210
0.0
220
0.0
230
1.0
 70
     8
 71
     3
 72
    17
 73
    13
 74
     0
 42
0.0000000001
 43
0.0000000001
 40
0.0
 40
0.0
 40
0.0
 40
0.0
 40
1.0
 40
1.0
 40
1.0
 40
2.0
 40
2.0
 40
2.0
 40
3.0
 40
3.0
 40
3.0
 40
4.0
 40
4.0
 40
4.0
 40
4.0
 10
19.60135455256288
 20
18.67294827704599
 30
0.0
 10
19.60135455256288
 20
18.67294827704599
 30
0.0
 10
19.53779254084412
 20
18.67708239162932
 30
0.0
 10
19.53779254084412
 20
18.67708239162932
 30
0.0
 10
19.26649127131288
 20
18.70498766506682
 30
0.0
 10
19.03963173355246
 20
18.92306220933765
 30
0.0
 10
19.01878890586148
 20
19.19970337687238
 30
0.0
 10
19.01878890586148
 20
19.19970337687238
 30
0.0
 10
19.01431028172954
 20
19.25999254787932
 30
0.0
 10
19.01431028172954
 20
19.25999254787932
 30
0.0
 10
19.01431028172954
 20
19.25999254787932
 30
0.0
 10
19.01878890586148
 20
19.25999254787932
 30
0.0
 10
19.01878890586148
 20
19.25999254787932
 30
0.0
  0
POLYLINE
  5
ADA
330
1F
100
AcDbEntity
  8
0
100
AcDb2dPolyline
 66
     1
 10
0.0
 20
0.0
 30
0.0
  0
VERTEX
  5
ADB
330
ADA
100
AcDbEntity
  8
0
100
AcDbVertex
100
AcDb2dVertex
 10
27.82428083120872
 20
21.42523527704599
 30
0.0
  0
VERTEX
  5
ADC
330
ADA
100
AcDbEntity
  8
0
100
AcDbVertex
100
AcDb2dVertex
 10
27.48735083120872
 20
21.46898727704599
 30
0.0
  0
VERTEX
  5
ADD
330
ADA
100
AcDbEntity
  8
0
100
AcDbVertex
100
AcDb2dVertex
 10
27.49010683120872
 20
21.46898727704599
 30
0.0
  0
SEQEND
  5
ADE
330
ADA
100
AcDbEntity
  8
0
  0
POLYLINE
  5
ADF
330
1F
100
AcDbEntity
  8
0
100
AcDb2dPolyline
 66
     1
 10
0.0
 20
0.0
 30
0.0
  0
VERTEX
  5
AE0
330
ADF
100
AcDbEntity
  8
0
100
AcDbVertex
100
AcDb2dVertex
 10
28.54516683120871
 20
21.34289727704599
 30
0.0
  0
VERTEX
  5
AE1
330
ADF
100
AcDbEntity
  8
0
100
AcDbVertex
100
AcDb2dVertex
 10
28.17102983120872
 20
21.38286027704599
 30
0.0
  0
VERTEX
  5
AE2
330
ADF
100
AcDbEntity
  8
0
100
AcDbVertex
100
AcDb2dVertex
 10
28.17378583120871
 20
21.38286027704599
 30
0.0
  0
SEQEND
  5
AE3
330
ADF
100
AcDbEntity
  8
0
  0
POLYLINE
  5
AE4
330
1F
100
AcDbEntity
  8
0
100
AcDb2dPolyline
 66
     1
 10
0.0
 20
0.0
 30
0.0
  0
VERTEX
  5
AE5
330
AE4
100
AcDbEntity
  8
0
100
AcDbVertex
100
AcDb2dVertex
 10
28.17102983120872
 20
21.38286027704599
 30
0.0
  0
VERTEX
  5
AE6
330
AE4
100
AcDbEntity
  8
0
100
AcDbVertex
100
AcDb2dVertex
 10
27.82428083120872
 20
21.42523527704599
 30
0.0
  0
VERTEX
  5
AE7
330
AE4
100
AcDbEntity
  8
0
100
AcDbVertex
100
AcDb2dVertex
 10
27.82738083120872
 20
21.42523527704599
 30
0.0
  0
SEQEND
  5
AE8
330
AE4
100
AcDbEntity
  8
0
  0
POLYLINE
  5
AE9
330
1F
100
AcDbEntity
  8
0
100
AcDb2dPolyline
 66
     1
 10
0.0
 20
0.0
 30
0.0
  0
VERTEX
  5
AEA
330
AE9
100
AcDbEntity
  8
0
100
AcDbVertex
100
AcDb2dVertex
 10
26.84208383120872
 20
23.51503027704599
 30
0.0
  0
VERTEX
  5
AEB
330
AE9
100
AcDbEntity
  8
0
100
AcDbVertex
100
AcDb2dVertex
 10
26.73545783120872
 20
23.52984427704599
 30
0.0
  0
VERTEX
  5
AEC
330
AE9
100
AcDbEntity
  8
0
100
AcDbVertex
100
AcDb2dVertex
 10
26.73907583120872
 20
23.52984427704599
 30
0.0
  0
SEQEND
  5
AED
330
AE9
100
AcDbEntity
  8
0
  0
POLYLINE
  5
AEE
330
1F
100
AcDbEntity
  8
0
100
AcDb2dPolyline
 66
     1
 10
0.0
 20
0.0
 30
0.0
  0
VERTEX
  5
AEF
330
AEE
100
AcDbEntity
  8
0
100
AcDbVertex
100
AcDb2dVertex
 10
26.73545783120872
 20
23.52984427704599
 30
0.0
  0
VERTEX
  5
AF0
330
AEE
100
AcDbEntity
  8
0
100
AcDbVertex
100
AcDb2dVertex
 10
26.68326483120872
 20
23.53880127704599
 30
0.0
  0
VERTEX
  5
AF1
330
AEE
100
AcDbEntity
  8
0
100
AcDbVertex
100
AcDb2dVertex
 10
26.68688283120872
 20
23.53880127704599
 30
0.0
  0
SEQEND
  5
AF2
330
AEE
100
AcDbEntity
  8
0
  0
POLYLINE
  5
AF3
330
1F
100
AcDbEntity
  8
0
100
AcDb2dPolyline
 66
     1
 10
0.0
 20
0.0
 30
0.0
  0
VERTEX
  5
AF4
330
AF3
100
AcDbEntity
  8
0
100
AcDbVertex
100
AcDb2dVertex
 10
26.68326483120872
 20
23.53880127704599
 30
0.0
  0
VERTEX
  5
AF5
330
AF3
100
AcDbEntity
  8
0
100
AcDbVertex
100
AcDb2dVertex
 10
26.63176083120872
 20
23.54810327704599
 30
0.0
  0
VERTEX
  5
AF6
330
AF3
100
AcDbEntity
  8
0
100
AcDbVertex
100
AcDb2dVertex
 10
26.63537783120871
 20
23.54810327704599
 30
0.0
  0
SEQEND
  5
AF7
330
AF3
100
AcDbEntity
  8
0
  0
POLYLINE
  5
AF8
330
1F
100
AcDbEntity
  8
0
100
AcDb2dPolyline
 66
     1
 10
0.0
 20
0.0
 30
0.0
  0
VERTEX
  5
AF9
330
AF8
100
AcDbEntity
  8
0
100
AcDbVertex
100
AcDb2dVertex
 10
26.63176083120872
 20
23.54810327704599
 30
0.0
  0
VERTEX
  5
AFA
330
AF8
100
AcDbEntity
  8
0
100
AcDbVertex
100
AcDb2dVertex
 10
26.59575983120872
 20
23.55395927704599
 30
0.0
  0
VERTEX
  5
AFB
330
AF8
100
AcDbEntity
  8
0
100
AcDbVertex
100
AcDb2dVertex
 10
26.59868783120872
 20
23.55395927704599
 30
0.0
  0
SEQEND
  5
AFC
330
AF8
100
AcDbEntity
  8
0
  0
POLYLINE
  5
AFD
330
1F
100
AcDbEntity
  8
0
100
AcDb2dPolyline
 66
     1
 10
0.0
 20
0.0
 30
0.0
  0
VERTEX
  5
AFE
330
AFD
100
AcDbEntity
  8
0
100
AcDbVertex
100
AcDb2dVertex
 10
27.92504983120872
 20
23.36516827704599
 30
0.0
  0
VERTEX
  5
AFF
330
AFD
100
AcDbEntity
  8
0
100
AcDbVertex
100
AcDb2dVertex
 10
27.66683983120872
 20
23.39996427704599
 30
0.0
  0
VERTEX
  5
B00
330
AFD
100
AcDbEntity
  8
0
100
AcDbVertex
100
AcDb2dVertex
 10
27.66925183120872
 20
23.39996427704599
 30
0.0
  0
SEQEND
  5
B01
330
AFD
100
AcDbEntity
  8
0
  0
POLYLINE
  5
B02
330
1F
100
AcDbEntity
  8
0
100
AcDb2dPolyline
 66
     1
 10
0.0
 20
0.0
 30
0.0
  0
VERTEX
  5
B03
330
B02
100
AcDbEntity
  8
0
100
AcDbVertex
100
AcDb2dVertex
 10
27.66683983120872
 20
23.39996427704599
 30
0.0
  0
VERTEX
  5
B04
330
B02
100
AcDbEntity
  8
0
100
AcDbVertex
100
AcDb2dVertex
 10
27.41569283120872
 20
23.43303627704599
 30
0.0
  0
VERTEX
  5
B05
330
B02
100
AcDbEntity
  8
0
100
AcDbVertex
100
AcDb2dVertex
 10
27.41913783120871
 20
23.43303627704599
 30
0.0
  0
SEQEND
  5
B06
330
B02
100
AcDbEntity
  8
0
  0
POLYLINE
  5
B07
330
1F
100
AcDbEntity
  8
0
100
AcDb2dPolyline
 66
     1
 10
0.0
 20
0.0
 30
0.0
  0
VERTEX
  5
B08
330
B07
100
AcDbEntity
  8
0
100
AcDbVertex
100
AcDb2dVertex
 10
27.41569283120872
 20
23.43303627704599
 30
0.0
  0
VERTEX
  5
B09
330
B07
100
AcDbEntity
  8
0
100
AcDbVertex
100
AcDb2dVertex
 10
27.09460983120872
 20
23.47816727704599
 30
0.0
  0
VERTEX
  5
B0A
330
B07
100
AcDbEntity
  8
0
100
AcDbVertex
100
AcDb2dVertex
 10
27.09822683120872
 20
23.47816727704599
 30
0.0
  0
SEQEND
  5
B0B
330
B07
100
AcDbEntity
  8
0
  0
POLYLINE
  5
B0C
330
1F
100
AcDbEntity
  8
0
100
AcDb2dPolyline
 66
     1
 10
0.0
 20
0.0
 30
0.0
  0
VERTEX
  5
B0D
330
B0C
100
AcDbEntity
  8
0
100
AcDbVertex
100
AcDb2dVertex
 10
29.03178683120871
 20
23.23873327704599
 30
0.0
  0
VERTEX
  5
B0E
330
B0C
100
AcDbEntity
  8
0
100
AcDbVertex
100
AcDb2dVertex
 10
28.73723083120871
 20
23.27146127704599
 30
0.0
  0
VERTEX
  5
B0F
330
B0C
100
AcDbEntity
  8
0
100
AcDbVertex
100
AcDb2dVertex
 10
28.73964283120871
 20
23.27146127704599
 30
0.0
  0
SEQEND
  5
B10
330
B0C
100
AcDbEntity
  8
0
  0
POLYLINE
  5
B11
330
1F
100
AcDbEntity
  8
0
100
AcDb2dPolyline
 66
     1
 10
0.0
 20
0.0
 30
0.0
  0
VERTEX
  5
B12
330
B11
100
AcDbEntity
  8
0
100
AcDbVertex
100
AcDb2dVertex
 10
28.73723083120871
 20
23.27146127704599
 30
0.0
  0
VERTEX
  5
B13
330
B11
100
AcDbEntity
  8
0
100
AcDbVertex
100
AcDb2dVertex
 10
28.45955583120872
 20
23.30212327704598
 30
0.0
  0
VERTEX
  5
B14
330
B11
100
AcDbEntity
  8
0
100
AcDbVertex
100
AcDb2dVertex
 10
28.46300183120872
 20
23.30212327704598
 30
0.0
  0
SEQEND
  5
B15
330
B11
100
AcDbEntity
  8
0
  0
POLYLINE
  5
B16
330
1F
100
AcDbEntity
  8
0
100
AcDb2dPolyline
 66
     1
 10
0.0
 20
0.0
 30
0.0
  0
VERTEX
  5
B17
330
B16
100
AcDbEntity
  8
0
100
AcDbVertex
100
AcDb2dVertex
 10
28.45955583120872
 20
23.30212327704598
 30
0.0
  0
VERTEX
  5
B18
330
B16
100
AcDbEntity
  8
0
100
AcDbVertex
100
AcDb2dVertex
 10
28.18928883120872
 20
23.331751277046
 30
0.0
  0
VERTEX
  5
B19
330
B16
100
AcDbEntity
  8
0
100
AcDbVertex
100
AcDb2dVertex
 10
28.19187283120871
 20
23.331751277046
 30
0.0
  0
SEQEND
  5
B1A
330
B16
100
AcDbEntity
  8
0
  0
POLYLINE
  5
B1B
330
1F
100
AcDbEntity
  8
0
100
AcDb2dPolyline
 66
     1
 10
0.0
 20
0.0
 30
0.0
  0
VERTEX
  5
B1C
330
B1B
100
AcDbEntity
  8
0
100
AcDbVertex
100
AcDb2dVertex
 10
28.18928883120872
 20
23.331751277046
 30
0.0
  0
VERTEX
  5
B1D
330
B1B
100
AcDbEntity
  8
0
100
AcDbVertex
100
AcDb2dVertex
 10
27.92504983120872
 20
23.36516827704599
 30
0.0
  0
VERTEX
  5
B1E
330
B1B
100
AcDbEntity
  8
0
100
AcDbVertex
100
AcDb2dVertex
 10
27.92763383120872
 20
23.36516827704599
 30
0.0
  0
SEQEND
  5
B1F
330
B1B
100
AcDbEntity
  8
0
  0
POLYLINE
  5
B20
330
1F
100
AcDbEntity
  8
0
100
AcDb2dPolyline
 66
     1
 10
0.0
 20
0.0
 30
0.0
  0
VERTEX
  5
B21
330
B20
100
AcDbEntity
  8
0
100
AcDbVertex
100
AcDb2dVertex
 10
27.09460983120872
 20
23.47816727704599
 30
0.0
  0
VERTEX
  5
B22
330
B20
100
AcDbEntity
  8
0
100
AcDbVertex
100
AcDb2dVertex
 10
26.92631683120872
 20
23.50021627704599
 30
0.0
  0
VERTEX
  5
B23
330
B20
100
AcDbEntity
  8
0
100
AcDbVertex
100
AcDb2dVertex
 10
26.84208383120872
 20
23.51503027704599
 30
0.0
  0
VERTEX
  5
B24
330
B20
100
AcDbEntity
  8
0
100
AcDbVertex
100
AcDb2dVertex
 10
26.84449583120872
 20
23.51503027704599
 30
0.0
  0
SEQEND
  5
B25
330
B20
100
AcDbEntity
  8
0
  0
SPLINE
  5
B26
330
1F
100
AcDbEntity
  8
0
100
AcDbSpline
210
0.0
220
0.0
230
1.0
 70
     8
 71
     3
 72
    17
 73
    13
 74
     0
 42
0.0000000001
 43
0.0000000001
 40
0.0
 40
0.0
 40
0.0
 40
0.0
 40
1.0
 40
1.0
 40
1.0
 40
2.0
 40
2.0
 40
2.0
 40
3.0
 40
3.0
 40
3.0
 40
4.0
 40
4.0
 40
4.0
 40
4.0
 10
26.99091211549691
 20
21.53168851142099
 30
0.0
 10
26.99091211549691
 20
21.53168851142099
 30
0.0
 10
26.65725461766704
 20
21.58095337687238
 30
0.0
 10
26.65725461766704
 20
21.58095337687238
 30
0.0
 10
26.26554726089621
 20
21.63194079006682
 30
0.0
 10
25.8776295091601
 20
21.70911092895571
 30
0.0
 10
25.49453489110454
 20
21.80522909301821
 30
0.0
 10
25.49453489110454
 20
21.80522909301821
 30
0.0
 10
25.33037609119136
 20
21.8482927865946
 30
0.0
 10
25.33037609119136
 20
21.8482927865946
 30
0.0
 10
25.33037609119136
 20
21.8482927865946
 30
0.0
 10
25.33330442235455
 20
21.8482927865946
 30
0.0
 10
25.33330442235455
 20
21.8482927865946
 30
0.0
  0
POLYLINE
  5
B27
330
1F
100
AcDbEntity
  8
0
100
AcDb2dPolyline
 66
     1
 10
0.0
 20
0.0
 30
0.0
  0
VERTEX
  5
B28
330
B27
100
AcDbEntity
  8
0
100
AcDbVertex
100
AcDb2dVertex
 10
27.48735083120872
 20
21.46898727704599
 30
0.0
  0
VERTEX
  5
B29
330
B27
100
AcDbEntity
  8
0
100
AcDbVertex
100
AcDb2dVertex
 10
27.15489883120871
 20
21.51032927704599
 30
0.0
  0
VERTEX
  5
B2A
330
B27
100
AcDbEntity
  8
0
100
AcDbVertex
100
AcDb2dVertex
 10
26.99091183120871
 20
21.53168827704599
 30
0.0
  0
VERTEX
  5
B2B
330
B27
100
AcDbEntity
  8
0
100
AcDbVertex
100
AcDb2dVertex
 10
26.99452983120872
 20
21.53168827704599
 30
0.0
  0
SEQEND
  5
B2C
330
B27
100
AcDbEntity
  8
0
  0
SPLINE
  5
B2D
330
1F
100
AcDbEntity
  8
0
100
AcDbSpline
210
0.0
220
0.0
230
1.0
 70
     8
 71
     3
 72
    17
 73
    13
 74
     0
 42
0.0000000001
 43
0.0000000001
 40
0.0
 40
0.0
 40
0.0
 40
0.0
 40
1.0
 40
1.0
 40
1.0
 40
2.0
 40
2.0
 40
2.0
 40
3.0
 40
3.0
 40
3.0
 40
4.0
 40
4.0
 40
4.0
 40
4.0
 10
33.39276080256288
 20
20.84818156697654
 30
0.0
 10
33.39276080256288
 20
20.84818156697654
 30
0.0
 10
33.36313298138232
 20
20.87539782131682
 30
0.0
 10
33.36313298138232
 20
20.87539782131682
 30
0.0
 10
33.26356972183372
 20
20.9491228647196
 30
0.0
 10
33.20293604127815
 20
20.97565009996265
 30
0.0
 10
33.07977387764969
 20
20.99322008694182
 30
0.0
 10
33.07977387764969
 20
20.99322008694182
 30
0.0
 10
33.03016450264968
 20
20.99942125881682
 30
0.0
 10
33.03016450264968
 20
20.99942125881682
 30
0.0
 10
33.03016450264968
 20
20.99942125881682
 30
0.0
 10
33.0336095981358
 20
20.99942125881682
 30
0.0
 10
33.0336095981358
 20
20.99942125881682
 30
0.0
  0
POLYLINE
  5
B2E
330
1F
100
AcDbEntity
  8
0
100
AcDb2dPolyline
 66
     1
 10
0.0
 20
0.0
 30
0.0
  0
VERTEX
  5
B2F
330
B2E
100
AcDbEntity
  8
0
100
AcDbVertex
100
AcDb2dVertex
 10
30.09287583120872
 20
23.14020327704599
 30
0.0
  0
VERTEX
  5
B30
330
B2E
100
AcDbEntity
  8
0
100
AcDbVertex
100
AcDb2dVertex
 10
29.76404183120872
 20
23.16776427704599
 30
0.0
  0
VERTEX
  5
B31
330
B2E
100
AcDbEntity
  8
0
100
AcDbVertex
100
AcDb2dVertex
 10
29.76765883120872
 20
23.16776427704599
 30
0.0
  0
SEQEND
  5
B32
330
B2E
100
AcDbEntity
  8
0
  0
POLYLINE
  5
B33
330
1F
100
AcDbEntity
  8
0
100
AcDb2dPolyline
 66
     1
 10
0.0
 20
0.0
 30
0.0
  0
VERTEX
  5
B34
330
B33
100
AcDbEntity
  8
0
100
AcDbVertex
100
AcDb2dVertex
 10
29.76404183120872
 20
23.16776427704599
 30
0.0
  0
VERTEX
  5
B35
330
B33
100
AcDbEntity
  8
0
100
AcDbVertex
100
AcDb2dVertex
 10
29.44519783120872
 20
23.19808127704599
 30
0.0
  0
VERTEX
  5
B36
330
B33
100
AcDbEntity
  8
0
100
AcDbVertex
100
AcDb2dVertex
 10
29.44829883120872
 20
23.19808127704599
 30
0.0
  0
SEQEND
  5
B37
330
B33
100
AcDbEntity
  8
0
  0
POLYLINE
  5
B38
330
1F
100
AcDbEntity
  8
0
100
AcDb2dPolyline
 66
     1
 10
0.0
 20
0.0
 30
0.0
  0
VERTEX
  5
B39
330
B38
100
AcDbEntity
  8
0
100
AcDbVertex
100
AcDb2dVertex
 10
29.44519783120872
 20
23.19808127704599
 30
0.0
  0
VERTEX
  5
B3A
330
B38
100
AcDbEntity
  8
0
100
AcDbVertex
100
AcDb2dVertex
 10
29.23556383120871
 20
23.21634027704599
 30
0.0
  0
VERTEX
  5
B3B
330
B38
100
AcDbEntity
  8
0
100
AcDbVertex
100
AcDb2dVertex
 10
29.23918183120872
 20
23.21634027704599
 30
0.0
  0
SEQEND
  5
B3C
330
B38
100
AcDbEntity
  8
0
  0
POLYLINE
  5
B3D
330
1F
100
AcDbEntity
  8
0
100
AcDb2dPolyline
 66
     1
 10
0.0
 20
0.0
 30
0.0
  0
VERTEX
  5
B3E
330
B3D
100
AcDbEntity
  8
0
100
AcDbVertex
100
AcDb2dVertex
 10
31.18118183120872
 20
23.05338727704599
 30
0.0
  0
VERTEX
  5
B3F
330
B3D
100
AcDbEntity
  8
0
100
AcDbVertex
100
AcDb2dVertex
 10
30.79533083120872
 20
23.08232627704599
 30
0.0
  0
VERTEX
  5
B40
330
B3D
100
AcDbEntity
  8
0
100
AcDbVertex
100
AcDb2dVertex
 10
30.79843183120872
 20
23.08232627704599
 30
0.0
  0
SEQEND
  5
B41
330
B3D
100
AcDbEntity
  8
0
  0
POLYLINE
  5
B42
330
1F
100
AcDbEntity
  8
0
100
AcDb2dPolyline
 66
     1
 10
0.0
 20
0.0
 30
0.0
  0
VERTEX
  5
B43
330
B42
100
AcDbEntity
  8
0
100
AcDbVertex
100
AcDb2dVertex
 10
30.79533083120872
 20
23.08232627704599
 30
0.0
  0
VERTEX
  5
B44
330
B42
100
AcDbEntity
  8
0
100
AcDbVertex
100
AcDb2dVertex
 10
30.43325183120872
 20
23.10988627704599
 30
0.0
  0
VERTEX
  5
B45
330
B42
100
AcDbEntity
  8
0
100
AcDbVertex
100
AcDb2dVertex
 10
30.43652483120871
 20
23.10988627704599
 30
0.0
  0
SEQEND
  5
B46
330
B42
100
AcDbEntity
  8
0
  0
POLYLINE
  5
B47
330
1F
100
AcDbEntity
  8
0
100
AcDb2dPolyline
 66
     1
 10
0.0
 20
0.0
 30
0.0
  0
VERTEX
  5
B48
330
B47
100
AcDbEntity
  8
0
100
AcDbVertex
100
AcDb2dVertex
 10
30.43325183120872
 20
23.10988627704599
 30
0.0
  0
VERTEX
  5
B49
330
B47
100
AcDbEntity
  8
0
100
AcDbVertex
100
AcDb2dVertex
 10
30.09287583120872
 20
23.14020327704599
 30
0.0
  0
VERTEX
  5
B4A
330
B47
100
AcDbEntity
  8
0
100
AcDbVertex
100
AcDb2dVertex
 10
30.09563183120871
 20
23.14020327704599
 30
0.0
  0
SEQEND
  5
B4B
330
B47
100
AcDbEntity
  8
0
  0
SPLINE
  5
B4C
330
1F
100
AcDbEntity
  8
0
100
AcDbSpline
210
0.0
220
0.0
230
1.0
 70
     8
 71
     3
 72
    14
 73
    10
 74
     0
 42
0.0000000001
 43
0.0000000001
 40
0.0
 40
0.0
 40
0.0
 40
0.0
 40
1.0
 40
1.0
 40
1.0
 40
2.0
 40
2.0
 40
2.0
 40
3.0
 40
3.0
 40
3.0
 40
3.0
 10
33.06892182686843
 20
21.63159628051821
 30
0.0
 10
33.06892182686843
 20
21.63159628051821
 30
0.0
 10
33.09114269275385
 20
21.63573039510154
 30
0.0
 10
33.09114269275385
 20
21.63573039510154
 30
0.0
 10
33.24221012981983
 20
21.65812351576125
 30
0.0
 10
33.39482785985455
 20
21.66811429267099
 30
0.0
 10
33.54692882556635
 20
21.6812056555182
 30
0.0
 10
33.54692882556635
 20
21.6812056555182
 30
0.0
 10
33.55071843060108
 20
21.6812056555182
 30
0.0
 10
33.55071843060108
 20
21.6812056555182
 30
0.0
  0
POLYLINE
  5
B4D
330
1F
100
AcDbEntity
  8
0
100
AcDb2dPolyline
 66
     1
 10
0.0
 20
0.0
 30
0.0
  0
VERTEX
  5
B4E
330
B4D
100
AcDbEntity
  8
0
100
AcDbVertex
100
AcDb2dVertex
 10
33.54692883120871
 20
21.68120527704599
 30
0.0
  0
VERTEX
  5
B4F
330
B4D
100
AcDbEntity
  8
0
100
AcDbVertex
100
AcDb2dVertex
 10
33.59705483120872
 20
21.68430627704599
 30
0.0
  0
VERTEX
  5
B50
330
B4D
100
AcDbEntity
  8
0
100
AcDbVertex
100
AcDb2dVertex
 10
33.64459683120872
 20
21.68430627704599
 30
0.0
  0
VERTEX
  5
B51
330
B4D
100
AcDbEntity
  8
0
100
AcDbVertex
100
AcDb2dVertex
 10
33.69644583120872
 20
21.68671827704599
 30
0.0
  0
VERTEX
  5
B52
330
B4D
100
AcDbEntity
  8
0
100
AcDbVertex
100
AcDb2dVertex
 10
33.69971883120872
 20
21.68671827704599
 30
0.0
  0
SEQEND
  5
B53
330
B4D
100
AcDbEntity
  8
0
  0
POLYLINE
  5
B54
330
1F
100
AcDbEntity
  8
0
100
AcDb2dPolyline
 66
     1
 10
0.0
 20
0.0
 30
0.0
  0
VERTEX
  5
B55
330
B54
100
AcDbEntity
  8
0
100
AcDbVertex
100
AcDb2dVertex
 10
33.38707683120872
 20
22.90387027704599
 30
0.0
  0
VERTEX
  5
B56
330
B54
100
AcDbEntity
  8
0
100
AcDbVertex
100
AcDb2dVertex
 10
33.01879583120872
 20
22.92729627704599
 30
0.0
  0
VERTEX
  5
B57
330
B54
100
AcDbEntity
  8
0
100
AcDbVertex
100
AcDb2dVertex
 10
33.02120683120872
 20
22.92729627704599
 30
0.0
  0
SEQEND
  5
B58
330
B54
100
AcDbEntity
  8
0
  0
POLYLINE
  5
B59
330
1F
100
AcDbEntity
  8
0
100
AcDb2dPolyline
 66
     1
 10
0.0
 20
0.0
 30
0.0
  0
VERTEX
  5
B5A
330
B59
100
AcDbEntity
  8
0
100
AcDbVertex
100
AcDb2dVertex
 10
33.25237283120871
 20
21.59576727704599
 30
0.0
  0
VERTEX
  5
B5B
330
B59
100
AcDbEntity
  8
0
100
AcDbVertex
100
AcDb2dVertex
 10
33.16211183120871
 20
21.61678227704599
 30
0.0
  0
VERTEX
  5
B5C
330
B59
100
AcDbEntity
  8
0
100
AcDbVertex
100
AcDb2dVertex
 10
33.06892183120872
 20
21.63159627704599
 30
0.0
  0
VERTEX
  5
B5D
330
B59
100
AcDbEntity
  8
0
100
AcDbVertex
100
AcDb2dVertex
 10
33.06926683120872
 20
21.63159627704599
 30
0.0
  0
SEQEND
  5
B5E
330
B59
100
AcDbEntity
  8
0
  0
POLYLINE
  5
B5F
330
1F
100
AcDbEntity
  8
0
100
AcDb2dPolyline
 66
     1
 10
0.0
 20
0.0
 30
0.0
  0
VERTEX
  5
B60
330
B5F
100
AcDbEntity
  8
0
100
AcDbVertex
100
AcDb2dVertex
 10
33.34401283120872
 20
21.56613927704599
 30
0.0
  0
VERTEX
  5
B61
330
B5F
100
AcDbEntity
  8
0
100
AcDbVertex
100
AcDb2dVertex
 10
33.25237283120871
 20
21.59576727704599
 30
0.0
  0
VERTEX
  5
B62
330
B5F
100
AcDbEntity
  8
0
100
AcDbVertex
100
AcDb2dVertex
 10
33.25512883120872
 20
21.59576727704599
 30
0.0
  0
SEQEND
  5
B63
330
B5F
100
AcDbEntity
  8
0
  0
POLYLINE
  5
B64
330
1F
100
AcDbEntity
  8
0
100
AcDb2dPolyline
 66
     1
 10
0.0
 20
0.0
 30
0.0
  0
VERTEX
  5
B65
330
B64
100
AcDbEntity
  8
0
100
AcDbVertex
100
AcDb2dVertex
 10
32.50409883120872
 20
22.95864727704599
 30
0.0
  0
VERTEX
  5
B66
330
B64
100
AcDbEntity
  8
0
100
AcDbVertex
100
AcDb2dVertex
 10
32.03039783120871
 20
22.99137527704599
 30
0.0
  0
VERTEX
  5
B67
330
B64
100
AcDbEntity
  8
0
100
AcDbVertex
100
AcDb2dVertex
 10
32.03315383120872
 20
22.99137527704599
 30
0.0
  0
SEQEND
  5
B68
330
B64
100
AcDbEntity
  8
0
  0
POLYLINE
  5
B69
330
1F
100
AcDbEntity
  8
0
100
AcDb2dPolyline
 66
     1
 10
0.0
 20
0.0
 30
0.0
  0
VERTEX
  5
B6A
330
B69
100
AcDbEntity
  8
0
100
AcDbVertex
100
AcDb2dVertex
 10
32.03039783120871
 20
22.99137527704599
 30
0.0
  0
VERTEX
  5
B6B
330
B69
100
AcDbEntity
  8
0
100
AcDbVertex
100
AcDb2dVertex
 10
31.59183683120872
 20
23.02169227704599
 30
0.0
  0
VERTEX
  5
B6C
330
B69
100
AcDbEntity
  8
0
100
AcDbVertex
100
AcDb2dVertex
 10
31.59528183120872
 20
23.02169227704599
 30
0.0
  0
SEQEND
  5
B6D
330
B69
100
AcDbEntity
  8
0
  0
POLYLINE
  5
B6E
330
1F
100
AcDbEntity
  8
0
100
AcDb2dPolyline
 66
     1
 10
0.0
 20
0.0
 30
0.0
  0
VERTEX
  5
B6F
330
B6E
100
AcDbEntity
  8
0
100
AcDbVertex
100
AcDb2dVertex
 10
33.01879583120872
 20
22.92729627704599
 30
0.0
  0
VERTEX
  5
B70
330
B6E
100
AcDbEntity
  8
0
100
AcDbVertex
100
AcDb2dVertex
 10
32.50409883120872
 20
22.95864727704599
 30
0.0
  0
VERTEX
  5
B71
330
B6E
100
AcDbEntity
  8
0
100
AcDbVertex
100
AcDb2dVertex
 10
32.50771583120872
 20
22.95864727704599
 30
0.0
  0
SEQEND
  5
B72
330
B6E
100
AcDbEntity
  8
0
  0
POLYLINE
  5
B73
330
1F
100
AcDbEntity
  8
0
100
AcDb2dPolyline
 66
     1
 10
0.0
 20
0.0
 30
0.0
  0
VERTEX
  5
B74
330
B73
100
AcDbEntity
  8
0
100
AcDbVertex
100
AcDb2dVertex
 10
31.59183683120872
 20
23.02169227704599
 30
0.0
  0
VERTEX
  5
B75
330
B73
100
AcDbEntity
  8
0
100
AcDbVertex
100
AcDb2dVertex
 10
31.18118183120872
 20
23.05338727704599
 30
0.0
  0
VERTEX
  5
B76
330
B73
100
AcDbEntity
  8
0
100
AcDbVertex
100
AcDb2dVertex
 10
31.18479883120872
 20
23.05338727704599
 30
0.0
  0
SEQEND
  5
B77
330
B73
100
AcDbEntity
  8
0
  0
POLYLINE
  5
B78
330
1F
100
AcDbEntity
  8
0
100
AcDb2dPolyline
 66
     1
 10
0.0
 20
0.0
 30
0.0
  0
VERTEX
  5
B79
330
B78
100
AcDbEntity
  8
0
100
AcDbVertex
100
AcDb2dVertex
 10
36.64079683120872
 20
20.22151827704599
 30
0.0
  0
VERTEX
  5
B7A
330
B78
100
AcDbEntity
  8
0
100
AcDbVertex
100
AcDb2dVertex
 10
37.01441783120872
 20
20.23047627704599
 30
0.0
  0
VERTEX
  5
B7B
330
B78
100
AcDbEntity
  8
0
100
AcDbVertex
100
AcDb2dVertex
 10
37.01717383120872
 20
20.23047627704599
 30
0.0
  0
SEQEND
  5
B7C
330
B78
100
AcDbEntity
  8
0
  0
POLYLINE
  5
B7D
330
1F
100
AcDbEntity
  8
0
100
AcDb2dPolyline
 66
     1
 10
0.0
 20
0.0
 30
0.0
  0
VERTEX
  5
B7E
330
B7D
100
AcDbEntity
  8
0
100
AcDbVertex
100
AcDb2dVertex
 10
37.01441783120872
 20
20.23047627704599
 30
0.0
  0
VERTEX
  5
B7F
330
B7D
100
AcDbEntity
  8
0
100
AcDbVertex
100
AcDb2dVertex
 10
37.19321783120872
 20
20.23633227704599
 30
0.0
  0
VERTEX
  5
B80
330
B7D
100
AcDbEntity
  8
0
100
AcDbVertex
100
AcDb2dVertex
 10
38.14216983120872
 20
20.25734727704599
 30
0.0
  0
VERTEX
  5
B81
330
B7D
100
AcDbEntity
  8
0
100
AcDbVertex
100
AcDb2dVertex
 10
38.14578683120872
 20
20.25734727704599
 30
0.0
  0
SEQEND
  5
B82
330
B7D
100
AcDbEntity
  8
0
  0
SPLINE
  5
B83
330
1F
100
AcDbEntity
  8
0
100
AcDbSpline
210
0.0
220
0.0
230
1.0
 70
     8
 71
     3
 72
    17
 73
    13
 74
     0
 42
0.0000000001
 43
0.0000000001
 40
0.0
 40
0.0
 40
0.0
 40
0.0
 40
1.0
 40
1.0
 40
1.0
 40
2.0
 40
2.0
 40
2.0
 40
3.0
 40
3.0
 40
3.0
 40
4.0
 40
4.0
 40
4.0
 40
4.0
 10
36.64045231731981
 20
20.22151869805294
 30
0.0
 10
36.64045231731981
 20
20.22151869805294
 30
0.0
 10
36.56707178346565
 20
20.22496379353904
 30
0.0
 10
36.56707178346565
 20
20.22496379353904
 30
0.0
 10
35.61174680516705
 20
20.2142839975321
 30
0.0
 10
34.57632335681636
 20
20.54122355916405
 30
0.0
 10
33.8552648715733
 20
21.17615465725432
 30
0.0
 10
33.8552648715733
 20
21.17615465725432
 30
0.0
 10
33.7872242357226
 20
21.2343767709696
 30
0.0
 10
33.7872242357226
 20
21.2343767709696
 30
0.0
 10
33.7872242357226
 20
21.2343767709696
 30
0.0
 10
33.79066933120872
 20
21.2343767709696
 30
0.0
 10
33.79066933120872
 20
21.2343767709696
 30
0.0
  0
POLYLINE
  5
B84
330
1F
100
AcDbEntity
  8
0
100
AcDb2dPolyline
 66
     1
 10
0.0
 20
0.0
 30
0.0
  0
VERTEX
  5
B85
330
B84
100
AcDbEntity
  8
0
100
AcDbVertex
100
AcDb2dVertex
 10
33.80272683120872
 20
21.69326327704599
 30
0.0
  0
VERTEX
  5
B86
330
B84
100
AcDbEntity
  8
0
100
AcDbVertex
100
AcDb2dVertex
 10
33.91882683120872
 20
21.69601927704599
 30
0.0
  0
VERTEX
  5
B87
330
B84
100
AcDbEntity
  8
0
100
AcDbVertex
100
AcDb2dVertex
 10
33.92227183120872
 20
21.69601927704599
 30
0.0
  0
SEQEND
  5
B88
330
B84
100
AcDbEntity
  8
0
  0
POLYLINE
  5
B89
330
1F
100
AcDbEntity
  8
0
100
AcDb2dPolyline
 66
     1
 10
0.0
 20
0.0
 30
0.0
  0
VERTEX
  5
B8A
330
B89
100
AcDbEntity
  8
0
100
AcDbVertex
100
AcDb2dVertex
 10
33.91882683120872
 20
21.69601927704599
 30
0.0
  0
VERTEX
  5
B8B
330
B89
100
AcDbEntity
  8
0
100
AcDbVertex
100
AcDb2dVertex
 10
34.03733783120872
 20
21.69877527704599
 30
0.0
  0
VERTEX
  5
B8C
330
B89
100
AcDbEntity
  8
0
100
AcDbVertex
100
AcDb2dVertex
 10
34.04078283120872
 20
21.69877527704599
 30
0.0
  0
SEQEND
  5
B8D
330
B89
100
AcDbEntity
  8
0
  0
POLYLINE
  5
B8E
330
1F
100
AcDbEntity
  8
0
100
AcDb2dPolyline
 66
     1
 10
0.0
 20
0.0
 30
0.0
  0
VERTEX
  5
B8F
330
B8E
100
AcDbEntity
  8
0
100
AcDbVertex
100
AcDb2dVertex
 10
34.03733783120872
 20
21.69877527704599
 30
0.0
  0
VERTEX
  5
B90
330
B8E
100
AcDbEntity
  8
0
100
AcDbVertex
100
AcDb2dVertex
 10
34.16153383120871
 20
21.70153127704599
 30
0.0
  0
VERTEX
  5
B91
330
B8E
100
AcDbEntity
  8
0
100
AcDbVertex
100
AcDb2dVertex
 10
34.16463483120872
 20
21.70153127704599
 30
0.0
  0
SEQEND
  5
B92
330
B8E
100
AcDbEntity
  8
0
  0
POLYLINE
  5
B93
330
1F
100
AcDbEntity
  8
0
100
AcDb2dPolyline
 66
     1
 10
0.0
 20
0.0
 30
0.0
  0
VERTEX
  5
B94
330
B93
100
AcDbEntity
  8
0
100
AcDbVertex
100
AcDb2dVertex
 10
34.16153383120871
 20
21.70153127704599
 30
0.0
  0
VERTEX
  5
B95
330
B93
100
AcDbEntity
  8
0
100
AcDbVertex
100
AcDb2dVertex
 10
34.29020783120872
 20
21.70532127704599
 30
0.0
  0
VERTEX
  5
B96
330
B93
100
AcDbEntity
  8
0
100
AcDbVertex
100
AcDb2dVertex
 10
34.29313683120871
 20
21.70532127704599
 30
0.0
  0
SEQEND
  5
B97
330
B93
100
AcDbEntity
  8
0
  0
LINE
  5
B98
330
1F
100
AcDbEntity
  8
0
100
AcDbLine
 10
34.29020783120872
 20
21.70532127704599
 30
0.0
 11
34.42646183120871
 21
21.70532127704599
 31
0.0
  0
LINE
  5
B99
330
1F
100
AcDbEntity
  8
0
100
AcDbLine
 10
34.42284483120872
 20
21.70532127704599
 30
0.0
 11
34.56926083120872
 21
21.70532127704599
 31
0.0
  0
POLYLINE
  5
B9A
330
1F
100
AcDbEntity
  8
0
100
AcDb2dPolyline
 66
     1
 10
0.0
 20
0.0
 30
0.0
  0
VERTEX
  5
B9B
330
B9A
100
AcDbEntity
  8
0
100
AcDbVertex
100
AcDb2dVertex
 10
34.63919683120872
 20
22.83703527704599
 30
0.0
  0
VERTEX
  5
B9C
330
B9A
100
AcDbEntity
  8
0
100
AcDbVertex
100
AcDb2dVertex
 10
34.19529583120872
 20
22.85839527704599
 30
0.0
  0
VERTEX
  5
B9D
330
B9A
100
AcDbEntity
  8
0
100
AcDbVertex
100
AcDb2dVertex
 10
34.19891283120872
 20
22.85839527704599
 30
0.0
  0
SEQEND
  5
B9E
330
B9A
100
AcDbEntity
  8
0
  0
POLYLINE
  5
B9F
330
1F
100
AcDbEntity
  8
0
100
AcDb2dPolyline
 66
     1
 10
0.0
 20
0.0
 30
0.0
  0
VERTEX
  5
BA0
330
B9F
100
AcDbEntity
  8
0
100
AcDbVertex
100
AcDb2dVertex
 10
34.19529583120872
 20
22.85839527704599
 30
0.0
  0
VERTEX
  5
BA1
330
B9F
100
AcDbEntity
  8
0
100
AcDbVertex
100
AcDb2dVertex
 10
33.77585583120872
 20
22.88285527704599
 30
0.0
  0
VERTEX
  5
BA2
330
B9F
100
AcDbEntity
  8
0
100
AcDbVertex
100
AcDb2dVertex
 10
33.77947283120871
 20
22.88285527704599
 30
0.0
  0
SEQEND
  5
BA3
330
B9F
100
AcDbEntity
  8
0
  0
LINE
  5
BA4
330
1F
100
AcDbEntity
  8
0
100
AcDbLine
 10
35.22090083120872
 20
21.70532127704599
 30
0.0
 11
35.80432783120872
 21
21.70532127704599
 31
0.0
  0
POLYLINE
  5
BA5
330
1F
100
AcDbEntity
  8
0
100
AcDb2dPolyline
 66
     1
 10
0.0
 20
0.0
 30
0.0
  0
VERTEX
  5
BA6
330
BA5
100
AcDbEntity
  8
0
100
AcDbVertex
100
AcDb2dVertex
 10
35.63327883120872
 20
22.79087127704599
 30
0.0
  0
VERTEX
  5
BA7
330
BA5
100
AcDbEntity
  8
0
100
AcDbVertex
100
AcDb2dVertex
 10
35.11961483120872
 20
22.81223027704599
 30
0.0
  0
VERTEX
  5
BA8
330
BA5
100
AcDbEntity
  8
0
100
AcDbVertex
100
AcDb2dVertex
 10
35.12305983120872
 20
22.81223027704599
 30
0.0
  0
SEQEND
  5
BA9
330
BA5
100
AcDbEntity
  8
0
  0
LINE
  5
BAA
330
1F
100
AcDbEntity
  8
0
100
AcDbLine
 10
34.56684983120871
 20
21.70532127704599
 30
0.0
 11
35.22331183120871
 21
21.70532127704599
 31
0.0
  0
POLYLINE
  5
BAB
330
1F
100
AcDbEntity
  8
0
100
AcDb2dPolyline
 66
     1
 10
0.0
 20
0.0
 30
0.0
  0
VERTEX
  5
BAC
330
BAB
100
AcDbEntity
  8
0
100
AcDbVertex
100
AcDb2dVertex
 10
35.11961483120872
 20
22.81223027704599
 30
0.0
  0
VERTEX
  5
BAD
330
BAB
100
AcDbEntity
  8
0
100
AcDbVertex
100
AcDb2dVertex
 10
34.63919683120872
 20
22.83703527704599
 30
0.0
  0
VERTEX
  5
BAE
330
BAB
100
AcDbEntity
  8
0
100
AcDbVertex
100
AcDb2dVertex
 10
34.64264183120871
 20
22.83703527704599
 30
0.0
  0
SEQEND
  5
BAF
330
BAB
100
AcDbEntity
  8
0
  0
POLYLINE
  5
BB0
330
1F
100
AcDbEntity
  8
0
100
AcDb2dPolyline
 66
     1
 10
0.0
 20
0.0
 30
0.0
  0
VERTEX
  5
BB1
330
BB0
100
AcDbEntity
  8
0
100
AcDbVertex
100
AcDb2dVertex
 10
37.27366083120872
 20
21.71703427704599
 30
0.0
  0
VERTEX
  5
BB2
330
BB0
100
AcDbEntity
  8
0
100
AcDbVertex
100
AcDb2dVertex
 10
37.95733983120872
 20
21.72978127704599
 30
0.0
  0
VERTEX
  5
BB3
330
BB0
100
AcDbEntity
  8
0
100
AcDbVertex
100
AcDb2dVertex
 10
37.95975183120872
 20
21.72978127704599
 30
0.0
  0
SEQEND
  5
BB4
330
BB0
100
AcDbEntity
  8
0
  0
POLYLINE
  5
BB5
330
1F
100
AcDbEntity
  8
0
100
AcDb2dPolyline
 66
     1
 10
0.0
 20
0.0
 30
0.0
  0
VERTEX
  5
BB6
330
BB5
100
AcDbEntity
  8
0
100
AcDbVertex
100
AcDb2dVertex
 10
36.61616483120872
 20
21.71083327704598
 30
0.0
  0
VERTEX
  5
BB7
330
BB5
100
AcDbEntity
  8
0
100
AcDbVertex
100
AcDb2dVertex
 10
37.27366083120872
 20
21.71703427704599
 30
0.0
  0
VERTEX
  5
BB8
330
BB5
100
AcDbEntity
  8
0
100
AcDbVertex
100
AcDb2dVertex
 10
37.27538383120871
 20
21.71703427704599
 30
0.0
  0
SEQEND
  5
BB9
330
BB5
100
AcDbEntity
  8
0
  0
POLYLINE
  5
BBA
330
1F
100
AcDbEntity
  8
0
100
AcDb2dPolyline
 66
     1
 10
0.0
 20
0.0
 30
0.0
  0
VERTEX
  5
BBB
330
BBA
100
AcDbEntity
  8
0
100
AcDbVertex
100
AcDb2dVertex
 10
35.80157183120872
 20
21.70532127704599
 30
0.0
  0
VERTEX
  5
BBC
330
BBA
100
AcDbEntity
  8
0
100
AcDbVertex
100
AcDb2dVertex
 10
36.61616483120872
 20
21.71083327704598
 30
0.0
  0
VERTEX
  5
BBD
330
BBA
100
AcDbEntity
  8
0
100
AcDbVertex
100
AcDb2dVertex
 10
36.61960983120872
 20
21.71083327704598
 30
0.0
  0
SEQEND
  5
BBE
330
BBA
100
AcDbEntity
  8
0
  0
POLYLINE
  5
BBF
330
1F
100
AcDbEntity
  8
0
100
AcDb2dPolyline
 66
     1
 10
0.0
 20
0.0
 30
0.0
  0
VERTEX
  5
BC0
330
BBF
100
AcDbEntity
  8
0
100
AcDbVertex
100
AcDb2dVertex
 10
36.18707783120872
 20
22.77054527704599
 30
0.0
  0
VERTEX
  5
BC1
330
BBF
100
AcDbEntity
  8
0
100
AcDbVertex
100
AcDb2dVertex
 10
35.63327883120872
 20
22.79087127704599
 30
0.0
  0
VERTEX
  5
BC2
330
BBF
100
AcDbEntity
  8
0
100
AcDbVertex
100
AcDb2dVertex
 10
35.63672383120871
 20
22.79087127704599
 30
0.0
  0
SEQEND
  5
BC3
330
BBF
100
AcDbEntity
  8
0
  0
POLYLINE
  5
BC4
330
1F
100
AcDbEntity
  8
0
100
AcDb2dPolyline
 66
     1
 10
0.0
 20
0.0
 30
0.0
  0
VERTEX
  5
BC5
330
BC4
100
AcDbEntity
  8
0
100
AcDbVertex
100
AcDb2dVertex
 10
33.69644583120872
 20
21.68671827704599
 30
0.0
  0
VERTEX
  5
BC6
330
BC4
100
AcDbEntity
  8
0
100
AcDbVertex
100
AcDb2dVertex
 10
33.80272683120872
 20
21.69326327704599
 30
0.0
  0
VERTEX
  5
BC7
330
BC4
100
AcDbEntity
  8
0
100
AcDbVertex
100
AcDb2dVertex
 10
33.80617183120872
 20
21.69326327704599
 30
0.0
  0
SEQEND
  5
BC8
330
BC4
100
AcDbEntity
  8
0
  0
POLYLINE
  5
BC9
330
1F
100
AcDbEntity
  8
0
100
AcDb2dPolyline
 66
     1
 10
0.0
 20
0.0
 30
0.0
  0
VERTEX
  5
BCA
330
BC9
100
AcDbEntity
  8
0
100
AcDbVertex
100
AcDb2dVertex
 10
33.77585583120872
 20
22.88285527704599
 30
0.0
  0
VERTEX
  5
BCB
330
BC9
100
AcDbEntity
  8
0
100
AcDbVertex
100
AcDb2dVertex
 10
33.38673183120871
 20
22.90318127704599
 30
0.0
  0
VERTEX
  5
BCC
330
BC9
100
AcDbEntity
  8
0
100
AcDbVertex
100
AcDb2dVertex
 10
33.38965983120872
 20
22.90318127704599
 30
0.0
  0
SEQEND
  5
BCD
330
BC9
100
AcDbEntity
  8
0
  0
SPLINE
  5
BCE
330
1F
100
AcDbEntity
  8
0
100
AcDbSpline
210
0.0
220
0.0
230
1.0
 70
     8
 71
     3
 72
    17
 73
    13
 74
     0
 42
0.0000000001
 43
0.0000000001
 40
0.0
 40
0.0
 40
0.0
 40
0.0
 40
1.0
 40
1.0
 40
1.0
 40
2.0
 40
2.0
 40
2.0
 40
3.0
 40
3.0
 40
3.0
 40
4.0
 40
4.0
 40
4.0
 40
4.0
 10
37.27021577218094
 20
19.57108467027516
 30
0.0
 10
37.27021577218094
 20
19.57108467027516
 30
0.0
 10
36.47319293146913
 20
19.5914107336432
 30
0.0
 10
36.47319293146913
 20
19.5914107336432
 30
0.0
 10
35.39436127999344
 20
19.63137384128209
 30
0.0
 10
34.29658160334412
 20
19.99931003919875
 30
0.0
 10
33.49938650785801
 20
20.74517321194182
 30
0.0
 10
33.49938650785801
 20
20.74517321194182
 30
0.0
 10
33.39276080256288
 20
20.84818156697654
 30
0.0
 10
33.39276080256288
 20
20.84818156697654
 30
0.0
 10
33.39276080256288
 20
20.84818156697654
 30
0.0
 10
33.39551687895176
 20
20.84818156697654
 30
0.0
 10
33.39551687895176
 20
20.84818156697654
 30
0.0
  0
POLYLINE
  5
BCF
330
1F
100
AcDbEntity
  8
0
100
AcDb2dPolyline
 66
     1
 10
0.0
 20
0.0
 30
0.0
  0
VERTEX
  5
BD0
330
BCF
100
AcDbEntity
  8
0
100
AcDbVertex
100
AcDb2dVertex
 10
33.78722383120872
 20
21.23437627704599
 30
0.0
  0
VERTEX
  5
BD1
330
BCF
100
AcDbEntity
  8
0
100
AcDbVertex
100
AcDb2dVertex
 10
33.72676283120872
 20
21.30362327704599
 30
0.0
  0
VERTEX
  5
BD2
330
BCF
100
AcDbEntity
  8
0
100
AcDbVertex
100
AcDb2dVertex
 10
33.66096183120872
 20
21.37080227704599
 30
0.0
  0
VERTEX
  5
BD3
330
BCF
100
AcDbEntity
  8
0
100
AcDbVertex
100
AcDb2dVertex
 10
33.58758083120871
 20
21.42902427704599
 30
0.0
  0
VERTEX
  5
BD4
330
BCF
100
AcDbEntity
  8
0
100
AcDbVertex
100
AcDb2dVertex
 10
33.51058283120872
 20
21.48001227704599
 30
0.0
  0
VERTEX
  5
BD5
330
BCF
100
AcDbEntity
  8
0
100
AcDbVertex
100
AcDb2dVertex
 10
33.42876183120872
 20
21.52514327704599
 30
0.0
  0
VERTEX
  5
BD6
330
BCF
100
AcDbEntity
  8
0
100
AcDbVertex
100
AcDb2dVertex
 10
33.34401283120872
 20
21.56579527704598
 30
0.0
  0
VERTEX
  5
BD7
330
BCF
100
AcDbEntity
  8
0
100
AcDbVertex
100
AcDb2dVertex
 10
33.34659683120872
 20
21.56579527704598
 30
0.0
  0
SEQEND
  5
BD8
330
BCF
100
AcDbEntity
  8
0
  0
POLYLINE
  5
BD9
330
1F
100
AcDbEntity
  8
0
100
AcDb2dPolyline
 66
     1
 10
0.0
 20
0.0
 30
0.0
  0
VERTEX
  5
BDA
330
BD9
100
AcDbEntity
  8
0
100
AcDbVertex
100
AcDb2dVertex
 10
29.23556383120871
 20
23.21668427704599
 30
0.0
  0
VERTEX
  5
BDB
330
BD9
100
AcDbEntity
  8
0
100
AcDbVertex
100
AcDb2dVertex
 10
29.03178683120871
 20
23.23838927704599
 30
0.0
  0
VERTEX
  5
BDC
330
BD9
100
AcDbEntity
  8
0
100
AcDbVertex
100
AcDb2dVertex
 10
29.03488683120872
 20
23.23838927704599
 30
0.0
  0
SEQEND
  5
BDD
330
BD9
100
AcDbEntity
  8
0
  0
SPLINE
  5
BDE
330
1F
100
AcDbEntity
  8
0
100
AcDbSpline
210
0.0
220
0.0
230
1.0
 70
     8
 71
     3
 72
    17
 73
    13
 74
     0
 42
0.0000000001
 43
0.0000000001
 40
0.0
 40
0.0
 40
0.0
 40
0.0
 40
1.0
 40
1.0
 40
1.0
 40
2.0
 40
2.0
 40
2.0
 40
3.0
 40
3.0
 40
3.0
 40
4.0
 40
4.0
 40
4.0
 40
4.0
 10
33.03016450264968
 20
20.99942125881682
 30
0.0
 10
33.03016450264968
 20
20.99942125881682
 30
0.0
 10
32.71683306818789
 20
21.01802477444182
 30
0.0
 10
32.71683306818789
 20
21.01802477444182
 30
0.0
 10
31.39150483468095
 20
21.09657295152516
 30
0.0
 10
30.06083670317052
 20
21.18959052965015
 30
0.0
 10
28.7396425842469
 20
21.32222670586544
 30
0.0
 10
28.7396425842469
 20
21.32222670586544
 30
0.0
 10
28.54482243450732
 20
21.34255276923349
 30
0.0
 10
28.54482243450732
 20
21.34255276923349
 30
0.0
 10
28.54482243450732
 20
21.34255276923349
 30
0.0
 10
28.54775076567051
 20
21.34255276923349
 30
0.0
 10
28.54775076567051
 20
21.34255276923349
 30
0.0
  0
SPLINE
  5
BDF
330
1F
100
AcDbEntity
  8
0
100
AcDbSpline
210
0.0
220
0.0
230
1.0
 70
     8
 71
     3
 72
    17
 73
    13
 74
     0
 42
0.0000000001
 43
0.0000000001
 40
0.0
 40
0.0
 40
0.0
 40
0.0
 40
1.0
 40
1.0
 40
1.0
 40
2.0
 40
2.0
 40
2.0
 40
3.0
 40
3.0
 40
3.0
 40
4.0
 40
4.0
 40
4.0
 40
4.0
 10
19.60135455256288
 20
39.83616984822653
 30
0.0
 10
19.60135455256288
 20
39.83616984822653
 30
0.0
 10
19.53779254084412
 20
39.83272475274043
 30
0.0
 10
19.53779254084412
 20
39.83272475274043
 30
0.0
 10
19.26476872356982
 20
39.8006853647196
 30
0.0
 10
19.04221555516705
 20
39.58881199232377
 30
0.0
 10
19.01844439631288
 20
39.31044827704599
 30
0.0
 10
19.01844439631288
 20
39.31044827704599
 30
0.0
 10
19.01431028172954
 20
39.24843655829599
 30
0.0
 10
19.01431028172954
 20
39.24843655829599
 30
0.0
 10
19.01431028172954
 20
39.24843655829599
 30
0.0
 10
19.01844439631288
 20
39.24843655829599
 30
0.0
 10
19.01844439631288
 20
39.24843655829599
 30
0.0
  0
POLYLINE
  5
BE0
330
1F
100
AcDbEntity
  8
0
100
AcDb2dPolyline
 66
     1
 10
0.0
 20
0.0
 30
0.0
  0
VERTEX
  5
BE1
330
BE0
100
AcDbEntity
  8
0
100
AcDbVertex
100
AcDb2dVertex
 10
23.36925583120871
 20
26.91154927704599
 30
0.0
  0
VERTEX
  5
BE2
330
BE0
100
AcDbEntity
  8
0
100
AcDbVertex
100
AcDb2dVertex
 10
23.35633683120871
 20
26.996988277046
 30
0.0
  0
VERTEX
  5
BE3
330
BE0
100
AcDbEntity
  8
0
100
AcDbVertex
100
AcDb2dVertex
 10
23.35099683120872
 20
27.04211827704599
 30
0.0
  0
VERTEX
  5
BE4
330
BE0
100
AcDbEntity
  8
0
100
AcDbVertex
100
AcDb2dVertex
 10
23.34858483120872
 20
27.08449327704599
 30
0.0
  0
VERTEX
  5
BE5
330
BE0
100
AcDbEntity
  8
0
100
AcDbVertex
100
AcDb2dVertex
 10
23.34152283120872
 20
27.126868277046
 30
0.0
  0
VERTEX
  5
BE6
330
BE0
100
AcDbEntity
  8
0
100
AcDbVertex
100
AcDb2dVertex
 10
23.33859383120871
 20
27.17268827704599
 30
0.0
  0
VERTEX
  5
BE7
330
BE0
100
AcDbEntity
  8
0
100
AcDbVertex
100
AcDb2dVertex
 10
23.34152283120872
 20
27.17268827704599
 30
0.0
  0
SEQEND
  5
BE8
330
BE0
100
AcDbEntity
  8
0
  0
POLYLINE
  5
BE9
330
1F
100
AcDbEntity
  8
0
100
AcDb2dPolyline
 66
     1
 10
0.0
 20
0.0
 30
0.0
  0
VERTEX
  5
BEA
330
BE9
100
AcDbEntity
  8
0
100
AcDbVertex
100
AcDb2dVertex
 10
21.34681183120871
 20
27.84551527704599
 30
0.0
  0
VERTEX
  5
BEB
330
BE9
100
AcDbEntity
  8
0
100
AcDbVertex
100
AcDb2dVertex
 10
21.34440083120872
 20
28.10355227704599
 30
0.0
  0
VERTEX
  5
BEC
330
BE9
100
AcDbEntity
  8
0
100
AcDbVertex
100
AcDb2dVertex
 10
21.34681183120871
 20
28.10355227704599
 30
0.0
  0
SEQEND
  5
BED
330
BE9
100
AcDbEntity
  8
0
  0
POLYLINE
  5
BEE
330
1F
100
AcDbEntity
  8
0
100
AcDb2dPolyline
 66
     1
 10
0.0
 20
0.0
 30
0.0
  0
VERTEX
  5
BEF
330
BEE
100
AcDbEntity
  8
0
100
AcDbVertex
100
AcDb2dVertex
 10
21.34440083120872
 20
28.10355227704599
 30
0.0
  0
VERTEX
  5
BF0
330
BEE
100
AcDbEntity
  8
0
100
AcDbVertex
100
AcDb2dVertex
 10
21.34078283120872
 20
28.35917827704599
 30
0.0
  0
VERTEX
  5
BF1
330
BEE
100
AcDbEntity
  8
0
100
AcDbVertex
100
AcDb2dVertex
 10
21.34440083120872
 20
28.35917827704599
 30
0.0
  0
SEQEND
  5
BF2
330
BEE
100
AcDbEntity
  8
0
  0
POLYLINE
  5
BF3
330
1F
100
AcDbEntity
  8
0
100
AcDb2dPolyline
 66
     1
 10
0.0
 20
0.0
 30
0.0
  0
VERTEX
  5
BF4
330
BF3
100
AcDbEntity
  8
0
100
AcDbVertex
100
AcDb2dVertex
 10
21.34078283120872
 20
28.35917827704599
 30
0.0
  0
VERTEX
  5
BF5
330
BF3
100
AcDbEntity
  8
0
100
AcDbVertex
100
AcDb2dVertex
 10
21.33768283120872
 20
28.74261827704599
 30
0.0
  0
VERTEX
  5
BF6
330
BF3
100
AcDbEntity
  8
0
100
AcDbVertex
100
AcDb2dVertex
 10
21.34078283120872
 20
28.74261827704599
 30
0.0
  0
SEQEND
  5
BF7
330
BF3
100
AcDbEntity
  8
0
  0
POLYLINE
  5
BF8
330
1F
100
AcDbEntity
  8
0
100
AcDb2dPolyline
 66
     1
 10
0.0
 20
0.0
 30
0.0
  0
VERTEX
  5
BF9
330
BF8
100
AcDbEntity
  8
0
100
AcDbVertex
100
AcDb2dVertex
 10
22.13453283120871
 20
28.56209527704598
 30
0.0
  0
VERTEX
  5
BFA
330
BF8
100
AcDbEntity
  8
0
100
AcDbVertex
100
AcDb2dVertex
 10
22.12230283120872
 20
28.56588427704599
 30
0.0
  0
VERTEX
  5
BFB
330
BF8
100
AcDbEntity
  8
0
100
AcDbVertex
100
AcDb2dVertex
 10
22.11334583120872
 20
28.57794227704599
 30
0.0
  0
VERTEX
  5
BFC
330
BF8
100
AcDbEntity
  8
0
100
AcDbVertex
100
AcDb2dVertex
 10
22.10387183120872
 20
28.59620127704599
 30
0.0
  0
VERTEX
  5
BFD
330
BF8
100
AcDbEntity
  8
0
100
AcDbVertex
100
AcDb2dVertex
 10
22.09612083120872
 20
28.62066127704599
 30
0.0
  0
VERTEX
  5
BFE
330
BF8
100
AcDbEntity
  8
0
100
AcDbVertex
100
AcDb2dVertex
 10
22.08302883120871
 20
28.65373427704599
 30
0.0
  0
VERTEX
  5
BFF
330
BF8
100
AcDbEntity
  8
0
100
AcDbVertex
100
AcDb2dVertex
 10
22.07717283120871
 20
28.69404227704599
 30
0.0
  0
VERTEX
  5
C00
330
BF8
100
AcDbEntity
  8
0
100
AcDbVertex
100
AcDb2dVertex
 10
22.06718183120871
 20
28.73917327704599
 30
0.0
  0
VERTEX
  5
C01
330
BF8
100
AcDbEntity
  8
0
100
AcDbVertex
100
AcDb2dVertex
 10
22.07079883120871
 20
28.73917327704599
 30
0.0
  0
SEQEND
  5
C02
330
BF8
100
AcDbEntity
  8
0
  0
POLYLINE
  5
C03
330
1F
100
AcDbEntity
  8
0
100
AcDb2dPolyline
 66
     1
 10
0.0
 20
0.0
 30
0.0
  0
VERTEX
  5
C04
330
C03
100
AcDbEntity
  8
0
100
AcDbVertex
100
AcDb2dVertex
 10
21.33406483120872
 20
29.38030527704599
 30
0.0
  0
VERTEX
  5
C05
330
C03
100
AcDbEntity
  8
0
100
AcDbVertex
100
AcDb2dVertex
 10
21.33406483120872
 20
28.99755527704599
 30
0.0
  0
VERTEX
  5
C06
330
C03
100
AcDbEntity
  8
0
100
AcDbVertex
100
AcDb2dVertex
 10
21.33768283120872
 20
28.99755527704599
 30
0.0
  0
SEQEND
  5
C07
330
C03
100
AcDbEntity
  8
0
  0
POLYLINE
  5
C08
330
1F
100
AcDbEntity
  8
0
100
AcDb2dPolyline
 66
     1
 10
0.0
 20
0.0
 30
0.0
  0
VERTEX
  5
C09
330
C08
100
AcDbEntity
  8
0
100
AcDbVertex
100
AcDb2dVertex
 10
21.33768283120872
 20
29.76305527704599
 30
0.0
  0
VERTEX
  5
C0A
330
C08
100
AcDbEntity
  8
0
100
AcDbVertex
100
AcDb2dVertex
 10
21.33406483120872
 20
29.38030527704599
 30
0.0
  0
VERTEX
  5
C0B
330
C08
100
AcDbEntity
  8
0
100
AcDbVertex
100
AcDb2dVertex
 10
21.33768283120872
 20
29.38030527704599
 30
0.0
  0
SEQEND
  5
C0C
330
C08
100
AcDbEntity
  8
0
  0
SPLINE
  5
C12
330
1F
100
AcDbEntity
  8
0
100
AcDbSpline
210
0.0
220
0.0
230
1.0
 70
     8
 71
     3
 72
    17
 73
    13
 74
     0
 42
0.0000000001
 43
0.0000000001
 40
0.0
 40
0.0
 40
0.0
 40
0.0
 40
1.0
 40
1.0
 40
1.0
 40
2.0
 40
2.0
 40
2.0
 40
3.0
 40
3.0
 40
3.0
 40
4.0
 40
4.0
 40
4.0
 40
4.0
 10
22.13453326350038
 20
29.94633423624737
 30
0.0
 10
22.13453326350038
 20
29.94633423624737
 30
0.0
 10
22.14417953086148
 20
29.94357815985848
 30
0.0
 10
22.14417953086148
 20
29.94357815985848
 30
0.0
 10
22.22169417929899
 20
29.84608195760154
 30
0.0
 10
22.21928261245872
 20
29.44886244805293
 30
0.0
 10
22.22944564414274
 20
29.32518352010154
 30
0.0
 10
22.22944564414274
 20
29.32518352010154
 30
0.0
 10
22.22944564414274
 20
29.25387004353904
 30
0.0
 10
22.22944564414274
 20
29.25387004353904
 30
0.0
 10
22.22944564414274
 20
29.25387004353904
 30
0.0
 10
22.23237397530593
 20
29.25387004353904
 30
0.0
 10
22.23237397530593
 20
29.25387004353904
 30
0.0
  0
POLYLINE
  5
C13
330
1F
100
AcDbEntity
  8
0
100
AcDb2dPolyline
 66
     1
 10
0.0
 20
0.0
 30
0.0
  0
VERTEX
  5
C14
330
C13
100
AcDbEntity
  8
0
100
AcDbVertex
100
AcDb2dVertex
 10
22.06476983120872
 20
29.39856427704599
 30
0.0
  0
VERTEX
  5
C15
330
C13
100
AcDbEntity
  8
0
100
AcDbVertex
100
AcDb2dVertex
 10
22.06115283120872
 20
29.469188277046
 30
0.0
  0
VERTEX
  5
C16
330
C13
100
AcDbEntity
  8
0
100
AcDbVertex
100
AcDb2dVertex
 10
22.05874083120872
 20
29.53946827704599
 30
0.0
  0
VERTEX
  5
C17
330
C13
100
AcDbEntity
  8
0
100
AcDbVertex
100
AcDb2dVertex
 10
22.05598483120872
 20
29.60251327704599
 30
0.0
  0
VERTEX
  5
C18
330
C13
100
AcDbEntity
  8
0
100
AcDbVertex
100
AcDb2dVertex
 10
22.05167883120871
 20
29.63937627704599
 30
0.0
  0
VERTEX
  5
C19
330
C13
100
AcDbEntity
  8
0
100
AcDbVertex
100
AcDb2dVertex
 10
22.05598483120872
 20
29.63937627704599
 30
0.0
  0
SEQEND
  5
C1A
330
C13
100
AcDbEntity
  8
0
  0
POLYLINE
  5
C1B
330
1F
100
AcDbEntity
  8
0
100
AcDb2dPolyline
 66
     1
 10
0.0
 20
0.0
 30
0.0
  0
VERTEX
  5
C1C
330
C1B
100
AcDbEntity
  8
0
100
AcDbVertex
100
AcDb2dVertex
 10
22.03686483120872
 20
29.11296527704599
 30
0.0
  0
VERTEX
  5
C1D
330
C1B
100
AcDbEntity
  8
0
100
AcDbVertex
100
AcDb2dVertex
 10
22.03445283120872
 20
29.18221227704599
 30
0.0
  0
VERTEX
  5
C1E
330
C1B
100
AcDbEntity
  8
0
100
AcDbVertex
100
AcDb2dVertex
 10
22.03445283120872
 20
29.25387027704598
 30
0.0
  0
VERTEX
  5
C1F
330
C1B
100
AcDbEntity
  8
0
100
AcDbVertex
100
AcDb2dVertex
 10
22.03686483120872
 20
29.25387027704598
 30
0.0
  0
SEQEND
  5
C20
330
C1B
100
AcDbEntity
  8
0
  0
POLYLINE
  5
C21
330
1F
100
AcDbEntity
  8
0
100
AcDb2dPolyline
 66
     1
 10
0.0
 20
0.0
 30
0.0
  0
VERTEX
  5
C22
330
C21
100
AcDbEntity
  8
0
100
AcDbVertex
100
AcDb2dVertex
 10
22.06718183120871
 20
29.32518327704599
 30
0.0
  0
VERTEX
  5
C23
330
C21
100
AcDbEntity
  8
0
100
AcDbVertex
100
AcDb2dVertex
 10
22.06476983120872
 20
29.39856427704599
 30
0.0
  0
VERTEX
  5
C24
330
C21
100
AcDbEntity
  8
0
100
AcDbVertex
100
AcDb2dVertex
 10
22.06718183120871
 20
29.39856427704599
 30
0.0
  0
SEQEND
  5
C25
330
C21
100
AcDbEntity
  8
0
  0
POLYLINE
  5
C26
330
1F
100
AcDbEntity
  8
0
100
AcDb2dPolyline
 66
     1
 10
0.0
 20
0.0
 30
0.0
  0
VERTEX
  5
C27
330
C26
100
AcDbEntity
  8
0
100
AcDbVertex
100
AcDb2dVertex
 10
22.06718183120871
 20
29.25387027704598
 30
0.0
  0
VERTEX
  5
C28
330
C26
100
AcDbEntity
  8
0
100
AcDbVertex
100
AcDb2dVertex
 10
22.06718183120871
 20
29.32518327704599
 30
0.0
  0
VERTEX
  5
C29
330
C26
100
AcDbEntity
  8
0
100
AcDbVertex
100
AcDb2dVertex
 10
22.07079883120871
 20
29.32518327704599
 30
0.0
  0
SEQEND
  5
C2A
330
C26
100
AcDbEntity
  8
0
  0
POLYLINE
  5
C2B
330
1F
100
AcDbEntity
  8
0
100
AcDb2dPolyline
 66
     1
 10
0.0
 20
0.0
 30
0.0
  0
VERTEX
  5
C2C
330
C2B
100
AcDbEntity
  8
0
100
AcDbVertex
100
AcDb2dVertex
 10
22.03445283120872
 20
29.25387027704598
 30
0.0
  0
VERTEX
  5
C2D
330
C2B
100
AcDbEntity
  8
0
100
AcDbVertex
100
AcDb2dVertex
 10
22.03445283120872
 20
29.32518327704599
 30
0.0
  0
VERTEX
  5
C2E
330
C2B
100
AcDbEntity
  8
0
100
AcDbVertex
100
AcDb2dVertex
 10
22.03686483120872
 20
29.32518327704599
 30
0.0
  0
SEQEND
  5
C2F
330
C2B
100
AcDbEntity
  8
0
  0
POLYLINE
  5
C30
330
1F
100
AcDbEntity
  8
0
100
AcDb2dPolyline
 66
     1
 10
0.0
 20
0.0
 30
0.0
  0
VERTEX
  5
C31
330
C30
100
AcDbEntity
  8
0
100
AcDbVertex
100
AcDb2dVertex
 10
22.06476983120872
 20
29.10986527704599
 30
0.0
  0
VERTEX
  5
C32
330
C30
100
AcDbEntity
  8
0
100
AcDbVertex
100
AcDb2dVertex
 10
22.06718183120871
 20
29.18221227704599
 30
0.0
  0
VERTEX
  5
C33
330
C30
100
AcDbEntity
  8
0
100
AcDbVertex
100
AcDb2dVertex
 10
22.06718183120871
 20
29.25387027704598
 30
0.0
  0
VERTEX
  5
C34
330
C30
100
AcDbEntity
  8
0
100
AcDbVertex
100
AcDb2dVertex
 10
22.07079883120871
 20
29.25387027704598
 30
0.0
  0
SEQEND
  5
C35
330
C30
100
AcDbEntity
  8
0
  0
POLYLINE
  5
C36
330
1F
100
AcDbEntity
  8
0
100
AcDb2dPolyline
 66
     1
 10
0.0
 20
0.0
 30
0.0
  0
VERTEX
  5
C37
330
C36
100
AcDbEntity
  8
0
100
AcDbVertex
100
AcDb2dVertex
 10
22.03445283120872
 20
29.32518327704599
 30
0.0
  0
VERTEX
  5
C38
330
C36
100
AcDbEntity
  8
0
100
AcDbVertex
100
AcDb2dVertex
 10
22.03686483120872
 20
29.39580827704599
 30
0.0
  0
VERTEX
  5
C39
330
C36
100
AcDbEntity
  8
0
100
AcDbVertex
100
AcDb2dVertex
 10
22.03927683120872
 20
29.39580827704599
 30
0.0
  0
SEQEND
  5
C3A
330
C36
100
AcDbEntity
  8
0
  0
POLYLINE
  5
C3B
330
1F
100
AcDbEntity
  8
0
100
AcDb2dPolyline
 66
     1
 10
0.0
 20
0.0
 30
0.0
  0
VERTEX
  5
C3C
330
C3B
100
AcDbEntity
  8
0
100
AcDbVertex
100
AcDb2dVertex
 10
22.03686483120872
 20
29.39580827704599
 30
0.0
  0
VERTEX
  5
C3D
330
C3B
100
AcDbEntity
  8
0
100
AcDbVertex
100
AcDb2dVertex
 10
22.03686483120872
 20
29.46539927704599
 30
0.0
  0
VERTEX
  5
C3E
330
C3B
100
AcDbEntity
  8
0
100
AcDbVertex
100
AcDb2dVertex
 10
22.04289383120872
 20
29.53636827704599
 30
0.0
  0
VERTEX
  5
C3F
330
C3B
100
AcDbEntity
  8
0
100
AcDbVertex
100
AcDb2dVertex
 10
22.04633883120871
 20
29.60010227704599
 30
0.0
  0
VERTEX
  5
C40
330
C3B
100
AcDbEntity
  8
0
100
AcDbVertex
100
AcDb2dVertex
 10
22.05167883120871
 20
29.66004727704599
 30
0.0
  0
VERTEX
  5
C41
330
C3B
100
AcDbEntity
  8
0
100
AcDbVertex
100
AcDb2dVertex
 10
22.05874083120872
 20
29.71861327704599
 30
0.0
  0
VERTEX
  5
C42
330
C3B
100
AcDbEntity
  8
0
100
AcDbVertex
100
AcDb2dVertex
 10
22.06718183120871
 20
29.76650027704599
 30
0.0
  0
VERTEX
  5
C43
330
C3B
100
AcDbEntity
  8
0
100
AcDbVertex
100
AcDb2dVertex
 10
22.07079883120871
 20
29.76650027704599
 30
0.0
  0
SEQEND
  5
C44
330
C3B
100
AcDbEntity
  8
0
  0
POLYLINE
  5
C45
330
1F
100
AcDbEntity
  8
0
100
AcDb2dPolyline
 66
     1
 10
0.0
 20
0.0
 30
0.0
  0
VERTEX
  5
C46
330
C45
100
AcDbEntity
  8
0
100
AcDbVertex
100
AcDb2dVertex
 10
22.05167883120871
 20
28.86905327704599
 30
0.0
  0
VERTEX
  5
C47
330
C45
100
AcDbEntity
  8
0
100
AcDbVertex
100
AcDb2dVertex
 10
22.05598483120872
 20
28.90557127704599
 30
0.0
  0
VERTEX
  5
C48
330
C45
100
AcDbEntity
  8
0
100
AcDbVertex
100
AcDb2dVertex
 10
22.05874083120872
 20
28.97378427704598
 30
0.0
  0
VERTEX
  5
C49
330
C45
100
AcDbEntity
  8
0
100
AcDbVertex
100
AcDb2dVertex
 10
22.06115283120872
 20
29.03992927704599
 30
0.0
  0
VERTEX
  5
C4A
330
C45
100
AcDbEntity
  8
0
100
AcDbVertex
100
AcDb2dVertex
 10
22.06476983120872
 20
29.10986527704599
 30
0.0
  0
VERTEX
  5
C4B
330
C45
100
AcDbEntity
  8
0
100
AcDbVertex
100
AcDb2dVertex
 10
22.06718183120871
 20
29.10986527704599
 30
0.0
  0
SEQEND
  5
C4C
330
C45
100
AcDbEntity
  8
0
  0
POLYLINE
  5
C4D
330
1F
100
AcDbEntity
  8
0
100
AcDb2dPolyline
 66
     1
 10
0.0
 20
0.0
 30
0.0
  0
VERTEX
  5
C4E
330
C4D
100
AcDbEntity
  8
0
100
AcDbVertex
100
AcDb2dVertex
 10
22.06752583120872
 20
29.76650027704599
 30
0.0
  0
VERTEX
  5
C4F
330
C4D
100
AcDbEntity
  8
0
100
AcDbVertex
100
AcDb2dVertex
 10
22.07717283120871
 20
29.81266427704599
 30
0.0
  0
VERTEX
  5
C50
330
C4D
100
AcDbEntity
  8
0
100
AcDbVertex
100
AcDb2dVertex
 10
22.08302883120871
 20
29.85469427704599
 30
0.0
  0
VERTEX
  5
C51
330
C4D
100
AcDbEntity
  8
0
100
AcDbVertex
100
AcDb2dVertex
 10
22.09612083120872
 20
29.88604527704599
 30
0.0
  0
VERTEX
  5
C52
330
C4D
100
AcDbEntity
  8
0
100
AcDbVertex
100
AcDb2dVertex
 10
22.10421683120872
 20
29.91291727704599
 30
0.0
  0
VERTEX
  5
C53
330
C4D
100
AcDbEntity
  8
0
100
AcDbVertex
100
AcDb2dVertex
 10
22.11386283120872
 20
29.93117627704599
 30
0.0
  0
VERTEX
  5
C54
330
C4D
100
AcDbEntity
  8
0
100
AcDbVertex
100
AcDb2dVertex
 10
22.12264783120871
 20
29.94357827704599
 30
0.0
  0
VERTEX
  5
C55
330
C4D
100
AcDbEntity
  8
0
100
AcDbVertex
100
AcDb2dVertex
 10
22.13453283120871
 20
29.94598927704599
 30
0.0
  0
VERTEX
  5
C56
330
C4D
100
AcDbEntity
  8
0
100
AcDbVertex
100
AcDb2dVertex
 10
22.13815083120872
 20
29.94598927704599
 30
0.0
  0
SEQEND
  5
C57
330
C4D
100
AcDbEntity
  8
0
  0
POLYLINE
  5
C58
330
1F
100
AcDbEntity
  8
0
100
AcDb2dPolyline
 66
     1
 10
0.0
 20
0.0
 30
0.0
  0
VERTEX
  5
C59
330
C58
100
AcDbEntity
  8
0
100
AcDbVertex
100
AcDb2dVertex
 10
21.33768283120872
 20
28.74227327704599
 30
0.0
  0
VERTEX
  5
C5A
330
C58
100
AcDbEntity
  8
0
100
AcDbVertex
100
AcDb2dVertex
 10
21.33406483120872
 20
28.99755527704599
 30
0.0
  0
VERTEX
  5
C5B
330
C58
100
AcDbEntity
  8
0
100
AcDbVertex
100
AcDb2dVertex
 10
21.33768283120872
 20
28.99755527704599
 30
0.0
  0
SEQEND
  5
C5C
330
C58
100
AcDbEntity
  8
0
  0
SPLINE
  5
C5D
330
1F
100
AcDbEntity
  8
0
100
AcDbSpline
210
0.0
220
0.0
230
1.0
 70
     8
 71
     3
 72
    17
 73
    13
 74
     0
 42
0.0000000001
 43
0.0000000001
 40
0.0
 40
0.0
 40
0.0
 40
0.0
 40
1.0
 40
1.0
 40
1.0
 40
2.0
 40
2.0
 40
2.0
 40
3.0
 40
3.0
 40
3.0
 40
4.0
 40
4.0
 40
4.0
 40
4.0
 10
22.22979015369135
 20
29.25387004353904
 30
0.0
 10
22.22979015369135
 20
29.25387004353904
 30
0.0
 10
22.22979015369135
 20
29.18186754787932
 30
0.0
 10
22.22979015369135
 20
29.18186754787932
 30
0.0
 10
22.21928261245872
 20
29.05991116767098
 30
0.0
 10
22.22238319839621
 20
28.66028009128209
 30
0.0
 10
22.1445240404101
 20
28.56553996541404
 30
0.0
 10
22.1445240404101
 20
28.56553996541404
 30
0.0
 10
22.13453326350038
 20
28.56209486992792
 30
0.0
 10
22.13453326350038
 20
28.56209486992792
 30
0.0
 10
22.13453326350038
 20
28.56209486992792
 30
0.0
 10
22.1381506137608
 20
28.56209486992792
 30
0.0
 10
22.1381506137608
 20
28.56209486992792
 30
0.0
  0
POLYLINE
  5
C5E
330
1F
100
AcDbEntity
  8
0
100
AcDb2dPolyline
 66
     1
 10
0.0
 20
0.0
 30
0.0
  0
VERTEX
  5
C5F
330
C5E
100
AcDbEntity
  8
0
100
AcDbVertex
100
AcDb2dVertex
 10
22.06752583120872
 20
28.73917327704599
 30
0.0
  0
VERTEX
  5
C60
330
C5E
100
AcDbEntity
  8
0
100
AcDbVertex
100
AcDb2dVertex
 10
22.05874083120872
 20
28.79050427704599
 30
0.0
  0
VERTEX
  5
C61
330
C5E
100
AcDbEntity
  8
0
100
AcDbVertex
100
AcDb2dVertex
 10
22.05167883120871
 20
28.84907127704599
 30
0.0
  0
VERTEX
  5
C62
330
C5E
100
AcDbEntity
  8
0
100
AcDbVertex
100
AcDb2dVertex
 10
22.04668283120872
 20
28.90901627704599
 30
0.0
  0
VERTEX
  5
C63
330
C5E
100
AcDbEntity
  8
0
100
AcDbVertex
100
AcDb2dVertex
 10
22.04289383120872
 20
28.97378427704598
 30
0.0
  0
VERTEX
  5
C64
330
C5E
100
AcDbEntity
  8
0
100
AcDbVertex
100
AcDb2dVertex
 10
22.03686483120872
 20
29.043719277046
 30
0.0
  0
VERTEX
  5
C65
330
C5E
100
AcDbEntity
  8
0
100
AcDbVertex
100
AcDb2dVertex
 10
22.03686483120872
 20
29.11296527704599
 30
0.0
  0
VERTEX
  5
C66
330
C5E
100
AcDbEntity
  8
0
100
AcDbVertex
100
AcDb2dVertex
 10
22.03962083120872
 20
29.11296527704599
 30
0.0
  0
SEQEND
  5
C67
330
C5E
100
AcDbEntity
  8
0
  0
POLYLINE
  5
C68
330
1F
100
AcDbEntity
  8
0
100
AcDb2dPolyline
 66
     1
 10
0.0
 20
0.0
 30
0.0
  0
VERTEX
  5
C69
330
C68
100
AcDbEntity
  8
0
100
AcDbVertex
100
AcDb2dVertex
 10
23.30224883120871
 20
27.64397727704599
 30
0.0
  0
VERTEX
  5
C6A
330
C68
100
AcDbEntity
  8
0
100
AcDbVertex
100
AcDb2dVertex
 10
23.29983683120872
 20
27.73182727704599
 30
0.0
  0
VERTEX
  5
C6B
330
C68
100
AcDbEntity
  8
0
100
AcDbVertex
100
AcDb2dVertex
 10
23.30224883120871
 20
27.73182727704599
 30
0.0
  0
SEQEND
  5
C6C
330
C68
100
AcDbEntity
  8
0
  0
POLYLINE
  5
C6D
330
1F
100
AcDbEntity
  8
0
100
AcDb2dPolyline
 66
     1
 10
0.0
 20
0.0
 30
0.0
  0
VERTEX
  5
C6E
330
C6D
100
AcDbEntity
  8
0
100
AcDbVertex
100
AcDb2dVertex
 10
23.29983683120872
 20
27.73182727704599
 30
0.0
  0
VERTEX
  5
C6F
330
C6D
100
AcDbEntity
  8
0
100
AcDbVertex
100
AcDb2dVertex
 10
23.29621983120872
 20
27.81726527704599
 30
0.0
  0
VERTEX
  5
C70
330
C6D
100
AcDbEntity
  8
0
100
AcDbVertex
100
AcDb2dVertex
 10
23.29983683120872
 20
27.81726527704599
 30
0.0
  0
SEQEND
  5
C71
330
C6D
100
AcDbEntity
  8
0
  0
POLYLINE
  5
C72
330
1F
100
AcDbEntity
  8
0
100
AcDb2dPolyline
 66
     1
 10
0.0
 20
0.0
 30
0.0
  0
VERTEX
  5
C73
330
C72
100
AcDbEntity
  8
0
100
AcDbVertex
100
AcDb2dVertex
 10
23.29621983120872
 20
27.81726527704599
 30
0.0
  0
VERTEX
  5
C74
330
C72
100
AcDbEntity
  8
0
100
AcDbVertex
100
AcDb2dVertex
 10
23.29277483120872
 20
27.89684727704599
 30
0.0
  0
VERTEX
  5
C75
330
C72
100
AcDbEntity
  8
0
100
AcDbVertex
100
AcDb2dVertex
 10
23.29621983120872
 20
27.89684727704599
 30
0.0
  0
SEQEND
  5
C76
330
C72
100
AcDbEntity
  8
0
  0
POLYLINE
  5
C77
330
1F
100
AcDbEntity
  8
0
100
AcDb2dPolyline
 66
     1
 10
0.0
 20
0.0
 30
0.0
  0
VERTEX
  5
C78
330
C77
100
AcDbEntity
  8
0
100
AcDbVertex
100
AcDb2dVertex
 10
23.29277483120872
 20
27.89684727704599
 30
0.0
  0
VERTEX
  5
C79
330
C77
100
AcDbEntity
  8
0
100
AcDbVertex
100
AcDb2dVertex
 10
23.29277483120872
 20
27.97573927704599
 30
0.0
  0
VERTEX
  5
C7A
330
C77
100
AcDbEntity
  8
0
100
AcDbVertex
100
AcDb2dVertex
 10
23.29621983120872
 20
27.97573927704599
 30
0.0
  0
SEQEND
  5
C7B
330
C77
100
AcDbEntity
  8
0
  0
POLYLINE
  5
C7C
330
1F
100
AcDbEntity
  8
0
100
AcDb2dPolyline
 66
     1
 10
0.0
 20
0.0
 30
0.0
  0
VERTEX
  5
C7D
330
C7C
100
AcDbEntity
  8
0
100
AcDbVertex
100
AcDb2dVertex
 10
23.29277483120872
 20
27.97573927704599
 30
0.0
  0
VERTEX
  5
C7E
330
C7C
100
AcDbEntity
  8
0
100
AcDbVertex
100
AcDb2dVertex
 10
23.29036283120872
 20
28.08219327704599
 30
0.0
  0
VERTEX
  5
C7F
330
C7C
100
AcDbEntity
  8
0
100
AcDbVertex
100
AcDb2dVertex
 10
23.29277483120872
 20
28.08219327704599
 30
0.0
  0
SEQEND
  5
C80
330
C7C
100
AcDbEntity
  8
0
  0
POLYLINE
  5
C81
330
1F
100
AcDbEntity
  8
0
100
AcDb2dPolyline
 66
     1
 10
0.0
 20
0.0
 30
0.0
  0
VERTEX
  5
C82
330
C81
100
AcDbEntity
  8
0
100
AcDbVertex
100
AcDb2dVertex
 10
23.29036283120872
 20
28.08219327704599
 30
0.0
  0
VERTEX
  5
C83
330
C81
100
AcDbEntity
  8
0
100
AcDbVertex
100
AcDb2dVertex
 10
23.28846783120871
 20
28.55692727704599
 30
0.0
  0
VERTEX
  5
C84
330
C81
100
AcDbEntity
  8
0
100
AcDbVertex
100
AcDb2dVertex
 10
23.29036283120872
 20
28.55692727704599
 30
0.0
  0
SEQEND
  5
C85
330
C81
100
AcDbEntity
  8
0
  0
POLYLINE
  5
C86
330
1F
100
AcDbEntity
  8
0
100
AcDb2dPolyline
 66
     1
 10
0.0
 20
0.0
 30
0.0
  0
VERTEX
  5
C87
330
C86
100
AcDbEntity
  8
0
100
AcDbVertex
100
AcDb2dVertex
 10
23.28846783120871
 20
29.73962827704599
 30
0.0
  0
VERTEX
  5
C88
330
C86
100
AcDbEntity
  8
0
100
AcDbVertex
100
AcDb2dVertex
 10
23.28846783120871
 20
28.76638927704599
 30
0.0
  0
VERTEX
  5
C89
330
C86
100
AcDbEntity
  8
0
100
AcDbVertex
100
AcDb2dVertex
 10
23.29036283120872
 20
28.76638927704599
 30
0.0
  0
SEQEND
  5
C8A
330
C86
100
AcDbEntity
  8
0
  0
POLYLINE
  5
C8B
330
1F
100
AcDbEntity
  8
0
100
AcDb2dPolyline
 66
     1
 10
0.0
 20
0.0
 30
0.0
  0
VERTEX
  5
C8C
330
C8B
100
AcDbEntity
  8
0
100
AcDbVertex
100
AcDb2dVertex
 10
23.28846783120871
 20
29.95219127704599
 30
0.0
  0
VERTEX
  5
C8D
330
C8B
100
AcDbEntity
  8
0
100
AcDbVertex
100
AcDb2dVertex
 10
23.28846783120871
 20
29.73962827704599
 30
0.0
  0
VERTEX
  5
C8E
330
C8B
100
AcDbEntity
  8
0
100
AcDbVertex
100
AcDb2dVertex
 10
23.29036283120872
 20
29.73962827704599
 30
0.0
  0
SEQEND
  5
C8F
330
C8B
100
AcDbEntity
  8
0
  0
POLYLINE
  5
C90
330
1F
100
AcDbEntity
  8
0
100
AcDb2dPolyline
 66
     1
 10
0.0
 20
0.0
 30
0.0
  0
VERTEX
  5
C91
330
C90
100
AcDbEntity
  8
0
100
AcDbVertex
100
AcDb2dVertex
 10
23.28846783120871
 20
28.55692727704599
 30
0.0
  0
VERTEX
  5
C92
330
C90
100
AcDbEntity
  8
0
100
AcDbVertex
100
AcDb2dVertex
 10
23.28846783120871
 20
28.76638927704599
 30
0.0
  0
VERTEX
  5
C93
330
C90
100
AcDbEntity
  8
0
100
AcDbVertex
100
AcDb2dVertex
 10
23.29036283120872
 20
28.76638927704599
 30
0.0
  0
SEQEND
  5
C94
330
C90
100
AcDbEntity
  8
0
  0
SPLINE
  5
C9A
330
1F
100
AcDbEntity
  8
0
100
AcDbSpline
210
0.0
220
0.0
230
1.0
 70
     8
 71
     3
 72
    17
 73
    13
 74
     0
 42
0.0000000001
 43
0.0000000001
 40
0.0
 40
0.0
 40
0.0
 40
0.0
 40
1.0
 40
1.0
 40
1.0
 40
2.0
 40
2.0
 40
2.0
 40
3.0
 40
3.0
 40
3.0
 40
4.0
 40
4.0
 40
4.0
 40
4.0
 10
23.33893864544483
 20
27.17268786037932
 30
0.0
 10
23.33893864544483
 20
27.17268786037932
 30
0.0
 10
23.33290972834413
 20
27.23401056003209
 30
0.0
 10
23.33290972834413
 20
27.23401056003209
 30
0.0
 10
23.31844032730246
 20
27.35527792114321
 30
0.0
 10
23.3132726840733
 20
27.47723430135154
 30
0.0
 10
23.30586572877817
 20
27.59919068155987
 30
0.0
 10
23.30586572877817
 20
27.59919068155987
 30
0.0
 10
23.30224837851774
 20
27.64397692287932
 30
0.0
 10
23.30224837851774
 20
27.64397692287932
 30
0.0
 10
23.30224837851774
 20
27.64397692287932
 30
0.0
 10
23.30586572877817
 20
27.64397692287932
 30
0.0
 10
23.30586572877817
 20
27.64397692287932
 30
0.0
  0
SPLINE
  5
C9B
330
1F
100
AcDbEntity
  8
0
100
AcDbSpline
210
0.0
220
0.0
230
1.0
 70
     8
 71
     3
 72
    17
 73
    13
 74
     0
 42
0.0000000001
 43
0.0000000001
 40
0.0
 40
0.0
 40
0.0
 40
0.0
 40
1.0
 40
1.0
 40
1.0
 40
2.0
 40
2.0
 40
2.0
 40
3.0
 40
3.0
 40
3.0
 40
4.0
 40
4.0
 40
4.0
 40
4.0
 10
21.59658160334413
 20
25.78052477444182
 30
0.0
 10
21.59658160334413
 20
25.78052477444182
 30
0.0
 10
21.56867632990663
 20
25.90730428833071
 30
0.0
 10
21.56867632990663
 20
25.90730428833071
 30
0.0
 10
21.44809798789274
 20
26.49710463555293
 30
0.0
 10
21.36972206558372
 20
27.11584378485848
 30
0.0
 10
21.35318560725038
 20
27.71701294718488
 30
0.0
 10
21.35318560725038
 20
27.71701294718488
 30
0.0
 10
21.34715669014969
 20
27.84517049926821
 30
0.0
 10
21.34715669014969
 20
27.84517049926821
 30
0.0
 10
21.34715669014969
 20
27.84517049926821
 30
0.0
 10
21.35008502131288
 20
27.84517049926821
 30
0.0
 10
21.35008502131288
 20
27.84517049926821
 30
0.0
  0
POLYLINE
  5
C9C
330
1F
100
AcDbEntity
  8
0
100
AcDb2dPolyline
 66
     1
 10
0.0
 20
0.0
 30
0.0
  0
VERTEX
  5
C9D
330
C9C
100
AcDbEntity
  8
0
100
AcDbVertex
100
AcDb2dVertex
 10
27.51163783120872
 20
29.25387027704598
 30
0.0
  0
VERTEX
  5
C9E
330
C9C
100
AcDbEntity
  8
0
100
AcDbVertex
100
AcDb2dVertex
 10
27.30768883120872
 20
29.74272927704599
 30
0.0
  0
VERTEX
  5
C9F
330
C9C
100
AcDbEntity
  8
0
100
AcDbVertex
100
AcDb2dVertex
 10
26.82124083120872
 20
29.94598927704599
 30
0.0
  0
VERTEX
  5
CA0
330
C9C
100
AcDbEntity
  8
0
100
AcDbVertex
100
AcDb2dVertex
 10
26.33083183120871
 20
29.74272927704599
 30
0.0
  0
VERTEX
  5
CA1
330
C9C
100
AcDbEntity
  8
0
100
AcDbVertex
100
AcDb2dVertex
 10
26.12705483120872
 20
29.25387027704598
 30
0.0
  0
VERTEX
  5
CA2
330
C9C
100
AcDbEntity
  8
0
100
AcDbVertex
100
AcDb2dVertex
 10
26.33083183120871
 20
28.76294427704599
 30
0.0
  0
VERTEX
  5
CA3
330
C9C
100
AcDbEntity
  8
0
100
AcDbVertex
100
AcDb2dVertex
 10
26.82124083120872
 20
28.56209527704598
 30
0.0
  0
VERTEX
  5
CA4
330
C9C
100
AcDbEntity
  8
0
100
AcDbVertex
100
AcDb2dVertex
 10
27.30768883120872
 20
28.76294427704599
 30
0.0
  0
VERTEX
  5
CA5
330
C9C
100
AcDbEntity
  8
0
100
AcDbVertex
100
AcDb2dVertex
 10
27.51163783120872
 20
29.25387027704598
 30
0.0
  0
VERTEX
  5
CA6
330
C9C
100
AcDbEntity
  8
0
100
AcDbVertex
100
AcDb2dVertex
 10
27.51439483120872
 20
29.25387027704598
 30
0.0
  0
SEQEND
  5
CA7
330
C9C
100
AcDbEntity
  8
0
  0
SPLINE
  5
CA8
330
1F
100
AcDbEntity
  8
0
100
AcDbSpline
210
0.0
220
0.0
230
1.0
 70
     8
 71
     3
 72
    17
 73
    13
 74
     0
 42
0.0000000001
 43
0.0000000001
 40
0.0
 40
0.0
 40
0.0
 40
0.0
 40
1.0
 40
1.0
 40
1.0
 40
2.0
 40
2.0
 40
2.0
 40
3.0
 40
3.0
 40
3.0
 40
4.0
 40
4.0
 40
4.0
 40
4.0
 10
21.59658160334413
 20
32.72583727444182
 30
0.0
 10
21.59658160334413
 20
32.72583727444182
 30
0.0
 10
21.56867632990663
 20
32.5980242319071
 30
0.0
 10
21.56867632990663
 20
32.5980242319071
 30
0.0
 10
21.42725516020176
 20
31.91934042114321
 30
0.0
 10
21.3538746263476
 20
31.22653171888627
 30
0.0
 10
21.34715669014969
 20
30.53372301662932
 30
0.0
 10
21.34715669014969
 20
30.53372301662932
 30
0.0
 10
21.341127773049
 20
30.27775242201127
 30
0.0
 10
21.341127773049
 20
30.27775242201127
 30
0.0
 10
21.341127773049
 20
30.27775242201127
 30
0.0
 10
21.34474512330941
 20
30.27775242201127
 30
0.0
 10
21.34474512330941
 20
30.27775242201127
 30
0.0
  0
POLYLINE
  5
CA9
330
1F
100
AcDbEntity
  8
0
100
AcDb2dPolyline
 66
     1
 10
0.0
 20
0.0
 30
0.0
  0
VERTEX
  5
CAA
330
CA9
100
AcDbEntity
  8
0
100
AcDbVertex
100
AcDb2dVertex
 10
23.29277483120872
 20
30.53372327704599
 30
0.0
  0
VERTEX
  5
CAB
330
CA9
100
AcDbEntity
  8
0
100
AcDbVertex
100
AcDb2dVertex
 10
23.29036283120872
 20
30.42658027704599
 30
0.0
  0
VERTEX
  5
CAC
330
CA9
100
AcDbEntity
  8
0
100
AcDbVertex
100
AcDb2dVertex
 10
23.29277483120872
 20
30.42658027704599
 30
0.0
  0
SEQEND
  5
CAD
330
CA9
100
AcDbEntity
  8
0
  0
POLYLINE
  5
CAE
330
1F
100
AcDbEntity
  8
0
100
AcDb2dPolyline
 66
     1
 10
0.0
 20
0.0
 30
0.0
  0
VERTEX
  5
CAF
330
CAE
100
AcDbEntity
  8
0
100
AcDbVertex
100
AcDb2dVertex
 10
23.29277483120872
 20
30.60848127704599
 30
0.0
  0
VERTEX
  5
CB0
330
CAE
100
AcDbEntity
  8
0
100
AcDbVertex
100
AcDb2dVertex
 10
23.29277483120872
 20
30.53372327704599
 30
0.0
  0
VERTEX
  5
CB1
330
CAE
100
AcDbEntity
  8
0
100
AcDbVertex
100
AcDb2dVertex
 10
23.29621983120872
 20
30.53372327704599
 30
0.0
  0
SEQEND
  5
CB2
330
CAE
100
AcDbEntity
  8
0
  0
POLYLINE
  5
CB3
330
1F
100
AcDbEntity
  8
0
100
AcDb2dPolyline
 66
     1
 10
0.0
 20
0.0
 30
0.0
  0
VERTEX
  5
CB4
330
CB3
100
AcDbEntity
  8
0
100
AcDbVertex
100
AcDb2dVertex
 10
23.29621983120872
 20
30.69185327704599
 30
0.0
  0
VERTEX
  5
CB5
330
CB3
100
AcDbEntity
  8
0
100
AcDbVertex
100
AcDb2dVertex
 10
23.29277483120872
 20
30.60848127704599
 30
0.0
  0
VERTEX
  5
CB6
330
CB3
100
AcDbEntity
  8
0
100
AcDbVertex
100
AcDb2dVertex
 10
23.29621983120872
 20
30.60848127704599
 30
0.0
  0
SEQEND
  5
CB7
330
CB3
100
AcDbEntity
  8
0
  0
POLYLINE
  5
CB8
330
1F
100
AcDbEntity
  8
0
100
AcDb2dPolyline
 66
     1
 10
0.0
 20
0.0
 30
0.0
  0
VERTEX
  5
CB9
330
CB8
100
AcDbEntity
  8
0
100
AcDbVertex
100
AcDb2dVertex
 10
23.29983683120872
 20
30.77625727704599
 30
0.0
  0
VERTEX
  5
CBA
330
CB8
100
AcDbEntity
  8
0
100
AcDbVertex
100
AcDb2dVertex
 10
23.29621983120872
 20
30.69185327704599
 30
0.0
  0
VERTEX
  5
CBB
330
CB8
100
AcDbEntity
  8
0
100
AcDbVertex
100
AcDb2dVertex
 10
23.29983683120872
 20
30.69185327704599
 30
0.0
  0
SEQEND
  5
CBC
330
CB8
100
AcDbEntity
  8
0
  0
SPLINE
  5
CBD
330
1F
100
AcDbEntity
  8
0
100
AcDbSpline
210
0.0
220
0.0
230
1.0
 70
     8
 71
     3
 72
    17
 73
    13
 74
     0
 42
0.0000000001
 43
0.0000000001
 40
0.0
 40
0.0
 40
0.0
 40
0.0
 40
1.0
 40
1.0
 40
1.0
 40
2.0
 40
2.0
 40
2.0
 40
3.0
 40
3.0
 40
3.0
 40
4.0
 40
4.0
 40
4.0
 40
4.0
 10
23.33893864544483
 20
31.33643026489321
 30
0.0
 10
23.33893864544483
 20
31.33643026489321
 30
0.0
 10
23.33290972834413
 20
31.27614109388627
 30
0.0
 10
23.33290972834413
 20
31.27614109388627
 30
0.0
 10
23.31602876046218
 20
31.13937080308765
 30
0.0
 10
23.3132726840733
 20
31.00156698364322
 30
0.0
 10
23.30259288806636
 20
30.86445218329599
 30
0.0
 10
23.30259288806636
 20
30.86445218329599
 30
0.0
 10
23.29983681167747
 20
30.77625773885154
 30
0.0
 10
23.29983681167747
 20
30.77625773885154
 30
0.0
 10
23.29983681167747
 20
30.77625773885154
 30
0.0
 10
23.30259288806636
 20
30.77625773885154
 30
0.0
 10
23.30259288806636
 20
30.77625773885154
 30
0.0
  0
POLYLINE
  5
CBE
330
1F
100
AcDbEntity
  8
0
100
AcDb2dPolyline
 66
     1
 10
0.0
 20
0.0
 30
0.0
  0
VERTEX
  5
CBF
330
CBE
100
AcDbEntity
  8
0
100
AcDbVertex
100
AcDb2dVertex
 10
23.36959983120872
 20
31.59653527704599
 30
0.0
  0
VERTEX
  5
CC0
330
CBE
100
AcDbEntity
  8
0
100
AcDbVertex
100
AcDb2dVertex
 10
23.36443283120872
 20
31.55484927704599
 30
0.0
  0
VERTEX
  5
CC1
330
CBE
100
AcDbEntity
  8
0
100
AcDbVertex
100
AcDb2dVertex
 10
23.35668083120872
 20
31.50868527704599
 30
0.0
  0
VERTEX
  5
CC2
330
CBE
100
AcDbEntity
  8
0
100
AcDbVertex
100
AcDb2dVertex
 10
23.35134083120872
 20
31.46699927704599
 30
0.0
  0
VERTEX
  5
CC3
330
CBE
100
AcDbEntity
  8
0
100
AcDbVertex
100
AcDb2dVertex
 10
23.34892983120871
 20
31.42428027704599
 30
0.0
  0
VERTEX
  5
CC4
330
CBE
100
AcDbEntity
  8
0
100
AcDbVertex
100
AcDb2dVertex
 10
23.34186683120871
 20
31.38156127704599
 30
0.0
  0
VERTEX
  5
CC5
330
CBE
100
AcDbEntity
  8
0
100
AcDbVertex
100
AcDb2dVertex
 10
23.33893883120872
 20
31.33643027704599
 30
0.0
  0
VERTEX
  5
CC6
330
CBE
100
AcDbEntity
  8
0
100
AcDbVertex
100
AcDb2dVertex
 10
23.34186683120871
 20
31.33643027704599
 30
0.0
  0
SEQEND
  5
CC7
330
CBE
100
AcDbEntity
  8
0
  0
POLYLINE
  5
CC8
330
1F
100
AcDbEntity
  8
0
100
AcDb2dPolyline
 66
     1
 10
0.0
 20
0.0
 30
0.0
  0
VERTEX
  5
CC9
330
CC8
100
AcDbEntity
  8
0
100
AcDbVertex
100
AcDb2dVertex
 10
26.65019183120872
 20
34.96377127704599
 30
0.0
  0
VERTEX
  5
CCA
330
CC8
100
AcDbEntity
  8
0
100
AcDbVertex
100
AcDb2dVertex
 10
26.59610383120872
 20
34.954469277046
 30
0.0
  0
VERTEX
  5
CCB
330
CC8
100
AcDbEntity
  8
0
100
AcDbVertex
100
AcDb2dVertex
 10
26.59903283120872
 20
34.954469277046
 30
0.0
  0
SEQEND
  5
CCC
330
CC8
100
AcDbEntity
  8
0
  0
POLYLINE
  5
CCD
330
1F
100
AcDbEntity
  8
0
100
AcDb2dPolyline
 66
     1
 10
0.0
 20
0.0
 30
0.0
  0
VERTEX
  5
CCE
330
CCD
100
AcDbEntity
  8
0
100
AcDbVertex
100
AcDb2dVertex
 10
26.70169683120872
 20
34.97376227704599
 30
0.0
  0
VERTEX
  5
CCF
330
CCD
100
AcDbEntity
  8
0
100
AcDbVertex
100
AcDb2dVertex
 10
26.65019183120872
 20
34.96377127704599
 30
0.0
  0
VERTEX
  5
CD0
330
CCD
100
AcDbEntity
  8
0
100
AcDbVertex
100
AcDb2dVertex
 10
26.65363683120872
 20
34.96377127704599
 30
0.0
  0
SEQEND
  5
CD1
330
CCD
100
AcDbEntity
  8
0
  0
POLYLINE
  5
CD2
330
1F
100
AcDbEntity
  8
0
100
AcDb2dPolyline
 66
     1
 10
0.0
 20
0.0
 30
0.0
  0
VERTEX
  5
CD3
330
CD2
100
AcDbEntity
  8
0
100
AcDbVertex
100
AcDb2dVertex
 10
26.75423383120872
 20
34.98237527704599
 30
0.0
  0
VERTEX
  5
CD4
330
CD2
100
AcDbEntity
  8
0
100
AcDbVertex
100
AcDb2dVertex
 10
26.70169683120872
 20
34.97376227704599
 30
0.0
  0
VERTEX
  5
CD5
330
CD2
100
AcDbEntity
  8
0
100
AcDbVertex
100
AcDb2dVertex
 10
26.70514183120872
 20
34.97376227704599
 30
0.0
  0
SEQEND
  5
CD6
330
CD2
100
AcDbEntity
  8
0
  0
POLYLINE
  5
CD7
330
1F
100
AcDbEntity
  8
0
100
AcDb2dPolyline
 66
     1
 10
0.0
 20
0.0
 30
0.0
  0
VERTEX
  5
CD8
330
CD7
100
AcDbEntity
  8
0
100
AcDbVertex
100
AcDb2dVertex
 10
26.92666083120871
 20
35.00649027704599
 30
0.0
  0
VERTEX
  5
CD9
330
CD7
100
AcDbEntity
  8
0
100
AcDbVertex
100
AcDb2dVertex
 10
26.84208383120872
 20
34.99443227704599
 30
0.0
  0
VERTEX
  5
CDA
330
CD7
100
AcDbEntity
  8
0
100
AcDbVertex
100
AcDb2dVertex
 10
26.75423383120872
 20
34.98237527704599
 30
0.0
  0
VERTEX
  5
CDB
330
CD7
100
AcDbEntity
  8
0
100
AcDbVertex
100
AcDb2dVertex
 10
26.75767883120871
 20
34.98237527704599
 30
0.0
  0
SEQEND
  5
CDC
330
CD7
100
AcDbEntity
  8
0
  0
POLYLINE
  5
CDD
330
1F
100
AcDbEntity
  8
0
100
AcDb2dPolyline
 66
     1
 10
0.0
 20
0.0
 30
0.0
  0
VERTEX
  5
CDE
330
CDD
100
AcDbEntity
  8
0
100
AcDbVertex
100
AcDb2dVertex
 10
26.61453583120871
 20
34.86730827704599
 30
0.0
  0
VERTEX
  5
CDF
330
CDD
100
AcDbEntity
  8
0
100
AcDbVertex
100
AcDb2dVertex
 10
26.60506183120872
 20
34.91829627704599
 30
0.0
  0
VERTEX
  5
CE0
330
CDD
100
AcDbEntity
  8
0
100
AcDbVertex
100
AcDb2dVertex
 10
26.59610383120872
 20
34.954469277046
 30
0.0
  0
VERTEX
  5
CE1
330
CDD
100
AcDbEntity
  8
0
100
AcDbVertex
100
AcDb2dVertex
 10
26.59903283120872
 20
34.954469277046
 30
0.0
  0
SEQEND
  5
CE2
330
CDD
100
AcDbEntity
  8
0
  0
POLYLINE
  5
CE3
330
1F
100
AcDbEntity
  8
0
100
AcDb2dPolyline
 66
     1
 10
0.0
 20
0.0
 30
0.0
  0
VERTEX
  5
CE4
330
CE3
100
AcDbEntity
  8
0
100
AcDbVertex
100
AcDb2dVertex
 10
27.49544683120872
 20
35.08607227704599
 30
0.0
  0
VERTEX
  5
CE5
330
CE3
100
AcDbEntity
  8
0
100
AcDbVertex
100
AcDb2dVertex
 10
27.09495383120871
 20
35.03129527704599
 30
0.0
  0
VERTEX
  5
CE6
330
CE3
100
AcDbEntity
  8
0
100
AcDbVertex
100
AcDb2dVertex
 10
27.09857183120872
 20
35.03129527704599
 30
0.0
  0
SEQEND
  5
CE7
330
CE3
100
AcDbEntity
  8
0
  0
POLYLINE
  5
CE8
330
1F
100
AcDbEntity
  8
0
100
AcDb2dPolyline
 66
     1
 10
0.0
 20
0.0
 30
0.0
  0
VERTEX
  5
CE9
330
CE8
100
AcDbEntity
  8
0
100
AcDbVertex
100
AcDb2dVertex
 10
27.75158883120872
 20
35.11914527704599
 30
0.0
  0
VERTEX
  5
CEA
330
CE8
100
AcDbEntity
  8
0
100
AcDbVertex
100
AcDb2dVertex
 10
27.49544683120872
 20
35.08607227704599
 30
0.0
  0
VERTEX
  5
CEB
330
CE8
100
AcDbEntity
  8
0
100
AcDbVertex
100
AcDb2dVertex
 10
27.49889183120872
 20
35.08607227704599
 30
0.0
  0
SEQEND
  5
CEC
330
CE8
100
AcDbEntity
  8
0
  0
POLYLINE
  5
CED
330
1F
100
AcDbEntity
  8
0
100
AcDb2dPolyline
 66
     1
 10
0.0
 20
0.0
 30
0.0
  0
VERTEX
  5
CEE
330
CED
100
AcDbEntity
  8
0
100
AcDbVertex
100
AcDb2dVertex
 10
28.01324383120871
 20
35.15221827704599
 30
0.0
  0
VERTEX
  5
CEF
330
CED
100
AcDbEntity
  8
0
100
AcDbVertex
100
AcDb2dVertex
 10
27.75158883120872
 20
35.11914527704599
 30
0.0
  0
VERTEX
  5
CF0
330
CED
100
AcDbEntity
  8
0
100
AcDbVertex
100
AcDb2dVertex
 10
27.75434483120872
 20
35.11914527704599
 30
0.0
  0
SEQEND
  5
CF1
330
CED
100
AcDbEntity
  8
0
  0
POLYLINE
  5
CF2
330
1F
100
AcDbEntity
  8
0
100
AcDb2dPolyline
 66
     1
 10
0.0
 20
0.0
 30
0.0
  0
VERTEX
  5
CF3
330
CF2
100
AcDbEntity
  8
0
100
AcDbVertex
100
AcDb2dVertex
 10
28.55154083120872
 20
35.21595227704599
 30
0.0
  0
VERTEX
  5
CF4
330
CF2
100
AcDbEntity
  8
0
100
AcDbVertex
100
AcDb2dVertex
 10
28.28041183120872
 20
35.18632427704599
 30
0.0
  0
VERTEX
  5
CF5
330
CF2
100
AcDbEntity
  8
0
100
AcDbVertex
100
AcDb2dVertex
 10
28.28385683120872
 20
35.18632427704599
 30
0.0
  0
SEQEND
  5
CF6
330
CF2
100
AcDbEntity
  8
0
  0
POLYLINE
  5
CF7
330
1F
100
AcDbEntity
  8
0
100
AcDb2dPolyline
 66
     1
 10
0.0
 20
0.0
 30
0.0
  0
VERTEX
  5
CF8
330
CF7
100
AcDbEntity
  8
0
100
AcDbVertex
100
AcDb2dVertex
 10
28.83386583120872
 20
35.25005827704599
 30
0.0
  0
VERTEX
  5
CF9
330
CF7
100
AcDbEntity
  8
0
100
AcDbVertex
100
AcDb2dVertex
 10
28.55154083120872
 20
35.21595227704599
 30
0.0
  0
VERTEX
  5
CFA
330
CF7
100
AcDbEntity
  8
0
100
AcDbVertex
100
AcDb2dVertex
 10
28.55481283120872
 20
35.21595227704599
 30
0.0
  0
SEQEND
  5
CFB
330
CF7
100
AcDbEntity
  8
0
  0
POLYLINE
  5
CFC
330
1F
100
AcDbEntity
  8
0
100
AcDb2dPolyline
 66
     1
 10
0.0
 20
0.0
 30
0.0
  0
VERTEX
  5
CFD
330
CFC
100
AcDbEntity
  8
0
100
AcDbVertex
100
AcDb2dVertex
 10
29.13221083120872
 20
35.28072027704599
 30
0.0
  0
VERTEX
  5
CFE
330
CFC
100
AcDbEntity
  8
0
100
AcDbVertex
100
AcDb2dVertex
 10
28.83386583120872
 20
35.25005827704599
 30
0.0
  0
VERTEX
  5
CFF
330
CFC
100
AcDbEntity
  8
0
100
AcDbVertex
100
AcDb2dVertex
 10
28.83731083120871
 20
35.25005827704599
 30
0.0
  0
SEQEND
  5
D00
330
CFC
100
AcDbEntity
  8
0
  0
POLYLINE
  5
D01
330
1F
100
AcDbEntity
  8
0
100
AcDb2dPolyline
 66
     1
 10
0.0
 20
0.0
 30
0.0
  0
VERTEX
  5
D02
330
D01
100
AcDbEntity
  8
0
100
AcDbVertex
100
AcDb2dVertex
 10
28.28041183120872
 20
35.18632427704599
 30
0.0
  0
VERTEX
  5
D03
330
D01
100
AcDbEntity
  8
0
100
AcDbVertex
100
AcDb2dVertex
 10
28.01324383120871
 20
35.15221827704599
 30
0.0
  0
VERTEX
  5
D04
330
D01
100
AcDbEntity
  8
0
100
AcDbVertex
100
AcDb2dVertex
 10
28.01617283120871
 20
35.15221827704599
 30
0.0
  0
SEQEND
  5
D05
330
D01
100
AcDbEntity
  8
0
  0
POLYLINE
  5
D06
330
1F
100
AcDbEntity
  8
0
100
AcDb2dPolyline
 66
     1
 10
0.0
 20
0.0
 30
0.0
  0
VERTEX
  5
D07
330
D06
100
AcDbEntity
  8
0
100
AcDbVertex
100
AcDb2dVertex
 10
27.09495383120871
 20
35.03129527704599
 30
0.0
  0
VERTEX
  5
D08
330
D06
100
AcDbEntity
  8
0
100
AcDbVertex
100
AcDb2dVertex
 10
26.92666083120871
 20
35.00649027704599
 30
0.0
  0
VERTEX
  5
D09
330
D06
100
AcDbEntity
  8
0
100
AcDbVertex
100
AcDb2dVertex
 10
26.93096783120871
 20
35.00649027704599
 30
0.0
  0
SEQEND
  5
D0A
330
D06
100
AcDbEntity
  8
0
  0
SPLINE
  5
D0B
330
1F
100
AcDbEntity
  8
0
100
AcDbSpline
210
0.0
220
0.0
230
1.0
 70
     8
 71
     3
 72
    17
 73
    13
 74
     0
 42
0.0000000001
 43
0.0000000001
 40
0.0
 40
0.0
 40
0.0
 40
0.0
 40
1.0
 40
1.0
 40
1.0
 40
2.0
 40
2.0
 40
2.0
 40
3.0
 40
3.0
 40
3.0
 40
4.0
 40
4.0
 40
4.0
 40
4.0
 10
26.59610417278857
 20
34.9544695444071
 30
0.0
 10
26.59610417278857
 20
34.9544695444071
 30
0.0
 10
26.51686697660802
 20
34.93965563381682
 30
0.0
 10
26.51686697660802
 20
34.93965563381682
 30
0.0
 10
24.9038732700108
 20
34.62477390638627
 30
0.0
 10
23.63177176176427
 20
33.30599135430293
 30
0.0
 10
23.38200233902121
 20
31.67990628485848
 30
0.0
 10
23.38200233902121
 20
31.67990628485848
 30
0.0
 10
23.36959999527122
 20
31.5965349740946
 30
0.0
 10
23.36959999527122
 20
31.5965349740946
 30
0.0
 10
23.36959999527122
 20
31.5965349740946
 30
0.0
 10
23.37218381688579
 20
31.5965349740946
 30
0.0
 10
23.37218381688579
 20
31.5965349740946
 30
0.0
  0
POLYLINE
  5
D0C
330
1F
100
AcDbEntity
  8
0
100
AcDb2dPolyline
 66
     1
 10
0.0
 20
0.0
 30
0.0
  0
VERTEX
  5
D0D
330
D0C
100
AcDbEntity
  8
0
100
AcDbVertex
100
AcDb2dVertex
 10
23.29036283120872
 20
30.42658027704599
 30
0.0
  0
VERTEX
  5
D0E
330
D0C
100
AcDbEntity
  8
0
100
AcDbVertex
100
AcDb2dVertex
 10
23.28846783120871
 20
29.95219127704599
 30
0.0
  0
VERTEX
  5
D0F
330
D0C
100
AcDbEntity
  8
0
100
AcDbVertex
100
AcDb2dVertex
 10
23.29036283120872
 20
29.95219127704599
 30
0.0
  0
SEQEND
  5
D10
330
D0C
100
AcDbEntity
  8
0
  0
POLYLINE
  5
D11
330
1F
100
AcDbEntity
  8
0
100
AcDb2dPolyline
 66
     1
 10
0.0
 20
0.0
 30
0.0
  0
VERTEX
  5
D12
330
D11
100
AcDbEntity
  8
0
100
AcDbVertex
100
AcDb2dVertex
 10
21.34112783120872
 20
30.27775227704599
 30
0.0
  0
VERTEX
  5
D13
330
D11
100
AcDbEntity
  8
0
100
AcDbVertex
100
AcDb2dVertex
 10
21.33768283120872
 20
29.76305527704599
 30
0.0
  0
VERTEX
  5
D14
330
D11
100
AcDbEntity
  8
0
100
AcDbVertex
100
AcDb2dVertex
 10
21.34112783120872
 20
29.76305527704599
 30
0.0
  0
SEQEND
  5
D15
330
D11
100
AcDbEntity
  8
0
  0
POLYLINE
  5
D16
330
1F
100
AcDbEntity
  8
0
100
AcDb2dPolyline
 66
     1
 10
0.0
 20
0.0
 30
0.0
  0
VERTEX
  5
D17
330
D16
100
AcDbEntity
  8
0
100
AcDbVertex
100
AcDb2dVertex
 10
29.65793283120872
 20
35.328262277046
 30
0.0
  0
VERTEX
  5
D18
330
D16
100
AcDbEntity
  8
0
100
AcDbVertex
100
AcDb2dVertex
 10
29.33891683120871
 20
35.302424277046
 30
0.0
  0
VERTEX
  5
D19
330
D16
100
AcDbEntity
  8
0
100
AcDbVertex
100
AcDb2dVertex
 10
29.34150083120871
 20
35.302424277046
 30
0.0
  0
SEQEND
  5
D1A
330
D16
100
AcDbEntity
  8
0
  0
POLYLINE
  5
D1B
330
1F
100
AcDbEntity
  8
0
100
AcDb2dPolyline
 66
     1
 10
0.0
 20
0.0
 30
0.0
  0
VERTEX
  5
D1C
330
D1B
100
AcDbEntity
  8
0
100
AcDbVertex
100
AcDb2dVertex
 10
30.09322083120872
 20
35.36857027704599
 30
0.0
  0
VERTEX
  5
D1D
330
D1B
100
AcDbEntity
  8
0
100
AcDbVertex
100
AcDb2dVertex
 10
29.65793283120872
 20
35.328262277046
 30
0.0
  0
VERTEX
  5
D1E
330
D1B
100
AcDbEntity
  8
0
100
AcDbVertex
100
AcDb2dVertex
 10
29.66137783120872
 20
35.328262277046
 30
0.0
  0
SEQEND
  5
D1F
330
D1B
100
AcDbEntity
  8
0
  0
POLYLINE
  5
D20
330
1F
100
AcDbEntity
  8
0
100
AcDb2dPolyline
 66
     1
 10
0.0
 20
0.0
 30
0.0
  0
VERTEX
  5
D21
330
D20
100
AcDbEntity
  8
0
100
AcDbVertex
100
AcDb2dVertex
 10
31.05061283120872
 20
35.44780727704599
 30
0.0
  0
VERTEX
  5
D22
330
D20
100
AcDbEntity
  8
0
100
AcDbVertex
100
AcDb2dVertex
 10
30.55176283120871
 20
35.40887727704599
 30
0.0
  0
VERTEX
  5
D23
330
D20
100
AcDbEntity
  8
0
100
AcDbVertex
100
AcDb2dVertex
 10
30.55537983120871
 20
35.40887727704599
 30
0.0
  0
SEQEND
  5
D24
330
D20
100
AcDbEntity
  8
0
  0
POLYLINE
  5
D25
330
1F
100
AcDbEntity
  8
0
100
AcDb2dPolyline
 66
     1
 10
0.0
 20
0.0
 30
0.0
  0
VERTEX
  5
D26
330
D25
100
AcDbEntity
  8
0
100
AcDbVertex
100
AcDb2dVertex
 10
30.55176283120871
 20
35.40887727704599
 30
0.0
  0
VERTEX
  5
D27
330
D25
100
AcDbEntity
  8
0
100
AcDbVertex
100
AcDb2dVertex
 10
30.09322083120872
 20
35.36857027704599
 30
0.0
  0
VERTEX
  5
D28
330
D25
100
AcDbEntity
  8
0
100
AcDbVertex
100
AcDb2dVertex
 10
30.09597683120872
 20
35.36857027704599
 30
0.0
  0
SEQEND
  5
D29
330
D25
100
AcDbEntity
  8
0
  0
POLYLINE
  5
D2A
330
1F
100
AcDbEntity
  8
0
100
AcDb2dPolyline
 66
     1
 10
0.0
 20
0.0
 30
0.0
  0
VERTEX
  5
D2B
330
D2A
100
AcDbEntity
  8
0
100
AcDbVertex
100
AcDb2dVertex
 10
32.18628883120871
 20
35.526355277046
 30
0.0
  0
VERTEX
  5
D2C
330
D2A
100
AcDbEntity
  8
0
100
AcDbVertex
100
AcDb2dVertex
 10
31.59218183120871
 20
35.48742627704599
 30
0.0
  0
VERTEX
  5
D2D
330
D2A
100
AcDbEntity
  8
0
100
AcDbVertex
100
AcDb2dVertex
 10
31.59562683120872
 20
35.48742627704599
 30
0.0
  0
SEQEND
  5
D2E
330
D2A
100
AcDbEntity
  8
0
  0
POLYLINE
  5
D2F
330
1F
100
AcDbEntity
  8
0
100
AcDb2dPolyline
 66
     1
 10
0.0
 20
0.0
 30
0.0
  0
VERTEX
  5
D30
330
D2F
100
AcDbEntity
  8
0
100
AcDbVertex
100
AcDb2dVertex
 10
33.38673183120871
 20
35.60249227704599
 30
0.0
  0
VERTEX
  5
D31
330
D2F
100
AcDbEntity
  8
0
100
AcDbVertex
100
AcDb2dVertex
 10
32.84171783120871
 20
35.57183027704599
 30
0.0
  0
VERTEX
  5
D32
330
D2F
100
AcDbEntity
  8
0
100
AcDbVertex
100
AcDb2dVertex
 10
32.84533483120872
 20
35.57183027704599
 30
0.0
  0
SEQEND
  5
D33
330
D2F
100
AcDbEntity
  8
0
  0
POLYLINE
  5
D34
330
1F
100
AcDbEntity
  8
0
100
AcDb2dPolyline
 66
     1
 10
0.0
 20
0.0
 30
0.0
  0
VERTEX
  5
D35
330
D34
100
AcDbEntity
  8
0
100
AcDbVertex
100
AcDb2dVertex
 10
32.84171783120871
 20
35.57183027704599
 30
0.0
  0
VERTEX
  5
D36
330
D34
100
AcDbEntity
  8
0
100
AcDbVertex
100
AcDb2dVertex
 10
32.18628883120871
 20
35.526355277046
 30
0.0
  0
VERTEX
  5
D37
330
D34
100
AcDbEntity
  8
0
100
AcDbVertex
100
AcDb2dVertex
 10
32.18869983120872
 20
35.526355277046
 30
0.0
  0
SEQEND
  5
D38
330
D34
100
AcDbEntity
  8
0
  0
POLYLINE
  5
D39
330
1F
100
AcDbEntity
  8
0
100
AcDb2dPolyline
 66
     1
 10
0.0
 20
0.0
 30
0.0
  0
VERTEX
  5
D3A
330
D39
100
AcDbEntity
  8
0
100
AcDbVertex
100
AcDb2dVertex
 10
31.59218183120871
 20
35.48742627704599
 30
0.0
  0
VERTEX
  5
D3B
330
D39
100
AcDbEntity
  8
0
100
AcDbVertex
100
AcDb2dVertex
 10
31.05061283120872
 20
35.448151277046
 30
0.0
  0
VERTEX
  5
D3C
330
D39
100
AcDbEntity
  8
0
100
AcDbVertex
100
AcDb2dVertex
 10
31.05319683120872
 20
35.448151277046
 30
0.0
  0
SEQEND
  5
D3D
330
D39
100
AcDbEntity
  8
0
  0
POLYLINE
  5
D3E
330
1F
100
AcDbEntity
  8
0
100
AcDb2dPolyline
 66
     1
 10
0.0
 20
0.0
 30
0.0
  0
VERTEX
  5
D3F
330
D3E
100
AcDbEntity
  8
0
100
AcDbVertex
100
AcDb2dVertex
 10
34.41509283120872
 20
35.66071427704599
 30
0.0
  0
VERTEX
  5
D40
330
D3E
100
AcDbEntity
  8
0
100
AcDbVertex
100
AcDb2dVertex
 10
33.98256083120872
 20
35.63901027704599
 30
0.0
  0
VERTEX
  5
D41
330
D3E
100
AcDbEntity
  8
0
100
AcDbVertex
100
AcDb2dVertex
 10
33.98514483120872
 20
35.63901027704599
 30
0.0
  0
SEQEND
  5
D42
330
D3E
100
AcDbEntity
  8
0
  0
POLYLINE
  5
D43
330
1F
100
AcDbEntity
  8
0
100
AcDb2dPolyline
 66
     1
 10
0.0
 20
0.0
 30
0.0
  0
VERTEX
  5
D44
330
D43
100
AcDbEntity
  8
0
100
AcDbVertex
100
AcDb2dVertex
 10
35.37145183120872
 20
35.70618927704599
 30
0.0
  0
VERTEX
  5
D45
330
D43
100
AcDbEntity
  8
0
100
AcDbVertex
100
AcDb2dVertex
 10
34.87484083120872
 20
35.68551927704599
 30
0.0
  0
VERTEX
  5
D46
330
D43
100
AcDbEntity
  8
0
100
AcDbVertex
100
AcDb2dVertex
 10
34.87621883120872
 20
35.68551927704599
 30
0.0
  0
SEQEND
  5
D47
330
D43
100
AcDbEntity
  8
0
  0
POLYLINE
  5
D48
330
1F
100
AcDbEntity
  8
0
100
AcDb2dPolyline
 66
     1
 10
0.0
 20
0.0
 30
0.0
  0
VERTEX
  5
D49
330
D48
100
AcDbEntity
  8
0
100
AcDbVertex
100
AcDb2dVertex
 10
34.87484083120872
 20
35.68551927704599
 30
0.0
  0
VERTEX
  5
D4A
330
D48
100
AcDbEntity
  8
0
100
AcDbVertex
100
AcDb2dVertex
 10
34.41509283120872
 20
35.66071427704599
 30
0.0
  0
VERTEX
  5
D4B
330
D48
100
AcDbEntity
  8
0
100
AcDbVertex
100
AcDb2dVertex
 10
34.41870983120872
 20
35.66071427704599
 30
0.0
  0
SEQEND
  5
D4C
330
D48
100
AcDbEntity
  8
0
  0
POLYLINE
  5
D4D
330
1F
100
AcDbEntity
  8
0
100
AcDb2dPolyline
 66
     1
 10
0.0
 20
0.0
 30
0.0
  0
VERTEX
  5
D4E
330
D4D
100
AcDbEntity
  8
0
100
AcDbVertex
100
AcDb2dVertex
 10
33.98256083120872
 20
35.63901027704599
 30
0.0
  0
VERTEX
  5
D4F
330
D4D
100
AcDbEntity
  8
0
100
AcDbVertex
100
AcDb2dVertex
 10
33.38673183120871
 20
35.60249227704599
 30
0.0
  0
VERTEX
  5
D50
330
D4D
100
AcDbEntity
  8
0
100
AcDbVertex
100
AcDb2dVertex
 10
33.38965983120872
 20
35.60249227704599
 30
0.0
  0
SEQEND
  5
D51
330
D4D
100
AcDbEntity
  8
0
  0
POLYLINE
  5
D52
330
1F
100
AcDbEntity
  8
0
100
AcDb2dPolyline
 66
     1
 10
0.0
 20
0.0
 30
0.0
  0
VERTEX
  5
D53
330
D52
100
AcDbEntity
  8
0
100
AcDbVertex
100
AcDb2dVertex
 10
29.33857283120872
 20
35.302424277046
 30
0.0
  0
VERTEX
  5
D54
330
D52
100
AcDbEntity
  8
0
100
AcDbVertex
100
AcDb2dVertex
 10
29.13186683120871
 20
35.28072027704599
 30
0.0
  0
VERTEX
  5
D55
330
D52
100
AcDbEntity
  8
0
100
AcDbVertex
100
AcDb2dVertex
 10
29.13582883120871
 20
35.28072027704599
 30
0.0
  0
SEQEND
  5
D56
330
D52
100
AcDbEntity
  8
0
  0
SPLINE
  5
D57
330
1F
100
AcDbEntity
  8
0
100
AcDbSpline
210
0.0
220
0.0
230
1.0
 70
     8
 71
     3
 72
    17
 73
    13
 74
     0
 42
0.0000000001
 43
0.0000000001
 40
0.0
 40
0.0
 40
0.0
 40
0.0
 40
1.0
 40
1.0
 40
1.0
 40
2.0
 40
2.0
 40
2.0
 40
3.0
 40
3.0
 40
3.0
 40
4.0
 40
4.0
 40
4.0
 40
4.0
 10
26.65725461766704
 20
36.92885376749738
 30
0.0
 10
26.65725461766704
 20
36.92885376749738
 30
0.0
 10
26.48896170317052
 20
36.90336006090015
 30
0.0
 10
26.48896170317052
 20
36.90336006090015
 30
0.0
 10
26.15478744101774
 20
36.85133911905988
 30
0.0
 10
25.82250798138233
 20
36.78657132392099
 30
0.0
 10
25.49487940065315
 20
36.70388903225432
 30
0.0
 10
25.49487940065315
 20
36.70388903225432
 30
0.0
 10
25.33072060073997
 20
36.66116984822654
 30
0.0
 10
25.33072060073997
 20
36.66116984822654
 30
0.0
 10
25.33072060073997
 20
36.66116984822654
 30
0.0
 10
25.33364893190316
 20
36.66116984822654
 30
0.0
 10
25.33364893190316
 20
36.66116984822654
 30
0.0
  0
POLYLINE
  5
D58
330
1F
100
AcDbEntity
  8
0
100
AcDb2dPolyline
 66
     1
 10
0.0
 20
0.0
 30
0.0
  0
VERTEX
  5
D59
330
D58
100
AcDbEntity
  8
0
100
AcDbVertex
100
AcDb2dVertex
 10
27.32250283120872
 20
37.020493277046
 30
0.0
  0
VERTEX
  5
D5A
330
D58
100
AcDbEntity
  8
0
100
AcDbVertex
100
AcDb2dVertex
 10
26.99125683120872
 20
36.97674027704599
 30
0.0
  0
VERTEX
  5
D5B
330
D58
100
AcDbEntity
  8
0
100
AcDbVertex
100
AcDb2dVertex
 10
26.99487383120871
 20
36.97674027704599
 30
0.0
  0
SEQEND
  5
D5C
330
D58
100
AcDbEntity
  8
0
  0
POLYLINE
  5
D5D
330
1F
100
AcDbEntity
  8
0
100
AcDb2dPolyline
 66
     1
 10
0.0
 20
0.0
 30
0.0
  0
VERTEX
  5
D5E
330
D5D
100
AcDbEntity
  8
0
100
AcDbVertex
100
AcDb2dVertex
 10
27.65374883120872
 20
37.06321227704599
 30
0.0
  0
VERTEX
  5
D5F
330
D5D
100
AcDbEntity
  8
0
100
AcDbVertex
100
AcDb2dVertex
 10
27.32250283120872
 20
37.020493277046
 30
0.0
  0
VERTEX
  5
D60
330
D5D
100
AcDbEntity
  8
0
100
AcDbVertex
100
AcDb2dVertex
 10
27.32611983120872
 20
37.020493277046
 30
0.0
  0
SEQEND
  5
D61
330
D5D
100
AcDbEntity
  8
0
  0
POLYLINE
  5
D62
330
1F
100
AcDbEntity
  8
0
100
AcDb2dPolyline
 66
     1
 10
0.0
 20
0.0
 30
0.0
  0
VERTEX
  5
D63
330
D62
100
AcDbEntity
  8
0
100
AcDbVertex
100
AcDb2dVertex
 10
28.17102983120872
 20
37.12315727704599
 30
0.0
  0
VERTEX
  5
D64
330
D62
100
AcDbEntity
  8
0
100
AcDbVertex
100
AcDb2dVertex
 10
27.99498483120872
 20
37.10489827704599
 30
0.0
  0
VERTEX
  5
D65
330
D62
100
AcDbEntity
  8
0
100
AcDbVertex
100
AcDb2dVertex
 10
27.65374883120872
 20
37.06321227704599
 30
0.0
  0
VERTEX
  5
D66
330
D62
100
AcDbEntity
  8
0
100
AcDbVertex
100
AcDb2dVertex
 10
27.65771083120871
 20
37.06321227704599
 30
0.0
  0
SEQEND
  5
D67
330
D62
100
AcDbEntity
  8
0
  0
POLYLINE
  5
D68
330
1F
100
AcDbEntity
  8
0
100
AcDb2dPolyline
 66
     1
 10
0.0
 20
0.0
 30
0.0
  0
VERTEX
  5
D69
330
D68
100
AcDbEntity
  8
0
100
AcDbVertex
100
AcDb2dVertex
 10
26.99125683120872
 20
36.97674027704599
 30
0.0
  0
VERTEX
  5
D6A
330
D68
100
AcDbEntity
  8
0
100
AcDbVertex
100
AcDb2dVertex
 10
26.65725483120871
 20
36.92885327704599
 30
0.0
  0
VERTEX
  5
D6B
330
D68
100
AcDbEntity
  8
0
100
AcDbVertex
100
AcDb2dVertex
 10
26.66069983120872
 20
36.92885327704599
 30
0.0
  0
SEQEND
  5
D6C
330
D68
100
AcDbEntity
  8
0
  0
POLYLINE
  5
D6D
330
1F
100
AcDbEntity
  8
0
100
AcDb2dPolyline
 66
     1
 10
0.0
 20
0.0
 30
0.0
  0
VERTEX
  5
D6E
330
D6D
100
AcDbEntity
  8
0
100
AcDbVertex
100
AcDb2dVertex
 10
33.25237283120871
 20
36.91404027704599
 30
0.0
  0
VERTEX
  5
D6F
330
D6D
100
AcDbEntity
  8
0
100
AcDbVertex
100
AcDb2dVertex
 10
33.16211183120871
 20
36.889924277046
 30
0.0
  0
VERTEX
  5
D70
330
D6D
100
AcDbEntity
  8
0
100
AcDbVertex
100
AcDb2dVertex
 10
33.06857683120872
 20
36.87648827704599
 30
0.0
  0
VERTEX
  5
D71
330
D6D
100
AcDbEntity
  8
0
100
AcDbVertex
100
AcDb2dVertex
 10
33.06926683120872
 20
36.87648827704599
 30
0.0
  0
SEQEND
  5
D72
330
D6D
100
AcDbEntity
  8
0
  0
SPLINE
  5
D73
330
1F
100
AcDbEntity
  8
0
100
AcDbSpline
210
0.0
220
0.0
230
1.0
 70
     8
 71
     3
 72
    14
 73
    10
 74
     0
 42
0.0000000001
 43
0.0000000001
 40
0.0
 40
0.0
 40
0.0
 40
0.0
 40
1.0
 40
1.0
 40
1.0
 40
2.0
 40
2.0
 40
2.0
 40
3.0
 40
3.0
 40
3.0
 40
3.0
 10
33.06857731731983
 20
36.87648831610849
 30
0.0
 10
33.06857731731983
 20
36.87648831610849
 30
0.0
 10
33.09114269275385
 20
36.87373223971959
 30
0.0
 10
33.09114269275385
 20
36.87373223971959
 30
0.0
 10
33.24221012981983
 20
36.84996108086543
 30
0.0
 10
33.39482785985455
 20
36.83928128485849
 30
0.0
 10
33.54727333511496
 20
36.82860148885153
 30
0.0
 10
33.54727333511496
 20
36.82860148885153
 30
0.0
 10
33.55071843060108
 20
36.82860148885153
 30
0.0
 10
33.55071843060108
 20
36.82860148885153
 30
0.0
  0
POLYLINE
  5
D74
330
1F
100
AcDbEntity
  8
0
100
AcDb2dPolyline
 66
     1
 10
0.0
 20
0.0
 30
0.0
  0
VERTEX
  5
D75
330
D74
100
AcDbEntity
  8
0
100
AcDbVertex
100
AcDb2dVertex
 10
33.34401283120872
 20
36.94366727704599
 30
0.0
  0
VERTEX
  5
D76
330
D74
100
AcDbEntity
  8
0
100
AcDbVertex
100
AcDb2dVertex
 10
33.25237283120871
 20
36.91404027704599
 30
0.0
  0
VERTEX
  5
D77
330
D74
100
AcDbEntity
  8
0
100
AcDbVertex
100
AcDb2dVertex
 10
33.25512883120872
 20
36.91404027704599
 30
0.0
  0
SEQEND
  5
D78
330
D74
100
AcDbEntity
  8
0
  0
SPLINE
  5
D79
330
1F
100
AcDbEntity
  8
0
100
AcDbSpline
210
0.0
220
0.0
230
1.0
 70
     8
 71
     3
 72
    17
 73
    13
 74
     0
 42
0.0000000001
 43
0.0000000001
 40
0.0
 40
0.0
 40
0.0
 40
0.0
 40
1.0
 40
1.0
 40
1.0
 40
2.0
 40
2.0
 40
2.0
 40
3.0
 40
3.0
 40
3.0
 40
4.0
 40
4.0
 40
4.0
 40
4.0
 10
33.39276080256288
 20
37.6612810678446
 30
0.0
 10
33.39276080256288
 20
37.6612810678446
 30
0.0
 10
33.36313298138232
 20
37.63440932305293
 30
0.0
 10
33.36313298138232
 20
37.63440932305293
 30
0.0
 10
33.29319754301426
 20
37.57308662340015
 30
0.0
 10
33.17193018190315
 20
37.52037666246265
 30
0.0
 10
33.07977387764969
 20
37.5155535287821
 30
0.0
 10
33.07977387764969
 20
37.5155535287821
 30
0.0
 10
33.03016450264968
 20
37.50969686645571
 30
0.0
 10
33.03016450264968
 20
37.50969686645571
 30
0.0
 10
33.03016450264968
 20
37.50969686645571
 30
0.0
 10
33.0336095981358
 20
37.50969686645571
 30
0.0
 10
33.0336095981358
 20
37.50969686645571
 30
0.0
  0
LINE
  5
D7A
330
1F
100
AcDbEntity
  8
0
100
AcDbLine
 10
34.35755983120872
 20
36.80414127704599
 30
0.0
 11
34.49691383120871
 21
36.80414127704599
 31
0.0
  0
LINE
  5
D7B
330
1F
100
AcDbEntity
  8
0
100
AcDbLine
 10
34.22664583120872
 20
36.80414127704599
 30
0.0
 11
34.35945483120872
 21
36.80414127704599
 31
0.0
  0
POLYLINE
  5
D7C
330
1F
100
AcDbEntity
  8
0
100
AcDb2dPolyline
 66
     1
 10
0.0
 20
0.0
 30
0.0
  0
VERTEX
  5
D7D
330
D7C
100
AcDbEntity
  8
0
100
AcDbVertex
100
AcDb2dVertex
 10
34.09831683120871
 20
36.80655327704599
 30
0.0
  0
VERTEX
  5
D7E
330
D7C
100
AcDbEntity
  8
0
100
AcDbVertex
100
AcDb2dVertex
 10
34.22664583120872
 20
36.80414127704599
 30
0.0
  0
VERTEX
  5
D7F
330
D7C
100
AcDbEntity
  8
0
100
AcDbVertex
100
AcDb2dVertex
 10
34.22854083120872
 20
36.80414127704599
 30
0.0
  0
SEQEND
  5
D80
330
D7C
100
AcDbEntity
  8
0
  0
POLYLINE
  5
D81
330
1F
100
AcDbEntity
  8
0
100
AcDb2dPolyline
 66
     1
 10
0.0
 20
0.0
 30
0.0
  0
VERTEX
  5
D82
330
D81
100
AcDbEntity
  8
0
100
AcDbVertex
100
AcDb2dVertex
 10
33.97618783120871
 20
36.81034227704599
 30
0.0
  0
VERTEX
  5
D83
330
D81
100
AcDbEntity
  8
0
100
AcDbVertex
100
AcDb2dVertex
 10
34.09831683120871
 20
36.80655327704599
 30
0.0
  0
VERTEX
  5
D84
330
D81
100
AcDbEntity
  8
0
100
AcDbVertex
100
AcDb2dVertex
 10
34.10107283120871
 20
36.80655327704599
 30
0.0
  0
SEQEND
  5
D85
330
D81
100
AcDbEntity
  8
0
  0
POLYLINE
  5
D86
330
1F
100
AcDbEntity
  8
0
100
AcDb2dPolyline
 66
     1
 10
0.0
 20
0.0
 30
0.0
  0
VERTEX
  5
D87
330
D86
100
AcDbEntity
  8
0
100
AcDbVertex
100
AcDb2dVertex
 10
33.86129383120871
 20
36.81275427704599
 30
0.0
  0
VERTEX
  5
D88
330
D86
100
AcDbEntity
  8
0
100
AcDbVertex
100
AcDb2dVertex
 10
33.97618783120871
 20
36.81034227704599
 30
0.0
  0
VERTEX
  5
D89
330
D86
100
AcDbEntity
  8
0
100
AcDbVertex
100
AcDb2dVertex
 10
33.97980483120871
 20
36.81034227704599
 30
0.0
  0
SEQEND
  5
D8A
330
D86
100
AcDbEntity
  8
0
  0
LINE
  5
D8B
330
1F
100
AcDbEntity
  8
0
100
AcDbLine
 10
35.22090083120872
 20
36.80414127704599
 30
0.0
 11
35.62552683120872
 21
36.80414127704599
 31
0.0
  0
LINE
  5
D8C
330
1F
100
AcDbEntity
  8
0
100
AcDbLine
 10
34.49346883120872
 20
36.80414127704599
 30
0.0
 11
35.22331183120871
 21
36.80414127704599
 31
0.0
  0
POLYLINE
  5
D8D
330
1F
100
AcDbEntity
  8
0
100
AcDb2dPolyline
 66
     1
 10
0.0
 20
0.0
 30
0.0
  0
VERTEX
  5
D8E
330
D8D
100
AcDbEntity
  8
0
100
AcDbVertex
100
AcDb2dVertex
 10
36.08940883120872
 20
36.80104027704599
 30
0.0
  0
VERTEX
  5
D8F
330
D8D
100
AcDbEntity
  8
0
100
AcDbVertex
100
AcDb2dVertex
 10
36.50712683120872
 20
36.79794027704599
 30
0.0
  0
VERTEX
  5
D90
330
D8D
100
AcDbEntity
  8
0
100
AcDbVertex
100
AcDb2dVertex
 10
36.50884983120871
 20
36.79794027704599
 30
0.0
  0
SEQEND
  5
D91
330
D8D
100
AcDbEntity
  8
0
  0
POLYLINE
  5
D92
330
1F
100
AcDbEntity
  8
0
100
AcDb2dPolyline
 66
     1
 10
0.0
 20
0.0
 30
0.0
  0
VERTEX
  5
D93
330
D92
100
AcDbEntity
  8
0
100
AcDbVertex
100
AcDb2dVertex
 10
36.50712683120872
 20
36.79794027704599
 30
0.0
  0
VERTEX
  5
D94
330
D92
100
AcDbEntity
  8
0
100
AcDbVertex
100
AcDb2dVertex
 10
36.85956083120871
 20
36.79449527704599
 30
0.0
  0
VERTEX
  5
D95
330
D92
100
AcDbEntity
  8
0
100
AcDbVertex
100
AcDb2dVertex
 10
36.86300583120872
 20
36.79449527704599
 30
0.0
  0
SEQEND
  5
D96
330
D92
100
AcDbEntity
  8
0
  0
POLYLINE
  5
D97
330
1F
100
AcDbEntity
  8
0
100
AcDb2dPolyline
 66
     1
 10
0.0
 20
0.0
 30
0.0
  0
VERTEX
  5
D98
330
D97
100
AcDbEntity
  8
0
100
AcDbVertex
100
AcDb2dVertex
 10
37.27366083120872
 20
36.78829427704599
 30
0.0
  0
VERTEX
  5
D99
330
D97
100
AcDbEntity
  8
0
100
AcDbVertex
100
AcDb2dVertex
 10
37.76889383120872
 20
36.78312627704599
 30
0.0
  0
VERTEX
  5
D9A
330
D97
100
AcDbEntity
  8
0
100
AcDbVertex
100
AcDb2dVertex
 10
37.77182183120872
 20
36.78312627704599
 30
0.0
  0
SEQEND
  5
D9B
330
D97
100
AcDbEntity
  8
0
  0
POLYLINE
  5
D9C
330
1F
100
AcDbEntity
  8
0
100
AcDb2dPolyline
 66
     1
 10
0.0
 20
0.0
 30
0.0
  0
VERTEX
  5
D9D
330
D9C
100
AcDbEntity
  8
0
100
AcDbVertex
100
AcDb2dVertex
 10
37.76889383120872
 20
36.78312627704599
 30
0.0
  0
VERTEX
  5
D9E
330
D9C
100
AcDbEntity
  8
0
100
AcDbVertex
100
AcDb2dVertex
 10
38.16128983120872
 20
36.77692527704599
 30
0.0
  0
VERTEX
  5
D9F
330
D9C
100
AcDbEntity
  8
0
100
AcDbVertex
100
AcDb2dVertex
 10
38.16404583120872
 20
36.77692527704599
 30
0.0
  0
SEQEND
  5
DA0
330
D9C
100
AcDbEntity
  8
0
  0
POLYLINE
  5
DA1
330
1F
100
AcDbEntity
  8
0
100
AcDb2dPolyline
 66
     1
 10
0.0
 20
0.0
 30
0.0
  0
VERTEX
  5
DA2
330
DA1
100
AcDbEntity
  8
0
100
AcDbVertex
100
AcDb2dVertex
 10
36.85956083120871
 20
36.79449527704599
 30
0.0
  0
VERTEX
  5
DA3
330
DA1
100
AcDbEntity
  8
0
100
AcDbVertex
100
AcDb2dVertex
 10
37.27366083120872
 20
36.78829427704599
 30
0.0
  0
VERTEX
  5
DA4
330
DA1
100
AcDbEntity
  8
0
100
AcDbVertex
100
AcDb2dVertex
 10
37.27538383120871
 20
36.78829427704599
 30
0.0
  0
SEQEND
  5
DA5
330
DA1
100
AcDbEntity
  8
0
  0
LINE
  5
DA6
330
1F
100
AcDbEntity
  8
0
100
AcDbLine
 10
36.64045183120872
 20
38.28484327704599
 30
0.0
 11
36.67714283120871
 21
38.28484327704599
 31
0.0
  0
POLYLINE
  5
DA7
330
1F
100
AcDbEntity
  8
0
100
AcDb2dPolyline
 66
     1
 10
0.0
 20
0.0
 30
0.0
  0
VERTEX
  5
DA8
330
DA7
100
AcDbEntity
  8
0
100
AcDbVertex
100
AcDb2dVertex
 10
36.67352483120872
 20
38.28484327704599
 30
0.0
  0
VERTEX
  5
DA9
330
DA7
100
AcDbEntity
  8
0
100
AcDbVertex
100
AcDb2dVertex
 10
36.88987683120872
 20
38.27967527704599
 30
0.0
  0
VERTEX
  5
DAA
330
DA7
100
AcDbEntity
  8
0
100
AcDbVertex
100
AcDb2dVertex
 10
36.89332183120872
 20
38.27967527704599
 30
0.0
  0
SEQEND
  5
DAB
330
DA7
100
AcDbEntity
  8
0
  0
POLYLINE
  5
DAC
330
1F
100
AcDbEntity
  8
0
100
AcDb2dPolyline
 66
     1
 10
0.0
 20
0.0
 30
0.0
  0
VERTEX
  5
DAD
330
DAC
100
AcDbEntity
  8
0
100
AcDbVertex
100
AcDb2dVertex
 10
37.55874283120871
 20
38.26658427704599
 30
0.0
  0
VERTEX
  5
DAE
330
DAC
100
AcDbEntity
  8
0
100
AcDbVertex
100
AcDb2dVertex
 10
37.80213883120872
 20
38.26141627704599
 30
0.0
  0
VERTEX
  5
DAF
330
DAC
100
AcDbEntity
  8
0
100
AcDbVertex
100
AcDb2dVertex
 10
37.80558383120872
 20
38.26141627704599
 30
0.0
  0
SEQEND
  5
DB0
330
DAC
100
AcDbEntity
  8
0
  0
POLYLINE
  5
DB1
330
1F
100
AcDbEntity
  8
0
100
AcDb2dPolyline
 66
     1
 10
0.0
 20
0.0
 30
0.0
  0
VERTEX
  5
DB2
330
DB1
100
AcDbEntity
  8
0
100
AcDbVertex
100
AcDb2dVertex
 10
36.88987683120872
 20
38.27967527704599
 30
0.0
  0
VERTEX
  5
DB3
330
DB1
100
AcDbEntity
  8
0
100
AcDbVertex
100
AcDb2dVertex
 10
37.55874283120871
 20
38.26658427704599
 30
0.0
  0
VERTEX
  5
DB4
330
DB1
100
AcDbEntity
  8
0
100
AcDbVertex
100
AcDb2dVertex
 10
37.56218783120872
 20
38.26658427704599
 30
0.0
  0
SEQEND
  5
DB5
330
DB1
100
AcDbEntity
  8
0
  0
SPLINE
  5
DB6
330
1F
100
AcDbEntity
  8
0
100
AcDbSpline
210
0.0
220
0.0
230
1.0
 70
     8
 71
     3
 72
    17
 73
    13
 74
     0
 42
0.0000000001
 43
0.0000000001
 40
0.0
 40
0.0
 40
0.0
 40
0.0
 40
1.0
 40
1.0
 40
1.0
 40
2.0
 40
2.0
 40
2.0
 40
3.0
 40
3.0
 40
3.0
 40
4.0
 40
4.0
 40
4.0
 40
4.0
 10
36.64079682686844
 20
38.28449884128209
 30
0.0
 10
36.64079682686844
 20
38.28449884128209
 30
0.0
 10
36.4940357591601
 20
38.28449884128209
 30
0.0
 10
36.4940357591601
 20
38.28449884128209
 30
0.0
 10
35.54405067886496
 20
38.26968493069182
 30
0.0
 10
34.57907943320524
 20
37.96065986558765
 30
0.0
 10
33.8552648715733
 20
37.3326189584696
 30
0.0
 10
33.8552648715733
 20
37.3326189584696
 30
0.0
 10
33.7872242357226
 20
37.27232978746265
 30
0.0
 10
33.7872242357226
 20
37.27232978746265
 30
0.0
 10
33.7872242357226
 20
37.27232978746265
 30
0.0
 10
33.79066933120872
 20
37.27232978746265
 30
0.0
 10
33.79066933120872
 20
37.27232978746265
 30
0.0
  0
POLYLINE
  5
DB7
330
1F
100
AcDbEntity
  8
0
100
AcDb2dPolyline
 66
     1
 10
0.0
 20
0.0
 30
0.0
  0
VERTEX
  5
DB8
330
DB7
100
AcDbEntity
  8
0
100
AcDbVertex
100
AcDb2dVertex
 10
35.62190983120872
 20
36.80414127704599
 30
0.0
  0
VERTEX
  5
DB9
330
DB7
100
AcDbEntity
  8
0
100
AcDbVertex
100
AcDb2dVertex
 10
36.08940883120872
 20
36.80035127704599
 30
0.0
  0
VERTEX
  5
DBA
330
DB7
100
AcDbEntity
  8
0
100
AcDbVertex
100
AcDb2dVertex
 10
36.09285483120871
 20
36.80035127704599
 30
0.0
  0
SEQEND
  5
DBB
330
DB7
100
AcDbEntity
  8
0
  0
SPLINE
  5
DBC
330
1F
100
AcDbEntity
  8
0
100
AcDbSpline
210
0.0
220
0.0
230
1.0
 70
     8
 71
     3
 72
    17
 73
    13
 74
     0
 42
0.0000000001
 43
0.0000000001
 40
0.0
 40
0.0
 40
0.0
 40
0.0
 40
1.0
 40
1.0
 40
1.0
 40
2.0
 40
2.0
 40
2.0
 40
3.0
 40
3.0
 40
3.0
 40
4.0
 40
4.0
 40
4.0
 40
4.0
 10
36.47319293146913
 20
38.91460680569182
 30
0.0
 10
36.47319293146913
 20
38.91460680569182
 30
0.0
 10
36.32402029692051
 20
38.90840563381682
 30
0.0
 10
36.32402029692051
 20
38.90840563381682
 30
0.0
 10
35.29600380386496
 20
38.84398234822653
 30
0.0
 10
34.26058035551426
 20
38.47225654527515
 30
0.0
 10
33.49973101740664
 20
37.76428942287932
 30
0.0
 10
33.49973101740664
 20
37.76428942287932
 30
0.0
 10
33.39310531211149
 20
37.6612810678446
 30
0.0
 10
33.39310531211149
 20
37.6612810678446
 30
0.0
 10
33.39310531211149
 20
37.6612810678446
 30
0.0
 10
33.39586138850038
 20
37.6612810678446
 30
0.0
 10
33.39586138850038
 20
37.6612810678446
 30
0.0
  0
POLYLINE
  5
DBD
330
1F
100
AcDbEntity
  8
0
100
AcDb2dPolyline
 66
     1
 10
0.0
 20
0.0
 30
0.0
  0
VERTEX
  5
DBE
330
DBD
100
AcDbEntity
  8
0
100
AcDbVertex
100
AcDb2dVertex
 10
33.54727383120871
 20
36.82860127704599
 30
0.0
  0
VERTEX
  5
DBF
330
DBD
100
AcDbEntity
  8
0
100
AcDbVertex
100
AcDb2dVertex
 10
33.59705483120872
 20
36.82584527704598
 30
0.0
  0
VERTEX
  5
DC0
330
DBD
100
AcDbEntity
  8
0
100
AcDbVertex
100
AcDb2dVertex
 10
33.64494183120871
 20
36.822400277046
 30
0.0
  0
VERTEX
  5
DC1
330
DBD
100
AcDbEntity
  8
0
100
AcDbVertex
100
AcDb2dVertex
 10
33.69644583120872
 20
36.81895527704599
 30
0.0
  0
VERTEX
  5
DC2
330
DBD
100
AcDbEntity
  8
0
100
AcDbVertex
100
AcDb2dVertex
 10
33.74898383120872
 20
36.81895527704599
 30
0.0
  0
VERTEX
  5
DC3
330
DBD
100
AcDbEntity
  8
0
100
AcDbVertex
100
AcDb2dVertex
 10
33.86129383120871
 20
36.81275427704599
 30
0.0
  0
VERTEX
  5
DC4
330
DBD
100
AcDbEntity
  8
0
100
AcDbVertex
100
AcDb2dVertex
 10
33.86404983120872
 20
36.81275427704599
 30
0.0
  0
SEQEND
  5
DC5
330
DBD
100
AcDbEntity
  8
0
  0
POLYLINE
  5
DC6
330
1F
100
AcDbEntity
  8
0
100
AcDb2dPolyline
 66
     1
 10
0.0
 20
0.0
 30
0.0
  0
VERTEX
  5
DC7
330
DC6
100
AcDbEntity
  8
0
100
AcDbVertex
100
AcDb2dVertex
 10
33.78722383120872
 20
37.27233027704599
 30
0.0
  0
VERTEX
  5
DC8
330
DC6
100
AcDbEntity
  8
0
100
AcDbVertex
100
AcDb2dVertex
 10
33.72710683120871
 20
37.20170527704599
 30
0.0
  0
VERTEX
  5
DC9
330
DC6
100
AcDbEntity
  8
0
100
AcDbVertex
100
AcDb2dVertex
 10
33.66096183120872
 20
37.13762627704599
 30
0.0
  0
VERTEX
  5
DCA
330
DC6
100
AcDbEntity
  8
0
100
AcDbVertex
100
AcDb2dVertex
 10
33.58758083120871
 20
37.08009327704599
 30
0.0
  0
VERTEX
  5
DCB
330
DC6
100
AcDbEntity
  8
0
100
AcDbVertex
100
AcDb2dVertex
 10
33.51092783120872
 20
37.02979527704599
 30
0.0
  0
VERTEX
  5
DCC
330
DC6
100
AcDbEntity
  8
0
100
AcDbVertex
100
AcDb2dVertex
 10
33.42876183120872
 20
36.98018527704599
 30
0.0
  0
VERTEX
  5
DCD
330
DC6
100
AcDbEntity
  8
0
100
AcDbVertex
100
AcDb2dVertex
 10
33.34435683120871
 20
36.94366727704599
 30
0.0
  0
VERTEX
  5
DCE
330
DC6
100
AcDbEntity
  8
0
100
AcDbVertex
100
AcDb2dVertex
 10
33.34694083120872
 20
36.94366727704599
 30
0.0
  0
SEQEND
  5
DCF
330
DC6
100
AcDbEntity
  8
0
  0
SPLINE
  5
DD0
330
1F
100
AcDbEntity
  8
0
100
AcDbSpline
210
0.0
220
0.0
230
1.0
 70
     8
 71
     3
 72
    17
 73
    13
 74
     0
 42
0.0000000001
 43
0.0000000001
 40
0.0
 40
0.0
 40
0.0
 40
0.0
 40
1.0
 40
1.0
 40
1.0
 40
2.0
 40
2.0
 40
2.0
 40
3.0
 40
3.0
 40
3.0
 40
4.0
 40
4.0
 40
4.0
 40
4.0
 10
33.03016450264968
 20
37.50969686645571
 30
0.0
 10
33.03016450264968
 20
37.50969686645571
 30
0.0
 10
32.71717757773649
 20
37.49109335083071
 30
0.0
 10
32.71717757773649
 20
37.49109335083071
 30
0.0
 10
31.3251867465733
 20
37.40358792548349
 30
0.0
 10
29.93267915108719
 20
37.31229289510153
 30
0.0
 10
28.54516694405594
 20
37.16587633694182
 30
0.0
 10
28.54516694405594
 20
37.16587633694182
 30
0.0
 10
28.17137408381287
 20
37.12281264336543
 30
0.0
 10
28.17137408381287
 20
37.12281264336543
 30
0.0
 10
28.17137408381287
 20
37.12281264336543
 30
0.0
 10
28.17378565065315
 20
37.12281264336543
 30
0.0
 10
28.17378565065315
 20
37.12281264336543
 30
0.0
  0
SPLINE
  5
DD1
330
1F
100
AcDbEntity
  8
0
100
AcDbSpline
210
0.0
220
0.0
230
1.0
 70
     8
 71
     3
 72
    17
 73
    13
 74
     0
 42
0.0000000001
 43
0.0000000001
 40
0.0
 40
0.0
 40
0.0
 40
0.0
 40
1.0
 40
1.0
 40
1.0
 40
2.0
 40
2.0
 40
2.0
 40
3.0
 40
3.0
 40
3.0
 40
4.0
 40
4.0
 40
4.0
 40
4.0
 10
25.33072060073997
 20
36.66116984822654
 30
0.0
 10
25.33072060073997
 20
36.66116984822654
 30
0.0
 10
25.1024830247851
 20
36.59364597669877
 30
0.0
 10
25.1024830247851
 20
36.59364597669877
 30
0.0
 10
23.40560124310107
 20
36.04139717027516
 30
0.0
 10
22.11231239761497
 20
34.68092896280988
 30
0.0
 10
21.65101411202468
 20
32.95665867201126
 30
0.0
 10
21.65101411202468
 20
32.95665867201126
 30
0.0
 10
21.59658160334413
 20
32.72618178399043
 30
0.0
 10
21.59658160334413
 20
32.72618178399043
 30
0.0
 10
21.59658160334413
 20
32.72618178399043
 30
0.0
 10
21.59950993450733
 20
32.72618178399043
 30
0.0
 10
21.59950993450733
 20
32.72618178399043
 30
0.0
  0
LINE
  5
DD3
330
1F
100
AcDbEntity
  8
0
100
AcDbLine
 10
19.01465483120871
 20
19.05053027704599
 30
0.0
 11
19.01878883120872
 21
19.05053027704599
 31
0.0
  0
LINE
  5
DD5
330
1F
100
AcDbEntity
  8
0
100
AcDbLine
 10
19.01465483120871
 20
19.05053027704599
 30
0.0
 11
19.01878883120872
 21
19.05053027704599
 31
0.0
  0
LINE
  5
DD6
330
1F
100
AcDbEntity
  8
0
100
AcDbLine
 10
19.38896483120872
 20
39.83617027704599
 30
0.0
 11
19.39206483120871
 21
39.83617027704599
 31
0.0
  0
LINE
  5
DD7
330
1F
100
AcDbEntity
  8
0
100
AcDbLine
 10
19.38896483120872
 20
18.67294827704599
 30
0.0
 11
19.39206483120871
 21
18.67294827704599
 31
0.0
  0
LINE
  5
DD8
330
1F
100
AcDbEntity
  8
0
100
AcDbLine
 10
19.38896483120872
 20
18.67294827704599
 30
0.0
 11
19.39206483120871
 21
18.67294827704599
 31
0.0
  0
SPLINE
  5
DD9
330
1F
100
AcDbEntity
  8
0
100
AcDbSpline
210
0.0
220
0.0
230
1.0
 70
     8
 71
     3
 72
    17
 73
    13
 74
     0
 42
0.0000000001
 43
0.0000000001
 40
0.0
 40
0.0
 40
0.0
 40
0.0
 40
1.0
 40
1.0
 40
1.0
 40
2.0
 40
2.0
 40
2.0
 40
3.0
 40
3.0
 40
3.0
 40
4.0
 40
4.0
 40
4.0
 40
4.0
 10
26.59610417278857
 20
23.55395956176821
 30
0.0
 10
26.59610417278857
 20
23.55395956176821
 30
0.0
 10
26.51721148615662
 20
23.56980700100432
 30
0.0
 10
26.51721148615662
 20
23.56980700100432
 30
0.0
 10
24.90146170317052
 20
23.88262167114321
 30
0.0
 10
23.63504460247608
 20
25.20105971367793
 30
0.0
 10
23.38200233902121
 20
26.82680027357376
 30
0.0
 10
23.38200233902121
 20
26.82680027357376
 30
0.0
 10
23.36959999527122
 20
26.9115496225321
 30
0.0
 10
23.36959999527122
 20
26.9115496225321
 30
0.0
 10
23.36959999527122
 20
26.9115496225321
 30
0.0
 10
23.37252832643441
 20
26.9115496225321
 30
0.0
 10
23.37252832643441
 20
26.9115496225321
 30
0.0
  0
SPLINE
  5
DDA
330
1F
100
AcDbEntity
  8
0
100
AcDbSpline
210
0.0
220
0.0
230
1.0
 70
     8
 71
     3
 72
    17
 73
    13
 74
     0
 42
0.0000000001
 43
0.0000000001
 40
0.0
 40
0.0
 40
0.0
 40
0.0
 40
1.0
 40
1.0
 40
1.0
 40
2.0
 40
2.0
 40
2.0
 40
3.0
 40
3.0
 40
3.0
 40
4.0
 40
4.0
 40
4.0
 40
4.0
 10
25.33072060073997
 20
21.8482927865946
 30
0.0
 10
25.33072060073997
 20
21.8482927865946
 30
0.0
 10
25.1024830247851
 20
21.91547214857376
 30
0.0
 10
25.1024830247851
 20
21.91547214857376
 30
0.0
 10
23.40456771445524
 20
22.46737644544877
 30
0.0
 10
22.116274257424
 20
23.82439955742793
 30
0.0
 10
21.65101411202468
 20
25.54832533867793
 30
0.0
 10
21.65101411202468
 20
25.54832533867793
 30
0.0
 10
21.59692611289274
 20
25.78052477444182
 30
0.0
 10
21.59692611289274
 20
25.78052477444182
 30
0.0
 10
21.59692611289274
 20
25.78052477444182
 30
0.0
 10
21.59950993450733
 20
25.78052477444182
 30
0.0
 10
21.59950993450733
 20
25.78052477444182
 30
0.0
  0
POLYLINE
  5
DDB
330
1F
100
AcDbEntity
  8
0
100
AcDb2dPolyline
 66
     1
 10
0.0
 20
0.0
 30
0.0
  0
VERTEX
  5
DDC
330
DDB
100
AcDbEntity
  8
0
100
AcDbVertex
100
AcDb2dVertex
 10
19.01465483120871
 20
39.24843627704599
 30
0.0
  0
VERTEX
  5
DDD
330
DDB
100
AcDbEntity
  8
0
100
AcDbVertex
100
AcDb2dVertex
 10
19.01465483120871
 20
19.25999227704599
 30
0.0
  0
VERTEX
  5
DDE
330
DDB
100
AcDbEntity
  8
0
100
AcDbVertex
100
AcDb2dVertex
 10
19.01878883120872
 20
19.25999227704599
 30
0.0
  0
SEQEND
  5
DDF
330
DDB
100
AcDbEntity
  8
0
  0
POLYLINE
  5
DE0
330
1F
100
AcDbEntity
  8
0
100
AcDb2dPolyline
 66
     1
 10
0.0
 20
0.0
 30
0.0
  0
VERTEX
  5
DE1
330
DE0
100
AcDbEntity
  8
0
100
AcDbVertex
100
AcDb2dVertex
 10
42.01428483120872
 20
20.39446227704599
 30
0.0
  0
VERTEX
  5
DE2
330
DE0
100
AcDbEntity
  8
0
100
AcDbVertex
100
AcDb2dVertex
 10
42.54982483120872
 20
20.42167827704599
 30
0.0
  0
VERTEX
  5
DE3
330
DE0
100
AcDbEntity
  8
0
100
AcDbVertex
100
AcDb2dVertex
 10
42.55326983120871
 20
20.42167827704599
 30
0.0
  0
SEQEND
  5
DE4
330
DE0
100
AcDbEntity
  8
0
  0
POLYLINE
  5
DE5
330
1F
100
AcDbEntity
  8
0
100
AcDb2dPolyline
 66
     1
 10
0.0
 20
0.0
 30
0.0
  0
VERTEX
  5
DE6
330
DE5
100
AcDbEntity
  8
0
100
AcDbVertex
100
AcDb2dVertex
 10
41.64290283120871
 20
20.37620327704599
 30
0.0
  0
VERTEX
  5
DE7
330
DE5
100
AcDbEntity
  8
0
100
AcDbVertex
100
AcDb2dVertex
 10
42.01428483120872
 20
20.39446227704599
 30
0.0
  0
VERTEX
  5
DE8
330
DE5
100
AcDbEntity
  8
0
100
AcDbVertex
100
AcDb2dVertex
 10
42.01790183120872
 20
20.39446227704599
 30
0.0
  0
SEQEND
  5
DE9
330
DE5
100
AcDbEntity
  8
0
  0
POLYLINE
  5
DEA
330
1F
100
AcDbEntity
  8
0
100
AcDb2dPolyline
 66
     1
 10
0.0
 20
0.0
 30
0.0
  0
VERTEX
  5
DEB
330
DEA
100
AcDbEntity
  8
0
100
AcDbVertex
100
AcDb2dVertex
 10
38.61311383120872
 20
21.74183927704599
 30
0.0
  0
VERTEX
  5
DEC
330
DEA
100
AcDbEntity
  8
0
100
AcDbVertex
100
AcDb2dVertex
 10
38.72576883120872
 20
21.74459527704599
 30
0.0
  0
VERTEX
  5
DED
330
DEA
100
AcDbEntity
  8
0
100
AcDbVertex
100
AcDb2dVertex
 10
38.73024683120872
 20
21.74459527704599
 30
0.0
  0
SEQEND
  5
DEE
330
DEA
100
AcDbEntity
  8
0
  0
POLYLINE
  5
DEF
330
1F
100
AcDbEntity
  8
0
100
AcDb2dPolyline
 66
     1
 10
0.0
 20
0.0
 30
0.0
  0
VERTEX
  5
DF0
330
DEF
100
AcDbEntity
  8
0
100
AcDbVertex
100
AcDb2dVertex
 10
43.12980683120872
 20
20.45544027704599
 30
0.0
  0
VERTEX
  5
DF1
330
DEF
100
AcDbEntity
  8
0
100
AcDbVertex
100
AcDb2dVertex
 10
43.54046183120872
 20
20.47921227704599
 30
0.0
  0
VERTEX
  5
DF2
330
DEF
100
AcDbEntity
  8
0
100
AcDbVertex
100
AcDb2dVertex
 10
43.54390683120871
 20
20.47921227704599
 30
0.0
  0
SEQEND
  5
DF3
330
DEF
100
AcDbEntity
  8
0
  0
POLYLINE
  5
DF4
330
1F
100
AcDbEntity
  8
0
100
AcDb2dPolyline
 66
     1
 10
0.0
 20
0.0
 30
0.0
  0
VERTEX
  5
DF5
330
DF4
100
AcDbEntity
  8
0
100
AcDbVertex
100
AcDb2dVertex
 10
44.42912383120872
 20
20.53398927704599
 30
0.0
  0
VERTEX
  5
DF6
330
DF4
100
AcDbEntity
  8
0
100
AcDbVertex
100
AcDb2dVertex
 10
44.90954283120871
 20
20.56706127704599
 30
0.0
  0
VERTEX
  5
DF7
330
DF4
100
AcDbEntity
  8
0
100
AcDbVertex
100
AcDb2dVertex
 10
44.91298783120872
 20
20.56706127704599
 30
0.0
  0
SEQEND
  5
DF8
330
DF4
100
AcDbEntity
  8
0
  0
POLYLINE
  5
DF9
330
1F
100
AcDbEntity
  8
0
100
AcDb2dPolyline
 66
     1
 10
0.0
 20
0.0
 30
0.0
  0
VERTEX
  5
DFA
330
DF9
100
AcDbEntity
  8
0
100
AcDbVertex
100
AcDb2dVertex
 10
43.97299383120872
 20
20.50367227704599
 30
0.0
  0
VERTEX
  5
DFB
330
DF9
100
AcDbEntity
  8
0
100
AcDbVertex
100
AcDb2dVertex
 10
44.42912383120872
 20
20.53398927704599
 30
0.0
  0
VERTEX
  5
DFC
330
DF9
100
AcDbEntity
  8
0
100
AcDbVertex
100
AcDb2dVertex
 10
44.4318798312087
 20
20.53398927704599
 30
0.0
  0
SEQEND
  5
DFD
330
DF9
100
AcDbEntity
  8
0
  0
POLYLINE
  5
DFE
330
1F
100
AcDbEntity
  8
0
100
AcDb2dPolyline
 66
     1
 10
0.0
 20
0.0
 30
0.0
  0
VERTEX
  5
DFF
330
DFE
100
AcDbEntity
  8
0
100
AcDbVertex
100
AcDb2dVertex
 10
43.54046183120872
 20
20.47921227704599
 30
0.0
  0
VERTEX
  5
E00
330
DFE
100
AcDbEntity
  8
0
100
AcDbVertex
100
AcDb2dVertex
 10
43.97299383120872
 20
20.50367227704599
 30
0.0
  0
VERTEX
  5
E01
330
DFE
100
AcDbEntity
  8
0
100
AcDbVertex
100
AcDb2dVertex
 10
43.97574983120872
 20
20.50367227704599
 30
0.0
  0
SEQEND
  5
E02
330
DFE
100
AcDbEntity
  8
0
  0
POLYLINE
  5
E03
330
1F
100
AcDbEntity
  8
0
100
AcDb2dPolyline
 66
     1
 10
0.0
 20
0.0
 30
0.0
  0
VERTEX
  5
E04
330
E03
100
AcDbEntity
  8
0
100
AcDbVertex
100
AcDb2dVertex
 10
45.41373283120871
 20
20.60461327704599
 30
0.0
  0
VERTEX
  5
E05
330
E03
100
AcDbEntity
  8
0
100
AcDbVertex
100
AcDb2dVertex
 10
45.94393283120871
 20
20.64698827704599
 30
0.0
  0
VERTEX
  5
E06
330
E03
100
AcDbEntity
  8
0
100
AcDbVertex
100
AcDb2dVertex
 10
45.94634383120872
 20
20.64698827704599
 30
0.0
  0
SEQEND
  5
E07
330
E03
100
AcDbEntity
  8
0
  0
POLYLINE
  5
E08
330
1F
100
AcDbEntity
  8
0
100
AcDb2dPolyline
 66
     1
 10
0.0
 20
0.0
 30
0.0
  0
VERTEX
  5
E09
330
E08
100
AcDbEntity
  8
0
100
AcDbVertex
100
AcDb2dVertex
 10
46.48119483120871
 20
20.69005127704599
 30
0.0
  0
VERTEX
  5
E0A
330
E08
100
AcDbEntity
  8
0
100
AcDbVertex
100
AcDb2dVertex
 10
47.00433283120871
 20
20.73449327704599
 30
0.0
  0
VERTEX
  5
E0B
330
E08
100
AcDbEntity
  8
0
100
AcDbVertex
100
AcDb2dVertex
 10
47.00795083120871
 20
20.73449327704599
 30
0.0
  0
SEQEND
  5
E0C
330
E08
100
AcDbEntity
  8
0
  0
POLYLINE
  5
E0D
330
1F
100
AcDbEntity
  8
0
100
AcDb2dPolyline
 66
     1
 10
0.0
 20
0.0
 30
0.0
  0
VERTEX
  5
E0E
330
E0D
100
AcDbEntity
  8
0
100
AcDbVertex
100
AcDb2dVertex
 10
45.94393283120871
 20
20.64698827704599
 30
0.0
  0
VERTEX
  5
E0F
330
E0D
100
AcDbEntity
  8
0
100
AcDbVertex
100
AcDb2dVertex
 10
46.48119483120871
 20
20.69005127704599
 30
0.0
  0
VERTEX
  5
E10
330
E0D
100
AcDbEntity
  8
0
100
AcDbVertex
100
AcDb2dVertex
 10
46.48429583120871
 20
20.69005127704599
 30
0.0
  0
SEQEND
  5
E11
330
E0D
100
AcDbEntity
  8
0
  0
POLYLINE
  5
E12
330
1F
100
AcDbEntity
  8
0
100
AcDb2dPolyline
 66
     1
 10
0.0
 20
0.0
 30
0.0
  0
VERTEX
  5
E13
330
E12
100
AcDbEntity
  8
0
100
AcDbVertex
100
AcDb2dVertex
 10
44.90954283120871
 20
20.56706127704599
 30
0.0
  0
VERTEX
  5
E14
330
E12
100
AcDbEntity
  8
0
100
AcDbVertex
100
AcDb2dVertex
 10
45.41373283120871
 20
20.60461327704599
 30
0.0
  0
VERTEX
  5
E15
330
E12
100
AcDbEntity
  8
0
100
AcDbVertex
100
AcDb2dVertex
 10
45.41717783120871
 20
20.60461327704599
 30
0.0
  0
SEQEND
  5
E16
330
E12
100
AcDbEntity
  8
0
  0
POLYLINE
  5
E17
330
1F
100
AcDbEntity
  8
0
100
AcDb2dPolyline
 66
     1
 10
0.0
 20
0.0
 30
0.0
  0
VERTEX
  5
E18
330
E17
100
AcDbEntity
  8
0
100
AcDbVertex
100
AcDb2dVertex
 10
42.55016883120871
 20
20.42167827704599
 30
0.0
  0
VERTEX
  5
E19
330
E17
100
AcDbEntity
  8
0
100
AcDbVertex
100
AcDb2dVertex
 10
43.12980683120872
 20
20.45544027704599
 30
0.0
  0
VERTEX
  5
E1A
330
E17
100
AcDbEntity
  8
0
100
AcDbVertex
100
AcDb2dVertex
 10
43.13359583120871
 20
20.45544027704599
 30
0.0
  0
SEQEND
  5
E1B
330
E17
100
AcDbEntity
  8
0
  0
POLYLINE
  5
E1C
330
1F
100
AcDbEntity
  8
0
100
AcDb2dPolyline
 66
     1
 10
0.0
 20
0.0
 30
0.0
  0
VERTEX
  5
E1D
330
E1C
100
AcDbEntity
  8
0
100
AcDbVertex
100
AcDb2dVertex
 10
47.49956583120871
 20
20.77721227704599
 30
0.0
  0
VERTEX
  5
E1E
330
E1C
100
AcDbEntity
  8
0
100
AcDbVertex
100
AcDb2dVertex
 10
47.95087283120872
 20
20.82096527704599
 30
0.0
  0
VERTEX
  5
E1F
330
E1C
100
AcDbEntity
  8
0
100
AcDbVertex
100
AcDb2dVertex
 10
47.95259583120872
 20
20.82096527704599
 30
0.0
  0
SEQEND
  5
E20
330
E1C
100
AcDbEntity
  8
0
  0
POLYLINE
  5
E21
330
1F
100
AcDbEntity
  8
0
100
AcDb2dPolyline
 66
     1
 10
0.0
 20
0.0
 30
0.0
  0
VERTEX
  5
E22
330
E21
100
AcDbEntity
  8
0
100
AcDbVertex
100
AcDb2dVertex
 10
48.36669583120872
 20
20.86023927704598
 30
0.0
  0
VERTEX
  5
E23
330
E21
100
AcDbEntity
  8
0
100
AcDbVertex
100
AcDb2dVertex
 10
48.93255283120871
 20
20.91777227704599
 30
0.0
  0
VERTEX
  5
E24
330
E21
100
AcDbEntity
  8
0
100
AcDbVertex
100
AcDb2dVertex
 10
48.93617083120872
 20
20.91777227704599
 30
0.0
  0
SEQEND
  5
E25
330
E21
100
AcDbEntity
  8
0
  0
POLYLINE
  5
E26
330
1F
100
AcDbEntity
  8
0
100
AcDb2dPolyline
 66
     1
 10
0.0
 20
0.0
 30
0.0
  0
VERTEX
  5
E27
330
E26
100
AcDbEntity
  8
0
100
AcDbVertex
100
AcDb2dVertex
 10
47.95087283120872
 20
20.82096527704599
 30
0.0
  0
VERTEX
  5
E28
330
E26
100
AcDbEntity
  8
0
100
AcDbVertex
100
AcDb2dVertex
 10
48.36669583120872
 20
20.86023927704598
 30
0.0
  0
VERTEX
  5
E29
330
E26
100
AcDbEntity
  8
0
100
AcDbVertex
100
AcDb2dVertex
 10
48.37031383120871
 20
20.86023927704598
 30
0.0
  0
SEQEND
  5
E2A
330
E26
100
AcDbEntity
  8
0
  0
POLYLINE
  5
E2B
330
1F
100
AcDbEntity
  8
0
100
AcDb2dPolyline
 66
     1
 10
0.0
 20
0.0
 30
0.0
  0
VERTEX
  5
E2C
330
E2B
100
AcDbEntity
  8
0
100
AcDbVertex
100
AcDb2dVertex
 10
50.06116583120871
 20
21.03628427704599
 30
0.0
  0
VERTEX
  5
E2D
330
E2B
100
AcDbEntity
  8
0
100
AcDbVertex
100
AcDb2dVertex
 10
50.33746283120872
 20
21.06935627704599
 30
0.0
  0
VERTEX
  5
E2E
330
E2B
100
AcDbEntity
  8
0
100
AcDbVertex
100
AcDb2dVertex
 10
50.34090783120872
 20
21.06935627704599
 30
0.0
  0
SEQEND
  5
E2F
330
E2B
100
AcDbEntity
  8
0
  0
POLYLINE
  5
E30
330
1F
100
AcDbEntity
  8
0
100
AcDb2dPolyline
 66
     1
 10
0.0
 20
0.0
 30
0.0
  0
VERTEX
  5
E31
330
E30
100
AcDbEntity
  8
0
100
AcDbVertex
100
AcDb2dVertex
 10
49.76299283120871
 20
21.00355527704599
 30
0.0
  0
VERTEX
  5
E32
330
E30
100
AcDbEntity
  8
0
100
AcDbVertex
100
AcDb2dVertex
 10
50.06116583120871
 20
21.03628427704599
 30
0.0
  0
VERTEX
  5
E33
330
E30
100
AcDbEntity
  8
0
100
AcDbVertex
100
AcDb2dVertex
 10
50.06357783120871
 20
21.03628427704599
 30
0.0
  0
SEQEND
  5
E34
330
E30
100
AcDbEntity
  8
0
  0
POLYLINE
  5
E35
330
1F
100
AcDbEntity
  8
0
100
AcDb2dPolyline
 66
     1
 10
0.0
 20
0.0
 30
0.0
  0
VERTEX
  5
E36
330
E35
100
AcDbEntity
  8
0
100
AcDbVertex
100
AcDb2dVertex
 10
49.44621683120871
 20
20.96841527704599
 30
0.0
  0
VERTEX
  5
E37
330
E35
100
AcDbEntity
  8
0
100
AcDbVertex
100
AcDb2dVertex
 10
49.76299283120871
 20
21.00355527704599
 30
0.0
  0
VERTEX
  5
E38
330
E35
100
AcDbEntity
  8
0
100
AcDbVertex
100
AcDb2dVertex
 10
49.76626583120872
 20
21.00355527704599
 30
0.0
  0
SEQEND
  5
E39
330
E35
100
AcDbEntity
  8
0
  0
POLYLINE
  5
E3A
330
1F
100
AcDbEntity
  8
0
100
AcDb2dPolyline
 66
     1
 10
0.0
 20
0.0
 30
0.0
  0
VERTEX
  5
E3B
330
E3A
100
AcDbEntity
  8
0
100
AcDbVertex
100
AcDb2dVertex
 10
51.29933383120872
 20
21.20302627704599
 30
0.0
  0
VERTEX
  5
E3C
330
E3A
100
AcDbEntity
  8
0
100
AcDbVertex
100
AcDb2dVertex
 10
51.50793383120872
 20
21.23437627704599
 30
0.0
  0
VERTEX
  5
E3D
330
E3A
100
AcDbEntity
  8
0
100
AcDbVertex
100
AcDb2dVertex
 10
51.5113788312087
 20
21.23437627704599
 30
0.0
  0
SEQEND
  5
E3E
330
E3A
100
AcDbEntity
  8
0
  0
POLYLINE
  5
E3F
330
1F
100
AcDbEntity
  8
0
100
AcDb2dPolyline
 66
     1
 10
0.0
 20
0.0
 30
0.0
  0
VERTEX
  5
E40
330
E3F
100
AcDbEntity
  8
0
100
AcDbVertex
100
AcDb2dVertex
 10
51.08039783120872
 20
21.16995327704599
 30
0.0
  0
VERTEX
  5
E41
330
E3F
100
AcDbEntity
  8
0
100
AcDbVertex
100
AcDb2dVertex
 10
51.29898883120871
 20
21.20302627704599
 30
0.0
  0
VERTEX
  5
E42
330
E3F
100
AcDbEntity
  8
0
100
AcDbVertex
100
AcDb2dVertex
 10
51.30191783120871
 20
21.20302627704599
 30
0.0
  0
SEQEND
  5
E43
330
E3F
100
AcDbEntity
  8
0
  0
POLYLINE
  5
E44
330
1F
100
AcDbEntity
  8
0
100
AcDb2dPolyline
 66
     1
 10
0.0
 20
0.0
 30
0.0
  0
VERTEX
  5
E45
330
E44
100
AcDbEntity
  8
0
100
AcDbVertex
100
AcDb2dVertex
 10
50.84578683120872
 20
21.13653627704599
 30
0.0
  0
VERTEX
  5
E46
330
E44
100
AcDbEntity
  8
0
100
AcDbVertex
100
AcDb2dVertex
 10
51.08039783120872
 20
21.16995327704599
 30
0.0
  0
VERTEX
  5
E47
330
E44
100
AcDbEntity
  8
0
100
AcDbVertex
100
AcDb2dVertex
 10
51.08212083120871
 20
21.16995327704599
 30
0.0
  0
SEQEND
  5
E48
330
E44
100
AcDbEntity
  8
0
  0
POLYLINE
  5
E49
330
1F
100
AcDbEntity
  8
0
100
AcDb2dPolyline
 66
     1
 10
0.0
 20
0.0
 30
0.0
  0
VERTEX
  5
E4A
330
E49
100
AcDbEntity
  8
0
100
AcDbVertex
100
AcDb2dVertex
 10
50.59911783120871
 20
21.10242927704599
 30
0.0
  0
VERTEX
  5
E4B
330
E49
100
AcDbEntity
  8
0
100
AcDbVertex
100
AcDb2dVertex
 10
50.84578683120872
 20
21.13653627704599
 30
0.0
  0
VERTEX
  5
E4C
330
E49
100
AcDbEntity
  8
0
100
AcDbVertex
100
AcDb2dVertex
 10
50.84854283120871
 20
21.13653627704599
 30
0.0
  0
SEQEND
  5
E4D
330
E49
100
AcDbEntity
  8
0
  0
POLYLINE
  5
E4E
330
1F
100
AcDbEntity
  8
0
100
AcDb2dPolyline
 66
     1
 10
0.0
 20
0.0
 30
0.0
  0
VERTEX
  5
E4F
330
E4E
100
AcDbEntity
  8
0
100
AcDbVertex
100
AcDb2dVertex
 10
50.33746283120872
 20
21.06935627704599
 30
0.0
  0
VERTEX
  5
E50
330
E4E
100
AcDbEntity
  8
0
100
AcDbVertex
100
AcDb2dVertex
 10
50.59911783120871
 20
21.10242927704599
 30
0.0
  0
VERTEX
  5
E51
330
E4E
100
AcDbEntity
  8
0
100
AcDbVertex
100
AcDb2dVertex
 10
50.60239083120872
 20
21.10242927704599
 30
0.0
  0
SEQEND
  5
E52
330
E4E
100
AcDbEntity
  8
0
  0
POLYLINE
  5
E53
330
1F
100
AcDbEntity
  8
0
100
AcDb2dPolyline
 66
     1
 10
0.0
 20
0.0
 30
0.0
  0
VERTEX
  5
E54
330
E53
100
AcDbEntity
  8
0
100
AcDbVertex
100
AcDb2dVertex
 10
48.93220883120871
 20
20.91777227704599
 30
0.0
  0
VERTEX
  5
E55
330
E53
100
AcDbEntity
  8
0
100
AcDbVertex
100
AcDb2dVertex
 10
49.44621683120871
 20
20.96807127704598
 30
0.0
  0
VERTEX
  5
E56
330
E53
100
AcDbEntity
  8
0
100
AcDbVertex
100
AcDb2dVertex
 10
49.45052283120872
 20
20.96807127704598
 30
0.0
  0
SEQEND
  5
E57
330
E53
100
AcDbEntity
  8
0
  0
POLYLINE
  5
E58
330
1F
100
AcDbEntity
  8
0
100
AcDb2dPolyline
 66
     1
 10
0.0
 20
0.0
 30
0.0
  0
VERTEX
  5
E59
330
E58
100
AcDbEntity
  8
0
100
AcDbVertex
100
AcDb2dVertex
 10
48.58011983120872
 20
22.35575527704599
 30
0.0
  0
VERTEX
  5
E5A
330
E58
100
AcDbEntity
  8
0
100
AcDbVertex
100
AcDb2dVertex
 10
49.06605083120871
 20
22.40812127704598
 30
0.0
  0
VERTEX
  5
E5B
330
E58
100
AcDbEntity
  8
0
100
AcDbVertex
100
AcDb2dVertex
 10
49.06949583120872
 20
22.40812127704598
 30
0.0
  0
SEQEND
  5
E5C
330
E58
100
AcDbEntity
  8
0
  0
POLYLINE
  5
E5D
330
1F
100
AcDbEntity
  8
0
100
AcDb2dPolyline
 66
     1
 10
0.0
 20
0.0
 30
0.0
  0
VERTEX
  5
E5E
330
E5D
100
AcDbEntity
  8
0
100
AcDbVertex
100
AcDb2dVertex
 10
49.85687183120872
 20
22.49287027704599
 30
0.0
  0
VERTEX
  5
E5F
330
E5D
100
AcDbEntity
  8
0
100
AcDbVertex
100
AcDb2dVertex
 10
50.18295083120871
 20
22.52938827704599
 30
0.0
  0
VERTEX
  5
E60
330
E5D
100
AcDbEntity
  8
0
100
AcDbVertex
100
AcDb2dVertex
 10
50.18570683120871
 20
22.52938827704599
 30
0.0
  0
SEQEND
  5
E61
330
E5D
100
AcDbEntity
  8
0
  0
POLYLINE
  5
E62
330
1F
100
AcDbEntity
  8
0
100
AcDb2dPolyline
 66
     1
 10
0.0
 20
0.0
 30
0.0
  0
VERTEX
  5
E63
330
E62
100
AcDbEntity
  8
0
100
AcDbVertex
100
AcDb2dVertex
 10
49.48962483120872
 20
22.45015127704599
 30
0.0
  0
VERTEX
  5
E64
330
E62
100
AcDbEntity
  8
0
100
AcDbVertex
100
AcDb2dVertex
 10
49.85687183120872
 20
22.49287027704599
 30
0.0
  0
VERTEX
  5
E65
330
E62
100
AcDbEntity
  8
0
100
AcDbVertex
100
AcDb2dVertex
 10
49.86048983120871
 20
22.49287027704599
 30
0.0
  0
SEQEND
  5
E66
330
E62
100
AcDbEntity
  8
0
  0
POLYLINE
  5
E67
330
1F
100
AcDbEntity
  8
0
100
AcDb2dPolyline
 66
     1
 10
0.0
 20
0.0
 30
0.0
  0
VERTEX
  5
E68
330
E67
100
AcDbEntity
  8
0
100
AcDbVertex
100
AcDb2dVertex
 10
51.38649483120872
 20
22.70267627704599
 30
0.0
  0
VERTEX
  5
E69
330
E67
100
AcDbEntity
  8
0
100
AcDbVertex
100
AcDb2dVertex
 10
51.54772483120872
 20
22.72989227704599
 30
0.0
  0
VERTEX
  5
E6A
330
E67
100
AcDbEntity
  8
0
100
AcDbVertex
100
AcDb2dVertex
 10
51.55134283120871
 20
22.72989227704599
 30
0.0
  0
SEQEND
  5
E6B
330
E67
100
AcDbEntity
  8
0
  0
POLYLINE
  5
E6C
330
1F
100
AcDbEntity
  8
0
100
AcDb2dPolyline
 66
     1
 10
0.0
 20
0.0
 30
0.0
  0
VERTEX
  5
E6D
330
E6C
100
AcDbEntity
  8
0
100
AcDbVertex
100
AcDb2dVertex
 10
51.21303383120872
 20
22.67546027704599
 30
0.0
  0
VERTEX
  5
E6E
330
E6C
100
AcDbEntity
  8
0
100
AcDbVertex
100
AcDb2dVertex
 10
51.38649483120872
 20
22.70267627704599
 30
0.0
  0
VERTEX
  5
E6F
330
E6C
100
AcDbEntity
  8
0
100
AcDbVertex
100
AcDb2dVertex
 10
51.39011183120872
 20
22.70267627704599
 30
0.0
  0
SEQEND
  5
E70
330
E6C
100
AcDbEntity
  8
0
  0
POLYLINE
  5
E71
330
1F
100
AcDbEntity
  8
0
100
AcDb2dPolyline
 66
     1
 10
0.0
 20
0.0
 30
0.0
  0
VERTEX
  5
E72
330
E71
100
AcDbEntity
  8
0
100
AcDbVertex
100
AcDb2dVertex
 10
50.18295083120871
 20
22.52938827704599
 30
0.0
  0
VERTEX
  5
E73
330
E71
100
AcDbEntity
  8
0
100
AcDbVertex
100
AcDb2dVertex
 10
50.32971183120872
 20
22.54764727704599
 30
0.0
  0
VERTEX
  5
E74
330
E71
100
AcDbEntity
  8
0
100
AcDbVertex
100
AcDb2dVertex
 10
50.46544783120872
 20
22.56590627704599
 30
0.0
  0
VERTEX
  5
E75
330
E71
100
AcDbEntity
  8
0
100
AcDbVertex
100
AcDb2dVertex
 10
50.59205583120871
 20
22.58416527704599
 30
0.0
  0
VERTEX
  5
E76
330
E71
100
AcDbEntity
  8
0
100
AcDbVertex
100
AcDb2dVertex
 10
51.23456583120871
 20
22.67546027704599
 30
0.0
  0
VERTEX
  5
E77
330
E71
100
AcDbEntity
  8
0
100
AcDbVertex
100
AcDb2dVertex
 10
51.23835583120872
 20
22.67546027704599
 30
0.0
  0
SEQEND
  5
E78
330
E71
100
AcDbEntity
  8
0
  0
POLYLINE
  5
E79
330
1F
100
AcDbEntity
  8
0
100
AcDb2dPolyline
 66
     1
 10
0.0
 20
0.0
 30
0.0
  0
VERTEX
  5
E7A
330
E79
100
AcDbEntity
  8
0
100
AcDbVertex
100
AcDb2dVertex
 10
50.38362683120871
 20
23.00997927704599
 30
0.0
  0
VERTEX
  5
E7B
330
E79
100
AcDbEntity
  8
0
100
AcDbVertex
100
AcDb2dVertex
 10
50.15435583120871
 20
22.99137527704599
 30
0.0
  0
VERTEX
  5
E7C
330
E79
100
AcDbEntity
  8
0
100
AcDbVertex
100
AcDb2dVertex
 10
50.15780083120871
 20
22.99137527704599
 30
0.0
  0
SEQEND
  5
E7D
330
E79
100
AcDbEntity
  8
0
  0
POLYLINE
  5
E7E
330
1F
100
AcDbEntity
  8
0
100
AcDb2dPolyline
 66
     1
 10
0.0
 20
0.0
 30
0.0
  0
VERTEX
  5
E7F
330
E7E
100
AcDbEntity
  8
0
100
AcDbVertex
100
AcDb2dVertex
 10
50.15435583120871
 20
22.99137527704599
 30
0.0
  0
VERTEX
  5
E80
330
E7E
100
AcDbEntity
  8
0
100
AcDbVertex
100
AcDb2dVertex
 10
49.85687183120872
 20
22.97036027704599
 30
0.0
  0
VERTEX
  5
E81
330
E7E
100
AcDbEntity
  8
0
100
AcDbVertex
100
AcDb2dVertex
 10
49.86048983120871
 20
22.97036027704599
 30
0.0
  0
SEQEND
  5
E82
330
E7E
100
AcDbEntity
  8
0
  0
POLYLINE
  5
E83
330
1F
100
AcDbEntity
  8
0
100
AcDb2dPolyline
 66
     1
 10
0.0
 20
0.0
 30
0.0
  0
VERTEX
  5
E84
330
E83
100
AcDbEntity
  8
0
100
AcDbVertex
100
AcDb2dVertex
 10
49.85687183120872
 20
22.97036027704599
 30
0.0
  0
VERTEX
  5
E85
330
E83
100
AcDbEntity
  8
0
100
AcDbVertex
100
AcDb2dVertex
 10
49.70873283120871
 20
22.95830227704599
 30
0.0
  0
VERTEX
  5
E86
330
E83
100
AcDbEntity
  8
0
100
AcDbVertex
100
AcDb2dVertex
 10
49.71114483120871
 20
22.95830227704599
 30
0.0
  0
SEQEND
  5
E87
330
E83
100
AcDbEntity
  8
0
  0
POLYLINE
  5
E88
330
1F
100
AcDbEntity
  8
0
100
AcDb2dPolyline
 66
     1
 10
0.0
 20
0.0
 30
0.0
  0
VERTEX
  5
E89
330
E88
100
AcDbEntity
  8
0
100
AcDbVertex
100
AcDb2dVertex
 10
50.84578683120872
 20
23.04925327704599
 30
0.0
  0
VERTEX
  5
E8A
330
E88
100
AcDbEntity
  8
0
100
AcDbVertex
100
AcDb2dVertex
 10
50.61462083120872
 20
23.028238277046
 30
0.0
  0
VERTEX
  5
E8B
330
E88
100
AcDbEntity
  8
0
100
AcDbVertex
100
AcDb2dVertex
 10
50.61720483120872
 20
23.028238277046
 30
0.0
  0
SEQEND
  5
E8C
330
E88
100
AcDbEntity
  8
0
  0
POLYLINE
  5
E8D
330
1F
100
AcDbEntity
  8
0
100
AcDb2dPolyline
 66
     1
 10
0.0
 20
0.0
 30
0.0
  0
VERTEX
  5
E8E
330
E8D
100
AcDbEntity
  8
0
100
AcDbVertex
100
AcDb2dVertex
 10
50.61462083120872
 20
23.028238277046
 30
0.0
  0
VERTEX
  5
E8F
330
E8D
100
AcDbEntity
  8
0
100
AcDbVertex
100
AcDb2dVertex
 10
50.38362683120871
 20
23.00997927704599
 30
0.0
  0
VERTEX
  5
E90
330
E8D
100
AcDbEntity
  8
0
100
AcDbVertex
100
AcDb2dVertex
 10
50.38638283120871
 20
23.00997927704599
 30
0.0
  0
SEQEND
  5
E91
330
E8D
100
AcDbEntity
  8
0
  0
POLYLINE
  5
E92
330
1F
100
AcDbEntity
  8
0
100
AcDb2dPolyline
 66
     1
 10
0.0
 20
0.0
 30
0.0
  0
VERTEX
  5
E93
330
E92
100
AcDbEntity
  8
0
100
AcDbVertex
100
AcDb2dVertex
 10
49.06605083120871
 20
22.40812127704598
 30
0.0
  0
VERTEX
  5
E94
330
E92
100
AcDbEntity
  8
0
100
AcDbVertex
100
AcDb2dVertex
 10
49.48962483120872
 20
22.45015127704599
 30
0.0
  0
VERTEX
  5
E95
330
E92
100
AcDbEntity
  8
0
100
AcDbVertex
100
AcDb2dVertex
 10
49.49220883120871
 20
22.45015127704599
 30
0.0
  0
SEQEND
  5
E96
330
E92
100
AcDbEntity
  8
0
  0
POLYLINE
  5
E97
330
1F
100
AcDbEntity
  8
0
100
AcDb2dPolyline
 66
     1
 10
0.0
 20
0.0
 30
0.0
  0
VERTEX
  5
E98
330
E97
100
AcDbEntity
  8
0
100
AcDbVertex
100
AcDb2dVertex
 10
51.70551083120872
 20
21.26744927704599
 30
0.0
  0
VERTEX
  5
E99
330
E97
100
AcDbEntity
  8
0
100
AcDbVertex
100
AcDb2dVertex
 10
51.89240683120871
 20
21.29811127704599
 30
0.0
  0
VERTEX
  5
E9A
330
E97
100
AcDbEntity
  8
0
100
AcDbVertex
100
AcDb2dVertex
 10
51.89481883120872
 20
21.29811127704599
 30
0.0
  0
SEQEND
  5
E9B
330
E97
100
AcDbEntity
  8
0
  0
POLYLINE
  5
E9C
330
1F
100
AcDbEntity
  8
0
100
AcDb2dPolyline
 66
     1
 10
0.0
 20
0.0
 30
0.0
  0
VERTEX
  5
E9D
330
E9C
100
AcDbEntity
  8
0
100
AcDbVertex
100
AcDb2dVertex
 10
52.97089383120871
 20
20.85679427704599
 30
0.0
  0
VERTEX
  5
E9E
330
E9C
100
AcDbEntity
  8
0
100
AcDbVertex
100
AcDb2dVertex
 10
52.97089383120871
 20
20.84439227704599
 30
0.0
  0
VERTEX
  5
E9F
330
E9C
100
AcDbEntity
  8
0
100
AcDbVertex
100
AcDb2dVertex
 10
52.97364983120871
 20
20.84439227704599
 30
0.0
  0
SEQEND
  5
EA0
330
E9C
100
AcDbEntity
  8
0
  0
POLYLINE
  5
EA1
330
1F
100
AcDbEntity
  8
0
100
AcDb2dPolyline
 66
     1
 10
0.0
 20
0.0
 30
0.0
  0
VERTEX
  5
EA2
330
EA1
100
AcDbEntity
  8
0
100
AcDbVertex
100
AcDb2dVertex
 10
53.78893183120871
 20
20.36035627704599
 30
0.0
  0
VERTEX
  5
EA3
330
EA1
100
AcDbEntity
  8
0
100
AcDbVertex
100
AcDb2dVertex
 10
53.52727683120871
 20
20.31246927704599
 30
0.0
  0
VERTEX
  5
EA4
330
EA1
100
AcDbEntity
  8
0
100
AcDbVertex
100
AcDb2dVertex
 10
53.53003283120871
 20
20.31246927704599
 30
0.0
  0
SEQEND
  5
EA5
330
EA1
100
AcDbEntity
  8
0
  0
POLYLINE
  5
EA6
330
1F
100
AcDbEntity
  8
0
100
AcDb2dPolyline
 66
     1
 10
0.0
 20
0.0
 30
0.0
  0
VERTEX
  5
EA7
330
EA6
100
AcDbEntity
  8
0
100
AcDbVertex
100
AcDb2dVertex
 10
53.52727683120871
 20
20.31246927704599
 30
0.0
  0
VERTEX
  5
EA8
330
EA6
100
AcDbEntity
  8
0
100
AcDbVertex
100
AcDb2dVertex
 10
53.34589283120871
 20
20.27836227704599
 30
0.0
  0
VERTEX
  5
EA9
330
EA6
100
AcDbEntity
  8
0
100
AcDbVertex
100
AcDb2dVertex
 10
53.34761483120871
 20
20.27836227704599
 30
0.0
  0
SEQEND
  5
EAA
330
EA6
100
AcDbEntity
  8
0
  0
POLYLINE
  5
EAB
330
1F
100
AcDbEntity
  8
0
100
AcDb2dPolyline
 66
     1
 10
0.0
 20
0.0
 30
0.0
  0
VERTEX
  5
EAC
330
EAB
100
AcDbEntity
  8
0
100
AcDbVertex
100
AcDb2dVertex
 10
53.34589283120871
 20
20.27836227704599
 30
0.0
  0
VERTEX
  5
EAD
330
EAB
100
AcDbEntity
  8
0
100
AcDbVertex
100
AcDb2dVertex
 10
53.16278583120872
 20
20.244601277046
 30
0.0
  0
VERTEX
  5
EAE
330
EAB
100
AcDbEntity
  8
0
100
AcDbVertex
100
AcDb2dVertex
 10
53.16623083120871
 20
20.244601277046
 30
0.0
  0
SEQEND
  5
EAF
330
EAB
100
AcDbEntity
  8
0
  0
POLYLINE
  5
EB0
330
1F
100
AcDbEntity
  8
0
100
AcDb2dPolyline
 66
     1
 10
0.0
 20
0.0
 30
0.0
  0
VERTEX
  5
EB1
330
EB0
100
AcDbEntity
  8
0
100
AcDbVertex
100
AcDb2dVertex
 10
53.16623083120871
 20
20.244601277046
 30
0.0
  0
VERTEX
  5
EB2
330
EB0
100
AcDbEntity
  8
0
100
AcDbVertex
100
AcDb2dVertex
 10
52.61518783120872
 20
20.15744027704599
 30
0.0
  0
VERTEX
  5
EB3
330
EB0
100
AcDbEntity
  8
0
100
AcDbVertex
100
AcDb2dVertex
 10
52.61880483120871
 20
20.15744027704599
 30
0.0
  0
SEQEND
  5
EB4
330
EB0
100
AcDbEntity
  8
0
  0
POLYLINE
  5
EB5
330
1F
100
AcDbEntity
  8
0
100
AcDb2dPolyline
 66
     1
 10
0.0
 20
0.0
 30
0.0
  0
VERTEX
  5
EB6
330
EB5
100
AcDbEntity
  8
0
100
AcDbVertex
100
AcDb2dVertex
 10
55.01176883120871
 20
20.59875627704599
 30
0.0
  0
VERTEX
  5
EB7
330
EB5
100
AcDbEntity
  8
0
100
AcDbVertex
100
AcDb2dVertex
 10
54.76234383120871
 20
20.54639127704599
 30
0.0
  0
VERTEX
  5
EB8
330
EB5
100
AcDbEntity
  8
0
100
AcDbVertex
100
AcDb2dVertex
 10
54.76475483120871
 20
20.54639127704599
 30
0.0
  0
SEQEND
  5
EB9
330
EB5
100
AcDbEntity
  8
0
  0
POLYLINE
  5
EBA
330
1F
100
AcDbEntity
  8
0
100
AcDb2dPolyline
 66
     1
 10
0.0
 20
0.0
 30
0.0
  0
VERTEX
  5
EBB
330
EBA
100
AcDbEntity
  8
0
100
AcDbVertex
100
AcDb2dVertex
 10
55.52887783120872
 20
21.40800927704599
 30
0.0
  0
VERTEX
  5
EBC
330
EBA
100
AcDbEntity
  8
0
100
AcDbVertex
100
AcDb2dVertex
 10
55.12425083120871
 20
21.30052227704599
 30
0.0
  0
VERTEX
  5
EBD
330
EBA
100
AcDbEntity
  8
0
100
AcDbVertex
100
AcDb2dVertex
 10
55.12735183120871
 20
21.30052227704599
 30
0.0
  0
SEQEND
  5
EBE
330
EBA
100
AcDbEntity
  8
0
  0
POLYLINE
  5
EBF
330
1F
100
AcDbEntity
  8
0
100
AcDb2dPolyline
 66
     1
 10
0.0
 20
0.0
 30
0.0
  0
VERTEX
  5
EC0
330
EBF
100
AcDbEntity
  8
0
100
AcDbVertex
100
AcDb2dVertex
 10
56.06682883120871
 20
20.82337727704599
 30
0.0
  0
VERTEX
  5
EC1
330
EBF
100
AcDbEntity
  8
0
100
AcDbVertex
100
AcDb2dVertex
 10
55.75039683120872
 20
20.75378627704599
 30
0.0
  0
VERTEX
  5
EC2
330
EBF
100
AcDbEntity
  8
0
100
AcDbVertex
100
AcDb2dVertex
 10
55.75366983120871
 20
20.75378627704599
 30
0.0
  0
SEQEND
  5
EC3
330
EBF
100
AcDbEntity
  8
0
  0
POLYLINE
  5
EC4
330
1F
100
AcDbEntity
  8
0
100
AcDb2dPolyline
 66
     1
 10
0.0
 20
0.0
 30
0.0
  0
VERTEX
  5
EC5
330
EC4
100
AcDbEntity
  8
0
100
AcDbVertex
100
AcDb2dVertex
 10
55.75039683120872
 20
20.75378627704599
 30
0.0
  0
VERTEX
  5
EC6
330
EC4
100
AcDbEntity
  8
0
100
AcDbVertex
100
AcDb2dVertex
 10
55.47375583120872
 20
20.69280727704599
 30
0.0
  0
VERTEX
  5
EC7
330
EC4
100
AcDbEntity
  8
0
100
AcDbVertex
100
AcDb2dVertex
 10
55.47737283120873
 20
20.69280727704599
 30
0.0
  0
SEQEND
  5
EC8
330
EC4
100
AcDbEntity
  8
0
  0
POLYLINE
  5
EC9
330
1F
100
AcDbEntity
  8
0
100
AcDb2dPolyline
 66
     1
 10
0.0
 20
0.0
 30
0.0
  0
VERTEX
  5
ECA
330
EC9
100
AcDbEntity
  8
0
100
AcDbVertex
100
AcDb2dVertex
 10
55.47375583120872
 20
20.69280727704599
 30
0.0
  0
VERTEX
  5
ECB
330
EC9
100
AcDbEntity
  8
0
100
AcDbVertex
100
AcDb2dVertex
 10
55.22794783120872
 20
20.64044227704599
 30
0.0
  0
VERTEX
  5
ECC
330
EC9
100
AcDbEntity
  8
0
100
AcDbVertex
100
AcDb2dVertex
 10
55.23035983120871
 20
20.64044227704599
 30
0.0
  0
SEQEND
  5
ECD
330
EC9
100
AcDbEntity
  8
0
  0
POLYLINE
  5
ECE
330
1F
100
AcDbEntity
  8
0
100
AcDb2dPolyline
 66
     1
 10
0.0
 20
0.0
 30
0.0
  0
VERTEX
  5
ECF
330
ECE
100
AcDbEntity
  8
0
100
AcDbVertex
100
AcDb2dVertex
 10
55.12425083120871
 20
21.30052227704599
 30
0.0
  0
VERTEX
  5
ED0
330
ECE
100
AcDbEntity
  8
0
100
AcDbVertex
100
AcDb2dVertex
 10
54.73443783120872
 20
21.20647127704598
 30
0.0
  0
VERTEX
  5
ED1
330
ECE
100
AcDbEntity
  8
0
100
AcDbVertex
100
AcDb2dVertex
 10
54.36012883120871
 20
21.12172227704599
 30
0.0
  0
VERTEX
  5
ED2
330
ECE
100
AcDbEntity
  8
0
100
AcDbVertex
100
AcDb2dVertex
 10
54.36357383120872
 20
21.12172227704599
 30
0.0
  0
SEQEND
  5
ED3
330
ECE
100
AcDbEntity
  8
0
  0
POLYLINE
  5
ED4
330
1F
100
AcDbEntity
  8
0
100
AcDb2dPolyline
 66
     1
 10
0.0
 20
0.0
 30
0.0
  0
VERTEX
  5
ED5
330
ED4
100
AcDbEntity
  8
0
100
AcDbVertex
100
AcDb2dVertex
 10
55.22794783120872
 20
20.64044227704599
 30
0.0
  0
VERTEX
  5
ED6
330
ED4
100
AcDbEntity
  8
0
100
AcDbVertex
100
AcDb2dVertex
 10
55.01176883120871
 20
20.59875627704599
 30
0.0
  0
VERTEX
  5
ED7
330
ED4
100
AcDbEntity
  8
0
100
AcDbVertex
100
AcDb2dVertex
 10
55.0141798312087
 20
20.59875627704599
 30
0.0
  0
SEQEND
  5
ED8
330
ED4
100
AcDbEntity
  8
0
  0
POLYLINE
  5
ED9
330
1F
100
AcDbEntity
  8
0
100
AcDb2dPolyline
 66
     1
 10
0.0
 20
0.0
 30
0.0
  0
VERTEX
  5
EDA
330
ED9
100
AcDbEntity
  8
0
100
AcDbVertex
100
AcDb2dVertex
 10
54.76234383120871
 20
20.54639127704599
 30
0.0
  0
VERTEX
  5
EDB
330
ED9
100
AcDbEntity
  8
0
100
AcDbVertex
100
AcDb2dVertex
 10
54.54599183120871
 20
20.50711727704599
 30
0.0
  0
VERTEX
  5
EDC
330
ED9
100
AcDbEntity
  8
0
100
AcDbVertex
100
AcDb2dVertex
 10
53.78893183120871
 20
20.36035627704599
 30
0.0
  0
VERTEX
  5
EDD
330
ED9
100
AcDbEntity
  8
0
100
AcDbVertex
100
AcDb2dVertex
 10
53.79254883120871
 20
20.36035627704599
 30
0.0
  0
SEQEND
  5
EDE
330
ED9
100
AcDbEntity
  8
0
  0
SPLINE
  5
EDF
330
1F
100
AcDbEntity
  8
0
100
AcDbSpline
210
0.0
220
0.0
230
1.0
 70
     8
 71
     3
 72
    14
 73
    10
 74
     0
 42
0.0000000001
 43
0.0000000001
 40
0.0
 40
0.0
 40
0.0
 40
0.0
 40
1.0
 40
1.0
 40
1.0
 40
2.0
 40
2.0
 40
2.0
 40
3.0
 40
3.0
 40
3.0
 40
3.0
 10
52.97089394058371
 20
20.85679430569182
 30
0.0
 10
52.97089394058371
 20
20.85679430569182
 30
0.0
 10
53.12850705907329
 20
20.87987644544876
 30
0.0
 10
53.12850705907329
 20
20.87987644544876
 30
0.0
 10
53.5384734219205
 20
20.95739109388627
 30
0.0
 10
53.95343517322261
 20
21.03146064683765
 30
0.0
 10
54.36012869535801
 20
21.12172214857376
 30
0.0
 10
54.36012869535801
 20
21.12172214857376
 30
0.0
 10
54.36357379084412
 20
21.12172214857376
 30
0.0
 10
54.36357379084412
 20
21.12172214857376
 30
0.0
  0
POLYLINE
  5
EE0
330
1F
100
AcDbEntity
  8
0
100
AcDb2dPolyline
 66
     1
 10
0.0
 20
0.0
 30
0.0
  0
VERTEX
  5
EE1
330
EE0
100
AcDbEntity
  8
0
100
AcDbVertex
100
AcDb2dVertex
 10
52.60002983120871
 20
22.92488527704599
 30
0.0
  0
VERTEX
  5
EE2
330
EE0
100
AcDbEntity
  8
0
100
AcDbVertex
100
AcDb2dVertex
 10
52.62121683120871
 20
22.93039727704599
 30
0.0
  0
VERTEX
  5
EE3
330
EE0
100
AcDbEntity
  8
0
100
AcDbVertex
100
AcDb2dVertex
 10
52.62483383120872
 20
22.93039727704599
 30
0.0
  0
SEQEND
  5
EE4
330
EE0
100
AcDbEntity
  8
0
  0
POLYLINE
  5
EE5
330
1F
100
AcDbEntity
  8
0
100
AcDb2dPolyline
 66
     1
 10
0.0
 20
0.0
 30
0.0
  0
VERTEX
  5
EE6
330
EE5
100
AcDbEntity
  8
0
100
AcDbVertex
100
AcDb2dVertex
 10
52.39969683120872
 20
22.88526627704599
 30
0.0
  0
VERTEX
  5
EE7
330
EE5
100
AcDbEntity
  8
0
100
AcDbVertex
100
AcDb2dVertex
 10
52.60002983120871
 20
22.92488527704599
 30
0.0
  0
VERTEX
  5
EE8
330
EE5
100
AcDbEntity
  8
0
100
AcDbVertex
100
AcDb2dVertex
 10
52.60295783120872
 20
22.92488527704599
 30
0.0
  0
SEQEND
  5
EE9
330
EE5
100
AcDbEntity
  8
0
  0
POLYLINE
  5
EEA
330
1F
100
AcDbEntity
  8
0
100
AcDb2dPolyline
 66
     1
 10
0.0
 20
0.0
 30
0.0
  0
VERTEX
  5
EEB
330
EEA
100
AcDbEntity
  8
0
100
AcDbVertex
100
AcDb2dVertex
 10
52.22261883120872
 20
22.85150427704599
 30
0.0
  0
VERTEX
  5
EEC
330
EEA
100
AcDbEntity
  8
0
100
AcDbVertex
100
AcDb2dVertex
 10
52.39969683120872
 20
22.88526627704599
 30
0.0
  0
VERTEX
  5
EED
330
EEA
100
AcDbEntity
  8
0
100
AcDbVertex
100
AcDb2dVertex
 10
52.40141983120871
 20
22.88526627704599
 30
0.0
  0
SEQEND
  5
EEE
330
EEA
100
AcDbEntity
  8
0
  0
POLYLINE
  5
EEF
330
1F
100
AcDbEntity
  8
0
100
AcDb2dPolyline
 66
     1
 10
0.0
 20
0.0
 30
0.0
  0
VERTEX
  5
EF0
330
EEF
100
AcDbEntity
  8
0
100
AcDbVertex
100
AcDb2dVertex
 10
52.04312983120871
 20
22.81808727704599
 30
0.0
  0
VERTEX
  5
EF1
330
EEF
100
AcDbEntity
  8
0
100
AcDbVertex
100
AcDb2dVertex
 10
52.22261883120872
 20
22.85150427704599
 30
0.0
  0
VERTEX
  5
EF2
330
EEF
100
AcDbEntity
  8
0
100
AcDbVertex
100
AcDb2dVertex
 10
52.22623683120872
 20
22.85150427704599
 30
0.0
  0
SEQEND
  5
EF3
330
EEF
100
AcDbEntity
  8
0
  0
POLYLINE
  5
EF4
330
1F
100
AcDbEntity
  8
0
100
AcDb2dPolyline
 66
     1
 10
0.0
 20
0.0
 30
0.0
  0
VERTEX
  5
EF5
330
EF4
100
AcDbEntity
  8
0
100
AcDbVertex
100
AcDb2dVertex
 10
51.90963183120871
 20
22.79328227704599
 30
0.0
  0
VERTEX
  5
EF6
330
EF4
100
AcDbEntity
  8
0
100
AcDbVertex
100
AcDb2dVertex
 10
52.04312983120871
 20
22.81808727704599
 30
0.0
  0
VERTEX
  5
EF7
330
EF4
100
AcDbEntity
  8
0
100
AcDbVertex
100
AcDb2dVertex
 10
52.04657483120872
 20
22.81808727704599
 30
0.0
  0
SEQEND
  5
EF8
330
EF4
100
AcDbEntity
  8
0
  0
POLYLINE
  5
EF9
330
1F
100
AcDbEntity
  8
0
100
AcDb2dPolyline
 66
     1
 10
0.0
 20
0.0
 30
0.0
  0
VERTEX
  5
EFA
330
EF9
100
AcDbEntity
  8
0
100
AcDbVertex
100
AcDb2dVertex
 10
51.69775883120871
 20
22.75435327704599
 30
0.0
  0
VERTEX
  5
EFB
330
EF9
100
AcDbEntity
  8
0
100
AcDbVertex
100
AcDb2dVertex
 10
51.76993383120872
 20
22.76641027704599
 30
0.0
  0
VERTEX
  5
EFC
330
EF9
100
AcDbEntity
  8
0
100
AcDbVertex
100
AcDb2dVertex
 10
51.90963183120871
 20
22.79328227704599
 30
0.0
  0
VERTEX
  5
EFD
330
EF9
100
AcDbEntity
  8
0
100
AcDbVertex
100
AcDb2dVertex
 10
51.91221583120871
 20
22.79328227704599
 30
0.0
  0
SEQEND
  5
EFE
330
EF9
100
AcDbEntity
  8
0
  0
POLYLINE
  5
EFF
330
1F
100
AcDbEntity
  8
0
100
AcDb2dPolyline
 66
     1
 10
0.0
 20
0.0
 30
0.0
  0
VERTEX
  5
F00
330
EFF
100
AcDbEntity
  8
0
100
AcDbVertex
100
AcDb2dVertex
 10
52.62121683120871
 20
22.93039727704599
 30
0.0
  0
VERTEX
  5
F01
330
EFF
100
AcDbEntity
  8
0
100
AcDbVertex
100
AcDb2dVertex
 10
52.64567683120871
 20
22.93763227704599
 30
0.0
  0
VERTEX
  5
F02
330
EFF
100
AcDbEntity
  8
0
100
AcDbVertex
100
AcDb2dVertex
 10
52.64912183120872
 20
22.93763227704599
 30
0.0
  0
SEQEND
  5
F03
330
EFF
100
AcDbEntity
  8
0
  0
SPLINE
  5
F04
330
1F
100
AcDbEntity
  8
0
100
AcDbSpline
210
0.0
220
0.0
230
1.0
 70
     8
 71
     3
 72
    14
 73
    10
 74
     0
 42
0.0000000001
 43
0.0000000001
 40
0.0
 40
0.0
 40
0.0
 40
0.0
 40
1.0
 40
1.0
 40
1.0
 40
2.0
 40
2.0
 40
2.0
 40
3.0
 40
3.0
 40
3.0
 40
3.0
 10
54.06298920968093
 20
23.51124037774043
 30
0.0
 10
54.06298920968093
 20
23.51124037774043
 30
0.0
 10
54.0962343811219
 20
23.53294447930293
 30
0.0
 10
54.0962343811219
 20
23.53294447930293
 30
0.0
 10
54.28709267105246
 20
23.65972399319182
 30
0.0
 10
54.48501340672954
 20
23.80235094631682
 30
0.0
 10
54.65261730212884
 20
23.95875828138628
 30
0.0
 10
54.65261730212884
 20
23.95875828138628
 30
0.0
 10
54.65502886896913
 20
23.95875828138628
 30
0.0
 10
54.65502886896913
 20
23.95875828138628
 30
0.0
  0
SPLINE
  5
F05
330
1F
100
AcDbEntity
  8
0
100
AcDbSpline
210
0.0
220
0.0
230
1.0
 70
     8
 71
     3
 72
    14
 73
    10
 74
     0
 42
0.0000000001
 43
0.0000000001
 40
0.0
 40
0.0
 40
0.0
 40
0.0
 40
1.0
 40
1.0
 40
1.0
 40
2.0
 40
2.0
 40
2.0
 40
3.0
 40
3.0
 40
3.0
 40
3.0
 10
52.68942963936844
 20
22.94624471801821
 30
0.0
 10
52.68942963936844
 20
22.94624471801821
 30
0.0
 10
52.72784245403857
 20
22.95589098537932
 30
0.0
 10
52.72784245403857
 20
22.95589098537932
 30
0.0
 10
53.20016504518441
 20
23.0609663977057
 30
0.0
 10
53.65353961115662
 20
23.25458076402514
 30
0.0
 10
54.06298920968093
 20
23.51124037774043
 30
0.0
 10
54.06298920968093
 20
23.51124037774043
 30
0.0
 10
54.06557303129551
 20
23.51124037774043
 30
0.0
 10
54.06557303129551
 20
23.51124037774043
 30
0.0
  0
SPLINE
  5
F06
330
1F
100
AcDbEntity
  8
0
100
AcDbSpline
210
0.0
220
0.0
230
1.0
 70
     8
 71
     3
 72
    17
 73
    13
 74
     0
 42
0.0000000001
 43
0.0000000001
 40
0.0
 40
0.0
 40
0.0
 40
0.0
 40
1.0
 40
1.0
 40
1.0
 40
2.0
 40
2.0
 40
2.0
 40
3.0
 40
3.0
 40
3.0
 40
4.0
 40
4.0
 40
4.0
 40
4.0
 10
51.89240679865664
 20
21.29811103746265
 30
0.0
 10
51.89240679865664
 20
21.29811103746265
 30
0.0
 10
51.99782672053163
 20
21.31878161037932
 30
0.0
 10
51.99782672053163
 20
21.31878161037932
 30
0.0
 10
53.40549273615662
 20
21.58336494371265
 30
0.0
 10
54.73581635811843
 20
22.24000014336543
 30
0.0
 10
55.40071978693787
 20
23.57945326836543
 30
0.0
 10
55.40071978693787
 20
23.57945326836543
 30
0.0
 10
55.47065522530593
 20
23.72139120239321
 30
0.0
 10
55.47065522530593
 20
23.72139120239321
 30
0.0
 10
55.47065522530593
 20
23.72139120239321
 30
0.0
 10
55.47375581124343
 20
23.72139120239321
 30
0.0
 10
55.47375581124343
 20
23.72139120239321
 30
0.0
  0
POLYLINE
  5
F07
330
1F
100
AcDbEntity
  8
0
100
AcDb2dPolyline
 66
     1
 10
0.0
 20
0.0
 30
0.0
  0
VERTEX
  5
F08
330
F07
100
AcDbEntity
  8
0
100
AcDbVertex
100
AcDb2dVertex
 10
51.54772483120872
 20
22.72989227704599
 30
0.0
  0
VERTEX
  5
F09
330
F07
100
AcDbEntity
  8
0
100
AcDbVertex
100
AcDb2dVertex
 10
51.69810383120871
 20
22.75435327704599
 30
0.0
  0
VERTEX
  5
F0A
330
F07
100
AcDbEntity
  8
0
100
AcDbVertex
100
AcDb2dVertex
 10
51.69982583120871
 20
22.75435327704599
 30
0.0
  0
SEQEND
  5
F0B
330
F07
100
AcDbEntity
  8
0
  0
POLYLINE
  5
F0C
330
1F
100
AcDbEntity
  8
0
100
AcDb2dPolyline
 66
     1
 10
0.0
 20
0.0
 30
0.0
  0
VERTEX
  5
F0D
330
F0C
100
AcDbEntity
  8
0
100
AcDbVertex
100
AcDb2dVertex
 10
51.50793383120872
 20
21.23437627704599
 30
0.0
  0
VERTEX
  5
F0E
330
F0C
100
AcDbEntity
  8
0
100
AcDbVertex
100
AcDb2dVertex
 10
51.70585483120871
 20
21.26744927704599
 30
0.0
  0
VERTEX
  5
F0F
330
F0C
100
AcDbEntity
  8
0
100
AcDbVertex
100
AcDb2dVertex
 10
51.70929983120871
 20
21.26744927704599
 30
0.0
  0
SEQEND
  5
F10
330
F0C
100
AcDbEntity
  8
0
  0
SPLINE
  5
F11
330
1F
100
AcDbEntity
  8
0
100
AcDbSpline
210
0.0
220
0.0
230
1.0
 70
     8
 71
     3
 72
    17
 73
    13
 74
     0
 42
0.0000000001
 43
0.0000000001
 40
0.0
 40
0.0
 40
0.0
 40
0.0
 40
1.0
 40
1.0
 40
1.0
 40
2.0
 40
2.0
 40
2.0
 40
3.0
 40
3.0
 40
3.0
 40
4.0
 40
4.0
 40
4.0
 40
4.0
 10
52.61518783164274
 20
20.15743992201127
 30
0.0
 10
52.61518783164274
 20
20.15743992201127
 30
0.0
 10
52.26292681818788
 20
20.10231839423349
 30
0.0
 10
52.26292681818788
 20
20.10231839423349
 30
0.0
 10
51.30639605646912
 20
19.96761516072654
 30
0.0
 10
50.35933930733718
 20
19.87907620673349
 30
0.0
 10
49.39540159032329
 20
19.81982056437238
 30
0.0
 10
49.39540159032329
 20
19.81982056437238
 30
0.0
 10
49.03642264067051
 20
19.79811646280988
 30
0.0
 10
49.03642264067051
 20
19.79811646280988
 30
0.0
 10
49.03642264067051
 20
19.79811646280988
 30
0.0
 10
49.03986773615663
 20
19.79811646280988
 30
0.0
 10
49.03986773615663
 20
19.79811646280988
 30
0.0
  0
SPLINE
  5
F12
330
1F
100
AcDbEntity
  8
0
100
AcDbSpline
210
0.0
220
0.0
230
1.0
 70
     8
 71
     3
 72
    14
 73
    10
 74
     0
 42
0.0000000001
 43
0.0000000001
 40
0.0
 40
0.0
 40
0.0
 40
0.0
 40
1.0
 40
1.0
 40
1.0
 40
2.0
 40
2.0
 40
2.0
 40
3.0
 40
3.0
 40
3.0
 40
3.0
 10
40.72564654475037
 20
21.80281752617794
 30
0.0
 10
40.72564654475037
 20
21.80281752617794
 30
0.0
 10
41.71972884726774
 20
21.8482927865946
 30
0.0
 10
41.71972884726774
 20
21.8482927865946
 30
0.0
 10
44.01071734553162
 20
21.95267917982375
 30
0.0
 10
46.29808849353509
 20
22.12941257826127
 30
0.0
 10
48.5801197435351
 20
22.35575535169876
 30
0.0
 10
48.5801197435351
 20
22.35575535169876
 30
0.0
 10
48.58373709379551
 20
22.35575535169876
 30
0.0
 10
48.58373709379551
 20
22.35575535169876
 30
0.0
  0
POLYLINE
  5
F13
330
1F
100
AcDbEntity
  8
0
100
AcDb2dPolyline
 66
     1
 10
0.0
 20
0.0
 30
0.0
  0
VERTEX
  5
F14
330
F13
100
AcDbEntity
  8
0
100
AcDbVertex
100
AcDb2dVertex
 10
47.0046778312087
 20
20.73449327704599
 30
0.0
  0
VERTEX
  5
F15
330
F13
100
AcDbEntity
  8
0
100
AcDbVertex
100
AcDb2dVertex
 10
47.49956583120871
 20
20.77721227704599
 30
0.0
  0
VERTEX
  5
F16
330
F13
100
AcDbEntity
  8
0
100
AcDbVertex
100
AcDb2dVertex
 10
47.50352783120871
 20
20.77721227704599
 30
0.0
  0
SEQEND
  5
F17
330
F13
100
AcDbEntity
  8
0
  0
POLYLINE
  5
F18
330
1F
100
AcDbEntity
  8
0
100
AcDb2dPolyline
 66
     1
 10
0.0
 20
0.0
 30
0.0
  0
VERTEX
  5
F19
330
F18
100
AcDbEntity
  8
0
100
AcDbVertex
100
AcDb2dVertex
 10
56.53260583120871
 20
20.92983027704599
 30
0.0
  0
VERTEX
  5
F1A
330
F18
100
AcDbEntity
  8
0
100
AcDbVertex
100
AcDb2dVertex
 10
56.29299983120872
 20
20.87505327704599
 30
0.0
  0
VERTEX
  5
F1B
330
F18
100
AcDbEntity
  8
0
100
AcDbVertex
100
AcDb2dVertex
 10
56.29541083120871
 20
20.87505327704599
 30
0.0
  0
SEQEND
  5
F1C
330
F18
100
AcDbEntity
  8
0
  0
POLYLINE
  5
F1D
330
1F
100
AcDbEntity
  8
0
100
AcDb2dPolyline
 66
     1
 10
0.0
 20
0.0
 30
0.0
  0
VERTEX
  5
F1E
330
F1D
100
AcDbEntity
  8
0
100
AcDbVertex
100
AcDb2dVertex
 10
56.78719883120873
 20
20.99287527704599
 30
0.0
  0
VERTEX
  5
F1F
330
F1D
100
AcDbEntity
  8
0
100
AcDbVertex
100
AcDb2dVertex
 10
56.53260583120871
 20
20.92983027704599
 30
0.0
  0
VERTEX
  5
F20
330
F1D
100
AcDbEntity
  8
0
100
AcDbVertex
100
AcDb2dVertex
 10
56.53605083120871
 20
20.92983027704599
 30
0.0
  0
SEQEND
  5
F21
330
F1D
100
AcDbEntity
  8
0
  0
SPLINE
  5
F22
330
1F
100
AcDbEntity
  8
0
100
AcDbSpline
210
0.0
220
0.0
230
1.0
 70
     8
 71
     3
 72
    17
 73
    13
 74
     0
 42
0.0000000001
 43
0.0000000001
 40
0.0
 40
0.0
 40
0.0
 40
0.0
 40
1.0
 40
1.0
 40
1.0
 40
2.0
 40
2.0
 40
2.0
 40
3.0
 40
3.0
 40
3.0
 40
4.0
 40
4.0
 40
4.0
 40
4.0
 10
64.14023801610453
 20
19.25999254787932
 30
0.0
 10
64.14023801610453
 20
19.25999254787932
 30
0.0
 10
64.13765419448997
 20
19.19970337687238
 30
0.0
 10
64.13765419448997
 20
19.19970337687238
 30
0.0
 10
64.11198823311842
 20
18.92891887166404
 30
0.0
 10
63.88685124310106
 20
18.70188707912932
 30
0.0
 10
63.61520546402122
 20
18.67708239162932
 30
0.0
 10
63.61520546402122
 20
18.67708239162932
 30
0.0
 10
63.55353825481981
 20
18.67294827704599
 30
0.0
 10
63.55353825481981
 20
18.67294827704599
 30
0.0
 10
63.55353825481981
 20
18.67294827704599
 30
0.0
 10
63.55698335030594
 20
18.67294827704599
 30
0.0
 10
63.55698335030594
 20
18.67294827704599
 30
0.0
  0
SPLINE
  5
F23
330
1F
100
AcDbEntity
  8
0
100
AcDbSpline
210
0.0
220
0.0
230
1.0
 70
     8
 71
     3
 72
    17
 73
    13
 74
     0
 42
0.0000000001
 43
0.0000000001
 40
0.0
 40
0.0
 40
0.0
 40
0.0
 40
1.0
 40
1.0
 40
1.0
 40
2.0
 40
2.0
 40
2.0
 40
3.0
 40
3.0
 40
3.0
 40
4.0
 40
4.0
 40
4.0
 40
4.0
 10
59.89243528172955
 20
23.87400893242793
 30
0.0
 10
59.89243528172955
 20
23.87400893242793
 30
0.0
 10
59.62492361723299
 20
23.59667874579599
 30
0.0
 10
59.62492361723299
 20
23.59667874579599
 30
0.0
 10
58.60999848702468
 20
22.58967733520571
 30
0.0
 10
57.29242171836149
 20
21.95612427530988
 30
0.0
 10
55.94194428780594
 20
21.53168851142099
 30
0.0
 10
55.94194428780594
 20
21.53168851142099
 30
0.0
 10
55.52887733902121
 20
21.4080095834696
 30
0.0
 10
55.52887733902121
 20
21.4080095834696
 30
0.0
 10
55.52887733902121
 20
21.4080095834696
 30
0.0
 10
55.53059988676425
 20
21.4080095834696
 30
0.0
 10
55.53059988676425
 20
21.4080095834696
 30
0.0
  0
POLYLINE
  5
F24
330
1F
100
AcDbEntity
  8
0
100
AcDb2dPolyline
 66
     1
 10
0.0
 20
0.0
 30
0.0
  0
VERTEX
  5
F25
330
F24
100
AcDbEntity
  8
0
100
AcDbVertex
100
AcDb2dVertex
 10
56.29265483120871
 20
20.87470927704599
 30
0.0
  0
VERTEX
  5
F26
330
F24
100
AcDbEntity
  8
0
100
AcDbVertex
100
AcDb2dVertex
 10
56.06682883120871
 20
20.82406627704599
 30
0.0
  0
VERTEX
  5
F27
330
F24
100
AcDbEntity
  8
0
100
AcDbVertex
100
AcDb2dVertex
 10
56.06958483120871
 20
20.82406627704599
 30
0.0
  0
SEQEND
  5
F28
330
F24
100
AcDbEntity
  8
0
  0
SPLINE
  5
F29
330
1F
100
AcDbEntity
  8
0
100
AcDbSpline
210
0.0
220
0.0
230
1.0
 70
     8
 71
     3
 72
    17
 73
    13
 74
     0
 42
0.0000000001
 43
0.0000000001
 40
0.0
 40
0.0
 40
0.0
 40
0.0
 40
1.0
 40
1.0
 40
1.0
 40
2.0
 40
2.0
 40
2.0
 40
3.0
 40
3.0
 40
3.0
 40
4.0
 40
4.0
 40
4.0
 40
4.0
 10
54.01406885377816
 20
25.56658434475432
 30
0.0
 10
54.01406885377816
 20
25.56658434475432
 30
0.0
 10
53.98685259943787
 20
25.50422811645571
 30
0.0
 10
53.98685259943787
 20
25.50422811645571
 30
0.0
 10
53.92863048572261
 20
25.35161038642099
 30
0.0
 10
53.85077132773649
 20
25.19554756090015
 30
0.0
 10
53.7706728576844
 20
25.05292060777514
 30
0.0
 10
53.7706728576844
 20
25.05292060777514
 30
0.0
 10
53.73742768624342
 20
24.99297594631682
 30
0.0
 10
53.73742768624342
 20
24.99297594631682
 30
0.0
 10
53.73742768624342
 20
24.99297594631682
 30
0.0
 10
53.74001150785801
 20
24.99297594631682
 30
0.0
 10
53.74001150785801
 20
24.99297594631682
 30
0.0
  0
SPLINE
  5
F2A
330
1F
100
AcDbEntity
  8
0
100
AcDbSpline
210
0.0
220
0.0
230
1.0
 70
     8
 71
     3
 72
    17
 73
    13
 74
     0
 42
0.0000000001
 43
0.0000000001
 40
0.0
 40
0.0
 40
0.0
 40
0.0
 40
1.0
 40
1.0
 40
1.0
 40
2.0
 40
2.0
 40
2.0
 40
3.0
 40
3.0
 40
3.0
 40
4.0
 40
4.0
 40
4.0
 40
4.0
 10
54.80144542712885
 20
29.25387004353904
 30
0.0
 10
54.80144542712885
 20
29.25387004353904
 30
0.0
 10
54.80144542712885
 20
29.09436212253209
 30
0.0
 10
54.80144542712885
 20
29.09436212253209
 30
0.0
 10
54.78025808988924
 20
27.96195923624737
 30
0.0
 10
54.57217432252815
 20
26.81956557305293
 30
0.0
 10
54.1117373108094
 20
25.78086928399044
 30
0.0
 10
54.1117373108094
 20
25.78086928399044
 30
0.0
 10
54.01406885377816
 20
25.56658434475432
 30
0.0
 10
54.01406885377816
 20
25.56658434475432
 30
0.0
 10
54.01406885377816
 20
25.56658434475432
 30
0.0
 10
54.01751394926424
 20
25.56658434475432
 30
0.0
 10
54.01751394926424
 20
25.56658434475432
 30
0.0
  0
POLYLINE
  5
F2B
330
1F
100
AcDbEntity
  8
0
100
AcDb2dPolyline
 66
     1
 10
0.0
 20
0.0
 30
0.0
  0
VERTEX
  5
F2C
330
F2B
100
AcDbEntity
  8
0
100
AcDbVertex
100
AcDb2dVertex
 10
50.15435583120871
 20
35.51705327704599
 30
0.0
  0
VERTEX
  5
F2D
330
F2B
100
AcDbEntity
  8
0
100
AcDbVertex
100
AcDb2dVertex
 10
49.78349183120871
 20
35.54495927704599
 30
0.0
  0
VERTEX
  5
F2E
330
F2B
100
AcDbEntity
  8
0
100
AcDbVertex
100
AcDb2dVertex
 10
49.78710883120871
 20
35.54495927704599
 30
0.0
  0
SEQEND
  5
F2F
330
F2B
100
AcDbEntity
  8
0
  0
POLYLINE
  5
F30
330
1F
100
AcDbEntity
  8
0
100
AcDb2dPolyline
 66
     1
 10
0.0
 20
0.0
 30
0.0
  0
VERTEX
  5
F31
330
F30
100
AcDbEntity
  8
0
100
AcDbVertex
100
AcDb2dVertex
 10
50.38362683120871
 20
35.49845027704599
 30
0.0
  0
VERTEX
  5
F32
330
F30
100
AcDbEntity
  8
0
100
AcDbVertex
100
AcDb2dVertex
 10
50.15435583120871
 20
35.51705327704599
 30
0.0
  0
VERTEX
  5
F33
330
F30
100
AcDbEntity
  8
0
100
AcDbVertex
100
AcDb2dVertex
 10
50.15780083120871
 20
35.51705327704599
 30
0.0
  0
SEQEND
  5
F34
330
F30
100
AcDbEntity
  8
0
  0
POLYLINE
  5
F35
330
1F
100
AcDbEntity
  8
0
100
AcDb2dPolyline
 66
     1
 10
0.0
 20
0.0
 30
0.0
  0
VERTEX
  5
F36
330
F35
100
AcDbEntity
  8
0
100
AcDbVertex
100
AcDb2dVertex
 10
50.59205583120871
 20
35.92529727704599
 30
0.0
  0
VERTEX
  5
F37
330
F35
100
AcDbEntity
  8
0
100
AcDbVertex
100
AcDb2dVertex
 10
50.82391083120872
 20
35.89188027704599
 30
0.0
  0
VERTEX
  5
F38
330
F35
100
AcDbEntity
  8
0
100
AcDbVertex
100
AcDb2dVertex
 10
50.82666683120871
 20
35.89188027704599
 30
0.0
  0
SEQEND
  5
F39
330
F35
100
AcDbEntity
  8
0
  0
POLYLINE
  5
F3A
330
1F
100
AcDbEntity
  8
0
100
AcDb2dPolyline
 66
     1
 10
0.0
 20
0.0
 30
0.0
  0
VERTEX
  5
F3B
330
F3A
100
AcDbEntity
  8
0
100
AcDbVertex
100
AcDb2dVertex
 10
50.82391083120872
 20
35.89188027704599
 30
0.0
  0
VERTEX
  5
F3C
330
F3A
100
AcDbEntity
  8
0
100
AcDbVertex
100
AcDb2dVertex
 10
51.02803283120872
 20
35.861563277046
 30
0.0
  0
VERTEX
  5
F3D
330
F3A
100
AcDbEntity
  8
0
100
AcDbVertex
100
AcDb2dVertex
 10
51.03164983120872
 20
35.861563277046
 30
0.0
  0
SEQEND
  5
F3E
330
F3A
100
AcDbEntity
  8
0
  0
POLYLINE
  5
F3F
330
1F
100
AcDbEntity
  8
0
100
AcDb2dPolyline
 66
     1
 10
0.0
 20
0.0
 30
0.0
  0
VERTEX
  5
F40
330
F3F
100
AcDbEntity
  8
0
100
AcDbVertex
100
AcDb2dVertex
 10
51.02803283120872
 20
35.861563277046
 30
0.0
  0
VERTEX
  5
F41
330
F3F
100
AcDbEntity
  8
0
100
AcDbVertex
100
AcDb2dVertex
 10
51.21303383120872
 20
35.83469127704599
 30
0.0
  0
VERTEX
  5
F42
330
F3F
100
AcDbEntity
  8
0
100
AcDbVertex
100
AcDb2dVertex
 10
51.21647883120871
 20
35.83469127704599
 30
0.0
  0
SEQEND
  5
F43
330
F3F
100
AcDbEntity
  8
0
  0
POLYLINE
  5
F44
330
1F
100
AcDbEntity
  8
0
100
AcDb2dPolyline
 66
     1
 10
0.0
 20
0.0
 30
0.0
  0
VERTEX
  5
F45
330
F44
100
AcDbEntity
  8
0
100
AcDbVertex
100
AcDb2dVertex
 10
51.21303383120872
 20
35.83469127704599
 30
0.0
  0
VERTEX
  5
F46
330
F44
100
AcDbEntity
  8
0
100
AcDbVertex
100
AcDb2dVertex
 10
51.38649483120872
 20
35.80678627704599
 30
0.0
  0
VERTEX
  5
F47
330
F44
100
AcDbEntity
  8
0
100
AcDbVertex
100
AcDb2dVertex
 10
51.39011183120872
 20
35.80678627704599
 30
0.0
  0
SEQEND
  5
F48
330
F44
100
AcDbEntity
  8
0
  0
POLYLINE
  5
F49
330
1F
100
AcDbEntity
  8
0
100
AcDb2dPolyline
 66
     1
 10
0.0
 20
0.0
 30
0.0
  0
VERTEX
  5
F4A
330
F49
100
AcDbEntity
  8
0
100
AcDbVertex
100
AcDb2dVertex
 10
51.38649483120872
 20
35.80678627704599
 30
0.0
  0
VERTEX
  5
F4B
330
F49
100
AcDbEntity
  8
0
100
AcDbVertex
100
AcDb2dVertex
 10
51.54772483120872
 20
35.77888127704599
 30
0.0
  0
VERTEX
  5
F4C
330
F49
100
AcDbEntity
  8
0
100
AcDbVertex
100
AcDb2dVertex
 10
51.55134283120871
 20
35.77888127704599
 30
0.0
  0
SEQEND
  5
F4D
330
F49
100
AcDbEntity
  8
0
  0
POLYLINE
  5
F4E
330
1F
100
AcDbEntity
  8
0
100
AcDb2dPolyline
 66
     1
 10
0.0
 20
0.0
 30
0.0
  0
VERTEX
  5
F4F
330
F4E
100
AcDbEntity
  8
0
100
AcDbVertex
100
AcDb2dVertex
 10
50.84578683120872
 20
35.45986527704599
 30
0.0
  0
VERTEX
  5
F50
330
F4E
100
AcDbEntity
  8
0
100
AcDbVertex
100
AcDb2dVertex
 10
50.61462083120872
 20
35.48225827704599
 30
0.0
  0
VERTEX
  5
F51
330
F4E
100
AcDbEntity
  8
0
100
AcDbVertex
100
AcDb2dVertex
 10
50.61720483120872
 20
35.48225827704599
 30
0.0
  0
SEQEND
  5
F52
330
F4E
100
AcDbEntity
  8
0
  0
POLYLINE
  5
F53
330
1F
100
AcDbEntity
  8
0
100
AcDb2dPolyline
 66
     1
 10
0.0
 20
0.0
 30
0.0
  0
VERTEX
  5
F54
330
F53
100
AcDbEntity
  8
0
100
AcDbVertex
100
AcDb2dVertex
 10
49.85687183120872
 20
36.01659227704599
 30
0.0
  0
VERTEX
  5
F55
330
F53
100
AcDbEntity
  8
0
100
AcDbVertex
100
AcDb2dVertex
 10
50.18295083120871
 20
35.97662927704599
 30
0.0
  0
VERTEX
  5
F56
330
F53
100
AcDbEntity
  8
0
100
AcDbVertex
100
AcDb2dVertex
 10
50.32971183120872
 20
35.958026277046
 30
0.0
  0
VERTEX
  5
F57
330
F53
100
AcDbEntity
  8
0
100
AcDbVertex
100
AcDb2dVertex
 10
50.46544783120872
 20
35.94321227704599
 30
0.0
  0
VERTEX
  5
F58
330
F53
100
AcDbEntity
  8
0
100
AcDbVertex
100
AcDb2dVertex
 10
50.59205583120871
 20
35.92529727704599
 30
0.0
  0
VERTEX
  5
F59
330
F53
100
AcDbEntity
  8
0
100
AcDbVertex
100
AcDb2dVertex
 10
50.59567283120872
 20
35.92529727704599
 30
0.0
  0
SEQEND
  5
F5A
330
F53
100
AcDbEntity
  8
0
  0
POLYLINE
  5
F5B
330
1F
100
AcDbEntity
  8
0
100
AcDb2dPolyline
 66
     1
 10
0.0
 20
0.0
 30
0.0
  0
VERTEX
  5
F5C
330
F5B
100
AcDbEntity
  8
0
100
AcDbVertex
100
AcDb2dVertex
 10
50.61462083120872
 20
35.48225827704599
 30
0.0
  0
VERTEX
  5
F5D
330
F5B
100
AcDbEntity
  8
0
100
AcDbVertex
100
AcDb2dVertex
 10
50.38362683120871
 20
35.49845027704599
 30
0.0
  0
VERTEX
  5
F5E
330
F5B
100
AcDbEntity
  8
0
100
AcDbVertex
100
AcDb2dVertex
 10
50.38638283120871
 20
35.49845027704599
 30
0.0
  0
SEQEND
  5
F5F
330
F5B
100
AcDbEntity
  8
0
  0
POLYLINE
  5
F60
330
1F
100
AcDbEntity
  8
0
100
AcDb2dPolyline
 66
     1
 10
0.0
 20
0.0
 30
0.0
  0
VERTEX
  5
F61
330
F60
100
AcDbEntity
  8
0
100
AcDbVertex
100
AcDb2dVertex
 10
49.78349183120871
 20
35.54495927704599
 30
0.0
  0
VERTEX
  5
F62
330
F60
100
AcDbEntity
  8
0
100
AcDbVertex
100
AcDb2dVertex
 10
49.08430983120872
 20
35.58767827704599
 30
0.0
  0
VERTEX
  5
F63
330
F60
100
AcDbEntity
  8
0
100
AcDbVertex
100
AcDb2dVertex
 10
49.08792683120871
 20
35.58767827704599
 30
0.0
  0
SEQEND
  5
F64
330
F60
100
AcDbEntity
  8
0
  0
POLYLINE
  5
F65
330
1F
100
AcDbEntity
  8
0
100
AcDb2dPolyline
 66
     1
 10
0.0
 20
0.0
 30
0.0
  0
VERTEX
  5
F66
330
F65
100
AcDbEntity
  8
0
100
AcDbVertex
100
AcDb2dVertex
 10
51.69775883120871
 20
35.75166427704599
 30
0.0
  0
VERTEX
  5
F67
330
F65
100
AcDbEntity
  8
0
100
AcDbVertex
100
AcDb2dVertex
 10
51.84331383120871
 20
35.72823827704599
 30
0.0
  0
VERTEX
  5
F68
330
F65
100
AcDbEntity
  8
0
100
AcDbVertex
100
AcDb2dVertex
 10
51.84589783120872
 20
35.72823827704599
 30
0.0
  0
SEQEND
  5
F69
330
F65
100
AcDbEntity
  8
0
  0
POLYLINE
  5
F6A
330
1F
100
AcDbEntity
  8
0
100
AcDb2dPolyline
 66
     1
 10
0.0
 20
0.0
 30
0.0
  0
VERTEX
  5
F6B
330
F6A
100
AcDbEntity
  8
0
100
AcDbVertex
100
AcDb2dVertex
 10
51.84331383120871
 20
35.72823827704599
 30
0.0
  0
VERTEX
  5
F6C
330
F6A
100
AcDbEntity
  8
0
100
AcDbVertex
100
AcDb2dVertex
 10
51.97681183120872
 20
35.70308927704599
 30
0.0
  0
VERTEX
  5
F6D
330
F6A
100
AcDbEntity
  8
0
100
AcDbVertex
100
AcDb2dVertex
 10
51.97956783120871
 20
35.70308927704599
 30
0.0
  0
SEQEND
  5
F6E
330
F6A
100
AcDbEntity
  8
0
  0
POLYLINE
  5
F6F
330
1F
100
AcDbEntity
  8
0
100
AcDb2dPolyline
 66
     1
 10
0.0
 20
0.0
 30
0.0
  0
VERTEX
  5
F70
330
F6F
100
AcDbEntity
  8
0
100
AcDbVertex
100
AcDb2dVertex
 10
51.97681183120872
 20
35.70308927704599
 30
0.0
  0
VERTEX
  5
F71
330
F6F
100
AcDbEntity
  8
0
100
AcDbVertex
100
AcDb2dVertex
 10
52.16508583120872
 20
35.66967127704599
 30
0.0
  0
VERTEX
  5
F72
330
F6F
100
AcDbEntity
  8
0
100
AcDbVertex
100
AcDb2dVertex
 10
52.16870383120871
 20
35.66967127704599
 30
0.0
  0
SEQEND
  5
F73
330
F6F
100
AcDbEntity
  8
0
  0
POLYLINE
  5
F74
330
1F
100
AcDbEntity
  8
0
100
AcDb2dPolyline
 66
     1
 10
0.0
 20
0.0
 30
0.0
  0
VERTEX
  5
F75
330
F74
100
AcDbEntity
  8
0
100
AcDbVertex
100
AcDb2dVertex
 10
52.16508583120872
 20
35.66967127704599
 30
0.0
  0
VERTEX
  5
F76
330
F74
100
AcDbEntity
  8
0
100
AcDbVertex
100
AcDb2dVertex
 10
52.33802983120871
 20
35.63349827704599
 30
0.0
  0
VERTEX
  5
F77
330
F74
100
AcDbEntity
  8
0
100
AcDbVertex
100
AcDb2dVertex
 10
52.34147483120872
 20
35.63349827704599
 30
0.0
  0
SEQEND
  5
F78
330
F74
100
AcDbEntity
  8
0
  0
POLYLINE
  5
F79
330
1F
100
AcDbEntity
  8
0
100
AcDb2dPolyline
 66
     1
 10
0.0
 20
0.0
 30
0.0
  0
VERTEX
  5
F7A
330
F79
100
AcDbEntity
  8
0
100
AcDbVertex
100
AcDb2dVertex
 10
52.33802983120871
 20
35.63349827704599
 30
0.0
  0
VERTEX
  5
F7B
330
F79
100
AcDbEntity
  8
0
100
AcDbVertex
100
AcDb2dVertex
 10
52.52458183120872
 20
35.59663527704599
 30
0.0
  0
VERTEX
  5
F7C
330
F79
100
AcDbEntity
  8
0
100
AcDbVertex
100
AcDb2dVertex
 10
52.61243183120871
 20
35.58147727704599
 30
0.0
  0
VERTEX
  5
F7D
330
F79
100
AcDbEntity
  8
0
100
AcDbVertex
100
AcDb2dVertex
 10
52.61518783120872
 20
35.58147727704599
 30
0.0
  0
SEQEND
  5
F7E
330
F79
100
AcDbEntity
  8
0
  0
POLYLINE
  5
F7F
330
1F
100
AcDbEntity
  8
0
100
AcDb2dPolyline
 66
     1
 10
0.0
 20
0.0
 30
0.0
  0
VERTEX
  5
F80
330
F7F
100
AcDbEntity
  8
0
100
AcDbVertex
100
AcDb2dVertex
 10
52.61243183120871
 20
35.58147727704599
 30
0.0
  0
VERTEX
  5
F81
330
F7F
100
AcDbEntity
  8
0
100
AcDbVertex
100
AcDb2dVertex
 10
52.63361883120872
 20
35.57527527704599
 30
0.0
  0
VERTEX
  5
F82
330
F7F
100
AcDbEntity
  8
0
100
AcDbVertex
100
AcDb2dVertex
 10
52.63603083120871
 20
35.57527527704599
 30
0.0
  0
SEQEND
  5
F83
330
F7F
100
AcDbEntity
  8
0
  0
POLYLINE
  5
F84
330
1F
100
AcDbEntity
  8
0
100
AcDb2dPolyline
 66
     1
 10
0.0
 20
0.0
 30
0.0
  0
VERTEX
  5
F85
330
F84
100
AcDbEntity
  8
0
100
AcDbVertex
100
AcDb2dVertex
 10
52.63361883120872
 20
35.57527527704599
 30
0.0
  0
VERTEX
  5
F86
330
F84
100
AcDbEntity
  8
0
100
AcDbVertex
100
AcDb2dVertex
 10
52.65446183120872
 20
35.57045227704599
 30
0.0
  0
VERTEX
  5
F87
330
F84
100
AcDbEntity
  8
0
100
AcDbVertex
100
AcDb2dVertex
 10
52.65790683120871
 20
35.57045227704599
 30
0.0
  0
SEQEND
  5
F88
330
F84
100
AcDbEntity
  8
0
  0
POLYLINE
  5
F89
330
1F
100
AcDbEntity
  8
0
100
AcDb2dPolyline
 66
     1
 10
0.0
 20
0.0
 30
0.0
  0
VERTEX
  5
F8A
330
F89
100
AcDbEntity
  8
0
100
AcDbVertex
100
AcDb2dVertex
 10
52.65446183120872
 20
35.57045227704599
 30
0.0
  0
VERTEX
  5
F8B
330
F89
100
AcDbEntity
  8
0
100
AcDbVertex
100
AcDb2dVertex
 10
52.67874983120872
 20
35.56562927704599
 30
0.0
  0
VERTEX
  5
F8C
330
F89
100
AcDbEntity
  8
0
100
AcDbVertex
100
AcDb2dVertex
 10
52.68942983120871
 20
35.56356227704599
 30
0.0
  0
VERTEX
  5
F8D
330
F89
100
AcDbEntity
  8
0
100
AcDbVertex
100
AcDb2dVertex
 10
52.69115183120871
 20
35.56356227704599
 30
0.0
  0
SEQEND
  5
F8E
330
F89
100
AcDbEntity
  8
0
  0
POLYLINE
  5
F8F
330
1F
100
AcDbEntity
  8
0
100
AcDb2dPolyline
 66
     1
 10
0.0
 20
0.0
 30
0.0
  0
VERTEX
  5
F90
330
F8F
100
AcDbEntity
  8
0
100
AcDbVertex
100
AcDb2dVertex
 10
54.66209083120872
 20
34.54450327704599
 30
0.0
  0
VERTEX
  5
F91
330
F8F
100
AcDbEntity
  8
0
100
AcDbVertex
100
AcDb2dVertex
 10
54.68034983120872
 20
34.52658827704599
 30
0.0
  0
VERTEX
  5
F92
330
F8F
100
AcDbEntity
  8
0
100
AcDbVertex
100
AcDb2dVertex
 10
54.68293383120871
 20
34.52658827704599
 30
0.0
  0
SEQEND
  5
F93
330
F8F
100
AcDbEntity
  8
0
  0
POLYLINE
  5
F94
330
1F
100
AcDbEntity
  8
0
100
AcDb2dPolyline
 66
     1
 10
0.0
 20
0.0
 30
0.0
  0
VERTEX
  5
F95
330
F94
100
AcDbEntity
  8
0
100
AcDbVertex
100
AcDb2dVertex
 10
54.68034983120872
 20
34.52658827704599
 30
0.0
  0
VERTEX
  5
F96
330
F94
100
AcDbEntity
  8
0
100
AcDbVertex
100
AcDb2dVertex
 10
54.69240783120871
 20
34.51659827704599
 30
0.0
  0
VERTEX
  5
F97
330
F94
100
AcDbEntity
  8
0
100
AcDbVertex
100
AcDb2dVertex
 10
54.69533683120872
 20
34.51659827704599
 30
0.0
  0
SEQEND
  5
F98
330
F94
100
AcDbEntity
  8
0
  0
POLYLINE
  5
F99
330
1F
100
AcDbEntity
  8
0
100
AcDb2dPolyline
 66
     1
 10
0.0
 20
0.0
 30
0.0
  0
VERTEX
  5
F9A
330
F99
100
AcDbEntity
  8
0
100
AcDbVertex
100
AcDb2dVertex
 10
54.63676983120871
 20
34.56655227704599
 30
0.0
  0
VERTEX
  5
F9B
330
F99
100
AcDbEntity
  8
0
100
AcDbVertex
100
AcDb2dVertex
 10
54.66209083120872
 20
34.54450327704599
 30
0.0
  0
VERTEX
  5
F9C
330
F99
100
AcDbEntity
  8
0
100
AcDbVertex
100
AcDb2dVertex
 10
54.66553683120872
 20
34.54450327704599
 30
0.0
  0
SEQEND
  5
F9D
330
F99
100
AcDbEntity
  8
0
  0
SPLINE
  5
F9E
330
1F
100
AcDbEntity
  8
0
100
AcDbSpline
210
0.0
220
0.0
230
1.0
 70
     8
 71
     3
 72
    14
 73
    10
 74
     0
 42
0.0000000001
 43
0.0000000001
 40
0.0
 40
0.0
 40
0.0
 40
0.0
 40
1.0
 40
1.0
 40
1.0
 40
2.0
 40
2.0
 40
2.0
 40
3.0
 40
3.0
 40
3.0
 40
3.0
 10
54.06264470013232
 20
34.99822225708071
 30
0.0
 10
54.06264470013232
 20
34.99822225708071
 30
0.0
 10
54.0958898715733
 20
34.9761736459696
 30
0.0
 10
54.0958898715733
 20
34.9761736459696
 30
0.0
 10
54.28812619969829
 20
34.85008315117793
 30
0.0
 10
54.46313705039274
 20
34.71675795586543
 30
0.0
 10
54.63676986289275
 20
34.56620728312238
 30
0.0
 10
54.63676986289275
 20
34.56620728312238
 30
0.0
 10
54.64021495837885
 20
34.56620728312238
 30
0.0
 10
54.64021495837885
 20
34.56620728312238
 30
0.0
  0
SPLINE
  5
F9F
330
1F
100
AcDbEntity
  8
0
100
AcDbSpline
210
0.0
220
0.0
230
1.0
 70
     8
 71
     3
 72
    14
 73
    10
 74
     0
 42
0.0000000001
 43
0.0000000001
 40
0.0
 40
0.0
 40
0.0
 40
0.0
 40
1.0
 40
1.0
 40
1.0
 40
2.0
 40
2.0
 40
2.0
 40
3.0
 40
3.0
 40
3.0
 40
3.0
 10
52.68942963936844
 20
35.56390693590015
 30
0.0
 10
52.68942963936844
 20
35.56390693590015
 30
0.0
 10
52.72784245403857
 20
35.55460517808767
 30
0.0
 10
52.72784245403857
 20
35.55460517808767
 30
0.0
 10
53.20412690499344
 20
35.44401761298349
 30
0.0
 10
53.6464771654101
 20
35.25453736124737
 30
0.0
 10
54.06264470013232
 20
34.99822225708071
 30
0.0
 10
54.06264470013232
 20
34.99822225708071
 30
0.0
 10
54.06557303129551
 20
34.99822225708071
 30
0.0
 10
54.06557303129551
 20
34.99822225708071
 30
0.0
  0
SPLINE
  5
FA0
330
1F
100
AcDbEntity
  8
0
100
AcDbSpline
210
0.0
220
0.0
230
1.0
 70
     8
 71
     3
 72
    17
 73
    13
 74
     0
 42
0.0000000001
 43
0.0000000001
 40
0.0
 40
0.0
 40
0.0
 40
0.0
 40
1.0
 40
1.0
 40
1.0
 40
2.0
 40
2.0
 40
2.0
 40
3.0
 40
3.0
 40
3.0
 40
4.0
 40
4.0
 40
4.0
 40
4.0
 10
55.47031071575732
 20
34.78428182739321
 30
0.0
 10
55.47031071575732
 20
34.78428182739321
 30
0.0
 10
55.53731782296218
 20
34.62994154961542
 30
0.0
 10
55.53731782296218
 20
34.62994154961542
 30
0.0
 10
55.75366981948995
 20
34.09836331610848
 30
0.0
 10
55.86546316801424
 20
33.50546238294877
 30
0.0
 10
55.87493718060106
 20
32.93219849405988
 30
0.0
 10
55.87493718060106
 20
32.93219849405988
 30
0.0
 10
55.87493718060106
 20
32.75064196194182
 30
0.0
 10
55.87493718060106
 20
32.75064196194182
 30
0.0
 10
55.87493718060106
 20
32.75064196194182
 30
0.0
 10
55.87838227608718
 20
32.75064196194182
 30
0.0
 10
55.87838227608718
 20
32.75064196194182
 30
0.0
  0
SPLINE
  5
FA1
330
1F
100
AcDbEntity
  8
0
100
AcDbSpline
210
0.0
220
0.0
230
1.0
 70
     8
 71
     3
 72
    17
 73
    13
 74
     0
 42
0.0000000001
 43
0.0000000001
 40
0.0
 40
0.0
 40
0.0
 40
0.0
 40
1.0
 40
1.0
 40
1.0
 40
2.0
 40
2.0
 40
2.0
 40
3.0
 40
3.0
 40
3.0
 40
4.0
 40
4.0
 40
4.0
 40
4.0
 10
54.69240815499344
 20
34.51659790812237
 30
0.0
 10
54.69240815499344
 20
34.51659790812237
 30
0.0
 10
54.75941526219829
 20
34.45286364162932
 30
0.0
 10
54.75941526219829
 20
34.45286364162932
 30
0.0
 10
55.24379568754551
 20
34.00637926662932
 30
0.0
 10
55.6217226623719
 20
33.44482870239321
 30
0.0
 10
55.84772092626079
 20
32.82574504353905
 30
0.0
 10
55.84772092626079
 20
32.82574504353905
 30
0.0
 10
55.87493718060106
 20
32.75064196194182
 30
0.0
 10
55.87493718060106
 20
32.75064196194182
 30
0.0
 10
55.87493718060106
 20
32.75064196194182
 30
0.0
 10
55.87838227608718
 20
32.75064196194182
 30
0.0
 10
55.87838227608718
 20
32.75064196194182
 30
0.0
  0
SPLINE
  5
FA2
330
1F
100
AcDbEntity
  8
0
100
AcDbSpline
210
0.0
220
0.0
230
1.0
 70
     8
 71
     3
 72
    17
 73
    13
 74
     0
 42
0.0000000001
 43
0.0000000001
 40
0.0
 40
0.0
 40
0.0
 40
0.0
 40
1.0
 40
1.0
 40
1.0
 40
2.0
 40
2.0
 40
2.0
 40
3.0
 40
3.0
 40
3.0
 40
4.0
 40
4.0
 40
4.0
 40
4.0
 10
54.01406885377816
 20
32.93908868503209
 30
0.0
 10
54.01406885377816
 20
32.93908868503209
 30
0.0
 10
53.98685259943787
 20
33.00626804701127
 30
0.0
 10
53.98685259943787
 20
33.00626804701127
 30
0.0
 10
53.92828597617399
 20
33.15578519110849
 30
0.0
 10
53.8481875061219
 20
33.31460409301821
 30
0.0
 10
53.7706728576844
 20
33.45619751749737
 30
0.0
 10
53.7706728576844
 20
33.45619751749737
 30
0.0
 10
53.73742768624342
 20
33.51648668850432
 30
0.0
 10
53.73742768624342
 20
33.51648668850432
 30
0.0
 10
53.73742768624342
 20
33.51648668850432
 30
0.0
 10
53.74001150785801
 20
33.51648668850432
 30
0.0
 10
53.74001150785801
 20
33.51648668850432
 30
0.0
  0
SPLINE
  5
FA3
330
1F
100
AcDbEntity
  8
0
100
AcDbSpline
210
0.0
220
0.0
230
1.0
 70
     8
 71
     3
 72
    17
 73
    13
 74
     0
 42
0.0000000001
 43
0.0000000001
 40
0.0
 40
0.0
 40
0.0
 40
0.0
 40
1.0
 40
1.0
 40
1.0
 40
2.0
 40
2.0
 40
2.0
 40
3.0
 40
3.0
 40
3.0
 40
4.0
 40
4.0
 40
4.0
 40
4.0
 10
53.73742768624342
 20
33.51648668850432
 30
0.0
 10
53.73742768624342
 20
33.51648668850432
 30
0.0
 10
53.64613265586149
 20
33.66290324666404
 30
0.0
 10
53.64613265586149
 20
33.66290324666404
 30
0.0
 10
53.03393918797953
 20
34.62201782999738
 30
0.0
 10
52.05122570056635
 20
35.26315009996265
 30
0.0
 10
50.9303638841601
 20
35.44780721801821
 30
0.0
 10
50.9303638841601
 20
35.44780721801821
 30
0.0
 10
50.84578678997607
 20
35.46020956176821
 30
0.0
 10
50.84578678997607
 20
35.46020956176821
 30
0.0
 10
50.84578678997607
 20
35.46020956176821
 30
0.0
 10
50.84854286636495
 20
35.46020956176821
 30
0.0
 10
50.84854286636495
 20
35.46020956176821
 30
0.0
  0
POLYLINE
  5
FA4
330
1F
100
AcDbEntity
  8
0
100
AcDb2dPolyline
 66
     1
 10
0.0
 20
0.0
 30
0.0
  0
VERTEX
  5
FA5
330
FA4
100
AcDbEntity
  8
0
100
AcDbVertex
100
AcDb2dVertex
 10
51.54772483120872
 20
35.77853627704599
 30
0.0
  0
VERTEX
  5
FA6
330
FA4
100
AcDbEntity
  8
0
100
AcDbVertex
100
AcDb2dVertex
 10
51.69775883120871
 20
35.75166427704599
 30
0.0
  0
VERTEX
  5
FA7
330
FA4
100
AcDbEntity
  8
0
100
AcDbVertex
100
AcDb2dVertex
 10
51.69948183120872
 20
35.75166427704599
 30
0.0
  0
SEQEND
  5
FA8
330
FA4
100
AcDbEntity
  8
0
  0
SPLINE
  5
FA9
330
1F
100
AcDbEntity
  8
0
100
AcDbSpline
210
0.0
220
0.0
230
1.0
 70
     8
 71
     3
 72
    17
 73
    13
 74
     0
 42
0.0000000001
 43
0.0000000001
 40
0.0
 40
0.0
 40
0.0
 40
0.0
 40
1.0
 40
1.0
 40
1.0
 40
2.0
 40
2.0
 40
2.0
 40
3.0
 40
3.0
 40
3.0
 40
4.0
 40
4.0
 40
4.0
 40
4.0
 10
54.80178993667746
 20
29.25387004353904
 30
0.0
 10
54.80178993667746
 20
29.25387004353904
 30
0.0
 10
54.80178993667746
 20
29.41510051228905
 30
0.0
 10
54.80178993667746
 20
29.41510051228905
 30
0.0
 10
54.78129161853509
 20
30.57713121975432
 30
0.0
 10
54.55581011896912
 20
31.77740248711542
 30
0.0
 10
54.06298920968093
 20
32.83539131090015
 30
0.0
 10
54.06298920968093
 20
32.83539131090015
 30
0.0
 10
54.01441336332676
 20
32.93908868503209
 30
0.0
 10
54.01441336332676
 20
32.93908868503209
 30
0.0
 10
54.01441336332676
 20
32.93908868503209
 30
0.0
 10
54.01751394926424
 20
32.93908868503209
 30
0.0
 10
54.01751394926424
 20
32.93908868503209
 30
0.0
  0
POLYLINE
  5
FAA
330
1F
100
AcDbEntity
  8
0
100
AcDb2dPolyline
 66
     1
 10
0.0
 20
0.0
 30
0.0
  0
VERTEX
  5
FAB
330
FAA
100
AcDbEntity
  8
0
100
AcDbVertex
100
AcDb2dVertex
 10
38.53869983120872
 20
38.24177927704599
 30
0.0
  0
VERTEX
  5
FAC
330
FAA
100
AcDbEntity
  8
0
100
AcDbVertex
100
AcDb2dVertex
 10
38.76624883120872
 20
38.23695627704599
 30
0.0
  0
VERTEX
  5
FAD
330
FAA
100
AcDbEntity
  8
0
100
AcDbVertex
100
AcDb2dVertex
 10
38.76986583120872
 20
38.23695627704599
 30
0.0
  0
SEQEND
  5
FAE
330
FAA
100
AcDbEntity
  8
0
  0
POLYLINE
  5
FAF
330
1F
100
AcDbEntity
  8
0
100
AcDb2dPolyline
 66
     1
 10
0.0
 20
0.0
 30
0.0
  0
VERTEX
  5
FB0
330
FAF
100
AcDbEntity
  8
0
100
AcDbVertex
100
AcDb2dVertex
 10
41.67993783120872
 20
38.13050327704599
 30
0.0
  0
VERTEX
  5
FB1
330
FAF
100
AcDbEntity
  8
0
100
AcDbVertex
100
AcDb2dVertex
 10
42.0146288312087
 20
38.11465527704599
 30
0.0
  0
VERTEX
  5
FB2
330
FAF
100
AcDbEntity
  8
0
100
AcDbVertex
100
AcDb2dVertex
 10
42.01824683120872
 20
38.11465527704599
 30
0.0
  0
SEQEND
  5
FB3
330
FAF
100
AcDbEntity
  8
0
  0
POLYLINE
  5
FB4
330
1F
100
AcDbEntity
  8
0
100
AcDb2dPolyline
 66
     1
 10
0.0
 20
0.0
 30
0.0
  0
VERTEX
  5
FB5
330
FB4
100
AcDbEntity
  8
0
100
AcDbVertex
100
AcDb2dVertex
 10
42.0146288312087
 20
38.11465527704599
 30
0.0
  0
VERTEX
  5
FB6
330
FB4
100
AcDbEntity
  8
0
100
AcDbVertex
100
AcDb2dVertex
 10
42.36775083120871
 20
38.09570727704599
 30
0.0
  0
VERTEX
  5
FB7
330
FB4
100
AcDbEntity
  8
0
100
AcDbVertex
100
AcDb2dVertex
 10
42.37067983120871
 20
38.09570727704599
 30
0.0
  0
SEQEND
  5
FB8
330
FB4
100
AcDbEntity
  8
0
  0
POLYLINE
  5
FB9
330
1F
100
AcDbEntity
  8
0
100
AcDb2dPolyline
 66
     1
 10
0.0
 20
0.0
 30
0.0
  0
VERTEX
  5
FBA
330
FB9
100
AcDbEntity
  8
0
100
AcDbVertex
100
AcDb2dVertex
 10
41.6432478312087
 20
38.13325927704599
 30
0.0
  0
VERTEX
  5
FBB
330
FB9
100
AcDbEntity
  8
0
100
AcDbVertex
100
AcDb2dVertex
 10
41.67993783120872
 20
38.13050327704599
 30
0.0
  0
VERTEX
  5
FBC
330
FB9
100
AcDbEntity
  8
0
100
AcDbVertex
100
AcDb2dVertex
 10
41.68234983120871
 20
38.13050327704599
 30
0.0
  0
SEQEND
  5
FBD
330
FB9
100
AcDbEntity
  8
0
  0
POLYLINE
  5
FBE
330
1F
100
AcDbEntity
  8
0
100
AcDb2dPolyline
 66
     1
 10
0.0
 20
0.0
 30
0.0
  0
VERTEX
  5
FBF
330
FBE
100
AcDbEntity
  8
0
100
AcDbVertex
100
AcDb2dVertex
 10
42.73740983120871
 20
38.07469227704599
 30
0.0
  0
VERTEX
  5
FC0
330
FBE
100
AcDbEntity
  8
0
100
AcDbVertex
100
AcDb2dVertex
 10
43.12980683120872
 20
38.05367727704599
 30
0.0
  0
VERTEX
  5
FC1
330
FBE
100
AcDbEntity
  8
0
100
AcDbVertex
100
AcDb2dVertex
 10
43.13359583120871
 20
38.05367727704599
 30
0.0
  0
SEQEND
  5
FC2
330
FBE
100
AcDbEntity
  8
0
  0
POLYLINE
  5
FC3
330
1F
100
AcDbEntity
  8
0
100
AcDb2dPolyline
 66
     1
 10
0.0
 20
0.0
 30
0.0
  0
VERTEX
  5
FC4
330
FC3
100
AcDbEntity
  8
0
100
AcDbVertex
100
AcDb2dVertex
 10
43.12980683120872
 20
38.05367727704599
 30
0.0
  0
VERTEX
  5
FC5
330
FC3
100
AcDbEntity
  8
0
100
AcDbVertex
100
AcDb2dVertex
 10
43.54080583120871
 20
38.03025127704599
 30
0.0
  0
VERTEX
  5
FC6
330
FC3
100
AcDbEntity
  8
0
100
AcDbVertex
100
AcDb2dVertex
 10
43.54425183120871
 20
38.03025127704599
 30
0.0
  0
SEQEND
  5
FC7
330
FC3
100
AcDbEntity
  8
0
  0
POLYLINE
  5
FC8
330
1F
100
AcDbEntity
  8
0
100
AcDb2dPolyline
 66
     1
 10
0.0
 20
0.0
 30
0.0
  0
VERTEX
  5
FC9
330
FC8
100
AcDbEntity
  8
0
100
AcDbVertex
100
AcDb2dVertex
 10
43.97333783120872
 20
38.00234527704599
 30
0.0
  0
VERTEX
  5
FCA
330
FC8
100
AcDbEntity
  8
0
100
AcDbVertex
100
AcDb2dVertex
 10
44.42946883120871
 20
37.97168427704599
 30
0.0
  0
VERTEX
  5
FCB
330
FC8
100
AcDbEntity
  8
0
100
AcDbVertex
100
AcDb2dVertex
 10
44.4318798312087
 20
37.97168427704599
 30
0.0
  0
SEQEND
  5
FCC
330
FC8
100
AcDbEntity
  8
0
  0
POLYLINE
  5
FCD
330
1F
100
AcDbEntity
  8
0
100
AcDb2dPolyline
 66
     1
 10
0.0
 20
0.0
 30
0.0
  0
VERTEX
  5
FCE
330
FCD
100
AcDbEntity
  8
0
100
AcDbVertex
100
AcDb2dVertex
 10
44.42946883120871
 20
37.97168427704599
 30
0.0
  0
VERTEX
  5
FCF
330
FCD
100
AcDbEntity
  8
0
100
AcDbVertex
100
AcDb2dVertex
 10
44.90988683120872
 20
37.93861127704599
 30
0.0
  0
VERTEX
  5
FD0
330
FCD
100
AcDbEntity
  8
0
100
AcDbVertex
100
AcDb2dVertex
 10
44.91350483120871
 20
37.93861127704599
 30
0.0
  0
SEQEND
  5
FD1
330
FCD
100
AcDbEntity
  8
0
  0
POLYLINE
  5
FD2
330
1F
100
AcDbEntity
  8
0
100
AcDb2dPolyline
 66
     1
 10
0.0
 20
0.0
 30
0.0
  0
VERTEX
  5
FD3
330
FD2
100
AcDbEntity
  8
0
100
AcDbVertex
100
AcDb2dVertex
 10
43.54080583120871
 20
38.03025127704599
 30
0.0
  0
VERTEX
  5
FD4
330
FD2
100
AcDbEntity
  8
0
100
AcDbVertex
100
AcDb2dVertex
 10
43.97333783120872
 20
38.00234527704599
 30
0.0
  0
VERTEX
  5
FD5
330
FD2
100
AcDbEntity
  8
0
100
AcDbVertex
100
AcDb2dVertex
 10
43.97574983120872
 20
38.00234527704599
 30
0.0
  0
SEQEND
  5
FD6
330
FD2
100
AcDbEntity
  8
0
  0
POLYLINE
  5
FD7
330
1F
100
AcDbEntity
  8
0
100
AcDb2dPolyline
 66
     1
 10
0.0
 20
0.0
 30
0.0
  0
VERTEX
  5
FD8
330
FD7
100
AcDbEntity
  8
0
100
AcDbVertex
100
AcDb2dVertex
 10
46.21092783120871
 20
37.84180427704599
 30
0.0
  0
VERTEX
  5
FD9
330
FD7
100
AcDbEntity
  8
0
100
AcDbVertex
100
AcDb2dVertex
 10
46.7457788312087
 20
37.79564027704599
 30
0.0
  0
VERTEX
  5
FDA
330
FD7
100
AcDbEntity
  8
0
100
AcDbVertex
100
AcDb2dVertex
 10
46.74887883120871
 20
37.79564027704599
 30
0.0
  0
SEQEND
  5
FDB
330
FD7
100
AcDbEntity
  8
0
  0
POLYLINE
  5
FDC
330
1F
100
AcDbEntity
  8
0
100
AcDb2dPolyline
 66
     1
 10
0.0
 20
0.0
 30
0.0
  0
VERTEX
  5
FDD
330
FDC
100
AcDbEntity
  8
0
100
AcDbVertex
100
AcDb2dVertex
 10
45.67934983120871
 20
37.88383427704599
 30
0.0
  0
VERTEX
  5
FDE
330
FDC
100
AcDbEntity
  8
0
100
AcDbVertex
100
AcDb2dVertex
 10
46.21092783120871
 20
37.84180427704599
 30
0.0
  0
VERTEX
  5
FDF
330
FDC
100
AcDbEntity
  8
0
100
AcDbVertex
100
AcDb2dVertex
 10
46.21368383120872
 20
37.84180427704599
 30
0.0
  0
SEQEND
  5
FE0
330
FDC
100
AcDbEntity
  8
0
  0
POLYLINE
  5
FE1
330
1F
100
AcDbEntity
  8
0
100
AcDb2dPolyline
 66
     1
 10
0.0
 20
0.0
 30
0.0
  0
VERTEX
  5
FE2
330
FE1
100
AcDbEntity
  8
0
100
AcDbVertex
100
AcDb2dVertex
 10
44.90988683120872
 20
37.93861127704599
 30
0.0
  0
VERTEX
  5
FE3
330
FE1
100
AcDbEntity
  8
0
100
AcDbVertex
100
AcDb2dVertex
 10
45.41407683120871
 20
37.90209327704599
 30
0.0
  0
VERTEX
  5
FE4
330
FE1
100
AcDbEntity
  8
0
100
AcDbVertex
100
AcDb2dVertex
 10
45.67934983120871
 20
37.88383427704599
 30
0.0
  0
VERTEX
  5
FE5
330
FE1
100
AcDbEntity
  8
0
100
AcDbVertex
100
AcDb2dVertex
 10
45.68244983120872
 20
37.88383427704599
 30
0.0
  0
SEQEND
  5
FE6
330
FE1
100
AcDbEntity
  8
0
  0
POLYLINE
  5
FE7
330
1F
100
AcDbEntity
  8
0
100
AcDb2dPolyline
 66
     1
 10
0.0
 20
0.0
 30
0.0
  0
VERTEX
  5
FE8
330
FE7
100
AcDbEntity
  8
0
100
AcDbVertex
100
AcDb2dVertex
 10
42.36775083120871
 20
38.09570727704599
 30
0.0
  0
VERTEX
  5
FE9
330
FE7
100
AcDbEntity
  8
0
100
AcDbVertex
100
AcDb2dVertex
 10
42.73740983120871
 20
38.07469227704599
 30
0.0
  0
VERTEX
  5
FEA
330
FE7
100
AcDbEntity
  8
0
100
AcDbVertex
100
AcDb2dVertex
 10
42.74102783120872
 20
38.07469227704599
 30
0.0
  0
SEQEND
  5
FEB
330
FE7
100
AcDbEntity
  8
0
  0
POLYLINE
  5
FEC
330
1F
100
AcDbEntity
  8
0
100
AcDb2dPolyline
 66
     1
 10
0.0
 20
0.0
 30
0.0
  0
VERTEX
  5
FED
330
FEC
100
AcDbEntity
  8
0
100
AcDbVertex
100
AcDb2dVertex
 10
48.58063683120872
 20
36.15267327704599
 30
0.0
  0
VERTEX
  5
FEE
330
FEC
100
AcDbEntity
  8
0
100
AcDbVertex
100
AcDb2dVertex
 10
49.06639483120872
 20
36.10134227704599
 30
0.0
  0
VERTEX
  5
FEF
330
FEC
100
AcDbEntity
  8
0
100
AcDbVertex
100
AcDb2dVertex
 10
49.06949583120872
 20
36.10134227704599
 30
0.0
  0
SEQEND
  5
FF0
330
FEC
100
AcDbEntity
  8
0
  0
POLYLINE
  5
FF1
330
1F
100
AcDbEntity
  8
0
100
AcDb2dPolyline
 66
     1
 10
0.0
 20
0.0
 30
0.0
  0
VERTEX
  5
FF2
330
FF1
100
AcDbEntity
  8
0
100
AcDbVertex
100
AcDb2dVertex
 10
48.01081783120871
 20
36.20745027704599
 30
0.0
  0
VERTEX
  5
FF3
330
FF1
100
AcDbEntity
  8
0
100
AcDbVertex
100
AcDb2dVertex
 10
48.58063683120872
 20
36.15267327704599
 30
0.0
  0
VERTEX
  5
FF4
330
FF1
100
AcDbEntity
  8
0
100
AcDbVertex
100
AcDb2dVertex
 10
48.58373683120872
 20
36.15267327704599
 30
0.0
  0
SEQEND
  5
FF5
330
FF1
100
AcDbEntity
  8
0
  0
POLYLINE
  5
FF6
330
1F
100
AcDbEntity
  8
0
100
AcDb2dPolyline
 66
     1
 10
0.0
 20
0.0
 30
0.0
  0
VERTEX
  5
FF7
330
FF6
100
AcDbEntity
  8
0
100
AcDbVertex
100
AcDb2dVertex
 10
47.25771983120871
 20
37.75292027704599
 30
0.0
  0
VERTEX
  5
FF8
330
FF6
100
AcDbEntity
  8
0
100
AcDbVertex
100
AcDb2dVertex
 10
47.73107583120871
 20
37.71020127704599
 30
0.0
  0
VERTEX
  5
FF9
330
FF6
100
AcDbEntity
  8
0
100
AcDbVertex
100
AcDb2dVertex
 10
47.73452083120871
 20
37.71020127704599
 30
0.0
  0
SEQEND
  5
FFA
330
FF6
100
AcDbEntity
  8
0
  0
POLYLINE
  5
FFB
330
1F
100
AcDbEntity
  8
0
100
AcDb2dPolyline
 66
     1
 10
0.0
 20
0.0
 30
0.0
  0
VERTEX
  5
FFC
330
FFB
100
AcDbEntity
  8
0
100
AcDbVertex
100
AcDb2dVertex
 10
47.73107583120871
 20
37.71020127704599
 30
0.0
  0
VERTEX
  5
FFD
330
FFB
100
AcDbEntity
  8
0
100
AcDbVertex
100
AcDb2dVertex
 10
48.16360783120871
 20
37.66713727704599
 30
0.0
  0
VERTEX
  5
FFE
330
FFB
100
AcDbEntity
  8
0
100
AcDbVertex
100
AcDb2dVertex
 10
48.16705283120871
 20
37.66713727704599
 30
0.0
  0
SEQEND
  5
FFF
330
FFB
100
AcDbEntity
  8
0
  0
POLYLINE
  5
1000
330
1F
100
AcDbEntity
  8
0
100
AcDb2dPolyline
 66
     1
 10
0.0
 20
0.0
 30
0.0
  0
VERTEX
  5
1001
330
1000
100
AcDbEntity
  8
0
100
AcDbVertex
100
AcDb2dVertex
 10
48.56220483120871
 20
37.62820827704599
 30
0.0
  0
VERTEX
  5
1002
330
1000
100
AcDbEntity
  8
0
100
AcDbVertex
100
AcDb2dVertex
 10
49.10894183120871
 20
37.57308627704599
 30
0.0
  0
VERTEX
  5
1003
330
1000
100
AcDbEntity
  8
0
100
AcDbVertex
100
AcDb2dVertex
 10
49.11221483120871
 20
37.57308627704599
 30
0.0
  0
SEQEND
  5
1004
330
1000
100
AcDbEntity
  8
0
  0
POLYLINE
  5
1005
330
1F
100
AcDbEntity
  8
0
100
AcDb2dPolyline
 66
     1
 10
0.0
 20
0.0
 30
0.0
  0
VERTEX
  5
1006
330
1005
100
AcDbEntity
  8
0
100
AcDbVertex
100
AcDb2dVertex
 10
48.16360783120871
 20
37.66713727704599
 30
0.0
  0
VERTEX
  5
1007
330
1005
100
AcDbEntity
  8
0
100
AcDbVertex
100
AcDb2dVertex
 10
48.56220483120871
 20
37.62820827704599
 30
0.0
  0
VERTEX
  5
1008
330
1005
100
AcDbEntity
  8
0
100
AcDbVertex
100
AcDb2dVertex
 10
48.56461683120871
 20
37.62820827704599
 30
0.0
  0
SEQEND
  5
1009
330
1005
100
AcDbEntity
  8
0
  0
POLYLINE
  5
100A
330
1F
100
AcDbEntity
  8
0
100
AcDb2dPolyline
 66
     1
 10
0.0
 20
0.0
 30
0.0
  0
VERTEX
  5
100B
330
100A
100
AcDbEntity
  8
0
100
AcDbVertex
100
AcDb2dVertex
 10
50.06116583120871
 20
37.47283427704599
 30
0.0
  0
VERTEX
  5
100C
330
100A
100
AcDbEntity
  8
0
100
AcDbVertex
100
AcDb2dVertex
 10
50.33780783120871
 20
37.43907227704599
 30
0.0
  0
VERTEX
  5
100D
330
100A
100
AcDbEntity
  8
0
100
AcDbVertex
100
AcDb2dVertex
 10
50.34090783120872
 20
37.43907227704599
 30
0.0
  0
SEQEND
  5
100E
330
100A
100
AcDbEntity
  8
0
  0
POLYLINE
  5
100F
330
1F
100
AcDbEntity
  8
0
100
AcDb2dPolyline
 66
     1
 10
0.0
 20
0.0
 30
0.0
  0
VERTEX
  5
1010
330
100F
100
AcDbEntity
  8
0
100
AcDbVertex
100
AcDb2dVertex
 10
50.59911783120871
 20
37.40565527704599
 30
0.0
  0
VERTEX
  5
1011
330
100F
100
AcDbEntity
  8
0
100
AcDbVertex
100
AcDb2dVertex
 10
50.84613083120871
 20
37.37258227704599
 30
0.0
  0
VERTEX
  5
1012
330
100F
100
AcDbEntity
  8
0
100
AcDbVertex
100
AcDb2dVertex
 10
50.84854283120871
 20
37.37258227704599
 30
0.0
  0
SEQEND
  5
1013
330
100F
100
AcDbEntity
  8
0
  0
POLYLINE
  5
1014
330
1F
100
AcDbEntity
  8
0
100
AcDb2dPolyline
 66
     1
 10
0.0
 20
0.0
 30
0.0
  0
VERTEX
  5
1015
330
1014
100
AcDbEntity
  8
0
100
AcDbVertex
100
AcDb2dVertex
 10
50.84613083120871
 20
37.37258227704599
 30
0.0
  0
VERTEX
  5
1016
330
1014
100
AcDbEntity
  8
0
100
AcDbVertex
100
AcDb2dVertex
 10
51.08074183120871
 20
37.33882027704599
 30
0.0
  0
VERTEX
  5
1017
330
1014
100
AcDbEntity
  8
0
100
AcDbVertex
100
AcDb2dVertex
 10
51.08212083120871
 20
37.33882027704599
 30
0.0
  0
SEQEND
  5
1018
330
1014
100
AcDbEntity
  8
0
  0
POLYLINE
  5
1019
330
1F
100
AcDbEntity
  8
0
100
AcDb2dPolyline
 66
     1
 10
0.0
 20
0.0
 30
0.0
  0
VERTEX
  5
101A
330
1019
100
AcDbEntity
  8
0
100
AcDbVertex
100
AcDb2dVertex
 10
51.08074183120871
 20
37.33882027704599
 30
0.0
  0
VERTEX
  5
101B
330
1019
100
AcDbEntity
  8
0
100
AcDbVertex
100
AcDb2dVertex
 10
51.29933383120872
 20
37.30540227704599
 30
0.0
  0
VERTEX
  5
101C
330
1019
100
AcDbEntity
  8
0
100
AcDbVertex
100
AcDb2dVertex
 10
51.30226183120871
 20
37.30540227704599
 30
0.0
  0
SEQEND
  5
101D
330
1019
100
AcDbEntity
  8
0
  0
POLYLINE
  5
101E
330
1F
100
AcDbEntity
  8
0
100
AcDb2dPolyline
 66
     1
 10
0.0
 20
0.0
 30
0.0
  0
VERTEX
  5
101F
330
101E
100
AcDbEntity
  8
0
100
AcDbVertex
100
AcDb2dVertex
 10
51.29933383120872
 20
37.30540227704599
 30
0.0
  0
VERTEX
  5
1020
330
101E
100
AcDbEntity
  8
0
100
AcDbVertex
100
AcDb2dVertex
 10
51.50793383120872
 20
37.27233027704599
 30
0.0
  0
VERTEX
  5
1021
330
101E
100
AcDbEntity
  8
0
100
AcDbVertex
100
AcDb2dVertex
 10
51.5113788312087
 20
37.27233027704599
 30
0.0
  0
SEQEND
  5
1022
330
101E
100
AcDbEntity
  8
0
  0
POLYLINE
  5
1023
330
1F
100
AcDbEntity
  8
0
100
AcDb2dPolyline
 66
     1
 10
0.0
 20
0.0
 30
0.0
  0
VERTEX
  5
1024
330
1023
100
AcDbEntity
  8
0
100
AcDbVertex
100
AcDb2dVertex
 10
50.33780783120871
 20
37.43907227704599
 30
0.0
  0
VERTEX
  5
1025
330
1023
100
AcDbEntity
  8
0
100
AcDbVertex
100
AcDb2dVertex
 10
50.59911783120871
 20
37.40565527704599
 30
0.0
  0
VERTEX
  5
1026
330
1023
100
AcDbEntity
  8
0
100
AcDbVertex
100
AcDb2dVertex
 10
50.60273483120872
 20
37.40565527704599
 30
0.0
  0
SEQEND
  5
1027
330
1023
100
AcDbEntity
  8
0
  0
POLYLINE
  5
1028
330
1F
100
AcDbEntity
  8
0
100
AcDb2dPolyline
 66
     1
 10
0.0
 20
0.0
 30
0.0
  0
VERTEX
  5
1029
330
1028
100
AcDbEntity
  8
0
100
AcDbVertex
100
AcDb2dVertex
 10
49.44621683120871
 20
37.539324277046
 30
0.0
  0
VERTEX
  5
102A
330
1028
100
AcDbEntity
  8
0
100
AcDbVertex
100
AcDb2dVertex
 10
49.76299283120871
 20
37.505907277046
 30
0.0
  0
VERTEX
  5
102B
330
1028
100
AcDbEntity
  8
0
100
AcDbVertex
100
AcDb2dVertex
 10
49.76626583120872
 20
37.505907277046
 30
0.0
  0
SEQEND
  5
102C
330
1028
100
AcDbEntity
  8
0
  0
POLYLINE
  5
102D
330
1F
100
AcDbEntity
  8
0
100
AcDb2dPolyline
 66
     1
 10
0.0
 20
0.0
 30
0.0
  0
VERTEX
  5
102E
330
102D
100
AcDbEntity
  8
0
100
AcDbVertex
100
AcDb2dVertex
 10
49.76299283120871
 20
37.505907277046
 30
0.0
  0
VERTEX
  5
102F
330
102D
100
AcDbEntity
  8
0
100
AcDbVertex
100
AcDb2dVertex
 10
50.06116583120871
 20
37.47283427704599
 30
0.0
  0
VERTEX
  5
1030
330
102D
100
AcDbEntity
  8
0
100
AcDbVertex
100
AcDb2dVertex
 10
50.06357783120871
 20
37.47283427704599
 30
0.0
  0
SEQEND
  5
1031
330
102D
100
AcDbEntity
  8
0
  0
POLYLINE
  5
1032
330
1F
100
AcDbEntity
  8
0
100
AcDb2dPolyline
 66
     1
 10
0.0
 20
0.0
 30
0.0
  0
VERTEX
  5
1033
330
1032
100
AcDbEntity
  8
0
100
AcDbVertex
100
AcDb2dVertex
 10
49.10894183120871
 20
37.57308627704599
 30
0.0
  0
VERTEX
  5
1034
330
1032
100
AcDbEntity
  8
0
100
AcDbVertex
100
AcDb2dVertex
 10
49.44621683120871
 20
37.539324277046
 30
0.0
  0
VERTEX
  5
1035
330
1032
100
AcDbEntity
  8
0
100
AcDbVertex
100
AcDb2dVertex
 10
49.45052283120872
 20
37.539324277046
 30
0.0
  0
SEQEND
  5
1036
330
1032
100
AcDbEntity
  8
0
  0
POLYLINE
  5
1037
330
1F
100
AcDbEntity
  8
0
100
AcDb2dPolyline
 66
     1
 10
0.0
 20
0.0
 30
0.0
  0
VERTEX
  5
1038
330
1037
100
AcDbEntity
  8
0
100
AcDbVertex
100
AcDb2dVertex
 10
49.06639483120872
 20
36.10134227704599
 30
0.0
  0
VERTEX
  5
1039
330
1037
100
AcDbEntity
  8
0
100
AcDbVertex
100
AcDb2dVertex
 10
49.48996983120871
 20
36.05586627704599
 30
0.0
  0
VERTEX
  5
103A
330
1037
100
AcDbEntity
  8
0
100
AcDbVertex
100
AcDb2dVertex
 10
49.49255283120871
 20
36.05586627704599
 30
0.0
  0
SEQEND
  5
103B
330
1037
100
AcDbEntity
  8
0
  0
POLYLINE
  5
103C
330
1F
100
AcDbEntity
  8
0
100
AcDb2dPolyline
 66
     1
 10
0.0
 20
0.0
 30
0.0
  0
VERTEX
  5
103D
330
103C
100
AcDbEntity
  8
0
100
AcDbVertex
100
AcDb2dVertex
 10
51.70585483120871
 20
37.24166827704599
 30
0.0
  0
VERTEX
  5
103E
330
103C
100
AcDbEntity
  8
0
100
AcDbVertex
100
AcDb2dVertex
 10
51.89240683120871
 20
37.20859527704599
 30
0.0
  0
VERTEX
  5
103F
330
103C
100
AcDbEntity
  8
0
100
AcDbVertex
100
AcDb2dVertex
 10
51.89516283120872
 20
37.20859527704599
 30
0.0
  0
SEQEND
  5
1040
330
103C
100
AcDbEntity
  8
0
  0
POLYLINE
  5
1041
330
1F
100
AcDbEntity
  8
0
100
AcDb2dPolyline
 66
     1
 10
0.0
 20
0.0
 30
0.0
  0
VERTEX
  5
1042
330
1041
100
AcDbEntity
  8
0
100
AcDbVertex
100
AcDb2dVertex
 10
53.16312983120871
 20
38.26313927704599
 30
0.0
  0
VERTEX
  5
1043
330
1041
100
AcDbEntity
  8
0
100
AcDbVertex
100
AcDb2dVertex
 10
52.97761183120872
 20
38.29448927704599
 30
0.0
  0
VERTEX
  5
1044
330
1041
100
AcDbEntity
  8
0
100
AcDbVertex
100
AcDb2dVertex
 10
52.98071283120872
 20
38.29448927704599
 30
0.0
  0
SEQEND
  5
1045
330
1041
100
AcDbEntity
  8
0
  0
POLYLINE
  5
1046
330
1F
100
AcDbEntity
  8
0
100
AcDb2dPolyline
 66
     1
 10
0.0
 20
0.0
 30
0.0
  0
VERTEX
  5
1047
330
1046
100
AcDbEntity
  8
0
100
AcDbVertex
100
AcDb2dVertex
 10
53.34623683120872
 20
38.23006627704599
 30
0.0
  0
VERTEX
  5
1048
330
1046
100
AcDbEntity
  8
0
100
AcDbVertex
100
AcDb2dVertex
 10
53.16312983120871
 20
38.26313927704599
 30
0.0
  0
VERTEX
  5
1049
330
1046
100
AcDbEntity
  8
0
100
AcDbVertex
100
AcDb2dVertex
 10
53.16674783120872
 20
38.26313927704599
 30
0.0
  0
SEQEND
  5
104A
330
1046
100
AcDbEntity
  8
0
  0
POLYLINE
  5
104B
330
1F
100
AcDbEntity
  8
0
100
AcDb2dPolyline
 66
     1
 10
0.0
 20
0.0
 30
0.0
  0
VERTEX
  5
104C
330
104B
100
AcDbEntity
  8
0
100
AcDbVertex
100
AcDb2dVertex
 10
53.52762183120872
 20
38.19664927704599
 30
0.0
  0
VERTEX
  5
104D
330
104B
100
AcDbEntity
  8
0
100
AcDbVertex
100
AcDb2dVertex
 10
53.34623683120872
 20
38.23006627704599
 30
0.0
  0
VERTEX
  5
104E
330
104B
100
AcDbEntity
  8
0
100
AcDbVertex
100
AcDb2dVertex
 10
53.34795983120872
 20
38.23006627704599
 30
0.0
  0
SEQEND
  5
104F
330
104B
100
AcDbEntity
  8
0
  0
POLYLINE
  5
1050
330
1F
100
AcDbEntity
  8
0
100
AcDb2dPolyline
 66
     1
 10
0.0
 20
0.0
 30
0.0
  0
VERTEX
  5
1051
330
1050
100
AcDbEntity
  8
0
100
AcDbVertex
100
AcDb2dVertex
 10
53.87471483120871
 20
38.13050327704599
 30
0.0
  0
VERTEX
  5
1052
330
1050
100
AcDbEntity
  8
0
100
AcDbVertex
100
AcDb2dVertex
 10
53.52762183120872
 20
38.19664927704599
 30
0.0
  0
VERTEX
  5
1053
330
1050
100
AcDbEntity
  8
0
100
AcDbVertex
100
AcDb2dVertex
 10
53.53003283120871
 20
38.19664927704599
 30
0.0
  0
SEQEND
  5
1054
330
1050
100
AcDbEntity
  8
0
  0
POLYLINE
  5
1055
330
1F
100
AcDbEntity
  8
0
100
AcDb2dPolyline
 66
     1
 10
0.0
 20
0.0
 30
0.0
  0
VERTEX
  5
1056
330
1055
100
AcDbEntity
  8
0
100
AcDbVertex
100
AcDb2dVertex
 10
52.97123883120871
 20
37.65266827704599
 30
0.0
  0
VERTEX
  5
1057
330
1055
100
AcDbEntity
  8
0
100
AcDbVertex
100
AcDb2dVertex
 10
52.97123883120871
 20
37.664726277046
 30
0.0
  0
VERTEX
  5
1058
330
1055
100
AcDbEntity
  8
0
100
AcDbVertex
100
AcDb2dVertex
 10
52.97364983120871
 20
37.664726277046
 30
0.0
  0
SEQEND
  5
1059
330
1055
100
AcDbEntity
  8
0
  0
POLYLINE
  5
105A
330
1F
100
AcDbEntity
  8
0
100
AcDb2dPolyline
 66
     1
 10
0.0
 20
0.0
 30
0.0
  0
VERTEX
  5
105B
330
105A
100
AcDbEntity
  8
0
100
AcDbVertex
100
AcDb2dVertex
 10
53.16674783120872
 20
38.26313927704599
 30
0.0
  0
VERTEX
  5
105C
330
105A
100
AcDbEntity
  8
0
100
AcDbVertex
100
AcDb2dVertex
 10
52.61553283120871
 20
38.35202227704599
 30
0.0
  0
VERTEX
  5
105D
330
105A
100
AcDbEntity
  8
0
100
AcDbVertex
100
AcDb2dVertex
 10
52.61880483120871
 20
38.35202227704599
 30
0.0
  0
SEQEND
  5
105E
330
105A
100
AcDbEntity
  8
0
  0
POLYLINE
  5
105F
330
1F
100
AcDbEntity
  8
0
100
AcDb2dPolyline
 66
     1
 10
0.0
 20
0.0
 30
0.0
  0
VERTEX
  5
1060
330
105F
100
AcDbEntity
  8
0
100
AcDbVertex
100
AcDb2dVertex
 10
55.52887783120872
 20
37.09973027704599
 30
0.0
  0
VERTEX
  5
1061
330
105F
100
AcDbEntity
  8
0
100
AcDbVertex
100
AcDb2dVertex
 10
55.12425083120871
 20
37.20859527704599
 30
0.0
  0
VERTEX
  5
1062
330
105F
100
AcDbEntity
  8
0
100
AcDbVertex
100
AcDb2dVertex
 10
55.12769583120871
 20
37.20859527704599
 30
0.0
  0
SEQEND
  5
1063
330
105F
100
AcDbEntity
  8
0
  0
POLYLINE
  5
1064
330
1F
100
AcDbEntity
  8
0
100
AcDb2dPolyline
 66
     1
 10
0.0
 20
0.0
 30
0.0
  0
VERTEX
  5
1065
330
1064
100
AcDbEntity
  8
0
100
AcDbVertex
100
AcDb2dVertex
 10
55.12425083120871
 20
37.20859527704599
 30
0.0
  0
VERTEX
  5
1066
330
1064
100
AcDbEntity
  8
0
100
AcDbVertex
100
AcDb2dVertex
 10
54.73443783120872
 20
37.30333527704599
 30
0.0
  0
VERTEX
  5
1067
330
1064
100
AcDbEntity
  8
0
100
AcDbVertex
100
AcDb2dVertex
 10
54.36047283120872
 20
37.38842927704599
 30
0.0
  0
VERTEX
  5
1068
330
1064
100
AcDbEntity
  8
0
100
AcDbVertex
100
AcDb2dVertex
 10
54.36391783120871
 20
37.38842927704599
 30
0.0
  0
SEQEND
  5
1069
330
1064
100
AcDbEntity
  8
0
  0
POLYLINE
  5
106A
330
1F
100
AcDbEntity
  8
0
100
AcDb2dPolyline
 66
     1
 10
0.0
 20
0.0
 30
0.0
  0
VERTEX
  5
106B
330
106A
100
AcDbEntity
  8
0
100
AcDbVertex
100
AcDb2dVertex
 10
55.01211283120873
 20
37.91070627704599
 30
0.0
  0
VERTEX
  5
106C
330
106A
100
AcDbEntity
  8
0
100
AcDbVertex
100
AcDb2dVertex
 10
54.76268783120872
 20
37.95962627704599
 30
0.0
  0
VERTEX
  5
106D
330
106A
100
AcDbEntity
  8
0
100
AcDbVertex
100
AcDb2dVertex
 10
54.76509983120871
 20
37.95962627704599
 30
0.0
  0
SEQEND
  5
106E
330
106A
100
AcDbEntity
  8
0
  0
POLYLINE
  5
106F
330
1F
100
AcDbEntity
  8
0
100
AcDb2dPolyline
 66
     1
 10
0.0
 20
0.0
 30
0.0
  0
VERTEX
  5
1070
330
106F
100
AcDbEntity
  8
0
100
AcDbVertex
100
AcDb2dVertex
 10
55.47409983120871
 20
37.81389927704599
 30
0.0
  0
VERTEX
  5
1071
330
106F
100
AcDbEntity
  8
0
100
AcDbVertex
100
AcDb2dVertex
 10
55.22794783120872
 20
37.86523027704599
 30
0.0
  0
VERTEX
  5
1072
330
106F
100
AcDbEntity
  8
0
100
AcDbVertex
100
AcDb2dVertex
 10
55.23070383120871
 20
37.86523027704599
 30
0.0
  0
SEQEND
  5
1073
330
106F
100
AcDbEntity
  8
0
  0
POLYLINE
  5
1074
330
1F
100
AcDbEntity
  8
0
100
AcDb2dPolyline
 66
     1
 10
0.0
 20
0.0
 30
0.0
  0
VERTEX
  5
1075
330
1074
100
AcDbEntity
  8
0
100
AcDbVertex
100
AcDb2dVertex
 10
55.75039683120872
 20
37.75636527704599
 30
0.0
  0
VERTEX
  5
1076
330
1074
100
AcDbEntity
  8
0
100
AcDbVertex
100
AcDb2dVertex
 10
55.47409983120871
 20
37.81389927704599
 30
0.0
  0
VERTEX
  5
1077
330
1074
100
AcDbEntity
  8
0
100
AcDbVertex
100
AcDb2dVertex
 10
55.47737283120873
 20
37.81389927704599
 30
0.0
  0
SEQEND
  5
1078
330
1074
100
AcDbEntity
  8
0
  0
POLYLINE
  5
1079
330
1F
100
AcDbEntity
  8
0
100
AcDb2dPolyline
 66
     1
 10
0.0
 20
0.0
 30
0.0
  0
VERTEX
  5
107A
330
1079
100
AcDbEntity
  8
0
100
AcDbVertex
100
AcDb2dVertex
 10
56.06682883120871
 20
37.68608527704599
 30
0.0
  0
VERTEX
  5
107B
330
1079
100
AcDbEntity
  8
0
100
AcDbVertex
100
AcDb2dVertex
 10
55.75039683120872
 20
37.75636527704599
 30
0.0
  0
VERTEX
  5
107C
330
1079
100
AcDbEntity
  8
0
100
AcDbVertex
100
AcDb2dVertex
 10
55.75401383120871
 20
37.75636527704599
 30
0.0
  0
SEQEND
  5
107D
330
1079
100
AcDbEntity
  8
0
  0
POLYLINE
  5
107E
330
1F
100
AcDbEntity
  8
0
100
AcDb2dPolyline
 66
     1
 10
0.0
 20
0.0
 30
0.0
  0
VERTEX
  5
107F
330
107E
100
AcDbEntity
  8
0
100
AcDbVertex
100
AcDb2dVertex
 10
55.22794783120872
 20
37.86523027704599
 30
0.0
  0
VERTEX
  5
1080
330
107E
100
AcDbEntity
  8
0
100
AcDbVertex
100
AcDb2dVertex
 10
55.01211283120873
 20
37.91070627704599
 30
0.0
  0
VERTEX
  5
1081
330
107E
100
AcDbEntity
  8
0
100
AcDbVertex
100
AcDb2dVertex
 10
55.01452483120871
 20
37.91070627704599
 30
0.0
  0
SEQEND
  5
1082
330
107E
100
AcDbEntity
  8
0
  0
POLYLINE
  5
1083
330
1F
100
AcDbEntity
  8
0
100
AcDb2dPolyline
 66
     1
 10
0.0
 20
0.0
 30
0.0
  0
VERTEX
  5
1084
330
1083
100
AcDbEntity
  8
0
100
AcDbVertex
100
AcDb2dVertex
 10
54.76268783120872
 20
37.95962627704599
 30
0.0
  0
VERTEX
  5
1085
330
1083
100
AcDbEntity
  8
0
100
AcDbVertex
100
AcDb2dVertex
 10
53.87471483120871
 20
38.13050327704599
 30
0.0
  0
VERTEX
  5
1086
330
1083
100
AcDbEntity
  8
0
100
AcDbVertex
100
AcDb2dVertex
 10
53.87712583120871
 20
38.13050327704599
 30
0.0
  0
SEQEND
  5
1087
330
1083
100
AcDbEntity
  8
0
  0
SPLINE
  5
1088
330
1F
100
AcDbEntity
  8
0
100
AcDbSpline
210
0.0
220
0.0
230
1.0
 70
     8
 71
     3
 72
    14
 73
    10
 74
     0
 42
0.0000000001
 43
0.0000000001
 40
0.0
 40
0.0
 40
0.0
 40
0.0
 40
1.0
 40
1.0
 40
1.0
 40
2.0
 40
2.0
 40
2.0
 40
3.0
 40
3.0
 40
3.0
 40
3.0
 10
52.97123845013231
 20
37.65266832912932
 30
0.0
 10
52.97123845013231
 20
37.65266832912932
 30
0.0
 10
53.1288515686219
 20
37.62579658433765
 30
0.0
 10
53.1288515686219
 20
37.62579658433765
 30
0.0
 10
53.54312430082676
 20
37.55448310777515
 30
0.0
 10
53.94947331341356
 20
37.47352336385154
 30
0.0
 10
54.36047320490662
 20
37.3884295053446
 30
0.0
 10
54.36047320490662
 20
37.3884295053446
 30
0.0
 10
54.36391830039274
 20
37.3884295053446
 30
0.0
 10
54.36391830039274
 20
37.3884295053446
 30
0.0
  0
SPLINE
  5
1089
330
1F
100
AcDbEntity
  8
0
100
AcDbSpline
210
0.0
220
0.0
230
1.0
 70
     8
 71
     3
 72
    17
 73
    13
 74
     0
 42
0.0000000001
 43
0.0000000001
 40
0.0
 40
0.0
 40
0.0
 40
0.0
 40
1.0
 40
1.0
 40
1.0
 40
2.0
 40
2.0
 40
2.0
 40
3.0
 40
3.0
 40
3.0
 40
4.0
 40
4.0
 40
4.0
 40
4.0
 10
52.61553234119134
 20
38.35202271280989
 30
0.0
 10
52.61553234119134
 20
38.35202271280989
 30
0.0
 10
52.26327132773649
 20
38.40335463555293
 30
0.0
 10
52.26327132773649
 20
38.40335463555293
 30
0.0
 10
51.19184663155594
 20
38.55631687513627
 30
0.0
 10
50.11732134943788
 20
38.65140151055293
 30
0.0
 10
49.03676715021912
 20
38.71031264336543
 30
0.0
 10
49.03676715021912
 20
38.71031264336543
 30
0.0
 10
48.31880925091358
 20
38.75303182739322
 30
0.0
 10
48.31880925091358
 20
38.75303182739322
 30
0.0
 10
48.31880925091358
 20
38.75303182739322
 30
0.0
 10
48.32225434639969
 20
38.75303182739322
 30
0.0
 10
48.32225434639969
 20
38.75303182739322
 30
0.0
  0
POLYLINE
  5
108A
330
1F
100
AcDbEntity
  8
0
100
AcDb2dPolyline
 66
     1
 10
0.0
 20
0.0
 30
0.0
  0
VERTEX
  5
108B
330
108A
100
AcDbEntity
  8
0
100
AcDbVertex
100
AcDb2dVertex
 10
51.50793383120872
 20
37.27233027704599
 30
0.0
  0
VERTEX
  5
108C
330
108A
100
AcDbEntity
  8
0
100
AcDbVertex
100
AcDb2dVertex
 10
51.70585483120871
 20
37.24201327704599
 30
0.0
  0
VERTEX
  5
108D
330
108A
100
AcDbEntity
  8
0
100
AcDbVertex
100
AcDb2dVertex
 10
51.70929983120871
 20
37.24201327704599
 30
0.0
  0
SEQEND
  5
108E
330
108A
100
AcDbEntity
  8
0
  0
POLYLINE
  5
108F
330
1F
100
AcDbEntity
  8
0
100
AcDb2dPolyline
 66
     1
 10
0.0
 20
0.0
 30
0.0
  0
VERTEX
  5
1090
330
108F
100
AcDbEntity
  8
0
100
AcDbVertex
100
AcDb2dVertex
 10
46.74543383120871
 20
37.79564027704599
 30
0.0
  0
VERTEX
  5
1091
330
108F
100
AcDbEntity
  8
0
100
AcDbVertex
100
AcDb2dVertex
 10
47.25771983120871
 20
37.75292027704599
 30
0.0
  0
VERTEX
  5
1092
330
108F
100
AcDbEntity
  8
0
100
AcDbVertex
100
AcDb2dVertex
 10
47.26013183120872
 20
37.75292027704599
 30
0.0
  0
SEQEND
  5
1093
330
108F
100
AcDbEntity
  8
0
  0
POLYLINE
  5
1094
330
1F
100
AcDbEntity
  8
0
100
AcDb2dPolyline
 66
     1
 10
0.0
 20
0.0
 30
0.0
  0
VERTEX
  5
1095
330
1094
100
AcDbEntity
  8
0
100
AcDbVertex
100
AcDb2dVertex
 10
38.61345883120872
 20
36.76762327704599
 30
0.0
  0
VERTEX
  5
1096
330
1094
100
AcDbEntity
  8
0
100
AcDbVertex
100
AcDb2dVertex
 10
38.72611283120872
 20
36.76383327704599
 30
0.0
  0
VERTEX
  5
1097
330
1094
100
AcDbEntity
  8
0
100
AcDbVertex
100
AcDb2dVertex
 10
38.73059183120871
 20
36.76383327704599
 30
0.0
  0
SEQEND
  5
1098
330
1094
100
AcDbEntity
  8
0
  0
SPLINE
  5
1099
330
1F
100
AcDbEntity
  8
0
100
AcDbSpline
210
0.0
220
0.0
230
1.0
 70
     8
 71
     3
 72
    17
 73
    13
 74
     0
 42
0.0000000001
 43
0.0000000001
 40
0.0
 40
0.0
 40
0.0
 40
0.0
 40
1.0
 40
1.0
 40
1.0
 40
2.0
 40
2.0
 40
2.0
 40
3.0
 40
3.0
 40
3.0
 40
4.0
 40
4.0
 40
4.0
 40
4.0
 10
51.89240679865664
 20
37.2085955209696
 30
0.0
 10
51.89240679865664
 20
37.2085955209696
 30
0.0
 10
51.99782672053163
 20
37.19033651489321
 30
0.0
 10
51.99782672053163
 20
37.19033651489321
 30
0.0
 10
53.40721528389969
 20
36.92540867201127
 30
0.0
 10
54.7318544983094
 20
36.26911798190709
 30
0.0
 10
55.40071978693787
 20
34.93104289510153
 30
0.0
 10
55.40071978693787
 20
34.93104289510153
 30
0.0
 10
55.47065522530593
 20
34.78428182739321
 30
0.0
 10
55.47065522530593
 20
34.78428182739321
 30
0.0
 10
55.47065522530593
 20
34.78428182739321
 30
0.0
 10
55.47410032079205
 20
34.78428182739321
 30
0.0
 10
55.47410032079205
 20
34.78428182739321
 30
0.0
  0
POLYLINE
  5
109A
330
1F
100
AcDbEntity
  8
0
100
AcDb2dPolyline
 66
     1
 10
0.0
 20
0.0
 30
0.0
  0
VERTEX
  5
109B
330
109A
100
AcDbEntity
  8
0
100
AcDbVertex
100
AcDb2dVertex
 10
49.48996983120871
 20
36.05586627704599
 30
0.0
  0
VERTEX
  5
109C
330
109A
100
AcDbEntity
  8
0
100
AcDbVertex
100
AcDb2dVertex
 10
49.85721683120871
 20
36.01659227704599
 30
0.0
  0
VERTEX
  5
109D
330
109A
100
AcDbEntity
  8
0
100
AcDbVertex
100
AcDb2dVertex
 10
49.86083383120871
 20
36.01659227704599
 30
0.0
  0
SEQEND
  5
109E
330
109A
100
AcDbEntity
  8
0
  0
SPLINE
  5
109F
330
1F
100
AcDbEntity
  8
0
100
AcDbSpline
210
0.0
220
0.0
230
1.0
 70
     8
 71
     3
 72
    17
 73
    13
 74
     0
 42
0.0000000001
 43
0.0000000001
 40
0.0
 40
0.0
 40
0.0
 40
0.0
 40
1.0
 40
1.0
 40
1.0
 40
2.0
 40
2.0
 40
2.0
 40
3.0
 40
3.0
 40
3.0
 40
4.0
 40
4.0
 40
4.0
 40
4.0
 10
63.48997624310107
 20
29.25387004353904
 30
0.0
 10
63.48997624310107
 20
29.25387004353904
 30
0.0
 10
63.48394732600038
 20
28.89489109388627
 30
0.0
 10
63.48394732600038
 20
28.89489109388627
 30
0.0
 10
63.46241547921216
 20
28.42980320326127
 30
0.0
 10
63.41762923789272
 20
27.96505982218488
 30
0.0
 10
63.32874577435109
 20
27.50789565117793
 30
0.0
 10
63.32874577435109
 20
27.50789565117793
 30
0.0
 10
63.30514687027122
 20
27.3735369272196
 30
0.0
 10
63.30514687027122
 20
27.3735369272196
 30
0.0
 10
63.30514687027122
 20
27.3735369272196
 30
0.0
 10
63.30686941801426
 20
27.3735369272196
 30
0.0
 10
63.30686941801426
 20
27.3735369272196
 30
0.0
  0
POLYLINE
  5
10A0
330
1F
100
AcDbEntity
  8
0
100
AcDb2dPolyline
 66
     1
 10
0.0
 20
0.0
 30
0.0
  0
VERTEX
  5
10A1
330
10A0
100
AcDbEntity
  8
0
100
AcDbVertex
100
AcDb2dVertex
 10
61.33351883120872
 20
26.28798727704599
 30
0.0
  0
VERTEX
  5
10A2
330
10A0
100
AcDbEntity
  8
0
100
AcDbVertex
100
AcDb2dVertex
 10
61.49285483120872
 20
26.75376427704599
 30
0.0
  0
VERTEX
  5
10A3
330
10A0
100
AcDbEntity
  8
0
100
AcDbVertex
100
AcDb2dVertex
 10
61.61963383120871
 20
27.23056527704599
 30
0.0
  0
VERTEX
  5
10A4
330
10A0
100
AcDbEntity
  8
0
100
AcDbVertex
100
AcDb2dVertex
 10
61.72401983120872
 20
27.72321427704599
 30
0.0
  0
VERTEX
  5
10A5
330
10A0
100
AcDbEntity
  8
0
100
AcDbVertex
100
AcDb2dVertex
 10
61.79912383120871
 20
28.22482027704598
 30
0.0
  0
VERTEX
  5
10A6
330
10A0
100
AcDbEntity
  8
0
100
AcDbVertex
100
AcDb2dVertex
 10
61.84528783120872
 20
28.73572727704599
 30
0.0
  0
VERTEX
  5
10A7
330
10A0
100
AcDbEntity
  8
0
100
AcDbVertex
100
AcDb2dVertex
 10
61.8601018312087
 20
29.25387027704598
 30
0.0
  0
VERTEX
  5
10A8
330
10A0
100
AcDbEntity
  8
0
100
AcDbVertex
100
AcDb2dVertex
 10
61.86268583120872
 20
29.25387027704598
 30
0.0
  0
SEQEND
  5
10A9
330
10A0
100
AcDbEntity
  8
0
  0
POLYLINE
  5
10AA
330
1F
100
AcDbEntity
  8
0
100
AcDb2dPolyline
 66
     1
 10
0.0
 20
0.0
 30
0.0
  0
VERTEX
  5
10AB
330
10AA
100
AcDbEntity
  8
0
100
AcDbVertex
100
AcDb2dVertex
 10
61.33351883120872
 20
26.28798727704599
 30
0.0
  0
VERTEX
  5
10AC
330
10AA
100
AcDbEntity
  8
0
100
AcDbVertex
100
AcDb2dVertex
 10
61.21914183120871
 20
25.98964227704599
 30
0.0
  0
VERTEX
  5
10AD
330
10AA
100
AcDbEntity
  8
0
100
AcDbVertex
100
AcDb2dVertex
 10
61.09012283120872
 20
25.700943277046
 30
0.0
  0
VERTEX
  5
10AE
330
10AA
100
AcDbEntity
  8
0
100
AcDbVertex
100
AcDb2dVertex
 10
60.95386883120871
 20
25.42499127704599
 30
0.0
  0
VERTEX
  5
10AF
330
10AA
100
AcDbEntity
  8
0
100
AcDbVertex
100
AcDb2dVertex
 10
60.81106983120871
 20
25.154206277046
 30
0.0
  0
VERTEX
  5
10B0
330
10AA
100
AcDbEntity
  8
0
100
AcDbVertex
100
AcDb2dVertex
 10
60.66000283120871
 20
24.89513527704599
 30
0.0
  0
VERTEX
  5
10B1
330
10AA
100
AcDbEntity
  8
0
100
AcDbVertex
100
AcDb2dVertex
 10
60.49808283120872
 20
24.64502127704598
 30
0.0
  0
VERTEX
  5
10B2
330
10AA
100
AcDbEntity
  8
0
100
AcDbVertex
100
AcDb2dVertex
 10
60.50170083120871
 20
24.64502127704598
 30
0.0
  0
SEQEND
  5
10B3
330
10AA
100
AcDbEntity
  8
0
  0
POLYLINE
  5
10B4
330
1F
100
AcDbEntity
  8
0
100
AcDb2dPolyline
 66
     1
 10
0.0
 20
0.0
 30
0.0
  0
VERTEX
  5
10B5
330
10B4
100
AcDbEntity
  8
0
100
AcDbVertex
100
AcDb2dVertex
 10
60.60350283120872
 20
33.729393277046
 30
0.0
  0
VERTEX
  5
10B6
330
10B4
100
AcDbEntity
  8
0
100
AcDbVertex
100
AcDb2dVertex
 10
60.48688683120872
 20
33.89303527704599
 30
0.0
  0
VERTEX
  5
10B7
330
10B4
100
AcDbEntity
  8
0
100
AcDbVertex
100
AcDb2dVertex
 10
60.36975283120871
 20
34.05392127704599
 30
0.0
  0
VERTEX
  5
10B8
330
10B4
100
AcDbEntity
  8
0
100
AcDbVertex
100
AcDb2dVertex
 10
60.24934683120871
 20
34.21067327704599
 30
0.0
  0
VERTEX
  5
10B9
330
10B4
100
AcDbEntity
  8
0
100
AcDbVertex
100
AcDb2dVertex
 10
60.12739083120871
 20
34.36501327704599
 30
0.0
  0
VERTEX
  5
10BA
330
10B4
100
AcDbEntity
  8
0
100
AcDbVertex
100
AcDb2dVertex
 10
60.00353983120871
 20
34.51487527704599
 30
0.0
  0
VERTEX
  5
10BB
330
10B4
100
AcDbEntity
  8
0
100
AcDbVertex
100
AcDb2dVertex
 10
59.87538183120872
 20
34.65784727704599
 30
0.0
  0
VERTEX
  5
10BC
330
10B4
100
AcDbEntity
  8
0
100
AcDbVertex
100
AcDb2dVertex
 10
59.87968883120871
 20
34.65784727704599
 30
0.0
  0
SEQEND
  5
10BD
330
10B4
100
AcDbEntity
  8
0
  0
POLYLINE
  5
10BE
330
1F
100
AcDbEntity
  8
0
100
AcDb2dPolyline
 66
     1
 10
0.0
 20
0.0
 30
0.0
  0
VERTEX
  5
10BF
330
10BE
100
AcDbEntity
  8
0
100
AcDbVertex
100
AcDb2dVertex
 10
61.33351883120872
 20
32.22044127704599
 30
0.0
  0
VERTEX
  5
10C0
330
10BE
100
AcDbEntity
  8
0
100
AcDbVertex
100
AcDb2dVertex
 10
61.21914183120871
 20
32.51982027704599
 30
0.0
  0
VERTEX
  5
10C1
330
10BE
100
AcDbEntity
  8
0
100
AcDbVertex
100
AcDb2dVertex
 10
61.09012283120872
 20
32.80576327704599
 30
0.0
  0
VERTEX
  5
10C2
330
10BE
100
AcDbEntity
  8
0
100
AcDbVertex
100
AcDb2dVertex
 10
60.95386883120871
 20
33.08481627704599
 30
0.0
  0
VERTEX
  5
10C3
330
10BE
100
AcDbEntity
  8
0
100
AcDbVertex
100
AcDb2dVertex
 10
60.81106983120871
 20
33.35250027704599
 30
0.0
  0
VERTEX
  5
10C4
330
10BE
100
AcDbEntity
  8
0
100
AcDbVertex
100
AcDb2dVertex
 10
60.66000283120871
 20
33.61363827704599
 30
0.0
  0
VERTEX
  5
10C5
330
10BE
100
AcDbEntity
  8
0
100
AcDbVertex
100
AcDb2dVertex
 10
60.49808283120872
 20
33.86375227704599
 30
0.0
  0
VERTEX
  5
10C6
330
10BE
100
AcDbEntity
  8
0
100
AcDbVertex
100
AcDb2dVertex
 10
60.50170083120871
 20
33.86375227704599
 30
0.0
  0
SEQEND
  5
10C7
330
10BE
100
AcDbEntity
  8
0
  0
SPLINE
  5
10C8
330
1F
100
AcDbEntity
  8
0
100
AcDbSpline
210
0.0
220
0.0
230
1.0
 70
     8
 71
     3
 72
    17
 73
    13
 74
     0
 42
0.0000000001
 43
0.0000000001
 40
0.0
 40
0.0
 40
0.0
 40
0.0
 40
1.0
 40
1.0
 40
1.0
 40
2.0
 40
2.0
 40
2.0
 40
3.0
 40
3.0
 40
3.0
 40
4.0
 40
4.0
 40
4.0
 40
4.0
 10
63.48997624310107
 20
29.25387004353904
 30
0.0
 10
63.48997624310107
 20
29.25387004353904
 30
0.0
 10
63.48653114761494
 20
29.43508206610848
 30
0.0
 10
63.48653114761494
 20
29.43508206610848
 30
0.0
 10
63.47981321141702
 20
29.94736776489322
 30
0.0
 10
63.42572521228508
 20
30.49617147583072
 30
0.0
 10
63.32874577435109
 20
30.99949992635153
 30
0.0
 10
63.32874577435109
 20
30.99949992635153
 30
0.0
 10
63.30514687027122
 20
31.13213610256682
 30
0.0
 10
63.30514687027122
 20
31.13213610256682
 30
0.0
 10
63.30514687027122
 20
31.13213610256682
 30
0.0
 10
63.30686941801426
 20
31.13213610256682
 30
0.0
 10
63.30686941801426
 20
31.13213610256682
 30
0.0
  0
POLYLINE
  5
10C9
330
1F
100
AcDbEntity
  8
0
100
AcDb2dPolyline
 66
     1
 10
0.0
 20
0.0
 30
0.0
  0
VERTEX
  5
10CA
330
10C9
100
AcDbEntity
  8
0
100
AcDbVertex
100
AcDb2dVertex
 10
61.33351883120872
 20
32.22044127704599
 30
0.0
  0
VERTEX
  5
10CB
330
10C9
100
AcDbEntity
  8
0
100
AcDbVertex
100
AcDb2dVertex
 10
61.49285483120872
 20
31.75673227704599
 30
0.0
  0
VERTEX
  5
10CC
330
10C9
100
AcDbEntity
  8
0
100
AcDbVertex
100
AcDb2dVertex
 10
61.61963383120871
 20
31.27855227704599
 30
0.0
  0
VERTEX
  5
10CD
330
10C9
100
AcDbEntity
  8
0
100
AcDbVertex
100
AcDb2dVertex
 10
61.72401983120872
 20
30.78521527704598
 30
0.0
  0
VERTEX
  5
10CE
330
10C9
100
AcDbEntity
  8
0
100
AcDbVertex
100
AcDb2dVertex
 10
61.79912383120871
 20
30.28360927704599
 30
0.0
  0
VERTEX
  5
10CF
330
10C9
100
AcDbEntity
  8
0
100
AcDbVertex
100
AcDb2dVertex
 10
61.84528783120872
 20
29.77270127704599
 30
0.0
  0
VERTEX
  5
10D0
330
10C9
100
AcDbEntity
  8
0
100
AcDbVertex
100
AcDb2dVertex
 10
61.8601018312087
 20
29.25387027704598
 30
0.0
  0
VERTEX
  5
10D1
330
10C9
100
AcDbEntity
  8
0
100
AcDbVertex
100
AcDb2dVertex
 10
61.86268583120872
 20
29.25387027704598
 30
0.0
  0
SEQEND
  5
10D2
330
10C9
100
AcDbEntity
  8
0
  0
POLYLINE
  5
10D3
330
1F
100
AcDbEntity
  8
0
100
AcDb2dPolyline
 66
     1
 10
0.0
 20
0.0
 30
0.0
  0
VERTEX
  5
10D4
330
10D3
100
AcDbEntity
  8
0
100
AcDbVertex
100
AcDb2dVertex
 10
56.53295083120871
 20
37.57687627704599
 30
0.0
  0
VERTEX
  5
10D5
330
10D3
100
AcDbEntity
  8
0
100
AcDbVertex
100
AcDb2dVertex
 10
56.29299983120872
 20
37.63440927704599
 30
0.0
  0
VERTEX
  5
10D6
330
10D3
100
AcDbEntity
  8
0
100
AcDbVertex
100
AcDb2dVertex
 10
56.29541083120871
 20
37.63440927704599
 30
0.0
  0
SEQEND
  5
10D7
330
10D3
100
AcDbEntity
  8
0
  0
SPLINE
  5
10D8
330
1F
100
AcDbEntity
  8
0
100
AcDbSpline
210
0.0
220
0.0
230
1.0
 70
     8
 71
     3
 72
    17
 73
    13
 74
     0
 42
0.0000000001
 43
0.0000000001
 40
0.0
 40
0.0
 40
0.0
 40
0.0
 40
1.0
 40
1.0
 40
1.0
 40
2.0
 40
2.0
 40
2.0
 40
3.0
 40
3.0
 40
3.0
 40
4.0
 40
4.0
 40
4.0
 40
4.0
 10
64.14058252565317
 20
39.24843655829599
 30
0.0
 10
64.14058252565317
 20
39.24843655829599
 30
0.0
 10
64.13799870403856
 20
39.31044827704599
 30
0.0
 10
64.13799870403856
 20
39.31044827704599
 30
0.0
 10
64.10837088285801
 20
39.58433336819182
 30
0.0
 10
63.88960731948997
 20
39.80309693155987
 30
0.0
 10
63.61554997356981
 20
39.83272475274043
 30
0.0
 10
63.61554997356981
 20
39.83272475274043
 30
0.0
 10
63.55353825481981
 20
39.83616984822653
 30
0.0
 10
63.55353825481981
 20
39.83616984822653
 30
0.0
 10
63.55353825481981
 20
39.83616984822653
 30
0.0
 10
63.55698335030594
 20
39.83616984822653
 30
0.0
 10
63.55698335030594
 20
39.83616984822653
 30
0.0
  0
SPLINE
  5
10D9
330
1F
100
AcDbEntity
  8
0
100
AcDbSpline
210
0.0
220
0.0
230
1.0
 70
     8
 71
     3
 72
    17
 73
    13
 74
     0
 42
0.0000000001
 43
0.0000000001
 40
0.0
 40
0.0
 40
0.0
 40
0.0
 40
1.0
 40
1.0
 40
1.0
 40
2.0
 40
2.0
 40
2.0
 40
3.0
 40
3.0
 40
3.0
 40
4.0
 40
4.0
 40
4.0
 40
4.0
 10
63.30514687027122
 20
31.13213610256682
 30
0.0
 10
63.30514687027122
 20
31.13213610256682
 30
0.0
 10
63.21695242582676
 20
31.54899265638627
 30
0.0
 10
63.21695242582676
 20
31.54899265638627
 30
0.0
 10
62.27678586766704
 20
35.16668742635154
 30
0.0
 10
60.28465940282329
 20
36.71491333780988
 30
0.0
 10
56.7871984653233
 20
37.5155535287821
 30
0.0
 10
56.7871984653233
 20
37.5155535287821
 30
0.0
 10
56.53295041844829
 20
37.57687622843489
 30
0.0
 10
56.53295041844829
 20
37.57687622843489
 30
0.0
 10
56.53295041844829
 20
37.57687622843489
 30
0.0
 10
56.53605100438579
 20
37.57687622843489
 30
0.0
 10
56.53605100438579
 20
37.57687622843489
 30
0.0
  0
SPLINE
  5
10DA
330
1F
100
AcDbEntity
  8
0
100
AcDbSpline
210
0.0
220
0.0
230
1.0
 70
     8
 71
     3
 72
    17
 73
    13
 74
     0
 42
0.0000000001
 43
0.0000000001
 40
0.0
 40
0.0
 40
0.0
 40
0.0
 40
1.0
 40
1.0
 40
1.0
 40
2.0
 40
2.0
 40
2.0
 40
3.0
 40
3.0
 40
3.0
 40
4.0
 40
4.0
 40
4.0
 40
4.0
 10
59.89277979127816
 20
34.63545370239322
 30
0.0
 10
59.89277979127816
 20
34.63545370239322
 30
0.0
 10
59.62492361723299
 20
34.91243937947653
 30
0.0
 10
59.62492361723299
 20
34.91243937947653
 30
0.0
 10
58.60930946792746
 20
35.91565118503209
 30
0.0
 10
57.29242171836149
 20
36.55471639770571
 30
0.0
 10
55.94228879735455
 20
36.97674059475432
 30
0.0
 10
55.94228879735455
 20
36.97674059475432
 30
0.0
 10
55.52887733902121
 20
37.09973050360849
 30
0.0
 10
55.52887733902121
 20
37.09973050360849
 30
0.0
 10
55.52887733902121
 20
37.09973050360849
 30
0.0
 10
55.53059988676425
 20
37.09973050360849
 30
0.0
 10
55.53059988676425
 20
37.09973050360849
 30
0.0
  0
POLYLINE
  5
10DB
330
1F
100
AcDbEntity
  8
0
100
AcDb2dPolyline
 66
     1
 10
0.0
 20
0.0
 30
0.0
  0
VERTEX
  5
10DC
330
10DB
100
AcDbEntity
  8
0
100
AcDbVertex
100
AcDb2dVertex
 10
56.29299983120872
 20
37.63440927704599
 30
0.0
  0
VERTEX
  5
10DD
330
10DB
100
AcDbEntity
  8
0
100
AcDbVertex
100
AcDb2dVertex
 10
56.06682883120871
 20
37.68574127704599
 30
0.0
  0
VERTEX
  5
10DE
330
10DB
100
AcDbEntity
  8
0
100
AcDbVertex
100
AcDb2dVertex
 10
56.06958483120871
 20
37.68574127704599
 30
0.0
  0
SEQEND
  5
10DF
330
10DB
100
AcDbEntity
  8
0
  0
POLYLINE
  5
10E5
330
1F
100
AcDbEntity
  8
0
100
AcDb2dPolyline
 66
     1
 10
0.0
 20
0.0
 30
0.0
  0
VERTEX
  5
10E6
330
10E5
100
AcDbEntity
  8
0
100
AcDbVertex
100
AcDb2dVertex
 10
64.14058283120872
 20
19.25999227704599
 30
0.0
  0
VERTEX
  5
10E7
330
10E5
100
AcDbEntity
  8
0
100
AcDbVertex
100
AcDb2dVertex
 10
64.14058283120872
 20
39.24843627704599
 30
0.0
  0
VERTEX
  5
10E8
330
10E5
100
AcDbEntity
  8
0
100
AcDbVertex
100
AcDb2dVertex
 10
64.14402783120872
 20
39.24843627704599
 30
0.0
  0
SEQEND
  5
10E9
330
10E5
100
AcDbEntity
  8
0
  0
SPLINE
  5
10EA
330
1F
100
AcDbEntity
  8
0
100
AcDbSpline
210
0.0
220
0.0
230
1.0
 70
     8
 71
     3
 72
    17
 73
    13
 74
     0
 42
0.0000000001
 43
0.0000000001
 40
0.0
 40
0.0
 40
0.0
 40
0.0
 40
1.0
 40
1.0
 40
1.0
 40
2.0
 40
2.0
 40
2.0
 40
3.0
 40
3.0
 40
3.0
 40
4.0
 40
4.0
 40
4.0
 40
4.0
 10
63.30480236072261
 20
27.3735369272196
 30
0.0
 10
63.30480236072261
 20
27.3735369272196
 30
0.0
 10
63.21695242582676
 20
26.96012546888626
 30
0.0
 10
63.21695242582676
 20
26.96012546888626
 30
0.0
 10
62.28953272096565
 20
23.40616496541404
 30
0.0
 10
60.36716943971565
 20
21.84312514336543
 30
0.0
 10
56.92155718928162
 20
21.02422594631682
 30
0.0
 10
56.92155718928162
 20
21.02422594631682
 30
0.0
 10
56.7871984653233
 20
20.99287557739321
 30
0.0
 10
56.7871984653233
 20
20.99287557739321
 30
0.0
 10
56.7871984653233
 20
20.99287557739321
 30
0.0
 10
56.79150483468093
 20
20.99287557739321
 30
0.0
 10
56.79150483468093
 20
20.99287557739321
 30
0.0
  0
POLYLINE
  5
10EB
330
1F
100
AcDbEntity
  8
0
100
AcDb2dPolyline
 66
     1
 10
0.0
 20
0.0
 30
0.0
  0
VERTEX
  5
10EC
330
10EB
100
AcDbEntity
  8
0
100
AcDbVertex
100
AcDb2dVertex
 10
60.60315883120871
 20
24.78110227704599
 30
0.0
  0
VERTEX
  5
10ED
330
10EB
100
AcDbEntity
  8
0
100
AcDbVertex
100
AcDb2dVertex
 10
60.47758483120872
 20
24.60299127704599
 30
0.0
  0
VERTEX
  5
10EE
330
10EB
100
AcDbEntity
  8
0
100
AcDbVertex
100
AcDb2dVertex
 10
60.35132183120872
 20
24.43039227704599
 30
0.0
  0
VERTEX
  5
10EF
330
10EB
100
AcDbEntity
  8
0
100
AcDbVertex
100
AcDb2dVertex
 10
60.22144183120871
 20
24.25675927704599
 30
0.0
  0
VERTEX
  5
10F0
330
10EB
100
AcDbEntity
  8
0
100
AcDbVertex
100
AcDb2dVertex
 10
60.09138983120871
 20
24.09552827704599
 30
0.0
  0
VERTEX
  5
10F1
330
10EB
100
AcDbEntity
  8
0
100
AcDbVertex
100
AcDb2dVertex
 10
59.95720283120872
 20
23.93429827704599
 30
0.0
  0
VERTEX
  5
10F2
330
10EB
100
AcDbEntity
  8
0
100
AcDbVertex
100
AcDb2dVertex
 10
59.81870983120872
 20
23.77995827704598
 30
0.0
  0
VERTEX
  5
10F3
330
10EB
100
AcDbEntity
  8
0
100
AcDbVertex
100
AcDb2dVertex
 10
59.82353383120872
 20
23.77995827704598
 30
0.0
  0
SEQEND
  5
10F4
330
10EB
100
AcDbEntity
  8
0
  0
SPLINE
  5
10F5
330
1F
100
AcDbEntity
  8
0
100
AcDbSpline
210
0.0
220
0.0
230
1.0
 70
     8
 71
     3
 72
    17
 73
    13
 74
     0
 42
0.0000000001
 43
0.0000000001
 40
0.0
 40
0.0
 40
0.0
 40
0.0
 40
1.0
 40
1.0
 40
1.0
 40
2.0
 40
2.0
 40
2.0
 40
3.0
 40
3.0
 40
3.0
 40
4.0
 40
4.0
 40
4.0
 40
4.0
 10
55.47031071575732
 20
23.72139120239321
 30
0.0
 10
55.47031071575732
 20
23.72139120239321
 30
0.0
 10
55.53731782296218
 20
23.8791765756571
 30
0.0
 10
55.53731782296218
 20
23.8791765756571
 30
0.0
 10
55.75315305516705
 20
24.40593167548348
 30
0.0
 10
55.86615218711149
 20
25.00813436645571
 30
0.0
 10
55.87493718060106
 20
25.57623061211542
 30
0.0
 10
55.87493718060106
 20
25.57623061211542
 30
0.0
 10
55.87493718060106
 20
25.75847616333071
 30
0.0
 10
55.87493718060106
 20
25.75847616333071
 30
0.0
 10
55.87493718060106
 20
25.75847616333071
 30
0.0
 10
55.87838227608718
 20
25.75847616333071
 30
0.0
 10
55.87838227608718
 20
25.75847616333071
 30
0.0
  0
SPLINE
  5
10F6
330
1F
100
AcDbEntity
  8
0
100
AcDbSpline
210
0.0
220
0.0
230
1.0
 70
     8
 71
     3
 72
    17
 73
    13
 74
     0
 42
0.0000000001
 43
0.0000000001
 40
0.0
 40
0.0
 40
0.0
 40
0.0
 40
1.0
 40
1.0
 40
1.0
 40
2.0
 40
2.0
 40
2.0
 40
3.0
 40
3.0
 40
3.0
 40
4.0
 40
4.0
 40
4.0
 40
4.0
 10
53.73742768624342
 20
24.99297594631682
 30
0.0
 10
53.73742768624342
 20
24.99297594631682
 30
0.0
 10
53.64613265586149
 20
24.84655938815711
 30
0.0
 10
53.64613265586149
 20
24.84655938815711
 30
0.0
 10
53.04530800308372
 20
23.8946795053446
 30
0.0
 10
52.04123492365662
 20
23.2373552865946
 30
0.0
 10
50.9303638841601
 20
23.06199992635154
 30
0.0
 10
50.9303638841601
 20
23.06199992635154
 30
0.0
 10
50.84613129952469
 20
23.04925307305294
 30
0.0
 10
50.84613129952469
 20
23.04925307305294
 30
0.0
 10
50.84613129952469
 20
23.04925307305294
 30
0.0
 10
50.84854286636495
 20
23.04925307305294
 30
0.0
 10
50.84854286636495
 20
23.04925307305294
 30
0.0
  0
SPLINE
  5
10F7
330
1F
100
AcDbEntity
  8
0
100
AcDbSpline
210
0.0
220
0.0
230
1.0
 70
     8
 71
     3
 72
    17
 73
    13
 74
     0
 42
0.0000000001
 43
0.0000000001
 40
0.0
 40
0.0
 40
0.0
 40
0.0
 40
1.0
 40
1.0
 40
1.0
 40
2.0
 40
2.0
 40
2.0
 40
3.0
 40
3.0
 40
3.0
 40
4.0
 40
4.0
 40
4.0
 40
4.0
 10
54.69240815499344
 20
23.99183119805293
 30
0.0
 10
54.69240815499344
 20
23.99183119805293
 30
0.0
 10
54.7597597717469
 20
24.05280938815709
 30
0.0
 10
54.7597597717469
 20
24.05280938815709
 30
0.0
 10
55.24138412070525
 20
24.50342787774043
 30
0.0
 10
55.62413422921219
 20
25.06256687513626
 30
0.0
 10
55.8480654358094
 20
25.68371759128209
 30
0.0
 10
55.8480654358094
 20
25.68371759128209
 30
0.0
 10
55.87493718060106
 20
25.75847616333071
 30
0.0
 10
55.87493718060106
 20
25.75847616333071
 30
0.0
 10
55.87493718060106
 20
25.75847616333071
 30
0.0
 10
55.87838227608718
 20
25.75847616333071
 30
0.0
 10
55.87838227608718
 20
25.75847616333071
 30
0.0
  0
POLYLINE
  5
10F8
330
1F
100
AcDbEntity
  8
0
100
AcDb2dPolyline
 66
     1
 10
0.0
 20
0.0
 30
0.0
  0
VERTEX
  5
10F9
330
10F8
100
AcDbEntity
  8
0
100
AcDbVertex
100
AcDb2dVertex
 10
63.55353783120872
 20
39.83617027704599
 30
0.0
  0
VERTEX
  5
10FA
330
10F8
100
AcDbEntity
  8
0
100
AcDbVertex
100
AcDb2dVertex
 10
19.60169883120871
 20
39.83617027704599
 30
0.0
  0
VERTEX
  5
10FB
330
10F8
100
AcDbEntity
  8
0
100
AcDbVertex
100
AcDb2dVertex
 10
19.60514383120871
 20
39.83617027704599
 30
0.0
  0
SEQEND
  5
10FC
330
10F8
100
AcDbEntity
  8
0
  0
SPLINE
  5
10FD
330
1F
100
AcDbEntity
  8
0
100
AcDbSpline
210
0.0
220
0.0
230
1.0
 70
     8
 71
     3
 72
    17
 73
    13
 74
     0
 42
0.0000000001
 43
0.0000000001
 40
0.0
 40
0.0
 40
0.0
 40
0.0
 40
1.0
 40
1.0
 40
1.0
 40
2.0
 40
2.0
 40
2.0
 40
3.0
 40
3.0
 40
3.0
 40
4.0
 40
4.0
 40
4.0
 40
4.0
 10
48.31880925091358
 20
38.7526873178446
 30
0.0
 10
48.31880925091358
 20
38.7526873178446
 30
0.0
 10
47.95621295100037
 20
38.77508043850432
 30
0.0
 10
47.95621295100037
 20
38.77508043850432
 30
0.0
 10
44.39829058771912
 20
38.9697283334696
 30
0.0
 10
40.83278901436843
 20
39.02657240899042
 30
0.0
 10
37.27090479127816
 20
38.93631090725432
 30
0.0
 10
37.27090479127816
 20
38.93631090725432
 30
0.0
 10
36.47353744101774
 20
38.91460680569182
 30
0.0
 10
36.47353744101774
 20
38.91460680569182
 30
0.0
 10
36.47353744101774
 20
38.91460680569182
 30
0.0
 10
36.47646577218094
 20
38.91460680569182
 30
0.0
 10
36.47646577218094
 20
38.91460680569182
 30
0.0
  0
SPLINE
  5
10FE
330
1F
100
AcDbEntity
  8
0
100
AcDbSpline
210
0.0
220
0.0
230
1.0
 70
     8
 71
     3
 72
    17
 73
    13
 74
     0
 42
0.0000000001
 43
0.0000000001
 40
0.0
 40
0.0
 40
0.0
 40
0.0
 40
1.0
 40
1.0
 40
1.0
 40
2.0
 40
2.0
 40
2.0
 40
3.0
 40
3.0
 40
3.0
 40
4.0
 40
4.0
 40
4.0
 40
4.0
 10
52.97123845013231
 20
37.65232381958071
 30
0.0
 10
52.97123845013231
 20
37.65232381958071
 30
0.0
 10
51.81592567886496
 20
37.82630114162933
 30
0.0
 10
51.81592567886496
 20
37.82630114162933
 30
0.0
 10
47.08236448094829
 20
38.32618449666404
 30
0.0
 10
42.09403847183371
 20
38.40094306871265
 30
0.0
 10
37.3282656311219
 20
38.3031023569071
 30
0.0
 10
37.3282656311219
 20
38.3031023569071
 30
0.0
 10
36.64114133641704
 20
38.28449884128209
 30
0.0
 10
36.64114133641704
 20
38.28449884128209
 30
0.0
 10
36.64114133641704
 20
38.28449884128209
 30
0.0
 10
36.64355290325732
 20
38.28449884128209
 30
0.0
 10
36.64355290325732
 20
38.28449884128209
 30
0.0
  0
POLYLINE
  5
10FF
330
1F
100
AcDbEntity
  8
0
100
AcDb2dPolyline
 66
     1
 10
0.0
 20
0.0
 30
0.0
  0
VERTEX
  5
1100
330
10FF
100
AcDbEntity
  8
0
100
AcDbVertex
100
AcDb2dVertex
 10
38.16197883120871
 20
36.77692527704599
 30
0.0
  0
VERTEX
  5
1101
330
10FF
100
AcDbEntity
  8
0
100
AcDbVertex
100
AcDb2dVertex
 10
38.61345883120872
 20
36.76762327704599
 30
0.0
  0
VERTEX
  5
1102
330
10FF
100
AcDbEntity
  8
0
100
AcDbVertex
100
AcDb2dVertex
 10
38.61776483120872
 20
36.76762327704599
 30
0.0
  0
SEQEND
  5
1103
330
10FF
100
AcDbEntity
  8
0
  0
POLYLINE
  5
1104
330
1F
100
AcDbEntity
  8
0
100
AcDb2dPolyline
 66
     1
 10
0.0
 20
0.0
 30
0.0
  0
VERTEX
  5
1105
330
1104
100
AcDbEntity
  8
0
100
AcDbVertex
100
AcDb2dVertex
 10
37.80248283120871
 20
38.26141627704599
 30
0.0
  0
VERTEX
  5
1106
330
1104
100
AcDbEntity
  8
0
100
AcDbVertex
100
AcDb2dVertex
 10
38.53869983120872
 20
38.24177927704599
 30
0.0
  0
VERTEX
  5
1107
330
1104
100
AcDbEntity
  8
0
100
AcDbVertex
100
AcDb2dVertex
 10
38.54231683120872
 20
38.24177927704599
 30
0.0
  0
SEQEND
  5
1108
330
1104
100
AcDbEntity
  8
0
  0
SPLINE
  5
1109
330
1F
100
AcDbEntity
  8
0
100
AcDbSpline
210
0.0
220
0.0
230
1.0
 70
     8
 71
     3
 72
    17
 73
    13
 74
     0
 42
0.0000000001
 43
0.0000000001
 40
0.0
 40
0.0
 40
0.0
 40
0.0
 40
1.0
 40
1.0
 40
1.0
 40
2.0
 40
2.0
 40
2.0
 40
3.0
 40
3.0
 40
3.0
 40
4.0
 40
4.0
 40
4.0
 40
4.0
 10
49.08430946792745
 20
35.58767809475432
 30
0.0
 10
49.08430946792745
 20
35.58767809475432
 30
0.0
 10
48.49158078954205
 20
35.62385159735849
 30
0.0
 10
48.49158078954205
 20
35.62385159735849
 30
0.0
 10
44.3013111497851
 20
35.85880710951127
 30
0.0
 10
40.09950044014969
 20
35.89704766940709
 30
0.0
 10
35.90595795968094
 20
35.72754897149043
 30
0.0
 10
35.90595795968094
 20
35.72754897149043
 30
0.0
 10
35.37214041410801
 20
35.70618937947653
 30
0.0
 10
35.37214041410801
 20
35.70618937947653
 30
0.0
 10
35.37214041410801
 20
35.70618937947653
 30
0.0
 10
35.37575776436844
 20
35.70618937947653
 30
0.0
 10
35.37575776436844
 20
35.70618937947653
 30
0.0
  0
SPLINE
  5
110A
330
1F
100
AcDbEntity
  8
0
100
AcDbSpline
210
0.0
220
0.0
230
1.0
 70
     8
 71
     3
 72
    17
 73
    13
 74
     0
 42
0.0000000001
 43
0.0000000001
 40
0.0
 40
0.0
 40
0.0
 40
0.0
 40
1.0
 40
1.0
 40
1.0
 40
2.0
 40
2.0
 40
2.0
 40
3.0
 40
3.0
 40
3.0
 40
4.0
 40
4.0
 40
4.0
 40
4.0
 10
49.70873302478509
 20
22.9583025522196
 30
0.0
 10
49.70873302478509
 20
22.9583025522196
 30
0.0
 10
49.08430946792745
 20
22.91833944458071
 30
0.0
 10
49.08430946792745
 20
22.91833944458071
 30
0.0
 10
44.8816374844205
 20
22.66615845499737
 30
0.0
 10
40.68723373008024
 20
22.60828085083071
 30
0.0
 10
36.47956635811844
 20
22.75779799492793
 30
0.0
 10
36.47956635811844
 20
22.75779799492793
 30
0.0
 10
36.18742226089621
 20
22.77020033867792
 30
0.0
 10
36.18742226089621
 20
22.77020033867792
 30
0.0
 10
36.18742226089621
 20
22.77020033867792
 30
0.0
 10
36.19103961115663
 20
22.77020033867792
 30
0.0
 10
36.19103961115663
 20
22.77020033867792
 30
0.0
  0
POLYLINE
  5
110B
330
1F
100
AcDbEntity
  8
0
100
AcDb2dPolyline
 66
     1
 10
0.0
 20
0.0
 30
0.0
  0
VERTEX
  5
110C
330
110B
100
AcDbEntity
  8
0
100
AcDbVertex
100
AcDb2dVertex
 10
37.95768483120872
 20
21.72978127704599
 30
0.0
  0
VERTEX
  5
110D
330
110B
100
AcDbEntity
  8
0
100
AcDbVertex
100
AcDb2dVertex
 10
38.61345883120872
 20
21.74183927704599
 30
0.0
  0
VERTEX
  5
110E
330
110B
100
AcDbEntity
  8
0
100
AcDbVertex
100
AcDb2dVertex
 10
38.61776483120872
 20
21.74183927704599
 30
0.0
  0
SEQEND
  5
110F
330
110B
100
AcDbEntity
  8
0
  0
POLYLINE
  5
1110
330
1F
100
AcDbEntity
  8
0
100
AcDb2dPolyline
 66
     1
 10
0.0
 20
0.0
 30
0.0
  0
VERTEX
  5
1111
330
1110
100
AcDbEntity
  8
0
100
AcDbVertex
100
AcDb2dVertex
 10
38.14251383120872
 20
20.25769227704599
 30
0.0
  0
VERTEX
  5
1112
330
1110
100
AcDbEntity
  8
0
100
AcDbVertex
100
AcDb2dVertex
 10
38.76624883120872
 20
20.27250627704599
 30
0.0
  0
VERTEX
  5
1113
330
1110
100
AcDbEntity
  8
0
100
AcDbVertex
100
AcDb2dVertex
 10
38.76986583120872
 20
20.27250627704599
 30
0.0
  0
SEQEND
  5
1114
330
1110
100
AcDbEntity
  8
0
  0
SPLINE
  5
1115
330
1F
100
AcDbEntity
  8
0
100
AcDbSpline
210
0.0
220
0.0
230
1.0
 70
     8
 71
     3
 72
    17
 73
    13
 74
     0
 42
0.0000000001
 43
0.0000000001
 40
0.0
 40
0.0
 40
0.0
 40
0.0
 40
1.0
 40
1.0
 40
1.0
 40
2.0
 40
2.0
 40
2.0
 40
3.0
 40
3.0
 40
3.0
 40
4.0
 40
4.0
 40
4.0
 40
4.0
 10
52.97123845013231
 20
20.85679430569182
 30
0.0
 10
52.97123845013231
 20
20.85679430569182
 30
0.0
 10
51.81592567886496
 20
20.68316149319182
 30
0.0
 10
51.81592567886496
 20
20.68316149319182
 30
0.0
 10
47.08201997139968
 20
20.18190009996265
 30
0.0
 10
42.09438298138232
 20
20.10920858520571
 30
0.0
 10
37.3282656311219
 20
20.20257067287932
 30
0.0
 10
37.3282656311219
 20
20.20257067287932
 30
0.0
 10
36.64114133641704
 20
20.22117418850432
 30
0.0
 10
36.64114133641704
 20
20.22117418850432
 30
0.0
 10
36.64114133641704
 20
20.22117418850432
 30
0.0
 10
36.64355290325732
 20
20.22117418850432
 30
0.0
 10
36.64355290325732
 20
20.22117418850432
 30
0.0
  0
SPLINE
  5
1116
330
1F
100
AcDbEntity
  8
0
100
AcDbSpline
210
0.0
220
0.0
230
1.0
 70
     8
 71
     3
 72
    17
 73
    13
 74
     0
 42
0.0000000001
 43
0.0000000001
 40
0.0
 40
0.0
 40
0.0
 40
0.0
 40
1.0
 40
1.0
 40
1.0
 40
2.0
 40
2.0
 40
2.0
 40
3.0
 40
3.0
 40
3.0
 40
4.0
 40
4.0
 40
4.0
 40
4.0
 10
49.03642264067051
 20
19.79811646280988
 30
0.0
 10
49.03642264067051
 20
19.79811646280988
 30
0.0
 10
48.31846474136496
 20
19.75367473103904
 30
0.0
 10
48.31846474136496
 20
19.75367473103904
 30
0.0
 10
44.85493799440315
 20
19.55592625013627
 30
0.0
 10
41.3834875278233
 20
19.48530179267098
 30
0.0
 10
37.91496539240663
 20
19.55799330742792
 30
0.0
 10
37.91496539240663
 20
19.55799330742792
 30
0.0
 10
37.27056028172954
 20
19.57108467027516
 30
0.0
 10
37.27056028172954
 20
19.57108467027516
 30
0.0
 10
37.27056028172954
 20
19.57108467027516
 30
0.0
 10
37.27400537721565
 20
19.57108467027516
 30
0.0
 10
37.27400537721565
 20
19.57108467027516
 30
0.0
  0
POLYLINE
  5
1117
330
1F
100
AcDbEntity
  8
0
100
AcDb2dPolyline
 66
     1
 10
0.0
 20
0.0
 30
0.0
  0
VERTEX
  5
1118
330
1117
100
AcDbEntity
  8
0
100
AcDbVertex
100
AcDb2dVertex
 10
63.55353783120872
 20
18.67294827704599
 30
0.0
  0
VERTEX
  5
1119
330
1117
100
AcDbEntity
  8
0
100
AcDbVertex
100
AcDb2dVertex
 10
19.60169883120871
 20
18.67294827704599
 30
0.0
  0
VERTEX
  5
111A
330
1117
100
AcDbEntity
  8
0
100
AcDbVertex
100
AcDb2dVertex
 10
19.60514383120871
 20
18.67294827704599
 30
0.0
  0
SEQEND
  5
111B
330
1117
100
AcDbEntity
  8
0
  0
ENDSEC
  0
SECTION
  2
OBJECTS
  0
DICTIONARY
  5
C
330
0
100
AcDbDictionary
281
     1
  3
ACAD_COLOR
350
C9
  3
ACAD_GROUP
350
D
  3
ACAD_LAYOUT
350
1A
  3
ACAD_MATERIAL
350
C8
  3
ACAD_MLEADERSTYLE
350
2EC
  3
ACAD_MLINESTYLE
350
17
  3
ACAD_PLOTSETTINGS
350
19
  3
ACAD_PLOTSTYLENAME
350
E
  3
ACAD_SCALELIST
350
2CA
  3
ACAD_TABLESTYLE
350
123
  3
ACAD_VISUALSTYLE
350
296
  3
ACDB_RECOMPOSE_DATA
350
30D
  3
AcDbVariableDictionary
350
9E
  3
AcmDictionary
350
63
  3
AMG
350
49
  3
AMGSNAPSETTINGS
350
A5D
  3
ASE_INDEX_DICTIONARY
350
113D
  0
DICTIONARY
  5
1138
330
10
100
AcDbDictionary
280
     1
281
     1
  3
ADSK_XREC_LAYER_RECONCILED
360
1139
  0
DICTIONARY
  5
113A
330
38C
100
AcDbDictionary
280
     1
281
     1
  3
ADSK_XREC_LAYER_RECONCILED
360
113B
  0
DICTIONARY
  5
99
330
1F
100
AcDbDictionary
280
     1
281
     1
  0
DICTIONARY
  5
C9
102
{ACAD_REACTORS
330
C
102
}
330
C
100
AcDbDictionary
281
     1
  0
DICTIONARY
  5
D
102
{ACAD_REACTORS
330
C
102
}
330
C
100
AcDbDictionary
281
     1
  0
DICTIONARY
  5
1A
102
{ACAD_REACTORS
330
C
102
}
330
C
100
AcDbDictionary
281
     1
  3
Layout1
350
1E
  3
Layout2
350
26
  3
Model
350
22
  0
DICTIONARY
  5
C8
102
{ACAD_REACTORS
330
C
102
}
330
C
100
AcDbDictionary
281
     1
  3
ByBlock
350
294
  3
ByLayer
350
293
  3
Global
350
295
  0
DICTIONARY
  5
2EC
102
{ACAD_REACTORS
330
C
102
}
330
C
100
AcDbDictionary
281
     1
  3
Standard
350
2ED
  0
DICTIONARY
  5
17
102
{ACAD_REACTORS
330
C
102
}
330
C
100
AcDbDictionary
281
     1
  3
Standard
350
18
  0
DICTIONARY
  5
19
102
{ACAD_REACTORS
330
C
102
}
330
C
100
AcDbDictionary
281
     1
  0
ACDBDICTIONARYWDFLT
  5
E
102
{ACAD_REACTORS
330
C
102
}
330
C
100
AcDbDictionary
281
     1
  3
Normal
350
F
100
AcDbDictionaryWithDefault
340
F
  0
DICTIONARY
  5
2CA
102
{ACAD_REACTORS
330
C
102
}
330
C
100
AcDbDictionary
281
     1
  3
A0
350
2CB
  3
A1
350
2CC
  3
A2
350
2CD
  3
A3
350
2CE
  3
A4
350
2CF
  3
A5
350
2D0
  3
A6
350
2D1
  3
A7
350
2D2
  3
A8
350
2D3
  3
A9
350
2D4
  3
B0
350
2D5
  3
B1
350
2D6
  3
B2
350
2D7
  3
B3
350
2D8
  3
B4
350
2D9
  3
B5
350
2DA
  3
B6
350
2DB
  3
B7
350
2DC
  3
B8
350
2DD
  3
B9
350
2DE
  3
C0
350
2DF
  3
C1
350
2E0
  3
C2
350
2E1
  3
C3
350
2E2
  3
C4
350
2E3
  3
C5
350
2E4
  3
C6
350
2E5
  3
C7
350
2E6
  3
C8
350
2E7
  3
C9
350
2E8
  3
D0
350
2E9
  3
D1
350
2EA
  3
D2
350
2EB
  0
DICTIONARY
  5
123
102
{ACAD_REACTORS
330
C
102
}
330
C
100
AcDbDictionary
281
     1
  3
Standard
350
124
  0
DICTIONARY
  5
296
102
{ACAD_REACTORS
330
C
102
}
330
C
100
AcDbDictionary
281
     1
  3
2dWireframe
350
29C
  3
3D Hidden
350
29E
  3
3dWireframe
350
29D
  3
Basic
350
29B
  3
Brighten
350
2A2
  3
ColorChange
350
2A6
  3
Conceptual
350
29F
  3
Dim
350
2A1
  3
Facepattern
350
2A5
  3
Flat
350
297
  3
FlatWithEdges
350
298
  3
Gouraud
350
299
  3
GouraudWithEdges
350
29A
  3
Linepattern
350
2A4
  3
Realistic
350
2A0
  3
Thicken
350
2A3
  0
XRECORD
  5
30D
102
{ACAD_REACTORS
330
C
102
}
330
C
100
AcDbXrecord
280
     1
 90
        1
330
124
  0
DICTIONARY
  5
9E
102
{ACAD_REACTORS
330
C
102
}
330
C
100
AcDbDictionary
281
     1
  3
CANNOSCALE
350
310
  3
CMLEADERSTYLE
350
30E
  3
CTABLESTYLE
350
144
  3
DIMASSOC
350
A0
  3
INDEXCTL
350
9F
  3
LAYEREVAL
350
36B
  3
LAYERNOTIFY
350
36C
  3
LIGHTINGUNITS
350
311
  3
MSLTSCALE
350
30F
  0
DICTIONARY
  5
63
102
{ACAD_REACTORS
330
C
102
}
330
C
100
AcDbDictionary
281
     1
  3
AcmStdDictionary
350
69
  3
AMDTSECTSYM_ARROWCOLOR
350
12C
  0
DICTIONARY
  5
49
102
{ACAD_REACTORS
330
C
102
}
330
C
100
AcDbDictionary
281
     1
  0
DICTIONARY
  5
A5D
102
{ACAD_REACTORS
330
C
102
}
330
C
100
AcDbDictionary
281
     1
  0
DICTIONARY
  5
113D
102
{ACAD_REACTORS
330
C
102
}
330
C
100
AcDbDictionary
281
     1
  3
ASEBlockHierarchyIndexRecord
350
113E
1001
DCO15
1040
1687863398.41
  0
XRECORD
  5
1139
102
{ACAD_REACTORS
330
1138
102
}
330
1138
100
AcDbXrecord
280
     1
290
     1
  0
XRECORD
  5
113B
102
{ACAD_REACTORS
330
113A
102
}
330
113A
100
AcDbXrecord
280
     1
290
     1
  0
LAYOUT
  5
1E
102
{ACAD_REACTORS
330
1A
102
}
330
1A
100
AcDbPlotSettings
  1

  2

  4

  6

 40
0.0
 41
0.0
 42
0.0
 43
0.0
 44
0.0
 45
0.0
 46
0.0
 47
0.0
 48
0.0
 49
0.0
140
0.0
141
0.0
142
1.0
143
1.0
 70
   688
 72
     0
 73
     0
 74
     5
  7

 75
    16
147
1.0
 76
     0
 77
     2
 78
   300
148
0.0
149
0.0
100
AcDbLayout
  1
Layout1
 70
     1
 71
     1
 10
0.0
 20
0.0
 11
12.0
 21
9.0
 12
0.0
 22
0.0
 32
0.0
 14
1.000000000000000E+20
 24
1.000000000000000E+20
 34
1.000000000000000E+20
 15
-1.000000000000000E+20
 25
-1.000000000000000E+20
 35
-1.000000000000000E+20
146
0.0
 13
0.0
 23
0.0
 33
0.0
 16
1.0
 26
0.0
 36
0.0
 17
0.0
 27
1.0
 37
0.0
 76
     0
330
1B
  0
LAYOUT
  5
26
102
{ACAD_REACTORS
330
1A
102
}
330
1A
100
AcDbPlotSettings
  1

  2

  4

  6

 40
0.0
 41
0.0
 42
0.0
 43
0.0
 44
0.0
 45
0.0
 46
0.0
 47
0.0
 48
0.0
 49
0.0
140
0.0
141
0.0
142
1.0
143
1.0
 70
   688
 72
     0
 73
     0
 74
     5
  7

 75
    16
147
1.0
 76
     0
 77
     2
 78
   300
148
0.0
149
0.0
100
AcDbLayout
  1
Layout2
 70
     1
 71
     2
 10
0.0
 20
0.0
 11
12.0
 21
9.0
 12
0.0
 22
0.0
 32
0.0
 14
0.0
 24
0.0
 34
0.0
 15
0.0
 25
0.0
 35
0.0
146
0.0
 13
0.0
 23
0.0
 33
0.0
 16
1.0
 26
0.0
 36
0.0
 17
0.0
 27
1.0
 37
0.0
 76
     0
330
23
  0
LAYOUT
  5
22
102
{ACAD_REACTORS
330
1A
102
}
330
1A
100
AcDbPlotSettings
  1

  2

  4

  6

 40
0.0
 41
0.0
 42
0.0
 43
0.0
 44
0.0
 45
0.0
 46
0.0
 47
0.0
 48
0.0
 49
0.0
140
0.0
141
0.0
142
1.0
143
1.0
 70
  1712
 72
     0
 73
     0
 74
     0
  7

 75
     0
147
1.0
 76
     0
 77
     2
 78
   300
148
0.0
149
0.0
100
AcDbLayout
  1
Model
 70
     1
 71
     0
 10
0.0
 20
0.0
 11
12.0
 21
9.0
 12
0.0
 22
0.0
 32
0.0
 14
0.0
 24
0.0
 34
0.0
 15
0.0
 25
0.0
 35
0.0
146
0.0
 13
0.0
 23
0.0
 33
0.0
 16
1.0
 26
0.0
 36
0.0
 17
0.0
 27
1.0
 37
0.0
 76
     0
330
1F
331
291
  0
MATERIAL
  5
294
102
{ACAD_REACTORS
330
C8
102
}
330
C8
100
AcDbMaterial
  1
ByBlock
 73
     1
 78
     1
172
     1
176
     1
270
     1
274
     1
 94
       63
  0
MATERIAL
  5
293
102
{ACAD_REACTORS
330
C8
102
}
330
C8
100
AcDbMaterial
  1
ByLayer
 73
     1
 78
     1
172
     1
176
     1
270
     1
274
     1
 94
       63
  0
MATERIAL
  5
295
102
{ACAD_REACTORS
330
C8
102
}
330
C8
100
AcDbMaterial
  1
Global
 73
     1
 78
     1
172
     1
176
     1
270
     1
274
     1
 94
       63
  0
MLEADERSTYLE
  5
2ED
102
{ACAD_REACTORS
330
2EC
102
}
330
2EC
100
AcDbMLeaderStyle
170
     2
171
     1
172
     0
 90
        2
 40
0.0
 41
0.0
173
     1
 91
-1056964608
340
14
 92
       -2
290
     1
 42
0.09
291
     1
 43
0.36
  3
Standard
 44
0.18
300

342
11
174
     1
178
     6
175
     1
176
     0
 93
-1056964608
 45
0.18
292
     0
297
     0
 46
0.18
 94
-1056964608
 47
1.0
 49
1.0
140
1.0
293
     1
141
0.0
294
     1
177
     0
142
1.0
295
     0
296
     0
143
0.125
1001
ACAD_MLEADERVER
1070
     2
  0
MLINESTYLE
  5
18
102
{ACAD_REACTORS
330
17
102
}
330
17
100
AcDbMlineStyle
  2
STANDARD
 70
     0
  3

 62
   256
 51
90.0
 52
90.0
 71
     2
 49
0.5
 62
   256
  6
BYLAYER
 49
-0.5
 62
   256
  6
BYLAYER
  0
ACDBPLACEHOLDER
  5
F
102
{ACAD_REACTORS
330
E
102
}
330
E
  0
SCALE
  5
2CB
102
{ACAD_REACTORS
330
2CA
102
}
330
2CA
100
AcDbScale
 70
     0
300
1:1
140
1.0
141
1.0
290
     1
  0
SCALE
  5
2CC
102
{ACAD_REACTORS
330
2CA
102
}
330
2CA
100
AcDbScale
 70
     0
300
1:2
140
1.0
141
2.0
290
     0
  0
SCALE
  5
2CD
102
{ACAD_REACTORS
330
2CA
102
}
330
2CA
100
AcDbScale
 70
     0
300
1:4
140
1.0
141
4.0
290
     0
  0
SCALE
  5
2CE
102
{ACAD_REACTORS
330
2CA
102
}
330
2CA
100
AcDbScale
 70
     0
300
1:5
140
1.0
141
5.0
290
     0
  0
SCALE
  5
2CF
102
{ACAD_REACTORS
330
2CA
102
}
330
2CA
100
AcDbScale
 70
     0
300
1:8
140
1.0
141
8.0
290
     0
  0
SCALE
  5
2D0
102
{ACAD_REACTORS
330
2CA
102
}
330
2CA
100
AcDbScale
 70
     0
300
1:10
140
1.0
141
10.0
290
     0
  0
SCALE
  5
2D1
102
{ACAD_REACTORS
330
2CA
102
}
330
2CA
100
AcDbScale
 70
     0
300
1:16
140
1.0
141
16.0
290
     0
  0
SCALE
  5
2D2
102
{ACAD_REACTORS
330
2CA
102
}
330
2CA
100
AcDbScale
 70
     0
300
1:20
140
1.0
141
20.0
290
     0
  0
SCALE
  5
2D3
102
{ACAD_REACTORS
330
2CA
102
}
330
2CA
100
AcDbScale
 70
     0
300
1:30
140
1.0
141
30.0
290
     0
  0
SCALE
  5
2D4
102
{ACAD_REACTORS
330
2CA
102
}
330
2CA
100
AcDbScale
 70
     0
300
1:40
140
1.0
141
40.0
290
     0
  0
SCALE
  5
2D5
102
{ACAD_REACTORS
330
2CA
102
}
330
2CA
100
AcDbScale
 70
     0
300
1:50
140
1.0
141
50.0
290
     0
  0
SCALE
  5
2D6
102
{ACAD_REACTORS
330
2CA
102
}
330
2CA
100
AcDbScale
 70
     0
300
1:100
140
1.0
141
100.0
290
     0
  0
SCALE
  5
2D7
102
{ACAD_REACTORS
330
2CA
102
}
330
2CA
100
AcDbScale
 70
     0
300
2:1
140
2.0
141
1.0
290
     0
  0
SCALE
  5
2D8
102
{ACAD_REACTORS
330
2CA
102
}
330
2CA
100
AcDbScale
 70
     0
300
4:1
140
4.0
141
1.0
290
     0
  0
SCALE
  5
2D9
102
{ACAD_REACTORS
330
2CA
102
}
330
2CA
100
AcDbScale
 70
     0
300
8:1
140
8.0
141
1.0
290
     0
  0
SCALE
  5
2DA
102
{ACAD_REACTORS
330
2CA
102
}
330
2CA
100
AcDbScale
 70
     0
300
10:1
140
10.0
141
1.0
290
     0
  0
SCALE
  5
2DB
102
{ACAD_REACTORS
330
2CA
102
}
330
2CA
100
AcDbScale
 70
     0
300
100:1
140
100.0
141
1.0
290
     0
  0
SCALE
  5
2DC
102
{ACAD_REACTORS
330
2CA
102
}
330
2CA
100
AcDbScale
 70
     0
300
1/128" = 1'-0"
140
0.0078125
141
12.0
290
     0
  0
SCALE
  5
2DD
102
{ACAD_REACTORS
330
2CA
102
}
330
2CA
100
AcDbScale
 70
     0
300
1/64" = 1'-0"
140
0.015625
141
12.0
290
     0
  0
SCALE
  5
2DE
102
{ACAD_REACTORS
330
2CA
102
}
330
2CA
100
AcDbScale
 70
     0
300
1/32" = 1'-0"
140
0.03125
141
12.0
290
     0
  0
SCALE
  5
2DF
102
{ACAD_REACTORS
330
2CA
102
}
330
2CA
100
AcDbScale
 70
     0
300
1/16" = 1'-0"
140
0.0625
141
12.0
290
     0
  0
SCALE
  5
2E0
102
{ACAD_REACTORS
330
2CA
102
}
330
2CA
100
AcDbScale
 70
     0
300
3/32" = 1'-0"
140
0.09375
141
12.0
290
     0
  0
SCALE
  5
2E1
102
{ACAD_REACTORS
330
2CA
102
}
330
2CA
100
AcDbScale
 70
     0
300
1/8" = 1'-0"
140
0.125
141
12.0
290
     0
  0
SCALE
  5
2E2
102
{ACAD_REACTORS
330
2CA
102
}
330
2CA
100
AcDbScale
 70
     0
300
3/16" = 1'-0"
140
0.1875
141
12.0
290
     0
  0
SCALE
  5
2E3
102
{ACAD_REACTORS
330
2CA
102
}
330
2CA
100
AcDbScale
 70
     0
300
1/4" = 1'-0"
140
0.25
141
12.0
290
     0
  0
SCALE
  5
2E4
102
{ACAD_REACTORS
330
2CA
102
}
330
2CA
100
AcDbScale
 70
     0
300
3/8" = 1'-0"
140
0.375
141
12.0
290
     0
  0
SCALE
  5
2E5
102
{ACAD_REACTORS
330
2CA
102
}
330
2CA
100
AcDbScale
 70
     0
300
1/2" = 1'-0"
140
0.5
141
12.0
290
     0
  0
SCALE
  5
2E6
102
{ACAD_REACTORS
330
2CA
102
}
330
2CA
100
AcDbScale
 70
     0
300
3/4" = 1'-0"
140
0.75
141
12.0
290
     0
  0
SCALE
  5
2E7
102
{ACAD_REACTORS
330
2CA
102
}
330
2CA
100
AcDbScale
 70
     0
300
1" = 1'-0"
140
1.0
141
12.0
290
     0
  0
SCALE
  5
2E8
102
{ACAD_REACTORS
330
2CA
102
}
330
2CA
100
AcDbScale
 70
     0
300
1-1/2" = 1'-0"
140
1.5
141
12.0
290
     0
  0
SCALE
  5
2E9
102
{ACAD_REACTORS
330
2CA
102
}
330
2CA
100
AcDbScale
 70
     0
300
3" = 1'-0"
140
3.0
141
12.0
290
     0
  0
SCALE
  5
2EA
102
{ACAD_REACTORS
330
2CA
102
}
330
2CA
100
AcDbScale
 70
     0
300
6" = 1'-0"
140
6.0
141
12.0
290
     0
  0
SCALE
  5
2EB
102
{ACAD_REACTORS
330
2CA
102
}
330
2CA
100
AcDbScale
 70
     0
300
1'-0" = 1'-0"
140
12.0
141
12.0
290
     0
  0
TABLESTYLE
  5
124
102
{ACAD_XDICTIONARY
360
30B
102
}
102
{ACAD_REACTORS
330
123
102
}
330
123
100
AcDbTableStyle
  3
Standard
 70
     0
 71
     0
 40
0.06
 41
0.06
280
     0
281
     0
  7
STANDARD
140
0.18
170
     2
 62
     0
 63
     7
283
     0
 90
      512
 91
        0
  1

274
    -2
284
     1
 64
     0
275
    -2
285
     1
 65
     0
276
    -2
286
     1
 66
     0
277
    -2
287
     1
 67
     0
278
    -2
288
     1
 68
     0
279
    -2
289
     1
 69
     0
  7
STANDARD
140
0.25
170
     5
 62
     0
 63
     7
283
     0
 90
      512
 91
        0
  1

274
    -2
284
     1
 64
     0
275
    -2
285
     1
 65
     0
276
    -2
286
     1
 66
     0
277
    -2
287
     1
 67
     0
278
    -2
288
     1
 68
     0
279
    -2
289
     1
 69
     0
  7
STANDARD
140
0.18
170
     5
 62
     0
 63
     7
283
     0
 90
      512
 91
        0
  1

274
    -2
284
     1
 64
     0
275
    -2
285
     1
 65
     0
276
    -2
286
     1
 66
     0
277
    -2
287
     1
 67
     0
278
    -2
288
     1
 68
     0
279
    -2
289
     1
 69
     0
  0
VISUALSTYLE
  5
29C
102
{ACAD_REACTORS
330
296
102
}
330
296
100
AcDbVisualStyle
  2
2dWireframe
 70
     4
 71
     0
 72
     2
 73
     0
 90
        0
 40
-0.6
 41
-30.0
 62
     5
 63
     7
421
 16777215
 74
     1
 91
        4
 64
     7
 65
   257
 75
     1
175
     1
 42
1.0
 92
        0
 66
   257
 43
1.0
 76
     1
 77
     6
 78
     2
 67
     7
 79
     5
170
     0
171
     0
290
     0
174
     0
 93
        1
 44
0.0
173
     0
291
     0
 45
0.0
  0
VISUALSTYLE
  5
29E
102
{ACAD_REACTORS
330
296
102
}
330
296
100
AcDbVisualStyle
  2
3D Hidden
 70
     6
 71
     1
 72
     2
 73
     2
 90
        0
 40
-0.6
 41
-30.0
 62
     5
 63
     7
421
 16777215
 74
     2
 91
        2
 64
     7
 65
   257
 75
     2
175
     1
 42
40.0
 92
        0
 66
   257
 43
1.0
 76
     1
 77
     6
 78
     2
 67
     7
 79
     3
170
     0
171
     0
290
     0
174
     0
 93
        1
 44
0.0
173
     0
291
     0
 45
0.0
  0
VISUALSTYLE
  5
29D
102
{ACAD_REACTORS
330
296
102
}
330
296
100
AcDbVisualStyle
  2
3dWireframe
 70
     5
 71
     0
 72
     2
 73
     0
 90
        0
 40
-0.6
 41
-30.0
 62
     5
 63
     7
421
 16777215
 74
     1
 91
        4
 64
     7
 65
   257
 75
     1
175
     1
 42
1.0
 92
        0
 66
   257
 43
1.0
 76
     1
 77
     6
 78
     2
 67
     7
 79
     5
170
     0
171
     0
290
     0
174
     0
 93
        1
 44
0.0
173
     0
291
     0
 45
0.0
  0
VISUALSTYLE
  5
29B
102
{ACAD_REACTORS
330
296
102
}
330
296
100
AcDbVisualStyle
  2
Basic
 70
     7
 71
     1
 72
     0
 73
     1
 90
        0
 40
-0.6
 41
-30.0
 62
     5
 63
     7
421
 16777215
 74
     0
 91
        4
 64
     7
 65
   257
 75
     1
175
     1
 42
1.0
 92
        8
 66
     7
 43
1.0
 76
     1
 77
     6
 78
     2
 67
     7
 79
     5
170
     0
171
     0
290
     0
174
     0
 93
        1
 44
0.0
173
     0
291
     1
 45
0.0
  0
VISUALSTYLE
  5
2A2
102
{ACAD_REACTORS
330
296
102
}
330
296
100
AcDbVisualStyle
  2
Brighten
 70
    12
 71
     2
 72
     2
 73
     0
 90
        0
 40
-0.6
 41
-30.0
 62
     5
 63
     7
421
 16777215
 74
     1
 91
        4
 64
     7
 65
   257
 75
     1
175
     1
 42
1.0
 92
        8
 66
     7
 43
1.0
 76
     1
 77
     6
 78
     2
 67
     7
 79
     5
170
     0
171
     0
290
     0
174
     0
 93
        1
 44
50.0
173
     0
291
     1
 45
0.0
  0
VISUALSTYLE
  5
2A6
102
{ACAD_REACTORS
330
296
102
}
330
296
100
AcDbVisualStyle
  2
ColorChange
 70
    16
 71
     2
 72
     2
 73
     3
 90
        0
 40
-0.6
 41
-30.0
 62
     5
 63
     8
421
  8421504
 74
     1
 91
        4
 64
     7
 65
   257
 75
     1
175
     1
 42
1.0
 92
        8
 66
     8
424
  8421504
 43
1.0
 76
     1
 77
     6
 78
     2
 67
     7
 79
     5
170
     0
171
     0
290
     0
174
     0
 93
        1
 44
0.0
173
     0
291
     1
 45
0.0
  0
VISUALSTYLE
  5
29F
102
{ACAD_REACTORS
330
296
102
}
330
296
100
AcDbVisualStyle
  2
Conceptual
 70
     9
 71
     3
 72
     2
 73
     0
 90
        0
 40
-0.6
 41
-30.0
 62
     5
 63
     7
421
 16777215
 74
     2
 91
        2
 64
     7
 65
   257
 75
     1
175
     1
 42
40.0
 92
        8
 66
     7
 43
1.0
 76
     1
 77
     6
 78
     2
 67
     7
 79
     3
170
     0
171
     0
290
     0
174
     0
 93
        1
 44
0.0
173
     0
291
     0
 45
0.0
  0
VISUALSTYLE
  5
2A1
102
{ACAD_REACTORS
330
296
102
}
330
296
100
AcDbVisualStyle
  2
Dim
 70
    11
 71
     2
 72
     2
 73
     0
 90
        0
 40
-0.6
 41
-30.0
 62
     5
 63
     7
421
 16777215
 74
     1
 91
        4
 64
     7
 65
   257
 75
     1
175
     1
 42
1.0
 92
        8
 66
     7
 43
1.0
 76
     1
 77
     6
 78
     2
 67
     7
 79
     5
170
     0
171
     0
290
     0
174
     0
 93
        1
 44
-50.0
173
     0
291
     1
 45
0.0
  0
VISUALSTYLE
  5
2A5
102
{ACAD_REACTORS
330
296
102
}
330
296
100
AcDbVisualStyle
  2
Facepattern
 70
    15
 71
     2
 72
     2
 73
     0
 90
        0
 40
-0.6
 41
-30.0
 62
     5
 63
     7
421
 16777215
 74
     1
 91
        4
 64
     7
 65
   257
 75
     1
175
     1
 42
1.0
 92
        8
 66
     7
 43
1.0
 76
     1
 77
     6
 78
     2
 67
     7
 79
     5
170
     0
171
     0
290
     0
174
     0
 93
        1
 44
0.0
173
     0
291
     1
 45
0.0
  0
VISUALSTYLE
  5
297
102
{ACAD_REACTORS
330
296
102
}
330
296
100
AcDbVisualStyle
  2
Flat
 70
     0
 71
     2
 72
     1
 73
     1
 90
        2
 40
-0.6
 41
30.0
 62
     5
 63
     7
421
 16777215
 74
     0
 91
        4
 64
     7
 65
   257
 75
     1
175
     1
 42
1.0
 92
        8
 66
     7
 43
1.0
 76
     1
 77
     6
 78
     2
 67
     7
 79
     5
170
     0
171
     0
290
     0
174
     0
 93
       13
 44
0.0
173
     0
291
     1
 45
0.0
  0
VISUALSTYLE
  5
298
102
{ACAD_REACTORS
330
296
102
}
330
296
100
AcDbVisualStyle
  2
FlatWithEdges
 70
     1
 71
     2
 72
     1
 73
     1
 90
        2
 40
-0.6
 41
30.0
 62
     5
 63
     7
421
 16777215
 74
     1
 91
        4
 64
     7
 65
   257
 75
     1
175
     1
 42
1.0
 92
        0
 66
   257
 43
1.0
 76
     1
 77
     6
 78
     2
 67
     7
 79
     5
170
     0
171
     0
290
     0
174
     0
 93
       13
 44
0.0
173
     0
291
     1
 45
0.0
  0
VISUALSTYLE
  5
299
102
{ACAD_REACTORS
330
296
102
}
330
296
100
AcDbVisualStyle
  2
Gouraud
 70
     2
 71
     2
 72
     2
 73
     1
 90
        2
 40
-0.6
 41
30.0
 62
     5
 63
     7
421
 16777215
 74
     0
 91
        4
 64
     7
 65
   257
 75
     1
175
     1
 42
1.0
 92
        0
 66
     7
 43
1.0
 76
     1
 77
     6
 78
     2
 67
     7
 79
     5
170
     0
171
     0
290
     0
174
     0
 93
       13
 44
0.0
173
     0
291
     1
 45
0.0
  0
VISUALSTYLE
  5
29A
102
{ACAD_REACTORS
330
296
102
}
330
296
100
AcDbVisualStyle
  2
GouraudWithEdges
 70
     3
 71
     2
 72
     2
 73
     1
 90
        2
 40
-0.6
 41
30.0
 62
     5
 63
     7
421
 16777215
 74
     1
 91
        4
 64
     7
 65
   257
 75
     1
175
     1
 42
1.0
 92
        0
 66
   257
 43
1.0
 76
     1
 77
     6
 78
     2
 67
     7
 79
     5
170
     0
171
     0
290
     0
174
     0
 93
       13
 44
0.0
173
     0
291
     1
 45
0.0
  0
VISUALSTYLE
  5
2A4
102
{ACAD_REACTORS
330
296
102
}
330
296
100
AcDbVisualStyle
  2
Linepattern
 70
    14
 71
     2
 72
     2
 73
     0
 90
        0
 40
-0.6
 41
-30.0
 62
     5
 63
     7
421
 16777215
 74
     1
 91
        4
 64
     7
 65
   257
 75
     7
175
     7
 42
1.0
 92
        8
 66
     7
 43
1.0
 76
     1
 77
     6
 78
     2
 67
     7
 79
     5
170
     0
171
     0
290
     0
174
     0
 93
        1
 44
0.0
173
     0
291
     1
 45
0.0
  0
VISUALSTYLE
  5
2A0
102
{ACAD_REACTORS
330
296
102
}
330
296
100
AcDbVisualStyle
  2
Realistic
 70
     8
 71
     2
 72
     2
 73
     0
 90
        0
 40
-0.6
 41
-30.0
 62
     5
 63
     7
421
 16777215
 74
     1
 91
        0
 64
     7
 65
   257
 75
     1
175
     1
 42
1.0
 92
        8
 66
     8
424
  7895160
 43
1.0
 76
     1
 77
     6
 78
     2
 67
     7
 79
     5
170
     0
171
     0
290
     0
174
     0
 93
       13
 44
0.0
173
     0
291
     0
 45
0.0
  0
VISUALSTYLE
  5
2A3
102
{ACAD_REACTORS
330
296
102
}
330
296
100
AcDbVisualStyle
  2
Thicken
 70
    13
 71
     2
 72
     2
 73
     0
 90
        0
 40
-0.6
 41
-30.0
 62
     5
 63
     7
421
 16777215
 74
     1
 91
        4
 64
     7
 65
   257
 75
     1
175
     1
 42
1.0
 92
       12
 66
     7
 43
1.0
 76
     1
 77
     6
 78
     2
 67
     7
 79
     5
170
     0
171
     0
290
     0
174
     0
 93
        1
 44
0.0
173
     0
291
     1
 45
0.0
  0
DICTIONARYVAR
  5
310
102
{ACAD_REACTORS
330
9E
102
}
330
9E
100
DictionaryVariables
280
     0
  1
1:1
  0
DICTIONARYVAR
  5
30E
102
{ACAD_REACTORS
330
9E
102
}
330
9E
100
DictionaryVariables
280
     0
  1
STANDARD
  0
DICTIONARYVAR
  5
144
102
{ACAD_REACTORS
330
9E
102
}
330
9E
100
DictionaryVariables
280
     0
  1
STANDARD
  0
DICTIONARYVAR
  5
A0
102
{ACAD_REACTORS
330
9E
102
}
330
9E
100
DictionaryVariables
280
     0
  1
2
  0
DICTIONARYVAR
  5
9F
102
{ACAD_REACTORS
330
9E
102
}
330
9E
100
DictionaryVariables
280
     0
  1
1
  0
DICTIONARYVAR
  5
36B
102
{ACAD_REACTORS
330
9E
102
}
330
9E
100
DictionaryVariables
280
     0
  1
1
  0
DICTIONARYVAR
  5
36C
102
{ACAD_REACTORS
330
9E
102
}
330
9E
100
DictionaryVariables
280
     0
  1
15
  0
DICTIONARYVAR
  5
311
102
{ACAD_REACTORS
330
9E
102
}
330
9E
100
DictionaryVariables
280
     0
  1
0
  0
DICTIONARYVAR
  5
30F
102
{ACAD_REACTORS
330
9E
102
}
330
9E
100
DictionaryVariables
280
     0
  1
0
  0
DICTIONARY
  5
69
102
{ACAD_REACTORS
330
63
102
}
330
63
100
AcDbDictionary
281
     1
  0
XRECORD
  5
12C
102
{ACAD_REACTORS
330
63
102
}
330
63
100
AcDbXrecord
280
     1
 90
-1023410169
  0
XRECORD
  5
113E
102
{ACAD_REACTORS
330
113D
102
}
330
113D
100
AcDbXrecord
280
     1
  0
DICTIONARY
  5
30B
330
124
100
AcDbDictionary
280
     1
281
     1
  3
ACAD_ROUNDTRIP_2008_TABLESTYLE_CELLSTYLEMAP
360
113F
  0
CELLSTYLEMAP
  5
113F
102
{ACAD_REACTORS
330
30B
102
}
330
30B
100
AcDbCellStyleMap
 90
        3
300
CELLSTYLE
  1
TABLEFORMAT_BEGIN
 90
        5
170
     1
 91
        0
 92
    32768
 62
   257
 93
        1
300
CONTENTFORMAT
  1
CONTENTFORMAT_BEGIN
 90
        0
 91
        0
 92
      512
 93
        0
300

 40
0.0
140
1.0
 94
        5
 62
     0
340
11
144
0.25
309
CONTENTFORMAT_END
171
     0
 94
        6
 95
        1
302
GRIDFORMAT
  1
GRIDFORMAT_BEGIN
 90
        0
 91
        1
 62
     0
 92
       -2
340
0
 93
        0
 40
0.045
309
GRIDFORMAT_END
 95
        2
302
GRIDFORMAT
  1
GRIDFORMAT_BEGIN
 90
        0
 91
        1
 62
     0
 92
       -2
340
0
 93
        0
 40
0.045
309
GRIDFORMAT_END
 95
        4
302
GRIDFORMAT
  1
GRIDFORMAT_BEGIN
 90
        0
 91
        1
 62
     0
 92
       -2
340
0
 93
        0
 40
0.045
309
GRIDFORMAT_END
 95
        8
302
GRIDFORMAT
  1
GRIDFORMAT_BEGIN
 90
        0
 91
        1
 62
     0
 92
       -2
340
0
 93
        0
 40
0.045
309
GRIDFORMAT_END
 95
       16
302
GRIDFORMAT
  1
GRIDFORMAT_BEGIN
 90
        0
 91
        1
 62
     0
 92
       -2
340
0
 93
        0
 40
0.045
309
GRIDFORMAT_END
 95
       32
302
GRIDFORMAT
  1
GRIDFORMAT_BEGIN
 90
        0
 91
        1
 62
     0
 92
       -2
340
0
 93
        0
 40
0.045
309
GRIDFORMAT_END
309
TABLEFORMAT_END
  1
CELLSTYLE_BEGIN
 90
        1
 91
        1
300
_TITLE
309
CELLSTYLE_END
300
CELLSTYLE
  1
TABLEFORMAT_BEGIN
 90
        5
170
     1
 91
        0
 92
        0
 62
   257
 93
        1
300
CONTENTFORMAT
  1
CONTENTFORMAT_BEGIN
 90
        0
 91
        0
 92
      512
 93
        0
300

 40
0.0
140
1.0
 94
        5
 62
     0
340
11
144
0.18
309
CONTENTFORMAT_END
171
     0
 94
        6
 95
        1
302
GRIDFORMAT
  1
GRIDFORMAT_BEGIN
 90
        0
 91
        1
 62
     0
 92
       -2
340
0
 93
        0
 40
0.045
309
GRIDFORMAT_END
 95
        2
302
GRIDFORMAT
  1
GRIDFORMAT_BEGIN
 90
        0
 91
        1
 62
     0
 92
       -2
340
0
 93
        0
 40
0.045
309
GRIDFORMAT_END
 95
        4
302
GRIDFORMAT
  1
GRIDFORMAT_BEGIN
 90
        0
 91
        1
 62
     0
 92
       -2
340
0
 93
        0
 40
0.045
309
GRIDFORMAT_END
 95
        8
302
GRIDFORMAT
  1
GRIDFORMAT_BEGIN
 90
        0
 91
        1
 62
     0
 92
       -2
340
0
 93
        0
 40
0.045
309
GRIDFORMAT_END
 95
       16
302
GRIDFORMAT
  1
GRIDFORMAT_BEGIN
 90
        0
 91
        1
 62
     0
 92
       -2
340
0
 93
        0
 40
0.045
309
GRIDFORMAT_END
 95
       32
302
GRIDFORMAT
  1
GRIDFORMAT_BEGIN
 90
        0
 91
        1
 62
     0
 92
       -2
340
0
 93
        0
 40
0.045
309
GRIDFORMAT_END
309
TABLEFORMAT_END
  1
CELLSTYLE_BEGIN
 90
        2
 91
        1
300
_HEADER
309
CELLSTYLE_END
300
CELLSTYLE
  1
TABLEFORMAT_BEGIN
 90
        5
170
     1
 91
        0
 92
        0
 62
   257
 93
        1
300
CONTENTFORMAT
  1
CONTENTFORMAT_BEGIN
 90
        0
 91
        0
 92
      512
 93
        0
300

 40
0.0
140
1.0
 94
        2
 62
     0
340
11
144
0.18
309
CONTENTFORMAT_END
171
     0
 94
        6
 95
        1
302
GRIDFORMAT
  1
GRIDFORMAT_BEGIN
 90
        0
 91
        1
 62
     0
 92
       -2
340
0
 93
        0
 40
0.045
309
GRIDFORMAT_END
 95
        2
302
GRIDFORMAT
  1
GRIDFORMAT_BEGIN
 90
        0
 91
        1
 62
     0
 92
       -2
340
0
 93
        0
 40
0.045
309
GRIDFORMAT_END
 95
        4
302
GRIDFORMAT
  1
GRIDFORMAT_BEGIN
 90
        0
 91
        1
 62
     0
 92
       -2
340
0
 93
        0
 40
0.045
309
GRIDFORMAT_END
 95
        8
302
GRIDFORMAT
  1
GRIDFORMAT_BEGIN
 90
        0
 91
        1
 62
     0
 92
       -2
340
0
 93
        0
 40
0.045
309
GRIDFORMAT_END
 95
       16
302
GRIDFORMAT
  1
GRIDFORMAT_BEGIN
 90
        0
 91
        1
 62
     0
 92
       -2
340
0
 93
        0
 40
0.045
309
GRIDFORMAT_END
 95
       32
302
GRIDFORMAT
  1
GRIDFORMAT_BEGIN
 90
        0
 91
        1
 62
     0
 92
       -2
340
0
 93
        0
 40
0.045
309
GRIDFORMAT_END
309
TABLEFORMAT_END
  1
CELLSTYLE_BEGIN
 90
        3
 91
        2
300
_DATA
309
CELLSTYLE_END
  0
ENDSEC
  0
EOF
