  0
SECTION
  2
HEADER
  9
$ACADVER
  1
AC1021
  9
$ACADMAINTVER
 70
    50
  9
$DWGCODEPAGE
  3
ANSI_936
  9
$LASTSAVEDBY
  1
ko69185
  9
$CUSTOMPROPERTYTAG
  1
AmdtFileType
  9
$CUSTOMPROPERTY
  1
84
  9
$INSBASE
 10
0.0
 20
0.0
 30
0.0
  9
$EXTMIN
 10
16.96375617170363
 20
15.3867839439113
 30
0.0
  9
$EXTMAX
 10
43.80578699404566
 20
31.9293554248291
 30
0.0
  9
$LIMMIN
 10
0.0
 20
0.0
  9
$LIMMAX
 10
17.0
 20
11.0
  9
$ORTHOMODE
 70
     0
  9
$REGENMODE
 70
     1
  9
$FILLMODE
 70
     1
  9
$QTEXTMODE
 70
     0
  9
$MIRRTEXT
 70
     1
  9
$LTSCALE
 40
1.0
  9
$ATTMODE
 70
     1
  9
$TEXTSIZE
 40
0.2
  9
$TRACEWID
 40
0.05
  9
$TEXTSTYLE
  7
STANDARD
  9
$CLAYER
  8
0
  9
$CELTYPE
  6
ByLayer
  9
$CECOLOR
 62
   256
  9
$CELTSCALE
 40
1.0
  9
$DISPSILH
 70
     0
  9
$DIMSCALE
 40
1.0
  9
$DIMASZ
 40
0.12
  9
$DIMEXO
 40
0.05
  9
$DIMDLI
 40
0.5
  9
$DIMRND
 40
0.0
  9
$DIMDLE
 40
0.0
  9
$DIMEXE
 40
0.1
  9
$DIMTP
 40
0.1
  9
$DIMTM
 40
0.1
  9
$DIMTXT
 40
0.12
  9
$DIMCEN
 40
0.0
  9
$DIMTSZ
 40
0.0
  9
$DIMTOL
 70
     0
  9
$DIMLIM
 70
     0
  9
$DIMTIH
 70
     1
  9
$DIMTOH
 70
     1
  9
$DIMSE1
 70
     0
  9
$DIMSE2
 70
     0
  9
$DIMTAD
 70
     0
  9
$DIMZIN
 70
     7
  9
$DIMBLK
  1

  9
$DIMASO
 70
     1
  9
$DIMSHO
 70
     1
  9
$DIMPOST
  1

  9
$DIMAPOST
  1
mm
  9
$DIMALT
 70
     0
  9
$DIMALTD
 70
     2
  9
$DIMALTF
 40
25.4
  9
$DIMLFAC
 40
1.0
  9
$DIMTOFL
 70
     0
  9
$DIMTVP
 40
0.0
  9
$DIMTIX
 70
     0
  9
$DIMSOXD
 70
     0
  9
$DIMSAH
 70
     0
  9
$DIMBLK1
  1

  9
$DIMBLK2
  1

  9
$DIMSTYLE
  2
AM_ANSI
  9
$DIMCLRD
 70
   256
  9
$DIMCLRE
 70
   256
  9
$DIMCLRT
 70
   140
  9
$DIMTFAC
 40
0.71
  9
$DIMGAP
 40
0.06
  9
$DIMJUST
 70
     0
  9
$DIMSD1
 70
     0
  9
$DIMSD2
 70
     0
  9
$DIMTOLJ
 70
     1
  9
$DIMTZIN
 70
     7
  9
$DIMALTZ
 70
     0
  9
$DIMALTTZ
 70
     0
  9
$DIMUPT
 70
     0
  9
$DIMDEC
 70
     4
  9
$DIMTDEC
 70
     4
  9
$DIMALTU
 70
     2
  9
$DIMALTTD
 70
     4
  9
$DIMTXSTY
  7
STANDARD
  9
$DIMAUNIT
 70
     0
  9
$DIMADEC
 70
     0
  9
$DIMALTRND
 40
0.0
  9
$DIMAZIN
 70
     2
  9
$DIMDSEP
 70
    46
  9
$DIMATFIT
 70
     3
  9
$DIMFRAC
 70
     0
  9
$DIMLDRBLK
  1

  9
$DIMLUNIT
 70
     2
  9
$DIMLWD
 70
    -1
  9
$DIMLWE
 70
    -1
  9
$DIMTMOVE
 70
     0
  9
$DIMFXL
 40
1.0
  9
$DIMFXLON
 70
     0
  9
$DIMJOGANG
 40
0.7853981633974483
  9
$DIMTFILL
 70
     0
  9
$DIMTFILLCLR
 70
     0
  9
$DIMARCSYM
 70
     1
  9
$DIMLTYPE
  6
ByBlock
  9
$DIMLTEX1
  6
ByBlock
  9
$DIMLTEX2
  6
ByBlock
  9
$LUNITS
 70
     2
  9
$LUPREC
 70
     4
  9
$SKETCHINC
 40
0.1
  9
$FILLETRAD
 40
0.125
  9
$AUNITS
 70
     0
  9
$AUPREC
 70
     0
  9
$MENU
  1
.
  9
$ELEVATION
 40
0.0
  9
$PELEVATION
 40
0.0
  9
$THICKNESS
 40
0.0
  9
$LIMCHECK
 70
     0
  9
$CHAMFERA
 40
0.125
  9
$CHAMFERB
 40
0.125
  9
$CHAMFERC
 40
1.0
  9
$CHAMFERD
 40
0.0
  9
$SKPOLY
 70
     0
  9
$TDCREATE
 40
2455338.665716713
  9
$TDUCREATE
 40
2455338.332383380
  9
$TDUPDATE
 40
2455338.666008554
  9
$TDUUPDATE
 40
2455338.332675220
  9
$TDINDWG
 40
0.0002927431
  9
$TDUSRTIMER
 40
0.0002927431
  9
$USRTIMER
 70
     1
  9
$ANGBASE
 50
0.0
  9
$ANGDIR
 70
     0
  9
$PDMODE
 70
     0
  9
$PDSIZE
 40
0.0
  9
$PLINEWID
 40
0.0
  9
$SPLFRAME
 70
     0
  9
$SPLINETYPE
 70
     6
  9
$SPLINESEGS
 70
     8
  9
$HANDSEED
  5
E69
  9
$SURFTAB1
 70
     6
  9
$SURFTAB2
 70
     6
  9
$SURFTYPE
 70
     6
  9
$SURFU
 70
     6
  9
$SURFV
 70
     6
  9
$UCSBASE
  2

  9
$UCSNAME
  2

  9
$UCSORG
 10
0.0
 20
0.0
 30
0.0
  9
$UCSXDIR
 10
1.0
 20
0.0
 30
0.0
  9
$UCSYDIR
 10
0.0
 20
1.0
 30
0.0
  9
$UCSORTHOREF
  2

  9
$UCSORTHOVIEW
 70
     0
  9
$UCSORGTOP
 10
0.0
 20
0.0
 30
0.0
  9
$UCSORGBOTTOM
 10
0.0
 20
0.0
 30
0.0
  9
$UCSORGLEFT
 10
0.0
 20
0.0
 30
0.0
  9
$UCSORGRIGHT
 10
0.0
 20
0.0
 30
0.0
  9
$UCSORGFRONT
 10
0.0
 20
0.0
 30
0.0
  9
$UCSORGBACK
 10
0.0
 20
0.0
 30
0.0
  9
$PUCSBASE
  2

  9
$PUCSNAME
  2

  9
$PUCSORG
 10
0.0
 20
0.0
 30
0.0
  9
$PUCSXDIR
 10
1.0
 20
0.0
 30
0.0
  9
$PUCSYDIR
 10
0.0
 20
1.0
 30
0.0
  9
$PUCSORTHOREF
  2

  9
$PUCSORTHOVIEW
 70
     0
  9
$PUCSORGTOP
 10
0.0
 20
0.0
 30
0.0
  9
$PUCSORGBOTTOM
 10
0.0
 20
0.0
 30
0.0
  9
$PUCSORGLEFT
 10
0.0
 20
0.0
 30
0.0
  9
$PUCSORGRIGHT
 10
0.0
 20
0.0
 30
0.0
  9
$PUCSORGFRONT
 10
0.0
 20
0.0
 30
0.0
  9
$PUCSORGBACK
 10
0.0
 20
0.0
 30
0.0
  9
$USERI1
 70
     0
  9
$USERI2
 70
     0
  9
$USERI3
 70
     0
  9
$USERI4
 70
     0
  9
$USERI5
 70
     0
  9
$USERR1
 40
0.0
  9
$USERR2
 40
0.0
  9
$USERR3
 40
0.0
  9
$USERR4
 40
0.0
  9
$USERR5
 40
0.0
  9
$WORLDVIEW
 70
     1
  9
$SHADEDGE
 70
     3
  9
$SHADEDIF
 70
    70
  9
$TILEMODE
 70
     1
  9
$MAXACTVP
 70
    64
  9
$PINSBASE
 10
0.0
 20
0.0
 30
0.0
  9
$PLIMCHECK
 70
     0
  9
$PEXTMIN
 10
1.000000000000000E+20
 20
1.000000000000000E+20
 30
1.000000000000000E+20
  9
$PEXTMAX
 10
-1.000000000000000E+20
 20
-1.000000000000000E+20
 30
-1.000000000000000E+20
  9
$PLIMMIN
 10
0.0
 20
0.0
  9
$PLIMMAX
 10
12.0
 20
9.0
  9
$UNITMODE
 70
     0
  9
$VISRETAIN
 70
     1
  9
$PLINEGEN
 70
     0
  9
$PSLTSCALE
 70
     1
  9
$TREEDEPTH
 70
  3020
  9
$CMLSTYLE
  2
Standard
  9
$CMLJUST
 70
     0
  9
$CMLSCALE
 40
1.0
  9
$PROXYGRAPHICS
 70
     1
  9
$MEASUREMENT
 70
     0
  9
$CELWEIGHT
370
    -1
  9
$ENDCAPS
280
     0
  9
$JOINSTYLE
280
     0
  9
$LWDISPLAY
290
     0
  9
$INSUNITS
 70
     1
  9
$HYPERLINKBASE
  1

  9
$STYLESHEET
  1

  9
$XEDIT
290
     1
  9
$CEPSNTYPE
380
     0
  9
$PSTYLEMODE
290
     1
  9
$FINGERPRINTGUID
  2
{274B829E-EB27-40FC-92F6-12FA84BD3ABE}
  9
$VERSIONGUID
  2
{EB63B29A-9A91-4A09-8F23-939B640C00C5}
  9
$EXTNAMES
290
     1
  9
$PSVPSCALE
 40
0.0
  9
$OLESTARTUP
290
     0
  9
$SORTENTS
280
   127
  9
$INDEXCTL
280
     0
  9
$HIDETEXT
280
     0
  9
$XCLIPFRAME
290
     0
  9
$HALOGAP
280
     0
  9
$OBSCOLOR
 70
   257
  9
$OBSLTYPE
280
     0
  9
$INTERSECTIONDISPLAY
280
     0
  9
$INTERSECTIONCOLOR
 70
   257
  9
$DIMASSOC
280
     2
  9
$PROJECTNAME
  1

  9
$CAMERADISPLAY
290
     0
  9
$LENSLENGTH
 40
50.0
  9
$CAMERAHEIGHT
 40
0.0
  9
$STEPSPERSEC
 40
2.0
  9
$STEPSIZE
 40
6.0
  9
$3DDWFPREC
 40
2.0
  9
$PSOLWIDTH
 40
0.25
  9
$PSOLHEIGHT
 40
4.0
  9
$LOFTANG1
 40
1.570796326794896
  9
$LOFTANG2
 40
1.570796326794896
  9
$LOFTMAG1
 40
0.0
  9
$LOFTMAG2
 40
0.0
  9
$LOFTPARAM
 70
     7
  9
$LOFTNORMALS
280
     1
  9
$LATITUDE
 40
37.795
  9
$LONGITUDE
 40
-122.394
  9
$NORTHDIRECTION
 40
0.0
  9
$TIMEZONE
 70
 -8000
  9
$LIGHTGLYPHDISPLAY
280
     1
  9
$TILEMODELIGHTSYNCH
280
     1
  9
$CMATERIAL
347
293
  9
$SOLIDHIST
280
     1
  9
$SHOWHIST
280
     1
  9
$DWFFRAME
280
     2
  9
$DGNFRAME
280
     0
  9
$REALWORLDSCALE
290
     1
  9
$INTERFERECOLOR
 62
     1
  9
$INTERFEREOBJVS
345
2A0
  9
$INTERFEREVPVS
346
29D
  9
$CSHADOW
280
     0
  9
$SHADOWPLANELOCATION
 40
0.0
  0
ENDSEC
  0
SECTION
  2
CLASSES
  0
CLASS
  1
ACDBDICTIONARYWDFLT
  2
AcDbDictionaryWithDefault
  3
ObjectDBX Classes
 90
        0
 91
        1
280
     0
281
     0
  0
CLASS
  1
ACME_DOCUMENT
  2
AcMeDbDoc
  3
AcMeServices
 90
     1024
 91
        2
280
     0
281
     0
  0
CLASS
  1
AMGSETTINGSOBJ
  2
AmgSettingsObj
  3
"AcadM|Product Description: AutoCAD Mechanical|Company: Autodesk, Inc."
 90
     1024
 91
        4
280
     0
281
     0
  0
CLASS
  1
ACMESCOPE
  2
AcMeScope
  3
AcMeServices
 90
     1024
 91
        1
280
     0
281
     0
  0
CLASS
  1
ACMECOMMANDHISTORY
  2
AcMeCommandHistory
  3
AcMeServices
 90
     1024
 91
        1
280
     0
281
     0
  0
CLASS
  1
ACIMSYSVARMAN
  2
AcImSysVarManager
  3
AcMeServices
 90
     1024
 91
        5
280
     0
281
     0
  0
CLASS
  1
ACIMREALSYSVAR
  2
AcImRealSysVar
  3
AcMeServices
 90
     1024
 91
        3
280
     0
281
     0
  0
CLASS
  1
ACIMINTSYSVAR
  2
AcImIntSysVar
  3
AcMeServices
 90
     1024
 91
       27
280
     0
281
     0
  0
CLASS
  1
ACMEDRAWINGMAN
  2
AcMeDrawingMan
  3
AcMeServices
 90
     1024
 91
        1
280
     0
281
     0
  0
CLASS
  1
ACMEVIEW
  2
AcMeView
  3
AcMeServices
 90
     1024
 91
        1
280
     0
281
     0
  0
CLASS
  1
ACDBENTITYCACHE
  2
AcMeEntityCache
  3
AcMeServices
 90
     1024
 91
        1
280
     0
281
     0
  0
CLASS
  1
GSMANAGER
  2
AcMeGSManager
  3
AcMeServices
 90
     1024
 91
        1
280
     0
281
     0
  0
CLASS
  1
AMDTINTERNALREACTOR
  2
AmdtInternalReactor
  3
AcMeServices
 90
     1024
 91
        2
280
     0
281
     0
  0
CLASS
  1
ACMESTATEMGR
  2
AcMeStateMgr
  3
AcMeServices
 90
     1024
 91
        1
280
     0
281
     0
  0
CLASS
  1
ACGREFMASTER
  2
AcGrefMaster
  3
AcAttribServices
 90
     1024
 91
        1
280
     0
281
     0
  0
CLASS
  1
ACME_DATABASE
  2
AcMeDbDatabase
  3
AcMeServices
 90
     1024
 91
        2
280
     0
281
     0
  0
CLASS
  1
ACRFINSADJUSTERMGR
  2
AcRfInsAdjusterMgr
  3
AcMeServices
 90
     1024
 91
        1
280
     0
281
     0
  0
CLASS
  1
ACGREFACADMASTER
  2
AcGrefacadMaster
  3
AcGrefServices
 90
     1024
 91
        1
280
     0
281
     0
  0
CLASS
  1
AMIMASTER
  2
AmiMaster
  3
AmiServices
 90
     1024
 91
        1
280
     0
281
     0
  0
CLASS
  1
ACMDATADICTIONARY
  2
AcmDataDictionary
  3
"AcmSymBB|Product Description: AutoCAD Mechanical|Company: Autodesk, Inc."
 90
     1024
 91
        1
280
     0
281
     0
  0
CLASS
  1
ACMDATAENTRYBLOCK
  2
AcmDataEntryBlock
  3
AcmSymBB|Product Description: AutoCAD Mechanical|Company: Autodesk, Inc.
 90
     1024
 91
        1
280
     0
281
     0
  0
CLASS
  1
ACIMSTRSYSVAR
  2
AcImStrSysVar
  3
AcMeServices
 90
     1024
 91
        5
280
     0
281
     0
  0
CLASS
  1
ACMSTANDARDANSI
  2
AcmStandardANSI
  3
"Amdt_StdImp|Product Description: AutoCAD Mechanical|Company: Autodesk, Inc."
 90
     1024
 91
        1
280
     0
281
     0
  0
CLASS
  1
AMGOBJPROPCFG
  2
AmgObjPropCfg
  3
"AmgLay|Product Description: AutoCAD Mechanical|Company: Autodesk, Inc."
 90
     1025
 91
        1
280
     0
281
     0
  0
CLASS
  1
ACMSURFSTANDARDANSI
  2
AcmSurfTextStdANSI
  3
"Amdt_StdImp|Product Description: AutoCAD Mechanical|Company: Autodesk, Inc."
 90
     1024
 91
        1
280
     0
281
     0
  0
CLASS
  1
ACMFCFSTANDARDANSI
  2
AcmFCFStdANSI
  3
"Amdt_StdImp|Product Description: AutoCAD Mechanical|Company: Autodesk, Inc."
 90
     1024
 91
        1
280
     0
281
     0
  0
CLASS
  1
ACMWELDSTANDARDANSI
  2
AcmWeldingStdANSI
  3
"Amdt_StdImp|Product Description: AutoCAD Mechanical|Company: Autodesk, Inc."
 90
     1024
 91
        1
280
     0
281
     0
  0
CLASS
  1
ACMIDSTANDARDANSI
  2
AcmIdStdANSI
  3
"Amdt_StdImp|Product Description: AutoCAD Mechanical|Company: Autodesk, Inc."
 90
     1024
 91
        1
280
     0
281
     0
  0
CLASS
  1
ACMDATUMSTANDARDANSI
  2
AcmDatumStdANSI
  3
"Amdt_StdImp|Product Description: AutoCAD Mechanical|Company: Autodesk, Inc."
 90
     1024
 91
        1
280
     0
281
     0
  0
CLASS
  1
ACMBOMSTANDARDANSI
  2
AcmBOMStdANSI
  3
"Amdt_StdImp|Product Description: AutoCAD Mechanical|Company: Autodesk, Inc."
 90
     1024
 91
        1
280
     0
281
     0
  0
CLASS
  1
ACMDETAILSTANDARDANSI
  2
AmdtDetailSymStdANSI
  3
"Amdt_StdImp|Product Description: AutoCAD Mechanical|Company: Autodesk, Inc."
 90
     1024
 91
        1
280
     0
281
     0
  0
CLASS
  1
ACMSECTIONSTANDARDANSI
  2
AmdtSectionSymStdANSI
  3
"Amdt_StdImp|Product Description: AutoCAD Mechanical|Company: Autodesk, Inc."
 90
     1024
 91
        1
280
     0
281
     0
  0
CLASS
  1
ACMCENTERLINESTANDARDANSI
  2
AmdtCenterLineStdANSI
  3
"Amdt_StdImp|Product Description: AutoCAD Mechanical|Company: Autodesk, Inc."
 90
     1024
 91
        1
280
     0
281
     0
  0
CLASS
  1
ACMNOTESTANDARDANSI
  2
AmdtNoteStdANSI
  3
"Amdt_StdImp|Product Description: AutoCAD Mechanical|Company: Autodesk, Inc."
 90
     1024
 91
        1
280
     0
281
     0
  0
CLASS
  1
ACAMGLAYSTD
  2
AcAmgLayStd
  3
"AmgLay|Product Description: AutoCAD Mechanical|Company: Autodesk, Inc."
 90
     1024
 91
        1
280
     0
281
     0
  0
CLASS
  1
ACAMGDIMSTD
  2
AcAmgDimStd
  3
"AmgDim|Product Description: AutoCAD Mechanical|Company: Autodesk, Inc."
 90
     1024
 91
        1
280
     0
281
     0
  0
CLASS
  1
ACAMGHOLECHARTSTDANSI
  2
AcAmgHoleChartStdANSI
  3
AmgDim|Product Description: AutoCAD Mechanical|Company: Autodesk, Inc.
 90
     1024
 91
        1
280
     0
281
     0
  0
CLASS
  1
ACAMGTITLESTD
  2
AcAmgTitleStd
  3
"AmgTitle|Product Description: AutoCAD Mechanical|Company: Autodesk, Inc."
 90
     4095
 91
        1
280
     0
281
     0
  0
CLASS
  1
LAYER_INDEX
  2
AcDbLayerIndex
  3
ObjectDBX Classes
 90
        0
 91
        0
280
     0
281
     0
  0
CLASS
  1
IDBUFFER
  2
AcDbIdBuffer
  3
ObjectDBX Classes
 90
        0
 91
        0
280
     0
281
     0
  0
CLASS
  1
DICTIONARYVAR
  2
AcDbDictionaryVar
  3
ObjectDBX Classes
 90
        0
 91
        9
280
     0
281
     0
  0
CLASS
  1
AM_DRAWING_MGR
  2
AcDmDwgMgr
  3
AcMechDwgViewMgmt
 90
     1024
 91
        1
280
     0
281
     0
  0
CLASS
  1
AM_DWG_DOCUMENT
  2
AcDmDwgDocument
  3
AcMechDwgViewMgmt
 90
     1024
 91
        1
280
     0
281
     0
  0
CLASS
  1
AM_DWG_SHEET
  2
AcDmSheet
  3
AcMechDwgViewMgmt
 90
     1024
 91
        2
280
     0
281
     0
  0
CLASS
  1
AM_VIEWDIMPARMAP
  2
AcDmViewDimParMap
  3
AcMechDwgViewMgmt
 90
     1024
 91
        2
280
     0
281
     0
  0
CLASS
  1
AM_DWGMGR_NAME
  2
AcDmDwgMgrName
  3
AcMechDwgViewMgmt
 90
     1024
 91
        1
280
     0
281
     0
  0
CLASS
  1
AMDTMENUSTATEMGR
  2
AmdtMenuStateMgr
  3
McadcomServices
 90
     1024
 91
        1
280
     0
281
     0
  0
CLASS
  1
AMDTMCOMMENUSTATE
  2
AmdtMcomMenuState
  3
McadcomServices
 90
     1024
 91
        1
280
     0
281
     0
  0
CLASS
  1
MAPIAMMOUDLE
  2
MApiAmModule
  3
MApiAmServices
 90
     1024
 91
        1
280
     0
281
     0
  0
CLASS
  1
AMDTADMENUSTATE
  2
AmdtAdMenuState
  3
DesignerServices
 90
     1024
 91
        1
280
     0
281
     0
  0
CLASS
  1
ADAPPL
  2
AcAdAppl
  3
DesignerServices
 90
     1024
 91
        1
280
     0
281
     0
  0
CLASS
  1
DEPMGR
  2
AcAdDepMgr
  3
DesignerServices
 90
     1024
 91
        1
280
     0
281
     0
  0
CLASS
  1
PARAMMGR
  2
AcAdParamMgr
  3
DesignerServices
 90
     1024
 91
        1
280
     0
281
     0
  0
CLASS
  1
PARAMSCOPE
  2
AcAdParamScope
  3
DesignerServices
 90
     1024
 91
        1
280
     0
281
     0
  0
CLASS
  1
NAMEDAPPL
  2
AcAdNamedAppl
  3
DesignerServices
 90
     1024
 91
        1
280
     0
281
     0
  0
CLASS
  1
AMDTDMMENUSTATE
  2
AmdtDmMenuState
  3
AcMechDwgViewMgmt
 90
     1024
 91
        1
280
     0
281
     0
  0
CLASS
  1
AMDTAMMENUSTATE
  2
AmdtAmMenuState
  3
DesignerAssemblies
 90
     1024
 91
        1
280
     0
281
     0
  0
CLASS
  1
ACAMPROJECT
  2
AcAmProject
  3
DesignerAssemblies
 90
     1024
 91
        1
280
     0
281
     0
  0
CLASS
  1
ACAMGRCOMPDEF
  2
AcAmGrCompDef
  3
DesignerAssemblies
 90
     1024
 91
        1
280
     0
281
     0
  0
CLASS
  1
ACCMCONTEXT
  2
AcCmContext
  3
DesignerAssemblies
 90
     1024
 91
        1
280
     0
281
     0
  0
CLASS
  1
ACAMCOMPDEF
  2
AcAmCompDef
  3
DesignerAssemblies
 90
     1024
 91
        1
280
     0
281
     0
  0
CLASS
  1
ACAMCOMPDEFMGR
  2
AcAmCompDefMgr
  3
DesignerAssemblies
 90
     1024
 91
        1
280
     0
281
     0
  0
CLASS
  1
AMCONTEXTMGR
  2
AcAmContextMgr
  3
DesignerAssemblies
 90
     1024
 91
        1
280
     0
281
     0
  0
CLASS
  1
ACAMCONTEXTMODELER
  2
AcAmContextModeler
  3
DesignerAssemblies
 90
     1024
 91
        1
280
     0
281
     0
  0
CLASS
  1
ACMTHREADLINESTANDARDANSI
  2
AmdtThreadLineStdANSI
  3
"Amdt_StdImp|Product Description: AutoCAD Mechanical|Company: Autodesk, Inc."
 90
     1024
 91
        1
280
     0
281
     0
  0
CLASS
  1
CATALOGSTATE
  2
AcAmCatalogState
  3
DesignerAssemblies
 90
     1024
 91
        1
280
     0
281
     0
  0
CLASS
  1
ACAMGRCOMPDEFSET
  2
AcAmGrCompDefSet
  3
DesignerAssemblies
 90
     1024
 91
        1
280
     0
281
     0
  0
CLASS
  1
AMDTBROWSERDBTAB
  2
AmdtBrowserDbTab
  3
McadcomServices
 90
     1024
 91
        1
280
     0
281
     0
  0
CLASS
  1
CBROWSERAPPOBJECT
  2
CBrowserAppObject
  3
McadcomServices
 90
     1024
 91
        3
280
     0
281
     0
  0
CLASS
  1
DM_PLACEHOLDER
  2
AcDmSelsetPlaceholder
  3
AcMechDwgViewMgmt
 90
     1024
 91
        1
280
     0
281
     0
  0
CLASS
  1
TABLESTYLE
  2
AcDbTableStyle
  3
ObjectDBX Classes
 90
     4095
 91
        1
280
     0
281
     0
  0
CLASS
  1
AMDTNOTETEMPLATEDB
  2
AmdtNoteTemplateDB
  3
AcmSymBB|Product Description: AutoCAD Mechanical|Company: Autodesk, Inc.
 90
     1024
 91
        6
280
     0
281
     0
  0
CLASS
  1
MATERIAL
  2
AcDbMaterial
  3
ObjectDBX Classes
 90
     1153
 91
        3
280
     0
281
     0
  0
CLASS
  1
VISUALSTYLE
  2
AcDbVisualStyle
  3
ObjectDBX Classes
 90
     4095
 91
       16
280
     0
281
     0
  0
CLASS
  1
ACRFATTGENMGR
  2
AcRfAttGeneralMgr
  3
AcAttribServices
 90
     1024
 91
        1
280
     0
281
     0
  0
CLASS
  1
ACRFOBJATTMGR
  2
AcRfObjAttGroupMgr
  3
AcAttribServices
 90
     1024
 91
        1
280
     0
281
     0
  0
CLASS
  1
ACRFMCADAPIATTHOLDER
  2
AcRfMCADAPIAttHolder
  3
AcAttribServices
 90
     1024
 91
        1
280
     0
281
     0
  0
CLASS
  1
AMDTSYSATTR
  2
AmdtSystemAttribute
  3
AcAttribServices
 90
     1024
 91
        1
280
     0
281
     0
  0
CLASS
  1
ACMTAPERSTANDARDANSI
  2
AcmTaperStdANSI
  3
"Amdt_StdImp|Product Description: AutoCAD Mechanical|Company: Autodesk, Inc."
 90
     1024
 91
        1
280
     0
281
     0
  0
CLASS
  1
CAMSSTRUCTBTNSTATE
  2
StructBtnState
  3
DesignerAssemblies
 90
     1024
 91
        1
280
     0
281
     0
  0
CLASS
  1
SCALE
  2
AcDbScale
  3
ObjectDBX Classes
 90
     1153
 91
       33
280
     0
281
     0
  0
CLASS
  1
MLEADERSTYLE
  2
AcDbMLeaderStyle
  3
ACDB_MLEADERSTYLE_CLASS
 90
     4095
 91
        1
280
     0
281
     0
  0
CLASS
  1
ACMANOOTATIONVIEWSTANDARDANSI
  2
AmdtAnViewStdANSI
  3
"Amdt_StdImp|Product Description: AutoCAD Mechanical|Company: Autodesk, Inc."
 90
     1024
 91
        1
280
     0
281
     0
  0
CLASS
  1
CELLSTYLEMAP
  2
AcDbCellStyleMap
  3
ObjectDBX Classes
 90
     1152
 91
        2
280
     0
281
     0
  0
CLASS
  1
EXACXREFPANELOBJECT
  2
ExAcXREFPanelObject
  3
EXAC_ESW
 90
     1025
 91
        1
280
     0
281
     0
  0
CLASS
  1
NPOCOLLECTION
  2
AcDbImpNonPersistentObjectsCollection
  3
ObjectDBX Classes
 90
     1153
 91
        1
280
     0
281
     0
  0
CLASS
  1
ACAMGFILTERDAT
  2
AcAmgFilterDat
  3
"AcadM|Product Description: AutoCAD Mechanical|Company: Autodesk, Inc."
 90
     1024
 91
        6
280
     0
281
     0
  0
ENDSEC
  0
SECTION
  2
TABLES
  0
TABLE
  2
VPORT
  5
8
330
0
100
AcDbSymbolTable
 70
     1
  0
VPORT
  5
291
330
8
100
AcDbSymbolTableRecord
100
AcDbViewportTableRecord
  2
*Active
 70
     0
 10
0.0
 20
0.0
 11
1.0
 21
1.0
 12
30.86287858470211
 22
21.3656533316056
 13
0.0
 23
0.0
 14
0.125
 24
0.125
 15
1.0
 25
1.0
 16
0.0
 26
0.0
 36
1.0
 17
0.0
 27
0.0
 37
0.0
 40
25.18560037504506
 41
1.439655172413793
 42
50.0
 43
0.0
 44
0.0
 50
0.0
 51
0.0
 71
     0
 72
   100
 73
     1
 74
     3
 75
     0
 76
     0
 77
     0
 78
     0
281
     0
 65
     1
110
0.0
120
0.0
130
0.0
111
1.0
121
0.0
131
0.0
112
0.0
122
1.0
132
0.0
 79
     0
146
0.0
348
29C
 60
     3
 61
     5
292
     1
282
     0
141
0.0
142
0.0
 63
   250
421
  3355443
  0
ENDTAB
  0
TABLE
  2
LTYPE
  5
5
330
0
100
AcDbSymbolTable
 70
    17
  0
LTYPE
  5
14
330
5
100
AcDbSymbolTableRecord
100
AcDbLinetypeTableRecord
  2
ByBlock
 70
     0
  3

 72
    65
 73
     0
 40
0.0
  0
LTYPE
  5
15
330
5
100
AcDbSymbolTableRecord
100
AcDbLinetypeTableRecord
  2
ByLayer
 70
     0
  3

 72
    65
 73
     0
 40
0.0
  0
LTYPE
  5
16
330
5
100
AcDbSymbolTableRecord
100
AcDbLinetypeTableRecord
  2
Continuous
 70
     0
  3
Solid line
 72
    65
 73
     0
 40
0.0
  0
LTYPE
  5
6C
330
5
100
AcDbSymbolTableRecord
100
AcDbLinetypeTableRecord
  2
AM_ISO02W050
 70
     0
  3
__ __ __ __ __ __ __ __ __ __ __ __ __ __ __
 72
    65
 73
     2
 40
7.5
 49
6.0
 74
     0
 49
-1.5
 74
     0
  0
LTYPE
  5
6D
330
5
100
AcDbSymbolTableRecord
100
AcDbLinetypeTableRecord
  2
AM_ISO08W050
 70
     0
  3
____ . ____ . ____ . ____ . ____ . ____ . ____
 72
    65
 73
     4
 40
18.0
 49
12.0
 74
     0
 49
-1.5
 74
     0
 49
3.0
 74
     0
 49
-1.5
 74
     0
  0
LTYPE
  5
6E
330
5
100
AcDbSymbolTableRecord
100
AcDbLinetypeTableRecord
  2
AM_ISO09W050
 70
     0
  3
_____ . . _____ . . _____ . . ____ .. ____
 72
    65
 73
     6
 40
22.5
 49
12.0
 74
     0
 49
-1.5
 74
     0
 49
3.0
 74
     0
 49
-1.5
 74
     0
 49
3.0
 74
     0
 49
-1.5
 74
     0
  0
LTYPE
  5
6F
330
5
100
AcDbSymbolTableRecord
100
AcDbLinetypeTableRecord
  2
Amconstr
 70
     0
  3
_______________________
 72
    65
 73
     2
 40
9999.0
 49
9999.0
 74
     0
 49
0.0
 74
     0
  0
LTYPE
  5
70
330
5
100
AcDbSymbolTableRecord
100
AcDbLinetypeTableRecord
  2
AM_ISO08W050x2
 70
     0
  3
__ . __ . __ . __ . __ . __
 72
    65
 73
     4
 40
9.0
 49
6.0
 74
     0
 49
-0.75
 74
     0
 49
1.5
 74
     0
 49
-0.75
 74
     0
  0
LTYPE
  5
71
330
5
100
AcDbSymbolTableRecord
100
AcDbLinetypeTableRecord
  2
AM_ISO02W050x2
 70
     0
  3
 _ _ _ _ _ _ _ _ _ _ _ _
 72
    65
 73
     2
 40
3.75
 49
3.0
 74
     0
 49
-0.75
 74
     0
  0
LTYPE
  5
74
330
5
100
AcDbSymbolTableRecord
100
AcDbLinetypeTableRecord
  2
Amzigzag
 70
     0
  3
/\/-/\/-/\/-/\/-/\/-/\/
 72
    65
 73
     2
 40
11.0001
 49
0.0001
 74
     4
 75
   136
340
254
 46
0.04
 50
0.0
 44
0.0
 45
0.0
 49
-11.0
 74
     0
  0
LTYPE
  5
75
330
5
100
AcDbSymbolTableRecord
100
AcDbLinetypeTableRecord
  2
HIDDEN
 70
     0
  3
Hidden __ __ __ __ __ __ __ __ __ __ __ __ __ _
 72
    65
 73
     2
 40
0.375
 49
0.25
 74
     0
 49
-0.125
 74
     0
  0
LTYPE
  5
76
330
5
100
AcDbSymbolTableRecord
100
AcDbLinetypeTableRecord
  2
CENTER
 70
     0
  3
Center ____ _ ____ _ ____ _ ____ _ ____ _ ____
 72
    65
 73
     4
 40
2.0
 49
1.25
 74
     0
 49
-0.25
 74
     0
 49
0.25
 74
     0
 49
-0.25
 74
     0
  0
LTYPE
  5
77
330
5
100
AcDbSymbolTableRecord
100
AcDbLinetypeTableRecord
  2
PHANTOM2
 70
     0
  3
Phantom (.5x) ___ _ _ ___ _ _ ___ _ _ ___ _ _
 72
    65
 73
     6
 40
1.25
 49
0.625
 74
     0
 49
-0.125
 74
     0
 49
0.125
 74
     0
 49
-0.125
 74
     0
 49
0.125
 74
     0
 49
-0.125
 74
     0
  0
LTYPE
  5
78
330
5
100
AcDbSymbolTableRecord
100
AcDbLinetypeTableRecord
  2
CENTER2
 70
     0
  3
Center (.5x) ___ _ ___ _ ___ _ ___ _ ___ _ ___
 72
    65
 73
     4
 40
1.125
 49
0.75
 74
     0
 49
-0.125
 74
     0
 49
0.125
 74
     0
 49
-0.125
 74
     0
  0
LTYPE
  5
79
330
5
100
AcDbSymbolTableRecord
100
AcDbLinetypeTableRecord
  2
HIDDEN2
 70
     0
  3
Hidden (.5x) _ _ _ _ _ _ _ _ _ _ _ _ _ _ _ _ _
 72
    65
 73
     2
 40
0.1875
 49
0.125
 74
     0
 49
-0.0625
 74
     0
  0
LTYPE
  5
7A
330
5
100
AcDbSymbolTableRecord
100
AcDbLinetypeTableRecord
  2
Amzigzag2
 70
     0
  3
/\/-/\/-/\/-/\/-/\/-/\/
 72
    65
 73
     2
 40
0.4401
 49
0.0001
 74
     4
 75
   136
340
254
 46
0.0016
 50
0.0
 44
0.0
 45
0.0
 49
-0.4400000000000001
 74
     0
  0
LTYPE
  5
87
330
5
100
AcDbSymbolTableRecord
100
AcDbLinetypeTableRecord
  2
ACANSTGB
 70
     0
  3
__ . . __ . .
 72
    65
 73
     6
 40
0.35433070866
 49
0.15748031496
 74
     0
 49
-0.03937007874
 74
     0
 49
0.03937007874
 74
     0
 49
-0.03937007874
 74
     0
 49
0.03937007874
 74
     0
 49
-0.03937007874
 74
     0
  0
LTYPE
  5
88
330
5
100
AcDbSymbolTableRecord
100
AcDbLinetypeTableRecord
  2
ACANSTGL
 70
     0
  3
_ _ _ _ _
 72
    65
 73
     2
 40
0.11811023622
 49
0.07874015748
 74
     0
 49
-0.03937007874
 74
     0
  0
ENDTAB
  0
TABLE
  2
LAYER
  5
2
330
0
100
AcDbSymbolTable
 70
     2
  0
LAYER
  5
10
102
{ACAD_XDICTIONARY
360
E61
102
}
330
2
100
AcDbSymbolTableRecord
100
AcDbLayerTableRecord
  2
0
 70
     0
 62
     7
  6
Continuous
370
    -3
390
F
347
295
  0
LAYER
  5
38C
102
{ACAD_XDICTIONARY
360
E63
102
}
330
2
100
AcDbSymbolTableRecord
100
AcDbLayerTableRecord
  2
LAYER_1
 70
     0
 62
   160
  6
Continuous
370
    -3
390
F
347
295
  0
ENDTAB
  0
TABLE
  2
STYLE
  5
3
330
0
100
AcDbSymbolTable
 70
     8
  0
STYLE
  5
11
330
3
100
AcDbSymbolTableRecord
100
AcDbTextStyleTableRecord
  2
STANDARD
 70
     0
 40
0.0
 41
1.0
 50
0.0
 71
     0
 42
0.2
  3
ROMANS.SHX
  4

  0
STYLE
  5
73
330
3
100
AcDbSymbolTableRecord
100
AcDbTextStyleTableRecord
  2

 70
     1
 40
0.0
 41
1.0
 50
0.0
 71
     0
 42
0.2
  3
ltypeshp.shx
  4

  0
STYLE
  5
7B
330
3
100
AcDbSymbolTableRecord
100
AcDbTextStyleTableRecord
  2
ACANSTS
 70
     0
 40
1.0
 41
1.0
 50
0.0
 71
     0
 42
0.2
  3
romans.shx
  4

  0
STYLE
  5
86
330
3
100
AcDbSymbolTableRecord
100
AcDbTextStyleTableRecord
  2
ACANSGDT
 70
     0
 40
0.0
 41
1.0
 50
0.0
 71
     0
 42
0.2
  3
amgdt.shx
  4

  0
STYLE
  5
13F
330
3
100
AcDbSymbolTableRecord
100
AcDbTextStyleTableRecord
  2
USER1
 70
     0
 40
0.0
 41
1.0
 50
0.0
 71
     0
 42
0.2
  3
TXT.SHX
  4

  0
STYLE
  5
140
330
3
100
AcDbSymbolTableRecord
100
AcDbTextStyleTableRecord
  2
USER2
 70
     0
 40
0.0
 41
1.0
 50
0.0
 71
     0
 42
0.2
  3
SIMPLEX.SHX
  4

  0
STYLE
  5
141
330
3
100
AcDbSymbolTableRecord
100
AcDbTextStyleTableRecord
  2
USER3
 70
     0
 40
0.0
 41
1.0
 50
0.0
 71
     0
 42
0.2
  3
ITALIC.SHX
  4

  0
STYLE
  5
254
330
3
100
AcDbSymbolTableRecord
100
AcDbTextStyleTableRecord
  2

 70
     1
 40
0.0
 41
1.0
 50
0.0
 71
     0
 42
0.2
  3
genltshp.shx
  4

  0
ENDTAB
  0
TABLE
  2
VIEW
  5
6
330
0
100
AcDbSymbolTable
 70
     0
  0
ENDTAB
  0
TABLE
  2
UCS
  5
7
330
0
100
AcDbSymbolTable
 70
     0
  0
ENDTAB
  0
TABLE
  2
APPID
  5
9
330
0
100
AcDbSymbolTable
 70
    13
  0
APPID
  5
12
330
9
100
AcDbSymbolTableRecord
100
AcDbRegAppTableRecord
  2
ACAD
 70
     0
  0
APPID
  5
4E
330
9
100
AcDbSymbolTableRecord
100
AcDbRegAppTableRecord
  2
MCAD_NO_VIS
 70
     0
  0
APPID
  5
4F
330
9
100
AcDbSymbolTableRecord
100
AcDbRegAppTableRecord
  2
ACAD_TEMP_GRAPHIC
 70
     0
  0
APPID
  5
60
330
9
100
AcDbSymbolTableRecord
100
AcDbRegAppTableRecord
  2
ACATTRIBSERVICES
 70
     0
  0
APPID
  5
F7
330
9
100
AcDbSymbolTableRecord
100
AcDbRegAppTableRecord
  2
AD_DRAW
 70
     0
  0
APPID
  5
115
330
9
100
AcDbSymbolTableRecord
100
AcDbRegAppTableRecord
  2
DESIGNERASSEMBLIES
 70
     0
  0
APPID
  5
11A
330
9
100
AcDbSymbolTableRecord
100
AcDbRegAppTableRecord
  2
ACADM_DIM_EDIT
 70
     0
  0
APPID
  5
11B
330
9
100
AcDbSymbolTableRecord
100
AcDbRegAppTableRecord
  2
AMDT_DM_ADJ
 70
     0
  0
APPID
  5
1D3
330
9
100
AcDbSymbolTableRecord
100
AcDbRegAppTableRecord
  2
ACAD_DSTYLE_DIMARC_LENGTH_SYMBOL
 70
     0
  0
APPID
  5
1D4
330
9
100
AcDbSymbolTableRecord
100
AcDbRegAppTableRecord
  2
ACAD_DSTYLE_DIMJOGGED_JOGANGLE_SYMBOL
 70
     0
  0
APPID
  5
2EE
330
9
100
AcDbSymbolTableRecord
100
AcDbRegAppTableRecord
  2
ACAD_MLEADERVER
 70
     0
  0
APPID
  5
38D
330
9
100
AcDbSymbolTableRecord
100
AcDbRegAppTableRecord
  2
DCO15
 70
     0
  0
APPID
  5
E5A
330
9
100
AcDbSymbolTableRecord
100
AcDbRegAppTableRecord
  2
ACAD_EXEMPT_FROM_CAD_STANDARDS
 70
     0
  0
ENDTAB
  0
TABLE
  2
DIMSTYLE
  5
A
330
0
100
AcDbSymbolTable
 70
     8
100
AcDbDimStyleTable
 71
     1
340
8C
  0
DIMSTYLE
105
27
330
A
100
AcDbSymbolTableRecord
100
AcDbDimStyleTableRecord
  2
Standard
 70
     0
340
11
  0
DIMSTYLE
105
8C
102
{ACAD_REACTORS
330
6A
102
}
330
A
100
AcDbSymbolTableRecord
100
AcDbDimStyleTableRecord
  2
AM_ANSI
 70
     0
  4
mm
 41
0.12
 42
0.05
 43
0.5
 44
0.1
 47
0.1
 48
0.1
 78
     7
 79
     2
 90
     1
140
0.12
141
0.0
146
0.71
147
0.06
176
   256
177
   256
178
   140
274
     4
284
     7
340
11
345
14
346
14
347
14
371
    -1
372
    -1
1001
ACAD_DSTYLE_DIMJOGGED_JOGANGLE_SYMBOL
1070
   384
1040
0.7853981633974483
  0
DIMSTYLE
105
8D
330
A
100
AcDbSymbolTableRecord
100
AcDbDimStyleTableRecord
  2
AM_ANSI$3
 70
     0
  4
mm
 41
0.12
 42
0.05
 43
0.5
 44
0.1
 47
0.1
 48
0.1
 78
     7
 79
     2
 90
     1
140
0.12
141
0.0
146
0.71
147
0.06
176
   256
177
   256
178
   140
274
     4
284
     7
288
     1
289
     0
340
11
345
14
346
14
347
14
371
    -1
372
    -1
1001
ACAD_DSTYLE_DIMJOGGED_JOGANGLE_SYMBOL
1070
   384
1040
0.7853981633974483
  0
DIMSTYLE
105
8E
330
A
100
AcDbSymbolTableRecord
100
AcDbDimStyleTableRecord
  2
AM_ANSI$4
 70
     0
  4
mm
 41
0.12
 42
0.05
 43
0.5
 44
0.1
 47
0.1
 48
0.1
 78
     7
 79
     2
 90
     1
140
0.12
141
0.0
146
0.71
147
0.06
176
   256
177
   256
178
   140
274
     4
284
     7
340
11
345
14
346
14
347
14
371
    -1
372
    -1
1001
ACAD_DSTYLE_DIMJOGGED_JOGANGLE_SYMBOL
1070
   384
1040
0.7853981633974483
  0
DIMSTYLE
105
8F
330
A
100
AcDbSymbolTableRecord
100
AcDbDimStyleTableRecord
  2
AM_ANSI$7
 70
     0
  4
mm
 41
0.12
 42
0.05
 43
0.5
 44
0.1
 47
0.1
 48
0.1
 78
     7
 79
     2
 90
     1
140
0.12
141
0.0
146
0.71
147
0.06
176
   256
177
   256
178
   140
274
     4
284
     7
340
11
345
14
346
14
347
14
371
    -1
372
    -1
1001
ACAD_DSTYLE_DIMJOGGED_JOGANGLE_SYMBOL
1070
   384
1040
0.7853981633974483
  0
DIMSTYLE
105
90
330
A
100
AcDbSymbolTableRecord
100
AcDbDimStyleTableRecord
  2
AM_ANSI$SF
 70
     0
  4
mm
 41
0.12
 42
0.05
 43
0.5
 44
0.1
 47
0.1
 48
0.1
 75
     1
 76
     1
 78
     7
 79
     2
 90
     1
140
0.12
141
0.0
146
0.71
147
0.06
176
   256
177
   256
178
   140
274
     4
284
     7
340
11
345
14
346
14
347
14
371
    -1
372
    -1
1001
ACAD_DSTYLE_DIMJOGGED_JOGANGLE_SYMBOL
1070
   384
1040
0.7853981633974483
  0
DIMSTYLE
105
95
330
A
100
AcDbSymbolTableRecord
100
AcDbDimStyleTableRecord
  2
AM_ANSI$SH
 70
     0
  4
mm
 41
0.12
 42
0.05
 43
0.5
 44
0.1
 47
0.1
 48
0.1
 75
     1
 76
     1
 78
     7
 79
     2
 90
     1
140
0.12
141
0.0
146
0.71
147
0.06
173
     1
176
   256
177
   256
178
   140
274
     4
284
     7
340
11
343
91
345
14
346
14
347
14
371
    -1
372
    -1
1001
ACAD_DSTYLE_DIMJOGGED_JOGANGLE_SYMBOL
1070
   384
1040
0.7853981633974483
  0
ENDTAB
  0
TABLE
  2
BLOCK_RECORD
  5
1
330
0
100
AcDbSymbolTable
 70
     5
  0
BLOCK_RECORD
  5
1F
102
{ACAD_XDICTIONARY
360
99
102
}
330
1
100
AcDbSymbolTableRecord
100
AcDbBlockTableRecord
  2
*Model_Space
340
22
 70
     0
280
     1
281
     0
  0
BLOCK_RECORD
  5
1B
330
1
100
AcDbSymbolTableRecord
100
AcDbBlockTableRecord
  2
*Paper_Space
340
1E
 70
     0
280
     1
281
     0
  0
BLOCK_RECORD
  5
23
330
1
100
AcDbSymbolTableRecord
100
AcDbBlockTableRecord
  2
*Paper_Space0
340
26
 70
     0
280
     1
281
     0
  0
BLOCK_RECORD
  5
91
330
1
100
AcDbSymbolTableRecord
100
AcDbBlockTableRecord
  2
GENAXEH
340
0
 70
     0
280
     1
281
     0
  0
ENDTAB
  0
ENDSEC
  0
SECTION
  2
BLOCKS
  0
BLOCK
  5
20
330
1F
100
AcDbEntity
  8
0
100
AcDbBlockBegin
  2
*Model_Space
 70
     0
 10
0.0
 20
0.0
 30
0.0
  3
*Model_Space
  1

  0
ENDBLK
  5
21
330
1F
100
AcDbEntity
  8
0
100
AcDbBlockEnd
  0
BLOCK
  5
1C
330
1B
100
AcDbEntity
 67
     1
  8
0
100
AcDbBlockBegin
  2
*Paper_Space
 70
     0
 10
0.0
 20
0.0
 30
0.0
  3
*Paper_Space
  1

  0
ENDBLK
  5
1D
330
1B
100
AcDbEntity
 67
     1
  8
0
100
AcDbBlockEnd
  0
BLOCK
  5
24
330
23
100
AcDbEntity
 67
     1
  8
0
100
AcDbBlockBegin
  2
*Paper_Space0
 70
     0
 10
0.0
 20
0.0
 30
0.0
  3
*Paper_Space0
  1

  0
ENDBLK
  5
25
330
23
100
AcDbEntity
 67
     1
  8
0
100
AcDbBlockEnd
  0
BLOCK
  5
93
330
91
100
AcDbEntity
  8
0
100
AcDbBlockBegin
  2
GENAXEH
 70
     0
 10
0.0
 20
0.0
 30
0.0
  3
GENAXEH
  1

  0
LINE
  5
92
330
91
100
AcDbEntity
  8
0
100
AcDbLine
 10
-1.0
 20
0.0
 30
0.0
 11
1.0
 21
0.0
 31
0.0
  0
ENDBLK
  5
94
330
91
100
AcDbEntity
  8
0
100
AcDbBlockEnd
  0
ENDSEC
  0
SECTION
  2
ENTITIES
  0
SPLINE
  5
8F9
330
1F
100
AcDbEntity
  8
0
100
AcDbSpline
210
0.0
220
0.0
230
1.0
 70
     8
 71
     3
 72
     8
 73
     4
 74
     0
 42
0.0000000001
 43
0.0000000001
 40
0.0
 40
0.0
 40
0.0
 40
0.0
 40
1.0
 40
1.0
 40
1.0
 40
1.0
 10
37.79168379265679
 20
16.02343723297379
 30
0.0
 10
37.78961673536512
 20
16.01895860884184
 30
0.0
 10
39.41742435255256
 20
16.42547987620296
 30
0.0
 10
39.97036217807337
 20
18.42570231543907
 30
0.0
  0
SPLINE
  5
8FA
330
1F
100
AcDbEntity
  8
0
100
AcDbSpline
210
0.0
220
0.0
230
1.0
 70
     8
 71
     3
 72
     8
 73
     4
 74
     0
 42
0.0000000001
 43
0.0000000001
 40
0.0
 40
0.0
 40
0.0
 40
0.0
 40
1.0
 40
1.0
 40
1.0
 40
1.0
 10
26.45111847147621
 20
18.48013482411963
 30
0.0
 10
26.45111847147621
 20
18.48013482411963
 30
0.0
 10
27.02920549404567
 20
16.37966010623769
 30
0.0
 10
28.30147925706649
 20
16.1136987347099
 30
0.0
  0
POLYLINE
  5
8FB
330
1F
100
AcDbEntity
  8
0
100
AcDb2dPolyline
 66
     1
 10
0.0
 20
0.0
 30
0.0
  0
VERTEX
  5
8FC
330
8FB
100
AcDbEntity
  8
0
100
AcDbVertex
100
AcDb2dVertex
 10
37.57291999404569
 20
15.93145294391129
 30
0.0
  0
VERTEX
  5
8FD
330
8FB
100
AcDbEntity
  8
0
100
AcDbVertex
100
AcDb2dVertex
 10
37.58945699404566
 20
15.93145294391129
 30
0.0
  0
VERTEX
  5
8FE
330
8FB
100
AcDbEntity
  8
0
100
AcDbVertex
100
AcDb2dVertex
 10
37.60289299404568
 20
15.92146194391129
 30
0.0
  0
VERTEX
  5
8FF
330
8FB
100
AcDbEntity
  8
0
100
AcDbVertex
100
AcDb2dVertex
 10
37.60943799404567
 20
15.90492594391129
 30
0.0
  0
SEQEND
  5
900
330
8FB
100
AcDbEntity
  8
0
  0
POLYLINE
  5
901
330
1F
100
AcDbEntity
  8
0
100
AcDb2dPolyline
 66
     1
 10
0.0
 20
0.0
 30
0.0
  0
VERTEX
  5
902
330
901
100
AcDbEntity
  8
0
100
AcDbVertex
100
AcDb2dVertex
 10
37.72622699404568
 20
15.98829694391131
 30
0.0
  0
VERTEX
  5
903
330
901
100
AcDbEntity
  8
0
100
AcDbVertex
100
AcDb2dVertex
 10
37.60289299404568
 20
15.95453494391129
 30
0.0
  0
VERTEX
  5
904
330
901
100
AcDbEntity
  8
0
100
AcDbVertex
100
AcDb2dVertex
 10
37.57946599404568
 20
15.9445449439113
 30
0.0
  0
VERTEX
  5
905
330
901
100
AcDbEntity
  8
0
100
AcDbVertex
100
AcDb2dVertex
 10
37.57291999404569
 20
15.9414439439113
 30
0.0
  0
VERTEX
  5
906
330
901
100
AcDbEntity
  8
0
100
AcDbVertex
100
AcDb2dVertex
 10
37.58945699404566
 20
15.9414439439113
 30
0.0
  0
VERTEX
  5
907
330
901
100
AcDbEntity
  8
0
100
AcDbVertex
100
AcDb2dVertex
 10
37.60289299404568
 20
15.93145294391129
 30
0.0
  0
VERTEX
  5
908
330
901
100
AcDbEntity
  8
0
100
AcDbVertex
100
AcDb2dVertex
 10
37.60943799404567
 20
15.9149169439113
 30
0.0
  0
SEQEND
  5
909
330
901
100
AcDbEntity
  8
0
  0
POLYLINE
  5
90A
330
1F
100
AcDbEntity
  8
0
100
AcDb2dPolyline
 66
     1
 10
0.0
 20
0.0
 30
0.0
  0
VERTEX
  5
90B
330
90A
100
AcDbEntity
  8
0
100
AcDbVertex
100
AcDb2dVertex
 10
37.60943799404567
 20
15.90113594391129
 30
0.0
  0
VERTEX
  5
90C
330
90A
100
AcDbEntity
  8
0
100
AcDbVertex
100
AcDb2dVertex
 10
37.5991029940457
 20
15.9245629439113
 30
0.0
  0
VERTEX
  5
90D
330
90A
100
AcDbEntity
  8
0
100
AcDbVertex
100
AcDb2dVertex
 10
37.57291999404569
 20
15.93145294391129
 30
0.0
  0
SEQEND
  5
90E
330
90A
100
AcDbEntity
  8
0
  0
LINE
  5
90F
330
1F
100
AcDbEntity
  8
0
100
AcDbLine
 10
37.91329599404568
 20
15.4339809439113
 30
0.0
 11
37.96634999404569
 21
16.04135194391129
 31
0.0
  0
LINE
  5
910
330
1F
100
AcDbEntity
  8
0
100
AcDbLine
 10
37.88986899404569
 20
15.5108069439113
 30
0.0
 11
37.93637799404567
 21
16.02791594391129
 31
0.0
  0
LINE
  5
911
330
1F
100
AcDbEntity
  8
0
100
AcDbLine
 10
37.67627299404569
 20
15.5108069439113
 30
0.0
 11
37.63941099404568
 21
15.93799894391129
 31
0.0
  0
LINE
  5
912
330
1F
100
AcDbEntity
  8
0
100
AcDbLine
 10
37.65284599404569
 20
15.4339809439113
 30
0.0
 11
37.60943799404567
 21
15.9142279439113
 31
0.0
  0
POLYLINE
  5
913
330
1F
100
AcDbEntity
  8
0
100
AcDb2dPolyline
 66
     1
 10
0.0
 20
0.0
 30
0.0
  0
VERTEX
  5
914
330
913
100
AcDbEntity
  8
0
100
AcDbVertex
100
AcDb2dVertex
 10
37.88986899404569
 20
15.5108069439113
 30
0.0
  0
VERTEX
  5
915
330
913
100
AcDbEntity
  8
0
100
AcDbVertex
100
AcDb2dVertex
 10
37.90640499404569
 20
15.5073619439113
 30
0.0
  0
VERTEX
  5
916
330
913
100
AcDbEntity
  8
0
100
AcDbVertex
100
AcDb2dVertex
 10
37.91639599404567
 20
15.5108069439113
 30
0.0
  0
VERTEX
  5
917
330
913
100
AcDbEntity
  8
0
100
AcDbVertex
100
AcDb2dVertex
 10
37.91984099404567
 20
15.5108069439113
 30
0.0
  0
SEQEND
  5
918
330
913
100
AcDbEntity
  8
0
  0
POLYLINE
  5
919
330
1F
100
AcDbEntity
  8
0
100
AcDb2dPolyline
 66
     1
 10
0.0
 20
0.0
 30
0.0
  0
VERTEX
  5
91A
330
919
100
AcDbEntity
  8
0
100
AcDbVertex
100
AcDb2dVertex
 10
37.67627299404569
 20
15.5108069439113
 30
0.0
  0
VERTEX
  5
91B
330
919
100
AcDbEntity
  8
0
100
AcDbVertex
100
AcDb2dVertex
 10
37.65973699404566
 20
15.5073619439113
 30
0.0
  0
VERTEX
  5
91C
330
919
100
AcDbEntity
  8
0
100
AcDbVertex
100
AcDb2dVertex
 10
37.64940099404569
 20
15.5108069439113
 30
0.0
  0
VERTEX
  5
91D
330
919
100
AcDbEntity
  8
0
100
AcDbVertex
100
AcDb2dVertex
 10
37.64630099404568
 20
15.5108069439113
 30
0.0
  0
SEQEND
  5
91E
330
919
100
AcDbEntity
  8
0
  0
LINE
  5
91F
330
1F
100
AcDbEntity
  8
0
100
AcDbLine
 10
37.63941099404568
 20
15.93799894391129
 30
0.0
 11
37.73966299404566
 21
15.9648709439113
 31
0.0
  0
POLYLINE
  5
920
330
1F
100
AcDbEntity
  8
0
100
AcDb2dPolyline
 66
     1
 10
0.0
 20
0.0
 30
0.0
  0
VERTEX
  5
921
330
920
100
AcDbEntity
  8
0
100
AcDbVertex
100
AcDb2dVertex
 10
37.95670399404568
 20
16.0616779439113
 30
0.0
  0
VERTEX
  5
922
330
920
100
AcDbEntity
  8
0
100
AcDbVertex
100
AcDb2dVertex
 10
37.97978599404567
 20
16.06822394391129
 30
0.0
  0
VERTEX
  5
923
330
920
100
AcDbEntity
  8
0
100
AcDbVertex
100
AcDb2dVertex
 10
37.99012099404567
 20
16.06822394391129
 30
0.0
  0
SEQEND
  5
924
330
920
100
AcDbEntity
  8
0
  0
LINE
  5
925
330
1F
100
AcDbEntity
  8
0
100
AcDbLine
 10
37.72622699404568
 20
15.98829694391131
 30
0.0
 11
37.82647899404569
 21
16.01792494391129
 31
0.0
  0
POLYLINE
  5
926
330
1F
100
AcDbEntity
  8
0
100
AcDb2dPolyline
 66
     1
 10
0.0
 20
0.0
 30
0.0
  0
VERTEX
  5
927
330
926
100
AcDbEntity
  8
0
100
AcDbVertex
100
AcDb2dVertex
 10
37.73966299404566
 20
15.9648709439113
 30
0.0
  0
VERTEX
  5
928
330
926
100
AcDbEntity
  8
0
100
AcDbVertex
100
AcDb2dVertex
 10
37.83646999404567
 20
15.9948429439113
 30
0.0
  0
VERTEX
  5
929
330
926
100
AcDbEntity
  8
0
100
AcDbVertex
100
AcDb2dVertex
 10
37.93637799404567
 20
16.02825994391129
 30
0.0
  0
SEQEND
  5
92A
330
926
100
AcDbEntity
  8
0
  0
LINE
  5
92B
330
1F
100
AcDbEntity
  8
0
100
AcDbLine
 10
37.82647899404569
 20
16.01792494391129
 30
0.0
 11
37.95670399404568
 21
16.0613329439113
 31
0.0
  0
POLYLINE
  5
92C
330
1F
100
AcDbEntity
  8
0
100
AcDb2dPolyline
 66
     1
 10
0.0
 20
0.0
 30
0.0
  0
VERTEX
  5
92D
330
92C
100
AcDbEntity
  8
0
100
AcDbVertex
100
AcDb2dVertex
 10
37.63941099404568
 20
15.93799894391129
 30
0.0
  0
VERTEX
  5
92E
330
92C
100
AcDbEntity
  8
0
100
AcDbVertex
100
AcDb2dVertex
 10
37.62287399404568
 20
15.9280079439113
 30
0.0
  0
VERTEX
  5
92F
330
92C
100
AcDbEntity
  8
0
100
AcDbVertex
100
AcDb2dVertex
 10
37.61253899404568
 20
15.92146194391129
 30
0.0
  0
VERTEX
  5
930
330
92C
100
AcDbEntity
  8
0
100
AcDbVertex
100
AcDb2dVertex
 10
37.60943799404567
 20
15.9149169439113
 30
0.0
  0
SEQEND
  5
931
330
92C
100
AcDbEntity
  8
0
  0
POLYLINE
  5
932
330
1F
100
AcDbEntity
  8
0
100
AcDb2dPolyline
 66
     1
 10
0.0
 20
0.0
 30
0.0
  0
VERTEX
  5
933
330
932
100
AcDbEntity
  8
0
100
AcDbVertex
100
AcDb2dVertex
 10
37.98667599404567
 20
16.0520319439113
 30
0.0
  0
VERTEX
  5
934
330
932
100
AcDbEntity
  8
0
100
AcDbVertex
100
AcDb2dVertex
 10
37.97634099404567
 20
16.0478969439113
 30
0.0
  0
VERTEX
  5
935
330
932
100
AcDbEntity
  8
0
100
AcDbVertex
100
AcDb2dVertex
 10
37.97013999404567
 20
16.03825094391129
 30
0.0
  0
VERTEX
  5
936
330
932
100
AcDbEntity
  8
0
100
AcDbVertex
100
AcDb2dVertex
 10
37.96634999404569
 20
16.02515994391129
 30
0.0
  0
SEQEND
  5
937
330
932
100
AcDbEntity
  8
0
  0
POLYLINE
  5
938
330
1F
100
AcDbEntity
  8
0
100
AcDb2dPolyline
 66
     1
 10
0.0
 20
0.0
 30
0.0
  0
VERTEX
  5
939
330
938
100
AcDbEntity
  8
0
100
AcDbVertex
100
AcDb2dVertex
 10
37.93637799404567
 20
16.0286049439113
 30
0.0
  0
VERTEX
  5
93A
330
938
100
AcDbEntity
  8
0
100
AcDbVertex
100
AcDb2dVertex
 10
37.95291399404567
 20
16.03893994391129
 30
0.0
  0
VERTEX
  5
93B
330
938
100
AcDbEntity
  8
0
100
AcDbVertex
100
AcDb2dVertex
 10
37.96324999404567
 20
16.0451409439113
 30
0.0
  0
VERTEX
  5
93C
330
938
100
AcDbEntity
  8
0
100
AcDbVertex
100
AcDb2dVertex
 10
37.96634999404569
 20
16.0416959439113
 30
0.0
  0
SEQEND
  5
93D
330
938
100
AcDbEntity
  8
0
  0
LINE
  5
93E
330
1F
100
AcDbEntity
  8
0
100
AcDbLine
 10
37.98977699404569
 20
16.0685679439113
 30
0.0
 11
37.98667599404567
 21
16.0520319439113
 31
0.0
  0
LINE
  5
93F
330
1F
100
AcDbEntity
  8
0
100
AcDbLine
 10
37.98667599404567
 20
16.0520319439113
 30
0.0
 11
37.98667599404567
 21
16.0482419439113
 31
0.0
  0
POLYLINE
  5
940
330
1F
100
AcDbEntity
  8
0
100
AcDb2dPolyline
 66
     1
 10
0.0
 20
0.0
 30
0.0
  0
VERTEX
  5
941
330
940
100
AcDbEntity
  8
0
100
AcDbVertex
100
AcDb2dVertex
 10
37.96634999404569
 20
16.04204094391129
 30
0.0
  0
VERTEX
  5
942
330
940
100
AcDbEntity
  8
0
100
AcDbVertex
100
AcDb2dVertex
 10
37.97013999404567
 20
16.05547694391129
 30
0.0
  0
VERTEX
  5
943
330
940
100
AcDbEntity
  8
0
100
AcDbVertex
100
AcDb2dVertex
 10
37.97634099404567
 20
16.0620219439113
 30
0.0
  0
VERTEX
  5
944
330
940
100
AcDbEntity
  8
0
100
AcDbVertex
100
AcDb2dVertex
 10
37.98977699404569
 20
16.06891294391129
 30
0.0
  0
SEQEND
  5
945
330
940
100
AcDbEntity
  8
0
  0
POLYLINE
  5
946
330
1F
100
AcDbEntity
  8
0
100
AcDb2dPolyline
 66
     1
 10
0.0
 20
0.0
 30
0.0
  0
VERTEX
  5
947
330
946
100
AcDbEntity
  8
0
100
AcDbVertex
100
AcDb2dVertex
 10
37.62907499404568
 20
15.96211494391129
 30
0.0
  0
VERTEX
  5
948
330
946
100
AcDbEntity
  8
0
100
AcDbVertex
100
AcDb2dVertex
 10
37.63251999404568
 20
15.95832494391129
 30
0.0
  0
VERTEX
  5
949
330
946
100
AcDbEntity
  8
0
100
AcDbVertex
100
AcDb2dVertex
 10
37.63596499404568
 20
15.9486789439113
 30
0.0
  0
VERTEX
  5
94A
330
946
100
AcDbEntity
  8
0
100
AcDbVertex
100
AcDb2dVertex
 10
37.63906599404567
 20
15.9386879439113
 30
0.0
  0
SEQEND
  5
94B
330
946
100
AcDbEntity
  8
0
  0
POLYLINE
  5
94C
330
1F
100
AcDbEntity
  8
0
100
AcDb2dPolyline
 66
     1
 10
0.0
 20
0.0
 30
0.0
  0
VERTEX
  5
94D
330
94C
100
AcDbEntity
  8
0
100
AcDbVertex
100
AcDb2dVertex
 10
37.92638699404566
 20
16.0520319439113
 30
0.0
  0
VERTEX
  5
94E
330
94C
100
AcDbEntity
  8
0
100
AcDbVertex
100
AcDb2dVertex
 10
37.92638699404566
 20
16.0482419439113
 30
0.0
  0
VERTEX
  5
94F
330
94C
100
AcDbEntity
  8
0
100
AcDbVertex
100
AcDb2dVertex
 10
37.92948799404567
 20
16.0385959439113
 30
0.0
  0
VERTEX
  5
950
330
94C
100
AcDbEntity
  8
0
100
AcDbVertex
100
AcDb2dVertex
 10
37.93603299404566
 20
16.0286049439113
 30
0.0
  0
SEQEND
  5
951
330
94C
100
AcDbEntity
  8
0
  0
LINE
  5
952
330
1F
100
AcDbEntity
  8
0
100
AcDbLine
 10
37.98633199404566
 20
16.0482419439113
 30
0.0
 11
37.96600599404567
 21
16.0220589439113
 31
0.0
  0
LINE
  5
953
330
1F
100
AcDbEntity
  8
0
100
AcDbLine
 10
37.57223099404567
 20
15.93179794391129
 30
0.0
 11
37.57223099404567
 21
15.9417889439113
 31
0.0
  0
POLYLINE
  5
954
330
1F
100
AcDbEntity
  8
0
100
AcDb2dPolyline
 66
     1
 10
0.0
 20
0.0
 30
0.0
  0
VERTEX
  5
955
330
954
100
AcDbEntity
  8
0
100
AcDbVertex
100
AcDb2dVertex
 10
37.88917999404569
 20
15.5114959439113
 30
0.0
  0
VERTEX
  5
956
330
954
100
AcDbEntity
  8
0
100
AcDbVertex
100
AcDb2dVertex
 10
37.88263399404568
 20
15.40779894391129
 30
0.0
  0
VERTEX
  5
957
330
954
100
AcDbEntity
  8
0
100
AcDbVertex
100
AcDb2dVertex
 10
37.68212999404568
 20
15.40779894391129
 30
0.0
  0
SEQEND
  5
958
330
954
100
AcDbEntity
  8
0
  0
POLYLINE
  5
959
330
1F
100
AcDbEntity
  8
0
100
AcDb2dPolyline
 66
     1
 10
0.0
 20
0.0
 30
0.0
  0
VERTEX
  5
95A
330
959
100
AcDbEntity
  8
0
100
AcDbVertex
100
AcDb2dVertex
 10
37.88263399404568
 20
15.40779894391129
 30
0.0
  0
VERTEX
  5
95B
330
959
100
AcDbEntity
  8
0
100
AcDbVertex
100
AcDb2dVertex
 10
37.90261599404568
 20
15.4143439439113
 30
0.0
  0
VERTEX
  5
95C
330
959
100
AcDbEntity
  8
0
100
AcDbVertex
100
AcDb2dVertex
 10
37.91260699404566
 20
15.4346699439113
 30
0.0
  0
SEQEND
  5
95D
330
959
100
AcDbEntity
  8
0
  0
LINE
  5
95E
330
1F
100
AcDbEntity
  8
0
100
AcDbLine
 10
37.67558399404567
 20
15.5114959439113
 30
0.0
 11
37.68212999404568
 21
15.40779894391129
 31
0.0
  0
POLYLINE
  5
95F
330
1F
100
AcDbEntity
  8
0
100
AcDb2dPolyline
 66
     1
 10
0.0
 20
0.0
 30
0.0
  0
VERTEX
  5
960
330
95F
100
AcDbEntity
  8
0
100
AcDbVertex
100
AcDb2dVertex
 10
37.65215699404567
 20
15.4346699439113
 30
0.0
  0
VERTEX
  5
961
330
95F
100
AcDbEntity
  8
0
100
AcDbVertex
100
AcDb2dVertex
 10
37.66214799404568
 20
15.41399994391129
 30
0.0
  0
VERTEX
  5
962
330
95F
100
AcDbEntity
  8
0
100
AcDbVertex
100
AcDb2dVertex
 10
37.68212999404568
 20
15.40779894391129
 30
0.0
  0
SEQEND
  5
963
330
95F
100
AcDbEntity
  8
0
  0
POLYLINE
  5
964
330
1F
100
AcDbEntity
  8
0
100
AcDb2dPolyline
 66
     1
 10
0.0
 20
0.0
 30
0.0
  0
VERTEX
  5
965
330
964
100
AcDbEntity
  8
0
100
AcDbVertex
100
AcDb2dVertex
 10
28.66769299404566
 20
15.9934649439113
 30
0.0
  0
VERTEX
  5
966
330
964
100
AcDbEntity
  8
0
100
AcDbVertex
100
AcDb2dVertex
 10
28.65115599404567
 20
15.9934649439113
 30
0.0
  0
VERTEX
  5
967
330
964
100
AcDbEntity
  8
0
100
AcDbVertex
100
AcDb2dVertex
 10
28.63772099404568
 20
15.98347394391129
 30
0.0
  0
VERTEX
  5
968
330
964
100
AcDbEntity
  8
0
100
AcDbVertex
100
AcDb2dVertex
 10
28.63082999404568
 20
15.9665929439113
 30
0.0
  0
SEQEND
  5
969
330
964
100
AcDbEntity
  8
0
  0
POLYLINE
  5
96A
330
1F
100
AcDbEntity
  8
0
100
AcDb2dPolyline
 66
     1
 10
0.0
 20
0.0
 30
0.0
  0
VERTEX
  5
96B
330
96A
100
AcDbEntity
  8
0
100
AcDbVertex
100
AcDb2dVertex
 10
28.67079299404569
 20
16.00311094391129
 30
0.0
  0
VERTEX
  5
96C
330
96A
100
AcDbEntity
  8
0
100
AcDbVertex
100
AcDb2dVertex
 10
28.65081199404568
 20
16.00311094391129
 30
0.0
  0
VERTEX
  5
96D
330
96A
100
AcDbEntity
  8
0
100
AcDbVertex
100
AcDb2dVertex
 10
28.63737599404567
 20
15.9934649439113
 30
0.0
  0
VERTEX
  5
96E
330
96A
100
AcDbEntity
  8
0
100
AcDbVertex
100
AcDb2dVertex
 10
28.63082999404568
 20
15.97658394391131
 30
0.0
  0
SEQEND
  5
96F
330
96A
100
AcDbEntity
  8
0
  0
POLYLINE
  5
970
330
1F
100
AcDbEntity
  8
0
100
AcDb2dPolyline
 66
     1
 10
0.0
 20
0.0
 30
0.0
  0
VERTEX
  5
971
330
970
100
AcDbEntity
  8
0
100
AcDbVertex
100
AcDb2dVertex
 10
28.56399599404568
 20
15.57247394391129
 30
0.0
  0
VERTEX
  5
972
330
970
100
AcDbEntity
  8
0
100
AcDbVertex
100
AcDb2dVertex
 10
28.58053199404566
 20
15.56937394391129
 30
0.0
  0
VERTEX
  5
973
330
970
100
AcDbEntity
  8
0
100
AcDbVertex
100
AcDb2dVertex
 10
28.59086699404569
 20
15.57247394391129
 30
0.0
  0
VERTEX
  5
974
330
970
100
AcDbEntity
  8
0
100
AcDbVertex
100
AcDb2dVertex
 10
28.59706799404569
 20
15.57247394391129
 30
0.0
  0
SEQEND
  5
975
330
970
100
AcDbEntity
  8
0
  0
LINE
  5
976
330
1F
100
AcDbEntity
  8
0
100
AcDbLine
 10
28.60361399404567
 20
15.99966594391129
 30
0.0
 11
28.50026099404568
 21
16.02653794391129
 31
0.0
  0
POLYLINE
  5
977
330
1F
100
AcDbEntity
  8
0
100
AcDb2dPolyline
 66
     1
 10
0.0
 20
0.0
 30
0.0
  0
VERTEX
  5
978
330
977
100
AcDbEntity
  8
0
100
AcDbVertex
100
AcDb2dVertex
 10
28.51369699404569
 20
16.0499649439113
 30
0.0
  0
VERTEX
  5
979
330
977
100
AcDbEntity
  8
0
100
AcDbVertex
100
AcDb2dVertex
 10
28.63737599404567
 20
16.01654694391131
 30
0.0
  0
VERTEX
  5
97A
330
977
100
AcDbEntity
  8
0
100
AcDbVertex
100
AcDb2dVertex
 10
28.66045799404566
 20
16.00690094391129
 30
0.0
  0
VERTEX
  5
97B
330
977
100
AcDbEntity
  8
0
100
AcDbVertex
100
AcDb2dVertex
 10
28.67079299404569
 20
16.00311094391129
 30
0.0
  0
SEQEND
  5
97C
330
977
100
AcDbEntity
  8
0
  0
POLYLINE
  5
97D
330
1F
100
AcDbEntity
  8
0
100
AcDb2dPolyline
 66
     1
 10
0.0
 20
0.0
 30
0.0
  0
VERTEX
  5
97E
330
97D
100
AcDbEntity
  8
0
100
AcDbVertex
100
AcDb2dVertex
 10
28.56399599404568
 20
15.57247394391129
 30
0.0
  0
VERTEX
  5
97F
330
97D
100
AcDbEntity
  8
0
100
AcDbVertex
100
AcDb2dVertex
 10
28.60361399404567
 20
15.99966594391129
 30
0.0
  0
VERTEX
  5
980
330
97D
100
AcDbEntity
  8
0
100
AcDbVertex
100
AcDb2dVertex
 10
28.61704999404569
 20
15.9900199439113
 30
0.0
  0
VERTEX
  5
981
330
97D
100
AcDbEntity
  8
0
100
AcDbVertex
100
AcDb2dVertex
 10
28.62738499404566
 20
15.9831299439113
 30
0.0
  0
VERTEX
  5
982
330
97D
100
AcDbEntity
  8
0
100
AcDbVertex
100
AcDb2dVertex
 10
28.63048599404567
 20
15.97658394391131
 30
0.0
  0
SEQEND
  5
983
330
97D
100
AcDbEntity
  8
0
  0
LINE
  5
984
330
1F
100
AcDbEntity
  8
0
100
AcDbLine
 10
28.59086699404569
 20
15.4959929439113
 30
0.0
 11
28.63082999404568
 21
15.97658394391131
 31
0.0
  0
LINE
  5
985
330
1F
100
AcDbEntity
  8
0
100
AcDbLine
 10
28.66769299404566
 20
15.9934649439113
 30
0.0
 11
28.67079299404569
 21
16.00311094391129
 31
0.0
  0
POLYLINE
  5
986
330
1F
100
AcDbEntity
  8
0
100
AcDb2dPolyline
 66
     1
 10
0.0
 20
0.0
 30
0.0
  0
VERTEX
  5
987
330
986
100
AcDbEntity
  8
0
100
AcDbVertex
100
AcDb2dVertex
 10
28.61084899404568
 20
16.02343694391129
 30
0.0
  0
VERTEX
  5
988
330
986
100
AcDbEntity
  8
0
100
AcDbVertex
100
AcDb2dVertex
 10
28.60774799404567
 20
16.0199919439113
 30
0.0
  0
VERTEX
  5
989
330
986
100
AcDbEntity
  8
0
100
AcDbVertex
100
AcDb2dVertex
 10
28.60774799404567
 20
16.01000094391129
 30
0.0
  0
VERTEX
  5
98A
330
986
100
AcDbEntity
  8
0
100
AcDbVertex
100
AcDb2dVertex
 10
28.60430299404569
 20
16.0003549439113
 30
0.0
  0
SEQEND
  5
98B
330
986
100
AcDbEntity
  8
0
  0
POLYLINE
  5
98C
330
1F
100
AcDbEntity
  8
0
100
AcDb2dPolyline
 66
     1
 10
0.0
 20
0.0
 30
0.0
  0
VERTEX
  5
98D
330
98C
100
AcDbEntity
  8
0
100
AcDbVertex
100
AcDb2dVertex
 10
28.66769299404566
 20
15.9934649439113
 30
0.0
  0
VERTEX
  5
98E
330
98C
100
AcDbEntity
  8
0
100
AcDbVertex
100
AcDb2dVertex
 10
28.64426599404567
 20
15.98657494391129
 30
0.0
  0
VERTEX
  5
98F
330
98C
100
AcDbEntity
  8
0
100
AcDbVertex
100
AcDb2dVertex
 10
28.63082999404568
 20
15.9634929439113
 30
0.0
  0
SEQEND
  5
990
330
98C
100
AcDbEntity
  8
0
  0
POLYLINE
  5
991
330
1F
100
AcDbEntity
  8
0
100
AcDb2dPolyline
 66
     1
 10
0.0
 20
0.0
 30
0.0
  0
VERTEX
  5
992
330
991
100
AcDbEntity
  8
0
100
AcDbVertex
100
AcDb2dVertex
 10
28.35039999404569
 20
15.5731629439113
 30
0.0
  0
VERTEX
  5
993
330
991
100
AcDbEntity
  8
0
100
AcDbVertex
100
AcDb2dVertex
 10
28.33386299404566
 20
15.57006294391129
 30
0.0
  0
VERTEX
  5
994
330
991
100
AcDbEntity
  8
0
100
AcDbVertex
100
AcDb2dVertex
 10
28.32352799404569
 20
15.5731629439113
 30
0.0
  0
VERTEX
  5
995
330
991
100
AcDbEntity
  8
0
100
AcDbVertex
100
AcDb2dVertex
 10
28.32042699404567
 20
15.5731629439113
 30
0.0
  0
SEQEND
  5
996
330
991
100
AcDbEntity
  8
0
  0
POLYLINE
  5
997
330
1F
100
AcDbEntity
  8
0
100
AcDb2dPolyline
 66
     1
 10
0.0
 20
0.0
 30
0.0
  0
VERTEX
  5
998
330
997
100
AcDbEntity
  8
0
100
AcDbVertex
100
AcDb2dVertex
 10
28.41413399404567
 20
16.0802809439113
 30
0.0
  0
VERTEX
  5
999
330
997
100
AcDbEntity
  8
0
100
AcDbVertex
100
AcDb2dVertex
 10
28.28390899404567
 20
16.1236899439113
 30
0.0
  0
VERTEX
  5
99A
330
997
100
AcDbEntity
  8
0
100
AcDbVertex
100
AcDb2dVertex
 10
28.26048299404567
 20
16.1305799439113
 30
0.0
  0
VERTEX
  5
99B
330
997
100
AcDbEntity
  8
0
100
AcDbVertex
100
AcDb2dVertex
 10
28.25393699404566
 20
16.1305799439113
 30
0.0
  0
SEQEND
  5
99C
330
997
100
AcDbEntity
  8
0
  0
POLYLINE
  5
99D
330
1F
100
AcDbEntity
  8
0
100
AcDb2dPolyline
 66
     1
 10
0.0
 20
0.0
 30
0.0
  0
VERTEX
  5
99E
330
99D
100
AcDbEntity
  8
0
100
AcDbVertex
100
AcDb2dVertex
 10
28.25393699404566
 20
16.11369894391129
 30
0.0
  0
VERTEX
  5
99F
330
99D
100
AcDbEntity
  8
0
100
AcDbVertex
100
AcDb2dVertex
 10
28.26358299404566
 20
16.1102539439113
 30
0.0
  0
VERTEX
  5
9A0
330
99D
100
AcDbEntity
  8
0
100
AcDbVertex
100
AcDb2dVertex
 10
28.27047299404569
 20
16.10026294391129
 30
0.0
  0
VERTEX
  5
9A1
330
99D
100
AcDbEntity
  8
0
100
AcDbVertex
100
AcDb2dVertex
 10
28.27391799404569
 20
16.0868269439113
 30
0.0
  0
SEQEND
  5
9A2
330
99D
100
AcDbEntity
  8
0
  0
POLYLINE
  5
9A3
330
1F
100
AcDbEntity
  8
0
100
AcDb2dPolyline
 66
     1
 10
0.0
 20
0.0
 30
0.0
  0
VERTEX
  5
9A4
330
9A3
100
AcDbEntity
  8
0
100
AcDbVertex
100
AcDb2dVertex
 10
28.30389099404568
 20
16.0902719439113
 30
0.0
  0
VERTEX
  5
9A5
330
9A3
100
AcDbEntity
  8
0
100
AcDbVertex
100
AcDb2dVertex
 10
28.29045499404569
 20
16.1006069439113
 30
0.0
  0
VERTEX
  5
9A6
330
9A3
100
AcDbEntity
  8
0
100
AcDbVertex
100
AcDb2dVertex
 10
28.27701899404568
 20
16.1068089439113
 30
0.0
  0
VERTEX
  5
9A7
330
9A3
100
AcDbEntity
  8
0
100
AcDbVertex
100
AcDb2dVertex
 10
28.27391799404569
 20
16.1040529439113
 30
0.0
  0
SEQEND
  5
9A8
330
9A3
100
AcDbEntity
  8
0
  0
LINE
  5
9A9
330
1F
100
AcDbEntity
  8
0
100
AcDbLine
 10
28.32731699404567
 20
15.4963379439113
 30
0.0
 11
28.27391799404569
 21
16.1037079439113
 31
0.0
  0
LINE
  5
9AA
330
1F
100
AcDbEntity
  8
0
100
AcDbLine
 10
28.35039999404569
 20
15.5731629439113
 30
0.0
 11
28.30354599404569
 21
16.0902719439113
 31
0.0
  0
LINE
  5
9AB
330
1F
100
AcDbEntity
  8
0
100
AcDbLine
 10
28.25393699404566
 20
16.1302349439113
 30
0.0
 11
28.25393699404566
 21
16.11369894391129
 31
0.0
  0
LINE
  5
9AC
330
1F
100
AcDbEntity
  8
0
100
AcDbLine
 10
28.25393699404566
 20
16.11369894391129
 30
0.0
 11
28.25393699404566
 21
16.1102539439113
 31
0.0
  0
POLYLINE
  5
9AD
330
1F
100
AcDbEntity
  8
0
100
AcDb2dPolyline
 66
     1
 10
0.0
 20
0.0
 30
0.0
  0
VERTEX
  5
9AE
330
9AD
100
AcDbEntity
  8
0
100
AcDbVertex
100
AcDb2dVertex
 10
28.27391799404569
 20
16.1040529439113
 30
0.0
  0
VERTEX
  5
9AF
330
9AD
100
AcDbEntity
  8
0
100
AcDbVertex
100
AcDb2dVertex
 10
28.27047299404569
 20
16.1171439439113
 30
0.0
  0
VERTEX
  5
9B0
330
9AD
100
AcDbEntity
  8
0
100
AcDbVertex
100
AcDb2dVertex
 10
28.26392799404568
 20
16.12403394391131
 30
0.0
  0
VERTEX
  5
9B1
330
9AD
100
AcDbEntity
  8
0
100
AcDbVertex
100
AcDb2dVertex
 10
28.25393699404566
 20
16.1309239439113
 30
0.0
  0
SEQEND
  5
9B2
330
9AD
100
AcDbEntity
  8
0
  0
POLYLINE
  5
9B3
330
1F
100
AcDbEntity
  8
0
100
AcDb2dPolyline
 66
     1
 10
0.0
 20
0.0
 30
0.0
  0
VERTEX
  5
9B4
330
9B3
100
AcDbEntity
  8
0
100
AcDbVertex
100
AcDb2dVertex
 10
28.31388199404566
 20
16.11369894391129
 30
0.0
  0
VERTEX
  5
9B5
330
9B3
100
AcDbEntity
  8
0
100
AcDbVertex
100
AcDb2dVertex
 10
28.31388199404566
 20
16.1102539439113
 30
0.0
  0
VERTEX
  5
9B6
330
9B3
100
AcDbEntity
  8
0
100
AcDbVertex
100
AcDb2dVertex
 10
28.31078099404567
 20
16.10026294391129
 30
0.0
  0
VERTEX
  5
9B7
330
9B3
100
AcDbEntity
  8
0
100
AcDbVertex
100
AcDb2dVertex
 10
28.30389099404568
 20
16.0902719439113
 30
0.0
  0
SEQEND
  5
9B8
330
9B3
100
AcDbEntity
  8
0
  0
LINE
  5
9B9
330
1F
100
AcDbEntity
  8
0
100
AcDbLine
 10
28.27391799404569
 20
16.08407094391131
 30
0.0
 11
28.25393699404566
 21
16.11059794391129
 31
0.0
  0
LINE
  5
9BA
330
1F
100
AcDbEntity
  8
0
100
AcDbLine
 10
28.51404199404567
 20
16.0503089439113
 30
0.0
 11
28.41413399404567
 21
16.0802809439113
 31
0.0
  0
POLYLINE
  5
9BB
330
1F
100
AcDbEntity
  8
0
100
AcDb2dPolyline
 66
     1
 10
0.0
 20
0.0
 30
0.0
  0
VERTEX
  5
9BC
330
9BB
100
AcDbEntity
  8
0
100
AcDbVertex
100
AcDb2dVertex
 10
28.50060599404566
 20
16.0268819439113
 30
0.0
  0
VERTEX
  5
9BD
330
9BB
100
AcDbEntity
  8
0
100
AcDbVertex
100
AcDb2dVertex
 10
28.40414299404569
 20
16.05719894391129
 30
0.0
  0
VERTEX
  5
9BE
330
9BB
100
AcDbEntity
  8
0
100
AcDbVertex
100
AcDb2dVertex
 10
28.30389099404568
 20
16.0902719439113
 30
0.0
  0
SEQEND
  5
9BF
330
9BB
100
AcDbEntity
  8
0
  0
POLYLINE
  5
9C0
330
1F
100
AcDbEntity
  8
0
100
AcDb2dPolyline
 66
     1
 10
0.0
 20
0.0
 30
0.0
  0
VERTEX
  5
9C1
330
9C0
100
AcDbEntity
  8
0
100
AcDbVertex
100
AcDb2dVertex
 10
28.35039999404569
 20
15.5731629439113
 30
0.0
  0
VERTEX
  5
9C2
330
9C0
100
AcDbEntity
  8
0
100
AcDbVertex
100
AcDb2dVertex
 10
28.35728999404569
 20
15.4694659439113
 30
0.0
  0
VERTEX
  5
9C3
330
9C0
100
AcDbEntity
  8
0
100
AcDbVertex
100
AcDb2dVertex
 10
28.55710499404569
 20
15.4694659439113
 30
0.0
  0
SEQEND
  5
9C4
330
9C0
100
AcDbEntity
  8
0
  0
LINE
  5
9C5
330
1F
100
AcDbEntity
  8
0
100
AcDbLine
 10
28.56399599404568
 20
15.5731629439113
 30
0.0
 11
28.55710499404569
 21
15.4694659439113
 31
0.0
  0
POLYLINE
  5
9C6
330
1F
100
AcDbEntity
  8
0
100
AcDb2dPolyline
 66
     1
 10
0.0
 20
0.0
 30
0.0
  0
VERTEX
  5
9C7
330
9C6
100
AcDbEntity
  8
0
100
AcDbVertex
100
AcDb2dVertex
 10
28.55710499404569
 20
15.4694659439113
 30
0.0
  0
VERTEX
  5
9C8
330
9C6
100
AcDbEntity
  8
0
100
AcDbVertex
100
AcDb2dVertex
 10
28.58053199404566
 20
15.4763559439113
 30
0.0
  0
VERTEX
  5
9C9
330
9C6
100
AcDbEntity
  8
0
100
AcDbVertex
100
AcDb2dVertex
 10
28.59086699404569
 20
15.4963379439113
 30
0.0
  0
SEQEND
  5
9CA
330
9C6
100
AcDbEntity
  8
0
  0
POLYLINE
  5
9CB
330
1F
100
AcDbEntity
  8
0
100
AcDb2dPolyline
 66
     1
 10
0.0
 20
0.0
 30
0.0
  0
VERTEX
  5
9CC
330
9CB
100
AcDbEntity
  8
0
100
AcDbVertex
100
AcDb2dVertex
 10
28.32697299404569
 20
15.4963379439113
 30
0.0
  0
VERTEX
  5
9CD
330
9CB
100
AcDbEntity
  8
0
100
AcDbVertex
100
AcDb2dVertex
 10
28.33661899404567
 20
15.4763559439113
 30
0.0
  0
VERTEX
  5
9CE
330
9CB
100
AcDbEntity
  8
0
100
AcDbVertex
100
AcDb2dVertex
 10
28.35694499404567
 20
15.4694659439113
 30
0.0
  0
SEQEND
  5
9CF
330
9CB
100
AcDbEntity
  8
0
  0
POLYLINE
  5
9D0
330
1F
100
AcDbEntity
  8
0
100
AcDb2dPolyline
 66
     1
 10
0.0
 20
0.0
 30
0.0
  0
VERTEX
  5
9D1
330
9D0
100
AcDbEntity
  8
0
100
AcDbVertex
100
AcDb2dVertex
 10
23.18689099404569
 20
28.0475099439113
 30
0.0
  0
VERTEX
  5
9D2
330
9D0
100
AcDbEntity
  8
0
100
AcDbVertex
100
AcDb2dVertex
 10
22.91231599404568
 20
27.9803299439113
 30
0.0
  0
VERTEX
  5
9D3
330
9D0
100
AcDbEntity
  8
0
100
AcDbVertex
100
AcDb2dVertex
 10
22.70216599404569
 20
27.79463994391129
 30
0.0
  0
VERTEX
  5
9D4
330
9D0
100
AcDbEntity
  8
0
100
AcDbVertex
100
AcDb2dVertex
 10
22.60466899404568
 20
27.5293669439113
 30
0.0
  0
VERTEX
  5
9D5
330
9D0
100
AcDbEntity
  8
0
100
AcDbVertex
100
AcDb2dVertex
 10
22.60776999404567
 20
27.5293669439113
 30
0.0
  0
SEQEND
  5
9D6
330
9D0
100
AcDbEntity
  8
0
  0
POLYLINE
  5
9D7
330
1F
100
AcDbEntity
  8
0
100
AcDb2dPolyline
 66
     1
 10
0.0
 20
0.0
 30
0.0
  0
VERTEX
  5
9D8
330
9D7
100
AcDbEntity
  8
0
100
AcDbVertex
100
AcDb2dVertex
 10
24.36339099404569
 20
28.0533659439113
 30
0.0
  0
VERTEX
  5
9D9
330
9D7
100
AcDbEntity
  8
0
100
AcDbVertex
100
AcDb2dVertex
 10
24.31481499404566
 20
28.05095494391131
 30
0.0
  0
VERTEX
  5
9DA
330
9D7
100
AcDbEntity
  8
0
100
AcDbVertex
100
AcDb2dVertex
 10
24.31757099404567
 20
28.05095494391131
 30
0.0
  0
SEQEND
  5
9DB
330
9D7
100
AcDbEntity
  8
0
  0
POLYLINE
  5
9DC
330
1F
100
AcDbEntity
  8
0
100
AcDb2dPolyline
 66
     1
 10
0.0
 20
0.0
 30
0.0
  0
VERTEX
  5
9DD
330
9DC
100
AcDbEntity
  8
0
100
AcDbVertex
100
AcDb2dVertex
 10
24.49430399404568
 20
28.05646694391131
 30
0.0
  0
VERTEX
  5
9DE
330
9DC
100
AcDbEntity
  8
0
100
AcDbVertex
100
AcDb2dVertex
 10
24.46984399404568
 20
28.05646694391131
 30
0.0
  0
VERTEX
  5
9DF
330
9DC
100
AcDbEntity
  8
0
100
AcDbVertex
100
AcDb2dVertex
 10
24.47294499404569
 20
28.05646694391131
 30
0.0
  0
SEQEND
  5
9E0
330
9DC
100
AcDbEntity
  8
0
  0
POLYLINE
  5
9E1
330
1F
100
AcDbEntity
  8
0
100
AcDb2dPolyline
 66
     1
 10
0.0
 20
0.0
 30
0.0
  0
VERTEX
  5
9E2
330
9E1
100
AcDbEntity
  8
0
100
AcDbVertex
100
AcDb2dVertex
 10
24.46984399404568
 20
28.05646694391131
 30
0.0
  0
VERTEX
  5
9E3
330
9E1
100
AcDbEntity
  8
0
100
AcDbVertex
100
AcDb2dVertex
 10
24.45158499404568
 20
28.0533659439113
 30
0.0
  0
VERTEX
  5
9E4
330
9E1
100
AcDbEntity
  8
0
100
AcDbVertex
100
AcDb2dVertex
 10
24.45468599404566
 20
28.0533659439113
 30
0.0
  0
SEQEND
  5
9E5
330
9E1
100
AcDbEntity
  8
0
  0
POLYLINE
  5
9E6
330
1F
100
AcDbEntity
  8
0
100
AcDb2dPolyline
 66
     1
 10
0.0
 20
0.0
 30
0.0
  0
VERTEX
  5
9E7
330
9E6
100
AcDbEntity
  8
0
100
AcDbVertex
100
AcDb2dVertex
 10
24.45158499404568
 20
28.0533659439113
 30
0.0
  0
VERTEX
  5
9E8
330
9E6
100
AcDbEntity
  8
0
100
AcDbVertex
100
AcDb2dVertex
 10
24.35718899404566
 20
28.05095494391131
 30
0.0
  0
VERTEX
  5
9E9
330
9E6
100
AcDbEntity
  8
0
100
AcDbVertex
100
AcDb2dVertex
 10
24.36028999404567
 20
28.05095494391131
 30
0.0
  0
SEQEND
  5
9EA
330
9E6
100
AcDbEntity
  8
0
  0
POLYLINE
  5
9EB
330
1F
100
AcDbEntity
  8
0
100
AcDb2dPolyline
 66
     1
 10
0.0
 20
0.0
 30
0.0
  0
VERTEX
  5
9EC
330
9EB
100
AcDbEntity
  8
0
100
AcDbVertex
100
AcDb2dVertex
 10
24.31446999404568
 20
28.05095494391131
 30
0.0
  0
VERTEX
  5
9ED
330
9EB
100
AcDbEntity
  8
0
100
AcDbVertex
100
AcDb2dVertex
 10
24.26830599404568
 20
28.05095494391131
 30
0.0
  0
VERTEX
  5
9EE
330
9EB
100
AcDbEntity
  8
0
100
AcDbVertex
100
AcDb2dVertex
 10
24.27175099404568
 20
28.05095494391131
 30
0.0
  0
SEQEND
  5
9EF
330
9EB
100
AcDbEntity
  8
0
  0
POLYLINE
  5
9F0
330
1F
100
AcDbEntity
  8
0
100
AcDb2dPolyline
 66
     1
 10
0.0
 20
0.0
 30
0.0
  0
VERTEX
  5
9F1
330
9F0
100
AcDbEntity
  8
0
100
AcDbVertex
100
AcDb2dVertex
 10
24.35718899404566
 20
28.05095494391131
 30
0.0
  0
VERTEX
  5
9F2
330
9F0
100
AcDbEntity
  8
0
100
AcDbVertex
100
AcDb2dVertex
 10
24.32652799404568
 20
28.05095494391131
 30
0.0
  0
VERTEX
  5
9F3
330
9F0
100
AcDbEntity
  8
0
100
AcDbVertex
100
AcDb2dVertex
 10
24.32962899404569
 20
28.05095494391131
 30
0.0
  0
SEQEND
  5
9F4
330
9F0
100
AcDbEntity
  8
0
  0
POLYLINE
  5
9F5
330
1F
100
AcDbEntity
  8
0
100
AcDb2dPolyline
 66
     1
 10
0.0
 20
0.0
 30
0.0
  0
VERTEX
  5
9F6
330
9F5
100
AcDbEntity
  8
0
100
AcDbVertex
100
AcDb2dVertex
 10
24.32652799404568
 20
28.05095494391131
 30
0.0
  0
VERTEX
  5
9F7
330
9F5
100
AcDbEntity
  8
0
100
AcDbVertex
100
AcDb2dVertex
 10
24.29621099404568
 20
28.05095494391131
 30
0.0
  0
VERTEX
  5
9F8
330
9F5
100
AcDbEntity
  8
0
100
AcDbVertex
100
AcDb2dVertex
 10
24.29931199404567
 20
28.05095494391131
 30
0.0
  0
SEQEND
  5
9F9
330
9F5
100
AcDbEntity
  8
0
  0
POLYLINE
  5
9FA
330
1F
100
AcDbEntity
  8
0
100
AcDb2dPolyline
 66
     1
 10
0.0
 20
0.0
 30
0.0
  0
VERTEX
  5
9FB
330
9FA
100
AcDbEntity
  8
0
100
AcDbVertex
100
AcDb2dVertex
 10
24.26899499404567
 20
28.05095494391131
 30
0.0
  0
VERTEX
  5
9FC
330
9FA
100
AcDbEntity
  8
0
100
AcDbVertex
100
AcDb2dVertex
 10
24.22937599404568
 20
28.04785394391131
 30
0.0
  0
VERTEX
  5
9FD
330
9FA
100
AcDbEntity
  8
0
100
AcDbVertex
100
AcDb2dVertex
 10
24.18941299404568
 20
28.04785394391131
 30
0.0
  0
VERTEX
  5
9FE
330
9FA
100
AcDbEntity
  8
0
100
AcDbVertex
100
AcDb2dVertex
 10
24.19251399404567
 20
28.04785394391131
 30
0.0
  0
SEQEND
  5
9FF
330
9FA
100
AcDbEntity
  8
0
  0
POLYLINE
  5
A00
330
1F
100
AcDbEntity
  8
0
100
AcDb2dPolyline
 66
     1
 10
0.0
 20
0.0
 30
0.0
  0
VERTEX
  5
A01
330
A00
100
AcDbEntity
  8
0
100
AcDbVertex
100
AcDb2dVertex
 10
24.29621099404568
 20
28.05095494391131
 30
0.0
  0
VERTEX
  5
A02
330
A00
100
AcDbEntity
  8
0
100
AcDbVertex
100
AcDb2dVertex
 10
24.26899499404567
 20
28.05095494391131
 30
0.0
  0
VERTEX
  5
A03
330
A00
100
AcDbEntity
  8
0
100
AcDbVertex
100
AcDb2dVertex
 10
24.27209599404569
 20
28.05095494391131
 30
0.0
  0
SEQEND
  5
A04
330
A00
100
AcDbEntity
  8
0
  0
POLYLINE
  5
A05
330
1F
100
AcDbEntity
  8
0
100
AcDb2dPolyline
 66
     1
 10
0.0
 20
0.0
 30
0.0
  0
VERTEX
  5
A06
330
A05
100
AcDbEntity
  8
0
100
AcDbVertex
100
AcDb2dVertex
 10
24.37579299404567
 20
28.0475099439113
 30
0.0
  0
VERTEX
  5
A07
330
A05
100
AcDbEntity
  8
0
100
AcDbVertex
100
AcDb2dVertex
 10
24.3940519940457
 20
28.0475099439113
 30
0.0
  0
VERTEX
  5
A08
330
A05
100
AcDbEntity
  8
0
100
AcDbVertex
100
AcDb2dVertex
 10
24.39990899404566
 20
28.0506099439113
 30
0.0
  0
VERTEX
  5
A09
330
A05
100
AcDbEntity
  8
0
100
AcDbVertex
100
AcDb2dVertex
 10
24.41851199404567
 20
28.0506099439113
 30
0.0
  0
VERTEX
  5
A0A
330
A05
100
AcDbEntity
  8
0
100
AcDbVertex
100
AcDb2dVertex
 10
24.42436899404567
 20
28.0533659439113
 30
0.0
  0
VERTEX
  5
A0B
330
A05
100
AcDbEntity
  8
0
100
AcDbVertex
100
AcDb2dVertex
 10
24.43367099404568
 20
28.0533659439113
 30
0.0
  0
SEQEND
  5
A0C
330
A05
100
AcDbEntity
  8
0
  0
POLYLINE
  5
A0D
330
1F
100
AcDbEntity
  8
0
100
AcDb2dPolyline
 66
     1
 10
0.0
 20
0.0
 30
0.0
  0
VERTEX
  5
A0E
330
A0D
100
AcDbEntity
  8
0
100
AcDbVertex
100
AcDb2dVertex
 10
24.26279399404567
 20
28.0475099439113
 30
0.0
  0
VERTEX
  5
A0F
330
A0D
100
AcDbEntity
  8
0
100
AcDbVertex
100
AcDb2dVertex
 10
24.22937599404568
 20
28.0475099439113
 30
0.0
  0
VERTEX
  5
A10
330
A0D
100
AcDbEntity
  8
0
100
AcDbVertex
100
AcDb2dVertex
 10
24.2324769940457
 20
28.0475099439113
 30
0.0
  0
SEQEND
  5
A11
330
A0D
100
AcDbEntity
  8
0
  0
POLYLINE
  5
A12
330
1F
100
AcDbEntity
  8
0
100
AcDb2dPolyline
 66
     1
 10
0.0
 20
0.0
 30
0.0
  0
VERTEX
  5
A13
330
A12
100
AcDbEntity
  8
0
100
AcDbVertex
100
AcDb2dVertex
 10
24.49464899404569
 20
28.06266794391131
 30
0.0
  0
VERTEX
  5
A14
330
A12
100
AcDbEntity
  8
0
100
AcDbVertex
100
AcDb2dVertex
 10
24.48534699404567
 20
28.06266794391131
 30
0.0
  0
VERTEX
  5
A15
330
A12
100
AcDbEntity
  8
0
100
AcDbVertex
100
AcDb2dVertex
 10
24.43091399404568
 20
28.0533659439113
 30
0.0
  0
VERTEX
  5
A16
330
A12
100
AcDbEntity
  8
0
100
AcDbVertex
100
AcDb2dVertex
 10
24.43367099404568
 20
28.0533659439113
 30
0.0
  0
SEQEND
  5
A17
330
A12
100
AcDbEntity
  8
0
  0
POLYLINE
  5
A18
330
1F
100
AcDbEntity
  8
0
100
AcDb2dPolyline
 66
     1
 10
0.0
 20
0.0
 30
0.0
  0
VERTEX
  5
A19
330
A18
100
AcDbEntity
  8
0
100
AcDbVertex
100
AcDb2dVertex
 10
24.56148399404566
 20
28.06266794391131
 30
0.0
  0
VERTEX
  5
A1A
330
A18
100
AcDbEntity
  8
0
100
AcDbVertex
100
AcDb2dVertex
 10
24.54632499404568
 20
28.0599119439113
 30
0.0
  0
VERTEX
  5
A1B
330
A18
100
AcDbEntity
  8
0
100
AcDbVertex
100
AcDb2dVertex
 10
24.51910899404567
 20
28.0599119439113
 30
0.0
  0
VERTEX
  5
A1C
330
A18
100
AcDbEntity
  8
0
100
AcDbVertex
100
AcDb2dVertex
 10
24.50705099404567
 20
28.05646694391131
 30
0.0
  0
VERTEX
  5
A1D
330
A18
100
AcDbEntity
  8
0
100
AcDbVertex
100
AcDb2dVertex
 10
24.49464899404569
 20
28.05646694391131
 30
0.0
  0
VERTEX
  5
A1E
330
A18
100
AcDbEntity
  8
0
100
AcDbVertex
100
AcDb2dVertex
 10
24.49774899404568
 20
28.05646694391131
 30
0.0
  0
SEQEND
  5
A1F
330
A18
100
AcDbEntity
  8
0
  0
POLYLINE
  5
A20
330
1F
100
AcDbEntity
  8
0
100
AcDb2dPolyline
 66
     1
 10
0.0
 20
0.0
 30
0.0
  0
VERTEX
  5
A21
330
A20
100
AcDbEntity
  8
0
100
AcDbVertex
100
AcDb2dVertex
 10
24.49464899404569
 20
28.06266794391131
 30
0.0
  0
VERTEX
  5
A22
330
A20
100
AcDbEntity
  8
0
100
AcDbVertex
100
AcDb2dVertex
 10
24.41506699404567
 20
28.05646694391131
 30
0.0
  0
VERTEX
  5
A23
330
A20
100
AcDbEntity
  8
0
100
AcDbVertex
100
AcDb2dVertex
 10
24.41851199404567
 20
28.05646694391131
 30
0.0
  0
SEQEND
  5
A24
330
A20
100
AcDbEntity
  8
0
  0
POLYLINE
  5
A25
330
1F
100
AcDbEntity
  8
0
100
AcDb2dPolyline
 66
     1
 10
0.0
 20
0.0
 30
0.0
  0
VERTEX
  5
A26
330
A25
100
AcDbEntity
  8
0
100
AcDbVertex
100
AcDb2dVertex
 10
24.50050499404568
 20
28.06266794391131
 30
0.0
  0
VERTEX
  5
A27
330
A25
100
AcDbEntity
  8
0
100
AcDbVertex
100
AcDb2dVertex
 10
24.49464899404569
 20
28.06266794391131
 30
0.0
  0
VERTEX
  5
A28
330
A25
100
AcDbEntity
  8
0
100
AcDbVertex
100
AcDb2dVertex
 10
24.49774899404568
 20
28.06266794391131
 30
0.0
  0
SEQEND
  5
A29
330
A25
100
AcDbEntity
  8
0
  0
POLYLINE
  5
A2A
330
1F
100
AcDbEntity
  8
0
100
AcDb2dPolyline
 66
     1
 10
0.0
 20
0.0
 30
0.0
  0
VERTEX
  5
A2B
330
A2A
100
AcDbEntity
  8
0
100
AcDbVertex
100
AcDb2dVertex
 10
24.41506699404567
 20
28.05646694391131
 30
0.0
  0
VERTEX
  5
A2C
330
A2A
100
AcDbEntity
  8
0
100
AcDbVertex
100
AcDb2dVertex
 10
24.36339099404569
 20
28.0533659439113
 30
0.0
  0
VERTEX
  5
A2D
330
A2A
100
AcDbEntity
  8
0
100
AcDbVertex
100
AcDb2dVertex
 10
24.36649099404568
 20
28.0533659439113
 30
0.0
  0
SEQEND
  5
A2E
330
A2A
100
AcDbEntity
  8
0
  0
POLYLINE
  5
A2F
330
1F
100
AcDbEntity
  8
0
100
AcDb2dPolyline
 66
     1
 10
0.0
 20
0.0
 30
0.0
  0
VERTEX
  5
A30
330
A2F
100
AcDbEntity
  8
0
100
AcDbVertex
100
AcDb2dVertex
 10
24.92700799404565
 20
28.11434394391131
 30
0.0
  0
VERTEX
  5
A31
330
A2F
100
AcDbEntity
  8
0
100
AcDbVertex
100
AcDb2dVertex
 10
24.78403699404566
 20
28.0905729439113
 30
0.0
  0
VERTEX
  5
A32
330
A2F
100
AcDbEntity
  8
0
100
AcDbVertex
100
AcDb2dVertex
 10
24.75647599404567
 20
28.0867839439113
 30
0.0
  0
VERTEX
  5
A33
330
A2F
100
AcDbEntity
  8
0
100
AcDbVertex
100
AcDb2dVertex
 10
24.73511599404569
 20
28.0836829439113
 30
0.0
  0
VERTEX
  5
A34
330
A2F
100
AcDbEntity
  8
0
100
AcDbVertex
100
AcDb2dVertex
 10
24.71100099404569
 20
28.08127094391131
 30
0.0
  0
VERTEX
  5
A35
330
A2F
100
AcDbEntity
  8
0
100
AcDbVertex
100
AcDb2dVertex
 10
24.68929699404569
 20
28.0778259439113
 30
0.0
  0
VERTEX
  5
A36
330
A2F
100
AcDbEntity
  8
0
100
AcDbVertex
100
AcDb2dVertex
 10
24.69239699404568
 20
28.0778259439113
 30
0.0
  0
SEQEND
  5
A37
330
A2F
100
AcDbEntity
  8
0
  0
SPLINE
  5
A38
330
1F
100
AcDbEntity
  8
0
100
AcDbSpline
210
0.0
220
0.0
230
1.0
 70
     8
 71
     3
 72
    17
 73
    13
 74
     0
 42
0.0000000001
 43
0.0000000001
 40
0.0
 40
0.0
 40
0.0
 40
0.0
 40
1.0
 40
1.0
 40
1.0
 40
2.0
 40
2.0
 40
2.0
 40
3.0
 40
3.0
 40
3.0
 40
4.0
 40
4.0
 40
4.0
 40
4.0
 10
24.68929663987899
 20
28.07782633887658
 30
0.0
 10
24.68929663987899
 20
28.07782633887658
 30
0.0
 10
24.66828155741371
 20
28.0750702624877
 30
0.0
 10
24.66828155741371
 20
28.0750702624877
 30
0.0
 10
24.63762020758733
 20
28.06921360016129
 30
0.0
 10
24.60730336730956
 20
28.06611301422379
 30
0.0
 10
24.57629750793456
 20
28.06266791873769
 30
0.0
 10
24.57629750793456
 20
28.06266791873769
 30
0.0
 10
24.56113908779562
 20
28.06266791873769
 30
0.0
 10
24.56113908779562
 20
28.06266791873769
 30
0.0
 10
24.56113908779562
 20
28.06266791873769
 30
0.0
 10
24.56458418328177
 20
28.06266791873769
 30
0.0
 10
24.56458418328177
 20
28.06266791873769
 30
0.0
  0
POLYLINE
  5
A39
330
1F
100
AcDbEntity
  8
0
100
AcDb2dPolyline
 66
     1
 10
0.0
 20
0.0
 30
0.0
  0
VERTEX
  5
A3A
330
A39
100
AcDbEntity
  8
0
100
AcDbVertex
100
AcDb2dVertex
 10
25.29563299404566
 20
26.52649994391129
 30
0.0
  0
VERTEX
  5
A3B
330
A39
100
AcDbEntity
  8
0
100
AcDbVertex
100
AcDb2dVertex
 10
25.27151799404567
 20
26.69978794391131
 30
0.0
  0
VERTEX
  5
A3C
330
A39
100
AcDbEntity
  8
0
100
AcDbVertex
100
AcDb2dVertex
 10
25.27427399404567
 20
26.69978794391131
 30
0.0
  0
SEQEND
  5
A3D
330
A39
100
AcDbEntity
  8
0
  0
POLYLINE
  5
A3E
330
1F
100
AcDbEntity
  8
0
100
AcDb2dPolyline
 66
     1
 10
0.0
 20
0.0
 30
0.0
  0
VERTEX
  5
A3F
330
A3E
100
AcDbEntity
  8
0
100
AcDbVertex
100
AcDb2dVertex
 10
25.38382799404568
 20
26.57817594391129
 30
0.0
  0
VERTEX
  5
A40
330
A3E
100
AcDbEntity
  8
0
100
AcDbVertex
100
AcDb2dVertex
 10
25.36281299404567
 20
26.7583549439113
 30
0.0
  0
VERTEX
  5
A41
330
A3E
100
AcDbEntity
  8
0
100
AcDbVertex
100
AcDb2dVertex
 10
25.36556899404568
 20
26.7583549439113
 30
0.0
  0
SEQEND
  5
A42
330
A3E
100
AcDbEntity
  8
0
  0
POLYLINE
  5
A43
330
1F
100
AcDbEntity
  8
0
100
AcDb2dPolyline
 66
     1
 10
0.0
 20
0.0
 30
0.0
  0
VERTEX
  5
A44
330
A43
100
AcDbEntity
  8
0
100
AcDbVertex
100
AcDb2dVertex
 10
25.27151799404567
 20
26.7001329439113
 30
0.0
  0
VERTEX
  5
A45
330
A43
100
AcDbEntity
  8
0
100
AcDbVertex
100
AcDb2dVertex
 10
25.24120099404567
 20
26.94404494391131
 30
0.0
  0
VERTEX
  5
A46
330
A43
100
AcDbEntity
  8
0
100
AcDbVertex
100
AcDb2dVertex
 10
25.23465499404569
 20
26.99606594391131
 30
0.0
  0
VERTEX
  5
A47
330
A43
100
AcDbEntity
  8
0
100
AcDbVertex
100
AcDb2dVertex
 10
25.23775599404567
 20
26.99606594391131
 30
0.0
  0
SEQEND
  5
A48
330
A43
100
AcDbEntity
  8
0
  0
POLYLINE
  5
A49
330
1F
100
AcDbEntity
  8
0
100
AcDb2dPolyline
 66
     1
 10
0.0
 20
0.0
 30
0.0
  0
VERTEX
  5
A4A
330
A49
100
AcDbEntity
  8
0
100
AcDbVertex
100
AcDb2dVertex
 10
25.36281299404567
 20
26.7583549439113
 30
0.0
  0
VERTEX
  5
A4B
330
A49
100
AcDbEntity
  8
0
100
AcDbVertex
100
AcDb2dVertex
 10
25.33525199404568
 20
26.9530029439113
 30
0.0
  0
VERTEX
  5
A4C
330
A49
100
AcDbEntity
  8
0
100
AcDbVertex
100
AcDb2dVertex
 10
25.32939499404569
 20
27.0053679439113
 30
0.0
  0
VERTEX
  5
A4D
330
A49
100
AcDbEntity
  8
0
100
AcDbVertex
100
AcDb2dVertex
 10
25.33249599404567
 20
27.0053679439113
 30
0.0
  0
SEQEND
  5
A4E
330
A49
100
AcDbEntity
  8
0
  0
POLYLINE
  5
A4F
330
1F
100
AcDbEntity
  8
0
100
AcDb2dPolyline
 66
     1
 10
0.0
 20
0.0
 30
0.0
  0
VERTEX
  5
A50
330
A4F
100
AcDbEntity
  8
0
100
AcDbVertex
100
AcDb2dVertex
 10
25.32939499404569
 20
27.0053679439113
 30
0.0
  0
VERTEX
  5
A51
330
A4F
100
AcDbEntity
  8
0
100
AcDbVertex
100
AcDb2dVertex
 10
25.30769099404569
 20
27.1848579439113
 30
0.0
  0
VERTEX
  5
A52
330
A4F
100
AcDbEntity
  8
0
100
AcDbVertex
100
AcDb2dVertex
 10
25.29907899404569
 20
27.2730519439113
 30
0.0
  0
VERTEX
  5
A53
330
A4F
100
AcDbEntity
  8
0
100
AcDbVertex
100
AcDb2dVertex
 10
25.27427399404567
 20
27.43807194391131
 30
0.0
  0
VERTEX
  5
A54
330
A4F
100
AcDbEntity
  8
0
100
AcDbVertex
100
AcDb2dVertex
 10
25.25911499404566
 20
27.5173089439113
 30
0.0
  0
VERTEX
  5
A55
330
A4F
100
AcDbEntity
  8
0
100
AcDbVertex
100
AcDb2dVertex
 10
25.25601499404567
 20
27.5293669439113
 30
0.0
  0
VERTEX
  5
A56
330
A4F
100
AcDbEntity
  8
0
100
AcDbVertex
100
AcDb2dVertex
 10
25.25911499404566
 20
27.5293669439113
 30
0.0
  0
SEQEND
  5
A57
330
A4F
100
AcDbEntity
  8
0
  0
SPLINE
  5
A58
330
1F
100
AcDbEntity
  8
0
100
AcDbSpline
210
0.0
220
0.0
230
1.0
 70
     8
 71
     3
 72
    17
 73
    13
 74
     0
 42
0.0000000001
 43
0.0000000001
 40
0.0
 40
0.0
 40
0.0
 40
0.0
 40
1.0
 40
1.0
 40
1.0
 40
2.0
 40
2.0
 40
2.0
 40
3.0
 40
3.0
 40
3.0
 40
4.0
 40
4.0
 40
4.0
 40
4.0
 10
25.23465525533038
 20
26.99606635623768
 30
0.0
 10
25.23465525533038
 20
26.99606635623768
 30
0.0
 10
25.22225291158037
 20
27.08701687707102
 30
0.0
 10
25.22225291158037
 20
27.08701687707102
 30
0.0
 10
25.21019507737899
 20
27.22516520606408
 30
0.0
 10
25.18607940897621
 20
27.36469157325158
 30
0.0
 10
25.16471981696233
 20
27.5018063735988
 30
0.0
 10
25.16471981696233
 20
27.5018063735988
 30
0.0
 10
25.1585186450873
 20
27.52936713748769
 30
0.0
 10
25.1585186450873
 20
27.52936713748769
 30
0.0
 10
25.1585186450873
 20
27.52936713748769
 30
0.0
 10
25.16161923102479
 20
27.52936713748769
 30
0.0
 10
25.16161923102479
 20
27.52936713748769
 30
0.0
  0
POLYLINE
  5
A59
330
1F
100
AcDbEntity
  8
0
100
AcDb2dPolyline
 66
     1
 10
0.0
 20
0.0
 30
0.0
  0
VERTEX
  5
A5A
330
A59
100
AcDbEntity
  8
0
100
AcDbVertex
100
AcDb2dVertex
 10
24.00027799404569
 20
27.04774294391131
 30
0.0
  0
VERTEX
  5
A5B
330
A59
100
AcDbEntity
  8
0
100
AcDbVertex
100
AcDb2dVertex
 10
24.00372299404569
 20
27.0053679439113
 30
0.0
  0
VERTEX
  5
A5C
330
A59
100
AcDbEntity
  8
0
100
AcDbVertex
100
AcDb2dVertex
 10
24.0064789940457
 20
27.0053679439113
 30
0.0
  0
SEQEND
  5
A5D
330
A59
100
AcDbEntity
  8
0
  0
SPLINE
  5
A5E
330
1F
100
AcDbEntity
  8
0
100
AcDbSpline
210
0.0
220
0.0
230
1.0
 70
     8
 71
     3
 72
    14
 73
    10
 74
     0
 42
0.0000000001
 43
0.0000000001
 40
0.0
 40
0.0
 40
0.0
 40
0.0
 40
1.0
 40
1.0
 40
1.0
 40
2.0
 40
2.0
 40
2.0
 40
3.0
 40
3.0
 40
3.0
 40
3.0
 10
25.23465525533038
 20
26.99606635623768
 30
0.0
 10
25.23465525533038
 20
26.99606635623768
 30
0.0
 10
25.24085642720539
 20
26.99916694217518
 30
0.0
 10
25.24085642720539
 20
26.99916694217518
 30
0.0
 10
25.26393856696234
 20
27.0053681140502
 30
0.0
 10
25.30734677008729
 20
27.01639241960574
 30
0.0
 10
25.32939538119843
 20
27.00502360450157
 30
0.0
 10
25.32939538119843
 20
27.00502360450157
 30
0.0
 10
25.33215145758729
 20
27.00502360450157
 30
0.0
 10
25.33215145758729
 20
27.00502360450157
 30
0.0
  0
POLYLINE
  5
A5F
330
1F
100
AcDbEntity
  8
0
100
AcDb2dPolyline
 66
     1
 10
0.0
 20
0.0
 30
0.0
  0
VERTEX
  5
A60
330
A5F
100
AcDbEntity
  8
0
100
AcDbVertex
100
AcDb2dVertex
 10
23.90898299404566
 20
27.5293669439113
 30
0.0
  0
VERTEX
  5
A61
330
A5F
100
AcDbEntity
  8
0
100
AcDbVertex
100
AcDb2dVertex
 10
23.92999799404569
 20
27.46528794391129
 30
0.0
  0
VERTEX
  5
A62
330
A5F
100
AcDbEntity
  8
0
100
AcDbVertex
100
AcDb2dVertex
 10
23.94515599404568
 20
27.4012099439113
 30
0.0
  0
VERTEX
  5
A63
330
A5F
100
AcDbEntity
  8
0
100
AcDbVertex
100
AcDb2dVertex
 10
23.96100299404569
 20
27.3309299439113
 30
0.0
  0
VERTEX
  5
A64
330
A5F
100
AcDbEntity
  8
0
100
AcDbVertex
100
AcDb2dVertex
 10
23.97271699404567
 20
27.26374994391129
 30
0.0
  0
VERTEX
  5
A65
330
A5F
100
AcDbEntity
  8
0
100
AcDbVertex
100
AcDb2dVertex
 10
23.98201899404569
 20
27.19381494391129
 30
0.0
  0
VERTEX
  5
A66
330
A5F
100
AcDbEntity
  8
0
100
AcDbVertex
100
AcDb2dVertex
 10
24.00027799404569
 20
27.04774294391131
 30
0.0
  0
VERTEX
  5
A67
330
A5F
100
AcDbEntity
  8
0
100
AcDbVertex
100
AcDb2dVertex
 10
24.00372299404569
 20
27.04774294391131
 30
0.0
  0
SEQEND
  5
A68
330
A5F
100
AcDbEntity
  8
0
  0
POLYLINE
  5
A69
330
1F
100
AcDbEntity
  8
0
100
AcDb2dPolyline
 66
     1
 10
0.0
 20
0.0
 30
0.0
  0
VERTEX
  5
A6A
330
A69
100
AcDbEntity
  8
0
100
AcDbVertex
100
AcDb2dVertex
 10
25.41138899404567
 20
25.8164659439113
 30
0.0
  0
VERTEX
  5
A6B
330
A69
100
AcDbEntity
  8
0
100
AcDbVertex
100
AcDb2dVertex
 10
25.40828799404568
 20
25.82542294391129
 30
0.0
  0
VERTEX
  5
A6C
330
A69
100
AcDbEntity
  8
0
100
AcDbVertex
100
AcDb2dVertex
 10
25.40553199404568
 20
25.8374809439113
 30
0.0
  0
VERTEX
  5
A6D
330
A69
100
AcDbEntity
  8
0
100
AcDbVertex
100
AcDb2dVertex
 10
25.40828799404568
 20
25.8374809439113
 30
0.0
  0
SEQEND
  5
A6E
330
A69
100
AcDbEntity
  8
0
  0
POLYLINE
  5
A6F
330
1F
100
AcDbEntity
  8
0
100
AcDb2dPolyline
 66
     1
 10
0.0
 20
0.0
 30
0.0
  0
VERTEX
  5
A70
330
A6F
100
AcDbEntity
  8
0
100
AcDbVertex
100
AcDb2dVertex
 10
25.39622999404568
 20
25.85883994391129
 30
0.0
  0
VERTEX
  5
A71
330
A6F
100
AcDbEntity
  8
0
100
AcDbVertex
100
AcDb2dVertex
 10
25.39347399404568
 20
25.8681419439113
 30
0.0
  0
VERTEX
  5
A72
330
A6F
100
AcDbEntity
  8
0
100
AcDbVertex
100
AcDb2dVertex
 10
25.39037399404569
 20
25.87709894391129
 30
0.0
  0
VERTEX
  5
A73
330
A6F
100
AcDbEntity
  8
0
100
AcDbVertex
100
AcDb2dVertex
 10
25.39347399404568
 20
25.87709894391129
 30
0.0
  0
SEQEND
  5
A74
330
A6F
100
AcDbEntity
  8
0
  0
POLYLINE
  5
A75
330
1F
100
AcDbEntity
  8
0
100
AcDb2dPolyline
 66
     1
 10
0.0
 20
0.0
 30
0.0
  0
VERTEX
  5
A76
330
A75
100
AcDbEntity
  8
0
100
AcDbVertex
100
AcDb2dVertex
 10
25.40553199404568
 20
25.8374809439113
 30
0.0
  0
VERTEX
  5
A77
330
A75
100
AcDbEntity
  8
0
100
AcDbVertex
100
AcDb2dVertex
 10
25.39622999404568
 20
25.85883994391129
 30
0.0
  0
VERTEX
  5
A78
330
A75
100
AcDbEntity
  8
0
100
AcDbVertex
100
AcDb2dVertex
 10
25.39933099404567
 20
25.85883994391129
 30
0.0
  0
SEQEND
  5
A79
330
A75
100
AcDbEntity
  8
0
  0
POLYLINE
  5
A7A
330
1F
100
AcDbEntity
  8
0
100
AcDb2dPolyline
 66
     1
 10
0.0
 20
0.0
 30
0.0
  0
VERTEX
  5
A7B
330
A7A
100
AcDbEntity
  8
0
100
AcDbVertex
100
AcDb2dVertex
 10
25.39037399404569
 20
25.88019994391129
 30
0.0
  0
VERTEX
  5
A7C
330
A7A
100
AcDbEntity
  8
0
100
AcDbVertex
100
AcDb2dVertex
 10
25.37211499404566
 20
25.9807969439113
 30
0.0
  0
VERTEX
  5
A7D
330
A7A
100
AcDbEntity
  8
0
100
AcDbVertex
100
AcDb2dVertex
 10
25.37521499404568
 20
25.9807969439113
 30
0.0
  0
SEQEND
  5
A7E
330
A7A
100
AcDbEntity
  8
0
  0
POLYLINE
  5
A7F
330
1F
100
AcDbEntity
  8
0
100
AcDb2dPolyline
 66
     1
 10
0.0
 20
0.0
 30
0.0
  0
VERTEX
  5
A80
330
A7F
100
AcDbEntity
  8
0
100
AcDbVertex
100
AcDb2dVertex
 10
25.37211499404566
 20
25.9807969439113
 30
0.0
  0
VERTEX
  5
A81
330
A7F
100
AcDbEntity
  8
0
100
AcDbVertex
100
AcDb2dVertex
 10
25.35695599404568
 20
26.09689594391131
 30
0.0
  0
VERTEX
  5
A82
330
A7F
100
AcDbEntity
  8
0
100
AcDbVertex
100
AcDb2dVertex
 10
25.35971199404568
 20
26.09689594391131
 30
0.0
  0
SEQEND
  5
A83
330
A7F
100
AcDbEntity
  8
0
  0
POLYLINE
  5
A84
330
1F
100
AcDbEntity
  8
0
100
AcDb2dPolyline
 66
     1
 10
0.0
 20
0.0
 30
0.0
  0
VERTEX
  5
A85
330
A84
100
AcDbEntity
  8
0
100
AcDbVertex
100
AcDb2dVertex
 10
25.35695599404568
 20
26.09689594391131
 30
0.0
  0
VERTEX
  5
A86
330
A84
100
AcDbEntity
  8
0
100
AcDbVertex
100
AcDb2dVertex
 10
25.33559699404569
 20
26.22470994391129
 30
0.0
  0
VERTEX
  5
A87
330
A84
100
AcDbEntity
  8
0
100
AcDbVertex
100
AcDb2dVertex
 10
25.33835299404569
 20
26.22470994391129
 30
0.0
  0
SEQEND
  5
A88
330
A84
100
AcDbEntity
  8
0
  0
POLYLINE
  5
A89
330
1F
100
AcDbEntity
  8
0
100
AcDb2dPolyline
 66
     1
 10
0.0
 20
0.0
 30
0.0
  0
VERTEX
  5
A8A
330
A89
100
AcDbEntity
  8
0
100
AcDbVertex
100
AcDb2dVertex
 10
25.33559699404569
 20
26.22470994391129
 30
0.0
  0
VERTEX
  5
A8B
330
A89
100
AcDbEntity
  8
0
100
AcDbVertex
100
AcDb2dVertex
 10
25.31733799404566
 20
26.36802594391129
 30
0.0
  0
VERTEX
  5
A8C
330
A89
100
AcDbEntity
  8
0
100
AcDbVertex
100
AcDb2dVertex
 10
25.32043799404568
 20
26.36802594391129
 30
0.0
  0
SEQEND
  5
A8D
330
A89
100
AcDbEntity
  8
0
  0
POLYLINE
  5
A8E
330
1F
100
AcDbEntity
  8
0
100
AcDb2dPolyline
 66
     1
 10
0.0
 20
0.0
 30
0.0
  0
VERTEX
  5
A8F
330
A8E
100
AcDbEntity
  8
0
100
AcDbVertex
100
AcDb2dVertex
 10
24.18941299404568
 20
25.7613439439113
 30
0.0
  0
VERTEX
  5
A90
330
A8E
100
AcDbEntity
  8
0
100
AcDbVertex
100
AcDb2dVertex
 10
24.21111699404568
 20
25.6576469439113
 30
0.0
  0
VERTEX
  5
A91
330
A8E
100
AcDbEntity
  8
0
100
AcDbVertex
100
AcDb2dVertex
 10
24.21387299404569
 20
25.6576469439113
 30
0.0
  0
SEQEND
  5
A92
330
A8E
100
AcDbEntity
  8
0
  0
POLYLINE
  5
A93
330
1F
100
AcDbEntity
  8
0
100
AcDb2dPolyline
 66
     1
 10
0.0
 20
0.0
 30
0.0
  0
VERTEX
  5
A94
330
A93
100
AcDbEntity
  8
0
100
AcDbVertex
100
AcDb2dVertex
 10
24.17115399404568
 20
25.86504194391129
 30
0.0
  0
VERTEX
  5
A95
330
A93
100
AcDbEntity
  8
0
100
AcDbVertex
100
AcDb2dVertex
 10
24.18941299404568
 20
25.7613439439113
 30
0.0
  0
VERTEX
  5
A96
330
A93
100
AcDbEntity
  8
0
100
AcDbVertex
100
AcDb2dVertex
 10
24.19216899404569
 20
25.7613439439113
 30
0.0
  0
SEQEND
  5
A97
330
A93
100
AcDbEntity
  8
0
  0
POLYLINE
  5
A98
330
1F
100
AcDbEntity
  8
0
100
AcDb2dPolyline
 66
     1
 10
0.0
 20
0.0
 30
0.0
  0
VERTEX
  5
A99
330
A98
100
AcDbEntity
  8
0
100
AcDbVertex
100
AcDb2dVertex
 10
24.15599599404567
 20
25.96563794391129
 30
0.0
  0
VERTEX
  5
A9A
330
A98
100
AcDbEntity
  8
0
100
AcDbVertex
100
AcDb2dVertex
 10
24.17115399404568
 20
25.86504194391129
 30
0.0
  0
VERTEX
  5
A9B
330
A98
100
AcDbEntity
  8
0
100
AcDbVertex
100
AcDb2dVertex
 10
24.1742549940457
 20
25.86504194391129
 30
0.0
  0
SEQEND
  5
A9C
330
A98
100
AcDbEntity
  8
0
  0
POLYLINE
  5
A9D
330
1F
100
AcDbEntity
  8
0
100
AcDb2dPolyline
 66
     1
 10
0.0
 20
0.0
 30
0.0
  0
VERTEX
  5
A9E
330
A9D
100
AcDbEntity
  8
0
100
AcDbVertex
100
AcDb2dVertex
 10
24.13773699404567
 20
26.0693359439113
 30
0.0
  0
VERTEX
  5
A9F
330
A9D
100
AcDbEntity
  8
0
100
AcDbVertex
100
AcDb2dVertex
 10
24.13773699404567
 20
26.06347894391131
 30
0.0
  0
VERTEX
  5
AA0
330
A9D
100
AcDbEntity
  8
0
100
AcDbVertex
100
AcDb2dVertex
 10
24.14083699404566
 20
26.06347894391131
 30
0.0
  0
SEQEND
  5
AA1
330
A9D
100
AcDbEntity
  8
0
  0
POLYLINE
  5
AA2
330
1F
100
AcDbEntity
  8
0
100
AcDb2dPolyline
 66
     1
 10
0.0
 20
0.0
 30
0.0
  0
VERTEX
  5
AA3
330
AA2
100
AcDbEntity
  8
0
100
AcDbVertex
100
AcDb2dVertex
 10
24.13773699404567
 20
26.0638239439113
 30
0.0
  0
VERTEX
  5
AA4
330
AA2
100
AcDbEntity
  8
0
100
AcDbVertex
100
AcDb2dVertex
 10
24.15599599404567
 20
25.9663269439113
 30
0.0
  0
VERTEX
  5
AA5
330
AA2
100
AcDbEntity
  8
0
100
AcDbVertex
100
AcDb2dVertex
 10
24.15875199404567
 20
25.9663269439113
 30
0.0
  0
SEQEND
  5
AA6
330
AA2
100
AcDbEntity
  8
0
  0
POLYLINE
  5
AA7
330
1F
100
AcDbEntity
  8
0
100
AcDb2dPolyline
 66
     1
 10
0.0
 20
0.0
 30
0.0
  0
VERTEX
  5
AA8
330
AA7
100
AcDbEntity
  8
0
100
AcDbVertex
100
AcDb2dVertex
 10
24.12533499404566
 20
26.1609749439113
 30
0.0
  0
VERTEX
  5
AA9
330
AA7
100
AcDbEntity
  8
0
100
AcDbVertex
100
AcDb2dVertex
 10
24.12533499404566
 20
26.15511894391131
 30
0.0
  0
VERTEX
  5
AAA
330
AA7
100
AcDbEntity
  8
0
100
AcDbVertex
100
AcDb2dVertex
 10
24.12809099404567
 20
26.15511894391131
 30
0.0
  0
SEQEND
  5
AAB
330
AA7
100
AcDbEntity
  8
0
  0
POLYLINE
  5
AAC
330
1F
100
AcDbEntity
  8
0
100
AcDb2dPolyline
 66
     1
 10
0.0
 20
0.0
 30
0.0
  0
VERTEX
  5
AAD
330
AAC
100
AcDbEntity
  8
0
100
AcDbVertex
100
AcDb2dVertex
 10
24.11603299404567
 20
26.2071399439113
 30
0.0
  0
VERTEX
  5
AAE
330
AAC
100
AcDbEntity
  8
0
100
AcDbVertex
100
AcDb2dVertex
 10
24.12533499404566
 20
26.1609749439113
 30
0.0
  0
VERTEX
  5
AAF
330
AAC
100
AcDbEntity
  8
0
100
AcDbVertex
100
AcDb2dVertex
 10
24.13773699404567
 20
26.0638239439113
 30
0.0
  0
VERTEX
  5
AB0
330
AAC
100
AcDbEntity
  8
0
100
AcDbVertex
100
AcDb2dVertex
 10
24.14049299404567
 20
26.0638239439113
 30
0.0
  0
SEQEND
  5
AB1
330
AAC
100
AcDbEntity
  8
0
  0
POLYLINE
  5
AB2
330
1F
100
AcDbEntity
  8
0
100
AcDb2dPolyline
 66
     1
 10
0.0
 20
0.0
 30
0.0
  0
VERTEX
  5
AB3
330
AB2
100
AcDbEntity
  8
0
100
AcDbVertex
100
AcDb2dVertex
 10
24.11603299404567
 20
26.2071399439113
 30
0.0
  0
VERTEX
  5
AB4
330
AB2
100
AcDbEntity
  8
0
100
AcDbVertex
100
AcDb2dVertex
 10
24.11878899404567
 20
26.1978379439113
 30
0.0
  0
VERTEX
  5
AB5
330
AB2
100
AcDbEntity
  8
0
100
AcDbVertex
100
AcDb2dVertex
 10
24.12223399404567
 20
26.1978379439113
 30
0.0
  0
SEQEND
  5
AB6
330
AB2
100
AcDbEntity
  8
0
  0
POLYLINE
  5
AB7
330
1F
100
AcDbEntity
  8
0
100
AcDb2dPolyline
 66
     1
 10
0.0
 20
0.0
 30
0.0
  0
VERTEX
  5
AB8
330
AB7
100
AcDbEntity
  8
0
100
AcDbVertex
100
AcDb2dVertex
 10
25.39037399404569
 20
25.8774439439113
 30
0.0
  0
VERTEX
  5
AB9
330
AB7
100
AcDbEntity
  8
0
100
AcDbVertex
100
AcDb2dVertex
 10
24.21387299404569
 20
27.52971194391129
 30
0.0
  0
VERTEX
  5
ABA
330
AB7
100
AcDbEntity
  8
0
100
AcDbVertex
100
AcDb2dVertex
 10
24.21697399404568
 20
27.52971194391129
 30
0.0
  0
SEQEND
  5
ABB
330
AB7
100
AcDbEntity
  8
0
  0
POLYLINE
  5
ABC
330
1F
100
AcDbEntity
  8
0
100
AcDb2dPolyline
 66
     1
 10
0.0
 20
0.0
 30
0.0
  0
VERTEX
  5
ABD
330
ABC
100
AcDbEntity
  8
0
100
AcDbVertex
100
AcDb2dVertex
 10
25.31699299404568
 20
26.3687149439113
 30
0.0
  0
VERTEX
  5
ABE
330
ABC
100
AcDbEntity
  8
0
100
AcDbVertex
100
AcDb2dVertex
 10
25.29563299404566
 20
26.52649994391129
 30
0.0
  0
VERTEX
  5
ABF
330
ABC
100
AcDbEntity
  8
0
100
AcDbVertex
100
AcDb2dVertex
 10
25.29873399404568
 20
26.52649994391129
 30
0.0
  0
SEQEND
  5
AC0
330
ABC
100
AcDbEntity
  8
0
  0
POLYLINE
  5
AC1
330
1F
100
AcDbEntity
  8
0
100
AcDb2dPolyline
 66
     1
 10
0.0
 20
0.0
 30
0.0
  0
VERTEX
  5
AC2
330
AC1
100
AcDbEntity
  8
0
100
AcDbVertex
100
AcDb2dVertex
 10
25.40553199404568
 20
26.4172899439113
 30
0.0
  0
VERTEX
  5
AC3
330
AC1
100
AcDbEntity
  8
0
100
AcDbVertex
100
AcDb2dVertex
 10
25.38382799404568
 20
26.5785209439113
 30
0.0
  0
VERTEX
  5
AC4
330
AC1
100
AcDbEntity
  8
0
100
AcDbVertex
100
AcDb2dVertex
 10
25.38727299404567
 20
26.5785209439113
 30
0.0
  0
SEQEND
  5
AC5
330
AC1
100
AcDbEntity
  8
0
  0
POLYLINE
  5
AC6
330
1F
100
AcDbEntity
  8
0
100
AcDb2dPolyline
 66
     1
 10
0.0
 20
0.0
 30
0.0
  0
VERTEX
  5
AC7
330
AC6
100
AcDbEntity
  8
0
100
AcDbVertex
100
AcDb2dVertex
 10
24.00372299404569
 20
27.0053679439113
 30
0.0
  0
VERTEX
  5
AC8
330
AC6
100
AcDbEntity
  8
0
100
AcDbVertex
100
AcDb2dVertex
 10
24.11637699404568
 20
26.20645094391129
 30
0.0
  0
VERTEX
  5
AC9
330
AC6
100
AcDbEntity
  8
0
100
AcDbVertex
100
AcDb2dVertex
 10
24.11913299404566
 20
26.20645094391129
 30
0.0
  0
SEQEND
  5
ACA
330
AC6
100
AcDbEntity
  8
0
  0
POLYLINE
  5
ACB
330
1F
100
AcDbEntity
  8
0
100
AcDb2dPolyline
 66
     1
 10
0.0
 20
0.0
 30
0.0
  0
VERTEX
  5
ACC
330
ACB
100
AcDbEntity
  8
0
100
AcDbVertex
100
AcDb2dVertex
 10
26.13106899404568
 20
28.2032279439113
 30
0.0
  0
VERTEX
  5
ACD
330
ACB
100
AcDbEntity
  8
0
100
AcDbVertex
100
AcDb2dVertex
 10
25.89025699404567
 20
28.1970269439113
 30
0.0
  0
VERTEX
  5
ACE
330
ACB
100
AcDbEntity
  8
0
100
AcDbVertex
100
AcDb2dVertex
 10
25.89335799404566
 20
28.1970269439113
 30
0.0
  0
SEQEND
  5
ACF
330
ACB
100
AcDbEntity
  8
0
  0
POLYLINE
  5
AD0
330
1F
100
AcDbEntity
  8
0
100
AcDb2dPolyline
 66
     1
 10
0.0
 20
0.0
 30
0.0
  0
VERTEX
  5
AD1
330
AD0
100
AcDbEntity
  8
0
100
AcDbVertex
100
AcDb2dVertex
 10
26.40254299404569
 20
28.2090849439113
 30
0.0
  0
VERTEX
  5
AD2
330
AD0
100
AcDbEntity
  8
0
100
AcDbVertex
100
AcDb2dVertex
 10
26.13106899404568
 20
28.20288294391131
 30
0.0
  0
VERTEX
  5
AD3
330
AD0
100
AcDbEntity
  8
0
100
AcDbVertex
100
AcDb2dVertex
 10
26.13416999404567
 20
28.20288294391131
 30
0.0
  0
SEQEND
  5
AD4
330
AD0
100
AcDbEntity
  8
0
  0
POLYLINE
  5
AD5
330
1F
100
AcDbEntity
  8
0
100
AcDb2dPolyline
 66
     1
 10
0.0
 20
0.0
 30
0.0
  0
VERTEX
  5
AD6
330
AD5
100
AcDbEntity
  8
0
100
AcDbVertex
100
AcDb2dVertex
 10
26.84730399404569
 20
28.2180419439113
 30
0.0
  0
VERTEX
  5
AD7
330
AD5
100
AcDbEntity
  8
0
100
AcDbVertex
100
AcDb2dVertex
 10
26.40254299404569
 20
28.2090849439113
 30
0.0
  0
VERTEX
  5
AD8
330
AD5
100
AcDbEntity
  8
0
100
AcDbVertex
100
AcDb2dVertex
 10
26.40529899404569
 20
28.2090849439113
 30
0.0
  0
SEQEND
  5
AD9
330
AD5
100
AcDbEntity
  8
0
  0
POLYLINE
  5
ADA
330
1F
100
AcDbEntity
  8
0
100
AcDb2dPolyline
 66
     1
 10
0.0
 20
0.0
 30
0.0
  0
VERTEX
  5
ADB
330
ADA
100
AcDbEntity
  8
0
100
AcDbVertex
100
AcDb2dVertex
 10
28.27081799404567
 20
28.2335449439113
 30
0.0
  0
VERTEX
  5
ADC
330
ADA
100
AcDbEntity
  8
0
100
AcDbVertex
100
AcDb2dVertex
 10
27.56974099404568
 20
28.22734394391131
 30
0.0
  0
VERTEX
  5
ADD
330
ADA
100
AcDbEntity
  8
0
100
AcDbVertex
100
AcDb2dVertex
 10
27.57249699404568
 20
28.22734394391131
 30
0.0
  0
SEQEND
  5
ADE
330
ADA
100
AcDbEntity
  8
0
  0
POLYLINE
  5
ADF
330
1F
100
AcDbEntity
  8
0
100
AcDb2dPolyline
 66
     1
 10
0.0
 20
0.0
 30
0.0
  0
VERTEX
  5
AE0
330
ADF
100
AcDbEntity
  8
0
100
AcDbVertex
100
AcDb2dVertex
 10
27.56974099404568
 20
28.22734394391131
 30
0.0
  0
VERTEX
  5
AE1
330
ADF
100
AcDbEntity
  8
0
100
AcDbVertex
100
AcDb2dVertex
 10
26.84730399404569
 20
28.2180419439113
 30
0.0
  0
VERTEX
  5
AE2
330
ADF
100
AcDbEntity
  8
0
100
AcDbVertex
100
AcDb2dVertex
 10
26.85040499404568
 20
28.2180419439113
 30
0.0
  0
SEQEND
  5
AE3
330
ADF
100
AcDbEntity
  8
0
  0
POLYLINE
  5
AE4
330
1F
100
AcDbEntity
  8
0
100
AcDb2dPolyline
 66
     1
 10
0.0
 20
0.0
 30
0.0
  0
VERTEX
  5
AE5
330
AE4
100
AcDbEntity
  8
0
100
AcDbVertex
100
AcDb2dVertex
 10
25.41793399404566
 20
25.6548909439113
 30
0.0
  0
VERTEX
  5
AE6
330
AE4
100
AcDbEntity
  8
0
100
AcDbVertex
100
AcDb2dVertex
 10
25.42068999404566
 20
25.65213494391129
 30
0.0
  0
VERTEX
  5
AE7
330
AE4
100
AcDbEntity
  8
0
100
AcDbVertex
100
AcDb2dVertex
 10
25.42379099404568
 20
25.6428329439113
 30
0.0
  0
VERTEX
  5
AE8
330
AE4
100
AcDbEntity
  8
0
100
AcDbVertex
100
AcDb2dVertex
 10
25.43033699404566
 20
25.63387594391129
 30
0.0
  0
VERTEX
  5
AE9
330
AE4
100
AcDbEntity
  8
0
100
AcDbVertex
100
AcDb2dVertex
 10
25.43309299404567
 20
25.63077494391129
 30
0.0
  0
VERTEX
  5
AEA
330
AE4
100
AcDbEntity
  8
0
100
AcDbVertex
100
AcDb2dVertex
 10
25.45135199404569
 20
25.63077494391129
 30
0.0
  0
VERTEX
  5
AEB
330
AE4
100
AcDbEntity
  8
0
100
AcDbVertex
100
AcDb2dVertex
 10
25.45410799404567
 20
25.63387594391129
 30
0.0
  0
VERTEX
  5
AEC
330
AE4
100
AcDbEntity
  8
0
100
AcDbVertex
100
AcDb2dVertex
 10
25.45720799404566
 20
25.63387594391129
 30
0.0
  0
SEQEND
  5
AED
330
AE4
100
AcDbEntity
  8
0
  0
POLYLINE
  5
AEE
330
1F
100
AcDbEntity
  8
0
100
AcDb2dPolyline
 66
     1
 10
0.0
 20
0.0
 30
0.0
  0
VERTEX
  5
AEF
330
AEE
100
AcDbEntity
  8
0
100
AcDbVertex
100
AcDb2dVertex
 10
25.42379099404568
 20
25.6493789439113
 30
0.0
  0
VERTEX
  5
AF0
330
AEE
100
AcDbEntity
  8
0
100
AcDbVertex
100
AcDb2dVertex
 10
25.42999199404568
 20
25.6493789439113
 30
0.0
  0
VERTEX
  5
AF1
330
AEE
100
AcDbEntity
  8
0
100
AcDbVertex
100
AcDb2dVertex
 10
25.42999199404568
 20
25.65213494391129
 30
0.0
  0
VERTEX
  5
AF2
330
AEE
100
AcDbEntity
  8
0
100
AcDbVertex
100
AcDb2dVertex
 10
25.43309299404567
 20
25.65213494391129
 30
0.0
  0
SEQEND
  5
AF3
330
AEE
100
AcDbEntity
  8
0
  0
POLYLINE
  5
AF4
330
1F
100
AcDbEntity
  8
0
100
AcDb2dPolyline
 66
     1
 10
0.0
 20
0.0
 30
0.0
  0
VERTEX
  5
AF5
330
AF4
100
AcDbEntity
  8
0
100
AcDbVertex
100
AcDb2dVertex
 10
25.41793399404566
 20
25.6548909439113
 30
0.0
  0
VERTEX
  5
AF6
330
AF4
100
AcDbEntity
  8
0
100
AcDbVertex
100
AcDb2dVertex
 10
25.42068999404566
 20
25.6548909439113
 30
0.0
  0
VERTEX
  5
AF7
330
AF4
100
AcDbEntity
  8
0
100
AcDbVertex
100
AcDb2dVertex
 10
25.42068999404566
 20
25.65213494391129
 30
0.0
  0
VERTEX
  5
AF8
330
AF4
100
AcDbEntity
  8
0
100
AcDbVertex
100
AcDb2dVertex
 10
25.42689199404566
 20
25.65213494391129
 30
0.0
  0
SEQEND
  5
AF9
330
AF4
100
AcDbEntity
  8
0
  0
SPLINE
  5
AFA
330
1F
100
AcDbEntity
  8
0
100
AcDbSpline
210
0.0
220
0.0
230
1.0
 70
     8
 71
     3
 72
    14
 73
    10
 74
     0
 42
0.0000000001
 43
0.0000000001
 40
0.0
 40
0.0
 40
0.0
 40
0.0
 40
1.0
 40
1.0
 40
1.0
 40
2.0
 40
2.0
 40
2.0
 40
3.0
 40
3.0
 40
3.0
 40
3.0
 10
25.42689158345539
 20
25.66763753679324
 30
0.0
 10
25.42689158345539
 20
25.66763753679324
 30
0.0
 10
25.4303366789415
 20
25.66419244130712
 30
0.0
 10
25.4303366789415
 20
25.66419244130712
 30
0.0
 10
25.445839608629
 20
25.66522596995296
 30
0.0
 10
25.45100725185813
 20
25.64627794477933
 30
0.0
 10
25.46065351921925
 20
25.63697618696683
 30
0.0
 10
25.46065351921925
 20
25.63697618696683
 30
0.0
 10
25.46375410515677
 20
25.63697618696683
 30
0.0
 10
25.46375410515677
 20
25.63697618696683
 30
0.0
  0
POLYLINE
  5
AFB
330
1F
100
AcDbEntity
  8
0
100
AcDb2dPolyline
 66
     1
 10
0.0
 20
0.0
 30
0.0
  0
VERTEX
  5
AFC
330
AFB
100
AcDbEntity
  8
0
100
AcDbVertex
100
AcDb2dVertex
 10
25.44204999404568
 20
25.70725594391131
 30
0.0
  0
VERTEX
  5
AFD
330
AFB
100
AcDbEntity
  8
0
100
AcDbVertex
100
AcDb2dVertex
 10
25.44859599404569
 20
25.7034669439113
 30
0.0
  0
VERTEX
  5
AFE
330
AFB
100
AcDbEntity
  8
0
100
AcDbVertex
100
AcDb2dVertex
 10
25.45445199404568
 20
25.7034669439113
 30
0.0
  0
VERTEX
  5
AFF
330
AFB
100
AcDbEntity
  8
0
100
AcDbVertex
100
AcDb2dVertex
 10
25.45720799404566
 20
25.70071094391129
 30
0.0
  0
VERTEX
  5
B00
330
AFB
100
AcDbEntity
  8
0
100
AcDbVertex
100
AcDb2dVertex
 10
25.46065399404568
 20
25.6979539439113
 30
0.0
  0
VERTEX
  5
B01
330
AFB
100
AcDbEntity
  8
0
100
AcDbVertex
100
AcDb2dVertex
 10
25.46650999404568
 20
25.6945089439113
 30
0.0
  0
VERTEX
  5
B02
330
AFB
100
AcDbEntity
  8
0
100
AcDbVertex
100
AcDb2dVertex
 10
25.46961099404567
 20
25.68865294391129
 30
0.0
  0
VERTEX
  5
B03
330
AFB
100
AcDbEntity
  8
0
100
AcDbVertex
100
AcDb2dVertex
 10
25.47236699404567
 20
25.68555194391129
 30
0.0
  0
VERTEX
  5
B04
330
AFB
100
AcDbEntity
  8
0
100
AcDbVertex
100
AcDb2dVertex
 10
25.47581199404567
 20
25.6796949439113
 30
0.0
  0
VERTEX
  5
B05
330
AFB
100
AcDbEntity
  8
0
100
AcDbVertex
100
AcDb2dVertex
 10
25.47581199404567
 20
25.6762499439113
 30
0.0
  0
VERTEX
  5
B06
330
AFB
100
AcDbEntity
  8
0
100
AcDbVertex
100
AcDb2dVertex
 10
25.47891299404566
 20
25.6762499439113
 30
0.0
  0
SEQEND
  5
B07
330
AFB
100
AcDbEntity
  8
0
  0
POLYLINE
  5
B08
330
1F
100
AcDbEntity
  8
0
100
AcDb2dPolyline
 66
     1
 10
0.0
 20
0.0
 30
0.0
  0
VERTEX
  5
B09
330
B08
100
AcDbEntity
  8
0
100
AcDbVertex
100
AcDb2dVertex
 10
25.43619299404568
 20
25.7310269439113
 30
0.0
  0
VERTEX
  5
B0A
330
B08
100
AcDbEntity
  8
0
100
AcDbVertex
100
AcDb2dVertex
 10
25.43619299404568
 20
25.74032894391129
 30
0.0
  0
VERTEX
  5
B0B
330
B08
100
AcDbEntity
  8
0
100
AcDbVertex
100
AcDb2dVertex
 10
25.43309299404567
 20
25.74928594391129
 30
0.0
  0
VERTEX
  5
B0C
330
B08
100
AcDbEntity
  8
0
100
AcDbVertex
100
AcDb2dVertex
 10
25.43033699404566
 20
25.75858794391129
 30
0.0
  0
VERTEX
  5
B0D
330
B08
100
AcDbEntity
  8
0
100
AcDbVertex
100
AcDb2dVertex
 10
25.42689199404566
 20
25.7678899439113
 30
0.0
  0
VERTEX
  5
B0E
330
B08
100
AcDbEntity
  8
0
100
AcDbVertex
100
AcDb2dVertex
 10
25.42103499404567
 20
25.7861489439113
 30
0.0
  0
VERTEX
  5
B0F
330
B08
100
AcDbEntity
  8
0
100
AcDbVertex
100
AcDb2dVertex
 10
25.42379099404568
 20
25.7861489439113
 30
0.0
  0
SEQEND
  5
B10
330
B08
100
AcDbEntity
  8
0
  0
POLYLINE
  5
B11
330
1F
100
AcDbEntity
  8
0
100
AcDb2dPolyline
 66
     1
 10
0.0
 20
0.0
 30
0.0
  0
VERTEX
  5
B12
330
B11
100
AcDbEntity
  8
0
100
AcDbVertex
100
AcDb2dVertex
 10
25.43894899404569
 20
25.72206994391131
 30
0.0
  0
VERTEX
  5
B13
330
B11
100
AcDbEntity
  8
0
100
AcDbVertex
100
AcDb2dVertex
 10
25.43619299404568
 20
25.7310269439113
 30
0.0
  0
VERTEX
  5
B14
330
B11
100
AcDbEntity
  8
0
100
AcDbVertex
100
AcDb2dVertex
 10
25.43894899404569
 20
25.7310269439113
 30
0.0
  0
SEQEND
  5
B15
330
B11
100
AcDbEntity
  8
0
  0
POLYLINE
  5
B16
330
1F
100
AcDbEntity
  8
0
100
AcDb2dPolyline
 66
     1
 10
0.0
 20
0.0
 30
0.0
  0
VERTEX
  5
B17
330
B16
100
AcDbEntity
  8
0
100
AcDbVertex
100
AcDb2dVertex
 10
25.44170499404569
 20
25.70725594391131
 30
0.0
  0
VERTEX
  5
B18
330
B16
100
AcDbEntity
  8
0
100
AcDbVertex
100
AcDb2dVertex
 10
25.43894899404569
 20
25.72206994391131
 30
0.0
  0
VERTEX
  5
B19
330
B16
100
AcDbEntity
  8
0
100
AcDbVertex
100
AcDb2dVertex
 10
25.44170499404569
 20
25.72206994391131
 30
0.0
  0
SEQEND
  5
B1A
330
B16
100
AcDbEntity
  8
0
  0
POLYLINE
  5
B1B
330
1F
100
AcDbEntity
  8
0
100
AcDb2dPolyline
 66
     1
 10
0.0
 20
0.0
 30
0.0
  0
VERTEX
  5
B1C
330
B1B
100
AcDbEntity
  8
0
100
AcDbVertex
100
AcDb2dVertex
 10
25.48442499404567
 20
25.8926019439113
 30
0.0
  0
VERTEX
  5
B1D
330
B1B
100
AcDbEntity
  8
0
100
AcDbVertex
100
AcDb2dVertex
 10
25.46340999404566
 20
26.02075994391129
 30
0.0
  0
VERTEX
  5
B1E
330
B1B
100
AcDbEntity
  8
0
100
AcDbVertex
100
AcDb2dVertex
 10
25.46616599404567
 20
26.02075994391129
 30
0.0
  0
SEQEND
  5
B1F
330
B1B
100
AcDbEntity
  8
0
  0
POLYLINE
  5
B20
330
1F
100
AcDbEntity
  8
0
100
AcDb2dPolyline
 66
     1
 10
0.0
 20
0.0
 30
0.0
  0
VERTEX
  5
B21
330
B20
100
AcDbEntity
  8
0
100
AcDbVertex
100
AcDb2dVertex
 10
25.46340999404566
 20
26.02075994391129
 30
0.0
  0
VERTEX
  5
B22
330
B20
100
AcDbEntity
  8
0
100
AcDbVertex
100
AcDb2dVertex
 10
25.44515099404569
 20
26.1396159439113
 30
0.0
  0
VERTEX
  5
B23
330
B20
100
AcDbEntity
  8
0
100
AcDbVertex
100
AcDb2dVertex
 10
25.44825099404568
 20
26.1396159439113
 30
0.0
  0
SEQEND
  5
B24
330
B20
100
AcDbEntity
  8
0
  0
POLYLINE
  5
B25
330
1F
100
AcDbEntity
  8
0
100
AcDb2dPolyline
 66
     1
 10
0.0
 20
0.0
 30
0.0
  0
VERTEX
  5
B26
330
B25
100
AcDbEntity
  8
0
100
AcDbVertex
100
AcDb2dVertex
 10
25.44515099404569
 20
26.13995994391129
 30
0.0
  0
VERTEX
  5
B27
330
B25
100
AcDbEntity
  8
0
100
AcDbVertex
100
AcDb2dVertex
 10
25.42654699404568
 20
26.2708739439113
 30
0.0
  0
VERTEX
  5
B28
330
B25
100
AcDbEntity
  8
0
100
AcDbVertex
100
AcDb2dVertex
 10
25.42999199404568
 20
26.2708739439113
 30
0.0
  0
SEQEND
  5
B29
330
B25
100
AcDbEntity
  8
0
  0
POLYLINE
  5
B2A
330
1F
100
AcDbEntity
  8
0
100
AcDb2dPolyline
 66
     1
 10
0.0
 20
0.0
 30
0.0
  0
VERTEX
  5
B2B
330
B2A
100
AcDbEntity
  8
0
100
AcDbVertex
100
AcDb2dVertex
 10
25.49096999404568
 20
25.8347249439113
 30
0.0
  0
VERTEX
  5
B2C
330
B2A
100
AcDbEntity
  8
0
100
AcDbVertex
100
AcDb2dVertex
 10
25.49096999404568
 20
25.84712694391129
 30
0.0
  0
VERTEX
  5
B2D
330
B2A
100
AcDbEntity
  8
0
100
AcDbVertex
100
AcDb2dVertex
 10
25.48752499404569
 20
25.86228494391129
 30
0.0
  0
VERTEX
  5
B2E
330
B2A
100
AcDbEntity
  8
0
100
AcDbVertex
100
AcDb2dVertex
 10
25.48752499404569
 20
25.8774439439113
 30
0.0
  0
VERTEX
  5
B2F
330
B2A
100
AcDbEntity
  8
0
100
AcDbVertex
100
AcDb2dVertex
 10
25.48476899404568
 20
25.8926019439113
 30
0.0
  0
VERTEX
  5
B30
330
B2A
100
AcDbEntity
  8
0
100
AcDbVertex
100
AcDb2dVertex
 10
25.48752499404569
 20
25.8926019439113
 30
0.0
  0
SEQEND
  5
B31
330
B2A
100
AcDbEntity
  8
0
  0
POLYLINE
  5
B32
330
1F
100
AcDbEntity
  8
0
100
AcDb2dPolyline
 66
     1
 10
0.0
 20
0.0
 30
0.0
  0
VERTEX
  5
B33
330
B32
100
AcDbEntity
  8
0
100
AcDbVertex
100
AcDb2dVertex
 10
25.42999199404568
 20
25.65213494391129
 30
0.0
  0
VERTEX
  5
B34
330
B32
100
AcDbEntity
  8
0
100
AcDbVertex
100
AcDb2dVertex
 10
25.42999199404568
 20
25.6552349439113
 30
0.0
  0
VERTEX
  5
B35
330
B32
100
AcDbEntity
  8
0
100
AcDbVertex
100
AcDb2dVertex
 10
25.42654699404568
 20
25.6610919439113
 30
0.0
  0
VERTEX
  5
B36
330
B32
100
AcDbEntity
  8
0
100
AcDbVertex
100
AcDb2dVertex
 10
25.42654699404568
 20
25.66763794391131
 30
0.0
  0
VERTEX
  5
B37
330
B32
100
AcDbEntity
  8
0
100
AcDbVertex
100
AcDb2dVertex
 10
25.42999199404568
 20
25.66763794391131
 30
0.0
  0
SEQEND
  5
B38
330
B32
100
AcDbEntity
  8
0
  0
POLYLINE
  5
B39
330
1F
100
AcDbEntity
  8
0
100
AcDb2dPolyline
 66
     1
 10
0.0
 20
0.0
 30
0.0
  0
VERTEX
  5
B3A
330
B39
100
AcDbEntity
  8
0
100
AcDbVertex
100
AcDb2dVertex
 10
25.49096999404568
 20
25.7341279439113
 30
0.0
  0
VERTEX
  5
B3B
330
B39
100
AcDbEntity
  8
0
100
AcDbVertex
100
AcDb2dVertex
 10
25.49096999404568
 20
25.8347249439113
 30
0.0
  0
VERTEX
  5
B3C
330
B39
100
AcDbEntity
  8
0
100
AcDbVertex
100
AcDb2dVertex
 10
25.49407099404567
 20
25.8347249439113
 30
0.0
  0
SEQEND
  5
B3D
330
B39
100
AcDbEntity
  8
0
  0
POLYLINE
  5
B3E
330
1F
100
AcDbEntity
  8
0
100
AcDb2dPolyline
 66
     1
 10
0.0
 20
0.0
 30
0.0
  0
VERTEX
  5
B3F
330
B3E
100
AcDbEntity
  8
0
100
AcDbVertex
100
AcDb2dVertex
 10
25.47581199404567
 20
25.6769389439113
 30
0.0
  0
VERTEX
  5
B40
330
B3E
100
AcDbEntity
  8
0
100
AcDbVertex
100
AcDb2dVertex
 10
25.47856799404568
 20
25.68555194391129
 30
0.0
  0
VERTEX
  5
B41
330
B3E
100
AcDbEntity
  8
0
100
AcDbVertex
100
AcDb2dVertex
 10
25.48166899404566
 20
25.6948539439113
 30
0.0
  0
VERTEX
  5
B42
330
B3E
100
AcDbEntity
  8
0
100
AcDbVertex
100
AcDb2dVertex
 10
25.48476899404568
 20
25.70381094391129
 30
0.0
  0
VERTEX
  5
B43
330
B3E
100
AcDbEntity
  8
0
100
AcDbVertex
100
AcDb2dVertex
 10
25.48786999404567
 20
25.7131129439113
 30
0.0
  0
VERTEX
  5
B44
330
B3E
100
AcDbEntity
  8
0
100
AcDbVertex
100
AcDb2dVertex
 10
25.48786999404567
 20
25.72206994391131
 30
0.0
  0
VERTEX
  5
B45
330
B3E
100
AcDbEntity
  8
0
100
AcDbVertex
100
AcDb2dVertex
 10
25.49096999404568
 20
25.7341279439113
 30
0.0
  0
VERTEX
  5
B46
330
B3E
100
AcDbEntity
  8
0
100
AcDbVertex
100
AcDb2dVertex
 10
25.49407099404567
 20
25.7341279439113
 30
0.0
  0
SEQEND
  5
B47
330
B3E
100
AcDbEntity
  8
0
  0
POLYLINE
  5
B48
330
1F
100
AcDbEntity
  8
0
100
AcDb2dPolyline
 66
     1
 10
0.0
 20
0.0
 30
0.0
  0
VERTEX
  5
B49
330
B48
100
AcDbEntity
  8
0
100
AcDbVertex
100
AcDb2dVertex
 10
25.46065399404568
 20
25.63732094391131
 30
0.0
  0
VERTEX
  5
B4A
330
B48
100
AcDbEntity
  8
0
100
AcDbVertex
100
AcDb2dVertex
 10
25.47581199404567
 20
25.6769389439113
 30
0.0
  0
VERTEX
  5
B4B
330
B48
100
AcDbEntity
  8
0
100
AcDbVertex
100
AcDb2dVertex
 10
25.47891299404566
 20
25.6769389439113
 30
0.0
  0
SEQEND
  5
B4C
330
B48
100
AcDbEntity
  8
0
  0
POLYLINE
  5
B4D
330
1F
100
AcDbEntity
  8
0
100
AcDb2dPolyline
 66
     1
 10
0.0
 20
0.0
 30
0.0
  0
VERTEX
  5
B4E
330
B4D
100
AcDbEntity
  8
0
100
AcDbVertex
100
AcDb2dVertex
 10
25.42689199404566
 20
25.66763794391131
 30
0.0
  0
VERTEX
  5
B4F
330
B4D
100
AcDbEntity
  8
0
100
AcDbVertex
100
AcDb2dVertex
 10
25.44204999404568
 20
25.70725594391131
 30
0.0
  0
VERTEX
  5
B50
330
B4D
100
AcDbEntity
  8
0
100
AcDbVertex
100
AcDb2dVertex
 10
25.44549499404567
 20
25.70725594391131
 30
0.0
  0
SEQEND
  5
B51
330
B4D
100
AcDbEntity
  8
0
  0
POLYLINE
  5
B52
330
1F
100
AcDbEntity
  8
0
100
AcDb2dPolyline
 66
     1
 10
0.0
 20
0.0
 30
0.0
  0
VERTEX
  5
B53
330
B52
100
AcDbEntity
  8
0
100
AcDbVertex
100
AcDb2dVertex
 10
25.45445199404568
 20
25.63387594391129
 30
0.0
  0
VERTEX
  5
B54
330
B52
100
AcDbEntity
  8
0
100
AcDbVertex
100
AcDb2dVertex
 10
25.46065399404568
 20
25.63697594391129
 30
0.0
  0
VERTEX
  5
B55
330
B52
100
AcDbEntity
  8
0
100
AcDbVertex
100
AcDb2dVertex
 10
25.46375399404567
 20
25.63697594391129
 30
0.0
  0
SEQEND
  5
B56
330
B52
100
AcDbEntity
  8
0
  0
POLYLINE
  5
B57
330
1F
100
AcDbEntity
  8
0
100
AcDb2dPolyline
 66
     1
 10
0.0
 20
0.0
 30
0.0
  0
VERTEX
  5
B58
330
B57
100
AcDbEntity
  8
0
100
AcDbVertex
100
AcDb2dVertex
 10
25.42103499404567
 20
25.7861489439113
 30
0.0
  0
VERTEX
  5
B59
330
B57
100
AcDbEntity
  8
0
100
AcDbVertex
100
AcDb2dVertex
 10
25.41827899404569
 20
25.79545094391129
 30
0.0
  0
VERTEX
  5
B5A
330
B57
100
AcDbEntity
  8
0
100
AcDbVertex
100
AcDb2dVertex
 10
25.41173299404568
 20
25.8164659439113
 30
0.0
  0
VERTEX
  5
B5B
330
B57
100
AcDbEntity
  8
0
100
AcDbVertex
100
AcDb2dVertex
 10
25.41483399404567
 20
25.8164659439113
 30
0.0
  0
SEQEND
  5
B5C
330
B57
100
AcDbEntity
  8
0
  0
POLYLINE
  5
B5D
330
1F
100
AcDbEntity
  8
0
100
AcDb2dPolyline
 66
     1
 10
0.0
 20
0.0
 30
0.0
  0
VERTEX
  5
B5E
330
B5D
100
AcDbEntity
  8
0
100
AcDbVertex
100
AcDb2dVertex
 10
25.42413599404566
 20
25.6493789439113
 30
0.0
  0
VERTEX
  5
B5F
330
B5D
100
AcDbEntity
  8
0
100
AcDbVertex
100
AcDb2dVertex
 10
24.08295999404567
 20
27.53005594391131
 30
0.0
  0
VERTEX
  5
B60
330
B5D
100
AcDbEntity
  8
0
100
AcDbVertex
100
AcDb2dVertex
 10
24.08605999404566
 20
27.53005594391131
 30
0.0
  0
SEQEND
  5
B61
330
B5D
100
AcDbEntity
  8
0
  0
POLYLINE
  5
B62
330
1F
100
AcDbEntity
  8
0
100
AcDb2dPolyline
 66
     1
 10
0.0
 20
0.0
 30
0.0
  0
VERTEX
  5
B63
330
B62
100
AcDbEntity
  8
0
100
AcDbVertex
100
AcDb2dVertex
 10
24.09846299404566
 20
27.53005594391131
 30
0.0
  0
VERTEX
  5
B64
330
B62
100
AcDbEntity
  8
0
100
AcDbVertex
100
AcDb2dVertex
 10
25.42723599404567
 20
25.66729294391131
 30
0.0
  0
VERTEX
  5
B65
330
B62
100
AcDbEntity
  8
0
100
AcDbVertex
100
AcDb2dVertex
 10
25.43068099404568
 20
25.66729294391131
 30
0.0
  0
SEQEND
  5
B66
330
B62
100
AcDbEntity
  8
0
  0
POLYLINE
  5
B67
330
1F
100
AcDbEntity
  8
0
100
AcDb2dPolyline
 66
     1
 10
0.0
 20
0.0
 30
0.0
  0
VERTEX
  5
B68
330
B67
100
AcDbEntity
  8
0
100
AcDbVertex
100
AcDb2dVertex
 10
25.44239499404568
 20
25.70725594391131
 30
0.0
  0
VERTEX
  5
B69
330
B67
100
AcDbEntity
  8
0
100
AcDbVertex
100
AcDb2dVertex
 10
24.14393799404567
 20
27.53005594391131
 30
0.0
  0
VERTEX
  5
B6A
330
B67
100
AcDbEntity
  8
0
100
AcDbVertex
100
AcDb2dVertex
 10
24.14703899404566
 20
27.53005594391131
 30
0.0
  0
SEQEND
  5
B6B
330
B67
100
AcDbEntity
  8
0
  0
POLYLINE
  5
B6C
330
1F
100
AcDbEntity
  8
0
100
AcDb2dPolyline
 66
     1
 10
0.0
 20
0.0
 30
0.0
  0
VERTEX
  5
B6D
330
B6C
100
AcDbEntity
  8
0
100
AcDbVertex
100
AcDb2dVertex
 10
25.42723599404567
 20
26.2705289439113
 30
0.0
  0
VERTEX
  5
B6E
330
B6C
100
AcDbEntity
  8
0
100
AcDbVertex
100
AcDb2dVertex
 10
25.40622099404567
 20
26.4169459439113
 30
0.0
  0
VERTEX
  5
B6F
330
B6C
100
AcDbEntity
  8
0
100
AcDbVertex
100
AcDb2dVertex
 10
25.40897699404567
 20
26.4169459439113
 30
0.0
  0
SEQEND
  5
B70
330
B6C
100
AcDbEntity
  8
0
  0
SPLINE
  5
B71
330
1F
100
AcDbEntity
  8
0
100
AcDbSpline
210
0.0
220
0.0
230
1.0
 70
     8
 71
     3
 72
    17
 73
    13
 74
     0
 42
0.0000000001
 43
0.0000000001
 40
0.0
 40
0.0
 40
0.0
 40
0.0
 40
1.0
 40
1.0
 40
1.0
 40
2.0
 40
2.0
 40
2.0
 40
3.0
 40
3.0
 40
3.0
 40
4.0
 40
4.0
 40
4.0
 40
4.0
 10
25.89060143588597
 20
28.19702664269602
 30
0.0
 10
25.89060143588597
 20
28.19702664269602
 30
0.0
 10
25.78414798536511
 20
28.19082547082101
 30
0.0
 10
25.78414798536511
 20
28.19082547082101
 30
0.0
 10
25.52025367112899
 20
28.18290175120296
 30
0.0
 10
25.25532582824704
 20
28.16567627377241
 30
0.0
 10
24.99453209994843
 20
28.12330159929324
 30
0.0
 10
24.99453209994843
 20
28.12330159929324
 30
0.0
 10
24.92735273796927
 20
28.11468886057796
 30
0.0
 10
24.92735273796927
 20
28.11468886057796
 30
0.0
 10
24.92735273796927
 20
28.11468886057796
 30
0.0
 10
24.93045332390676
 20
28.11468886057796
 30
0.0
 10
24.93045332390676
 20
28.11468886057796
 30
0.0
  0
SPLINE
  5
B72
330
1F
100
AcDbEntity
  8
0
100
AcDbSpline
210
0.0
220
0.0
230
1.0
 70
     8
 71
     3
 72
    14
 73
    10
 74
     0
 42
0.0000000001
 43
0.0000000001
 40
0.0
 40
0.0
 40
0.0
 40
0.0
 40
1.0
 40
1.0
 40
1.0
 40
2.0
 40
2.0
 40
2.0
 40
3.0
 40
3.0
 40
3.0
 40
3.0
 10
25.39071808085123
 20
25.88019992828627
 30
0.0
 10
25.39071808085123
 20
25.88019992828627
 30
0.0
 10
25.39657474317758
 20
25.88330051422379
 30
0.0
 10
25.39657474317758
 20
25.88330051422379
 30
0.0
 10
25.42344648796927
 20
25.8926022720363
 30
0.0
 10
25.45686391418454
 20
25.90224853939739
 30
0.0
 10
25.48511369717065
 20
25.89225776248769
 30
0.0
 10
25.48511369717065
 20
25.89225776248769
 30
0.0
 10
25.48786977355954
 20
25.89225776248769
 30
0.0
 10
25.48786977355954
 20
25.89225776248769
 30
0.0
  0
POLYLINE
  5
B73
330
1F
100
AcDbEntity
  8
0
100
AcDb2dPolyline
 66
     1
 10
0.0
 20
0.0
 30
0.0
  0
VERTEX
  5
B74
330
B73
100
AcDbEntity
  8
0
100
AcDbVertex
100
AcDb2dVertex
 10
24.79023799404567
 20
23.60988194391131
 30
0.0
  0
VERTEX
  5
B75
330
B73
100
AcDbEntity
  8
0
100
AcDbVertex
100
AcDb2dVertex
 10
24.8205549940457
 20
23.5337449439113
 30
0.0
  0
VERTEX
  5
B76
330
B73
100
AcDbEntity
  8
0
100
AcDbVertex
100
AcDb2dVertex
 10
24.85121599404568
 20
23.4510629439113
 30
0.0
  0
VERTEX
  5
B77
330
B73
100
AcDbEntity
  8
0
100
AcDbVertex
100
AcDb2dVertex
 10
24.88463399404566
 20
23.3628689439113
 30
0.0
  0
VERTEX
  5
B78
330
B73
100
AcDbEntity
  8
0
100
AcDbVertex
100
AcDb2dVertex
 10
24.92425199404568
 20
23.2712289439113
 30
0.0
  0
VERTEX
  5
B79
330
B73
100
AcDbEntity
  8
0
100
AcDbVertex
100
AcDb2dVertex
 10
24.92735299404569
 20
23.2712289439113
 30
0.0
  0
SEQEND
  5
B7A
330
B73
100
AcDbEntity
  8
0
  0
POLYLINE
  5
B7B
330
1F
100
AcDbEntity
  8
0
100
AcDb2dPolyline
 66
     1
 10
0.0
 20
0.0
 30
0.0
  0
VERTEX
  5
B7C
330
B7B
100
AcDbEntity
  8
0
100
AcDbVertex
100
AcDb2dVertex
 10
24.66828199404566
 20
24.05429894391129
 30
0.0
  0
VERTEX
  5
B7D
330
B7B
100
AcDbEntity
  8
0
100
AcDbVertex
100
AcDb2dVertex
 10
24.70479999404569
 20
23.95060194391129
 30
0.0
  0
VERTEX
  5
B7E
330
B7B
100
AcDbEntity
  8
0
100
AcDbVertex
100
AcDb2dVertex
 10
24.70755599404566
 20
23.95060194391129
 30
0.0
  0
SEQEND
  5
B7F
330
B7B
100
AcDbEntity
  8
0
  0
POLYLINE
  5
B80
330
1F
100
AcDbEntity
  8
0
100
AcDb2dPolyline
 66
     1
 10
0.0
 20
0.0
 30
0.0
  0
VERTEX
  5
B81
330
B80
100
AcDbEntity
  8
0
100
AcDbVertex
100
AcDb2dVertex
 10
25.27771899404567
 20
22.5946119439113
 30
0.0
  0
VERTEX
  5
B82
330
B80
100
AcDbEntity
  8
0
100
AcDbVertex
100
AcDb2dVertex
 10
25.28047499404568
 20
22.5918559439113
 30
0.0
  0
VERTEX
  5
B83
330
B80
100
AcDbEntity
  8
0
100
AcDbVertex
100
AcDb2dVertex
 10
25.28391999404568
 20
22.5918559439113
 30
0.0
  0
SEQEND
  5
B84
330
B80
100
AcDbEntity
  8
0
  0
POLYLINE
  5
B85
330
1F
100
AcDbEntity
  8
0
100
AcDb2dPolyline
 66
     1
 10
0.0
 20
0.0
 30
0.0
  0
VERTEX
  5
B86
330
B85
100
AcDbEntity
  8
0
100
AcDbVertex
100
AcDb2dVertex
 10
25.01554699404568
 20
23.0731359439113
 30
0.0
  0
VERTEX
  5
B87
330
B85
100
AcDbEntity
  8
0
100
AcDbVertex
100
AcDb2dVertex
 10
25.06446799404569
 20
22.9666829439113
 30
0.0
  0
VERTEX
  5
B88
330
B85
100
AcDbEntity
  8
0
100
AcDbVertex
100
AcDb2dVertex
 10
25.18056699404568
 20
22.7592879439113
 30
0.0
  0
VERTEX
  5
B89
330
B85
100
AcDbEntity
  8
0
100
AcDbVertex
100
AcDb2dVertex
 10
25.24120099404567
 20
22.65524594391131
 30
0.0
  0
VERTEX
  5
B8A
330
B85
100
AcDbEntity
  8
0
100
AcDbVertex
100
AcDb2dVertex
 10
25.28081999404569
 20
22.59151194391129
 30
0.0
  0
VERTEX
  5
B8B
330
B85
100
AcDbEntity
  8
0
100
AcDbVertex
100
AcDb2dVertex
 10
25.28426499404569
 20
22.59151194391129
 30
0.0
  0
SEQEND
  5
B8C
330
B85
100
AcDbEntity
  8
0
  0
POLYLINE
  5
B8D
330
1F
100
AcDbEntity
  8
0
100
AcDb2dPolyline
 66
     1
 10
0.0
 20
0.0
 30
0.0
  0
VERTEX
  5
B8E
330
B8D
100
AcDbEntity
  8
0
100
AcDbVertex
100
AcDb2dVertex
 10
24.92425199404568
 20
23.27088494391129
 30
0.0
  0
VERTEX
  5
B8F
330
B8D
100
AcDbEntity
  8
0
100
AcDbVertex
100
AcDb2dVertex
 10
24.96697099404568
 20
23.1733879439113
 30
0.0
  0
VERTEX
  5
B90
330
B8D
100
AcDbEntity
  8
0
100
AcDbVertex
100
AcDb2dVertex
 10
25.01554699404568
 20
23.0731359439113
 30
0.0
  0
VERTEX
  5
B91
330
B8D
100
AcDbEntity
  8
0
100
AcDbVertex
100
AcDb2dVertex
 10
25.01899199404568
 20
23.0731359439113
 30
0.0
  0
SEQEND
  5
B92
330
B8D
100
AcDbEntity
  8
0
  0
POLYLINE
  5
B93
330
1F
100
AcDbEntity
  8
0
100
AcDb2dPolyline
 66
     1
 10
0.0
 20
0.0
 30
0.0
  0
VERTEX
  5
B94
330
B93
100
AcDbEntity
  8
0
100
AcDbVertex
100
AcDb2dVertex
 10
26.71363499404566
 20
21.35058794391129
 30
0.0
  0
VERTEX
  5
B95
330
B93
100
AcDbEntity
  8
0
100
AcDbVertex
100
AcDb2dVertex
 10
26.71673499404568
 20
21.3478319439113
 30
0.0
  0
VERTEX
  5
B96
330
B93
100
AcDbEntity
  8
0
100
AcDbVertex
100
AcDb2dVertex
 10
26.71949099404569
 20
21.34473194391131
 30
0.0
  0
VERTEX
  5
B97
330
B93
100
AcDbEntity
  8
0
100
AcDbVertex
100
AcDb2dVertex
 10
26.71949099404569
 20
21.3416309439113
 30
0.0
  0
VERTEX
  5
B98
330
B93
100
AcDbEntity
  8
0
100
AcDbVertex
100
AcDb2dVertex
 10
26.72879299404568
 20
21.3323289439113
 30
0.0
  0
VERTEX
  5
B99
330
B93
100
AcDbEntity
  8
0
100
AcDbVertex
100
AcDb2dVertex
 10
26.73189399404567
 20
21.3323289439113
 30
0.0
  0
SEQEND
  5
B9A
330
B93
100
AcDbEntity
  8
0
  0
POLYLINE
  5
B9B
330
1F
100
AcDbEntity
  8
0
100
AcDb2dPolyline
 66
     1
 10
0.0
 20
0.0
 30
0.0
  0
VERTEX
  5
B9C
330
B9B
100
AcDbEntity
  8
0
100
AcDbVertex
100
AcDb2dVertex
 10
26.37945999404568
 20
21.5345569439113
 30
0.0
  0
VERTEX
  5
B9D
330
B9B
100
AcDbEntity
  8
0
100
AcDbVertex
100
AcDb2dVertex
 10
26.93170899404567
 20
21.2279429439113
 30
0.0
  0
VERTEX
  5
B9E
330
B9B
100
AcDbEntity
  8
0
100
AcDbVertex
100
AcDb2dVertex
 10
26.93859899404569
 20
21.2279429439113
 30
0.0
  0
SEQEND
  5
B9F
330
B9B
100
AcDbEntity
  8
0
  0
SPLINE
  5
BA0
330
1F
100
AcDbEntity
  8
0
100
AcDbSpline
210
0.0
220
0.0
230
1.0
 70
     8
 71
     3
 72
    14
 73
    10
 74
     0
 42
0.0000000001
 43
0.0000000001
 40
0.0
 40
0.0
 40
0.0
 40
0.0
 40
1.0
 40
1.0
 40
1.0
 40
2.0
 40
2.0
 40
2.0
 40
3.0
 40
3.0
 40
3.0
 40
3.0
 10
25.27806345845539
 20
22.59461236318213
 30
0.0
 10
25.27806345845539
 20
22.59461236318213
 30
0.0
 10
25.36350182651097
 20
22.46611030155018
 30
0.0
 10
25.36350182651097
 20
22.46611030155018
 30
0.0
 10
25.64910024230954
 20
22.07199137793908
 30
0.0
 10
26.02151506435814
 20
21.74332926856408
 30
0.0
 10
26.44216122321234
 20
21.49976101769603
 30
0.0
 10
26.44216122321234
 20
21.49976101769603
 30
0.0
 10
26.44560631869842
 20
21.49976101769603
 30
0.0
 10
26.44560631869842
 20
21.49976101769603
 30
0.0
  0
SPLINE
  5
BA1
330
1F
100
AcDbEntity
  8
0
100
AcDbSpline
210
0.0
220
0.0
230
1.0
 70
     8
 71
     3
 72
    17
 73
    13
 74
     0
 42
0.0000000001
 43
0.0000000001
 40
0.0
 40
0.0
 40
0.0
 40
0.0
 40
1.0
 40
1.0
 40
1.0
 40
2.0
 40
2.0
 40
2.0
 40
3.0
 40
3.0
 40
3.0
 40
4.0
 40
4.0
 40
4.0
 40
4.0
 10
24.21146189595538
 20
25.65764675988352
 30
0.0
 10
24.21146189595538
 20
25.65764675988352
 30
0.0
 10
24.22041914421925
 20
25.60597032759185
 30
0.0
 10
24.22041914421925
 20
25.60597032759185
 30
0.0
 10
24.34754316765677
 20
24.97655138227934
 30
0.0
 10
24.52186499925401
 20
24.35712321387658
 30
0.0
 10
24.73890601487901
 20
23.75250895606408
 30
0.0
 10
24.73890601487901
 20
23.75250895606408
 30
0.0
 10
24.79058244717066
 20
23.60919298384184
 30
0.0
 10
24.79058244717066
 20
23.60919298384184
 30
0.0
 10
24.79058244717066
 20
23.60919298384184
 30
0.0
 10
24.79333852355956
 20
23.60919298384184
 30
0.0
 10
24.79333852355956
 20
23.60919298384184
 30
0.0
  0
SPLINE
  5
BA2
330
1F
100
AcDbEntity
  8
0
100
AcDbSpline
210
0.0
220
0.0
230
1.0
 70
     8
 71
     3
 72
    17
 73
    13
 74
     0
 42
0.0000000001
 43
0.0000000001
 40
0.0
 40
0.0
 40
0.0
 40
0.0
 40
1.0
 40
1.0
 40
1.0
 40
2.0
 40
2.0
 40
2.0
 40
3.0
 40
3.0
 40
3.0
 40
4.0
 40
4.0
 40
4.0
 40
4.0
 10
24.15358429178872
 20
25.98079671648074
 30
0.0
 10
24.15358429178872
 20
25.98079671648074
 30
0.0
 10
24.16254154005262
 20
25.93222087012657
 30
0.0
 10
24.16254154005262
 20
25.93222087012657
 30
0.0
 10
24.26554989508733
 20
25.33656386057796
 30
0.0
 10
24.42574683519149
 20
24.73298313141129
 30
0.0
 10
24.62900746887209
 20
24.16419786665435
 30
0.0
 10
24.62900746887209
 20
24.16419786665435
 30
0.0
 10
24.66862606696234
 20
24.0542993206474
 30
0.0
 10
24.66862606696234
 20
24.0542993206474
 30
0.0
 10
24.66862606696234
 20
24.0542993206474
 30
0.0
 10
24.67172665289985
 20
24.0542993206474
 30
0.0
 10
24.67172665289985
 20
24.0542993206474
 30
0.0
  0
POLYLINE
  5
BA3
330
1F
100
AcDbEntity
  8
0
100
AcDb2dPolyline
 66
     1
 10
0.0
 20
0.0
 30
0.0
  0
VERTEX
  5
BA4
330
BA3
100
AcDbEntity
  8
0
100
AcDbVertex
100
AcDb2dVertex
 10
25.98809799404569
 20
21.8111979439113
 30
0.0
  0
VERTEX
  5
BA5
330
BA3
100
AcDbEntity
  8
0
100
AcDbVertex
100
AcDb2dVertex
 10
26.46765499404569
 20
18.4108879439113
 30
0.0
  0
VERTEX
  5
BA6
330
BA3
100
AcDbEntity
  8
0
100
AcDbVertex
100
AcDb2dVertex
 10
26.47075599404568
 20
18.4108879439113
 30
0.0
  0
SEQEND
  5
BA7
330
BA3
100
AcDbEntity
  8
0
  0
SPLINE
  5
BA8
330
1F
100
AcDbEntity
  8
0
100
AcDbSpline
210
0.0
220
0.0
230
1.0
 70
     8
 71
     3
 72
    17
 73
    13
 74
     0
 42
0.0000000001
 43
0.0000000001
 40
0.0
 40
0.0
 40
0.0
 40
0.0
 40
1.0
 40
1.0
 40
1.0
 40
2.0
 40
2.0
 40
2.0
 40
3.0
 40
3.0
 40
3.0
 40
4.0
 40
4.0
 40
4.0
 40
4.0
 10
26.70743357564288
 20
21.3598901409599
 30
0.0
 10
26.70743357564288
 20
21.3598901409599
 30
0.0
 10
26.710878671129
 20
21.05775526682796
 30
0.0
 10
26.710878671129
 20
21.05775526682796
 30
0.0
 10
26.72121395758734
 20
20.36253499773073
 30
0.0
 10
26.75773196974009
 20
19.66145806630713
 30
0.0
 10
26.80803036383733
 20
18.96796034495295
 30
0.0
 10
26.80803036383733
 20
18.96796034495295
 30
0.0
 10
26.82973446539984
 20
18.67202664269602
 30
0.0
 10
26.82973446539984
 20
18.67202664269602
 30
0.0
 10
26.82973446539984
 20
18.67202664269602
 30
0.0
 10
26.8324905417887
 20
18.67202664269602
 30
0.0
 10
26.8324905417887
 20
18.67202664269602
 30
0.0
  0
POLYLINE
  5
BA9
330
1F
100
AcDbEntity
  8
0
100
AcDb2dPolyline
 66
     1
 10
0.0
 20
0.0
 30
0.0
  0
VERTEX
  5
BAA
330
BA9
100
AcDbEntity
  8
0
100
AcDbVertex
100
AcDb2dVertex
 10
30.13392599404568
 20
28.2456029439113
 30
0.0
  0
VERTEX
  5
BAB
330
BA9
100
AcDbEntity
  8
0
100
AcDbVertex
100
AcDb2dVertex
 10
29.12175599404566
 20
28.2425019439113
 30
0.0
  0
VERTEX
  5
BAC
330
BA9
100
AcDbEntity
  8
0
100
AcDbVertex
100
AcDb2dVertex
 10
29.12485699404567
 20
28.2425019439113
 30
0.0
  0
SEQEND
  5
BAD
330
BA9
100
AcDbEntity
  8
0
  0
POLYLINE
  5
BAE
330
1F
100
AcDbEntity
  8
0
100
AcDb2dPolyline
 66
     1
 10
0.0
 20
0.0
 30
0.0
  0
VERTEX
  5
BAF
330
BAE
100
AcDbEntity
  8
0
100
AcDbVertex
100
AcDb2dVertex
 10
31.55123799404567
 20
28.0471649439113
 30
0.0
  0
VERTEX
  5
BB0
330
BAE
100
AcDbEntity
  8
0
100
AcDbVertex
100
AcDb2dVertex
 10
31.27390799404566
 20
28.0471649439113
 30
0.0
  0
VERTEX
  5
BB1
330
BAE
100
AcDbEntity
  8
0
100
AcDbVertex
100
AcDb2dVertex
 10
31.27666399404566
 20
28.0471649439113
 30
0.0
  0
SEQEND
  5
BB2
330
BAE
100
AcDbEntity
  8
0
  0
POLYLINE
  5
BB3
330
1F
100
AcDbEntity
  8
0
100
AcDb2dPolyline
 66
     1
 10
0.0
 20
0.0
 30
0.0
  0
VERTEX
  5
BB4
330
BB3
100
AcDbEntity
  8
0
100
AcDbVertex
100
AcDb2dVertex
 10
31.73727299404567
 20
28.2480139439113
 30
0.0
  0
VERTEX
  5
BB5
330
BB3
100
AcDbEntity
  8
0
100
AcDbVertex
100
AcDb2dVertex
 10
31.45684199404568
 20
28.2514589439113
 30
0.0
  0
VERTEX
  5
BB6
330
BB3
100
AcDbEntity
  8
0
100
AcDbVertex
100
AcDb2dVertex
 10
31.45994299404566
 20
28.2514589439113
 30
0.0
  0
SEQEND
  5
BB7
330
BB3
100
AcDbEntity
  8
0
  0
POLYLINE
  5
BB8
330
1F
100
AcDbEntity
  8
0
100
AcDb2dPolyline
 66
     1
 10
0.0
 20
0.0
 30
0.0
  0
VERTEX
  5
BB9
330
BB8
100
AcDbEntity
  8
0
100
AcDbVertex
100
AcDb2dVertex
 10
32.48692599404569
 20
28.03786294391129
 30
0.0
  0
VERTEX
  5
BBA
330
BB8
100
AcDbEntity
  8
0
100
AcDbVertex
100
AcDb2dVertex
 10
31.55123799404567
 20
28.0471649439113
 30
0.0
  0
VERTEX
  5
BBB
330
BB8
100
AcDbEntity
  8
0
100
AcDbVertex
100
AcDb2dVertex
 10
31.55399399404567
 20
28.0471649439113
 30
0.0
  0
SEQEND
  5
BBC
330
BB8
100
AcDbEntity
  8
0
  0
POLYLINE
  5
BBD
330
1F
100
AcDbEntity
  8
0
100
AcDb2dPolyline
 66
     1
 10
0.0
 20
0.0
 30
0.0
  0
VERTEX
  5
BBE
330
BBD
100
AcDbEntity
  8
0
100
AcDbVertex
100
AcDb2dVertex
 10
32.67261599404569
 20
28.2366449439113
 30
0.0
  0
VERTEX
  5
BBF
330
BBD
100
AcDbEntity
  8
0
100
AcDbVertex
100
AcDb2dVertex
 10
32.34360999404567
 20
28.23940094391129
 30
0.0
  0
VERTEX
  5
BC0
330
BBD
100
AcDbEntity
  8
0
100
AcDbVertex
100
AcDb2dVertex
 10
32.34670999404566
 20
28.23940094391129
 30
0.0
  0
SEQEND
  5
BC1
330
BBD
100
AcDbEntity
  8
0
  0
POLYLINE
  5
BC2
330
1F
100
AcDbEntity
  8
0
100
AcDb2dPolyline
 66
     1
 10
0.0
 20
0.0
 30
0.0
  0
VERTEX
  5
BC3
330
BC2
100
AcDbEntity
  8
0
100
AcDbVertex
100
AcDb2dVertex
 10
32.34360999404567
 20
28.23940094391129
 30
0.0
  0
VERTEX
  5
BC4
330
BC2
100
AcDbEntity
  8
0
100
AcDbVertex
100
AcDb2dVertex
 10
31.73727299404567
 20
28.2483589439113
 30
0.0
  0
VERTEX
  5
BC5
330
BC2
100
AcDbEntity
  8
0
100
AcDbVertex
100
AcDb2dVertex
 10
31.74002899404567
 20
28.2483589439113
 30
0.0
  0
SEQEND
  5
BC6
330
BC2
100
AcDbEntity
  8
0
  0
POLYLINE
  5
BC7
330
1F
100
AcDbEntity
  8
0
100
AcDb2dPolyline
 66
     1
 10
0.0
 20
0.0
 30
0.0
  0
VERTEX
  5
BC8
330
BC7
100
AcDbEntity
  8
0
100
AcDbVertex
100
AcDb2dVertex
 10
33.20626199404566
 20
28.03269594391131
 30
0.0
  0
VERTEX
  5
BC9
330
BC7
100
AcDbEntity
  8
0
100
AcDbVertex
100
AcDb2dVertex
 10
33.39195199404568
 20
28.03269594391131
 30
0.0
  0
VERTEX
  5
BCA
330
BC7
100
AcDbEntity
  8
0
100
AcDbVertex
100
AcDb2dVertex
 10
33.75161999404568
 20
28.0354519439113
 30
0.0
  0
VERTEX
  5
BCB
330
BC7
100
AcDbEntity
  8
0
100
AcDbVertex
100
AcDb2dVertex
 10
33.75472099404567
 20
28.0354519439113
 30
0.0
  0
SEQEND
  5
BCC
330
BC7
100
AcDbEntity
  8
0
  0
POLYLINE
  5
BCD
330
1F
100
AcDbEntity
  8
0
100
AcDb2dPolyline
 66
     1
 10
0.0
 20
0.0
 30
0.0
  0
VERTEX
  5
BCE
330
BCD
100
AcDbEntity
  8
0
100
AcDbVertex
100
AcDb2dVertex
 10
33.20626199404566
 20
28.2335449439113
 30
0.0
  0
VERTEX
  5
BCF
330
BCD
100
AcDbEntity
  8
0
100
AcDbVertex
100
AcDb2dVertex
 10
33.38609599404569
 20
28.2335449439113
 30
0.0
  0
VERTEX
  5
BD0
330
BCD
100
AcDbEntity
  8
0
100
AcDbVertex
100
AcDb2dVertex
 10
33.73646199404567
 20
28.2366449439113
 30
0.0
  0
VERTEX
  5
BD1
330
BCD
100
AcDbEntity
  8
0
100
AcDbVertex
100
AcDb2dVertex
 10
33.73956199404566
 20
28.2366449439113
 30
0.0
  0
SEQEND
  5
BD2
330
BCD
100
AcDbEntity
  8
0
  0
POLYLINE
  5
BD3
330
1F
100
AcDbEntity
  8
0
100
AcDb2dPolyline
 66
     1
 10
0.0
 20
0.0
 30
0.0
  0
VERTEX
  5
BD4
330
BD3
100
AcDbEntity
  8
0
100
AcDbVertex
100
AcDb2dVertex
 10
33.20626199404566
 20
28.2335449439113
 30
0.0
  0
VERTEX
  5
BD5
330
BD3
100
AcDbEntity
  8
0
100
AcDbVertex
100
AcDb2dVertex
 10
33.02332699404568
 20
28.2335449439113
 30
0.0
  0
VERTEX
  5
BD6
330
BD3
100
AcDbEntity
  8
0
100
AcDbVertex
100
AcDb2dVertex
 10
33.02608299404565
 20
28.2335449439113
 30
0.0
  0
SEQEND
  5
BD7
330
BD3
100
AcDbEntity
  8
0
  0
POLYLINE
  5
BD8
330
1F
100
AcDbEntity
  8
0
100
AcDb2dPolyline
 66
     1
 10
0.0
 20
0.0
 30
0.0
  0
VERTEX
  5
BD9
330
BD8
100
AcDbEntity
  8
0
100
AcDbVertex
100
AcDb2dVertex
 10
33.20626199404566
 20
28.03269594391131
 30
0.0
  0
VERTEX
  5
BDA
330
BD8
100
AcDbEntity
  8
0
100
AcDbVertex
100
AcDb2dVertex
 10
32.83763599404565
 20
28.0354519439113
 30
0.0
  0
VERTEX
  5
BDB
330
BD8
100
AcDbEntity
  8
0
100
AcDbVertex
100
AcDb2dVertex
 10
32.84039299404569
 20
28.0354519439113
 30
0.0
  0
SEQEND
  5
BDC
330
BD8
100
AcDbEntity
  8
0
  0
POLYLINE
  5
BDD
330
1F
100
AcDbEntity
  8
0
100
AcDb2dPolyline
 66
     1
 10
0.0
 20
0.0
 30
0.0
  0
VERTEX
  5
BDE
330
BDD
100
AcDbEntity
  8
0
100
AcDbVertex
100
AcDb2dVertex
 10
32.83763599404565
 20
28.0354519439113
 30
0.0
  0
VERTEX
  5
BDF
330
BDD
100
AcDbEntity
  8
0
100
AcDbVertex
100
AcDb2dVertex
 10
32.48692599404569
 20
28.0382079439113
 30
0.0
  0
VERTEX
  5
BE0
330
BDD
100
AcDbEntity
  8
0
100
AcDbVertex
100
AcDb2dVertex
 10
32.49002599404568
 20
28.0382079439113
 30
0.0
  0
SEQEND
  5
BE1
330
BDD
100
AcDbEntity
  8
0
  0
POLYLINE
  5
BE2
330
1F
100
AcDbEntity
  8
0
100
AcDb2dPolyline
 66
     1
 10
0.0
 20
0.0
 30
0.0
  0
VERTEX
  5
BE3
330
BE2
100
AcDbEntity
  8
0
100
AcDbVertex
100
AcDb2dVertex
 10
33.02332699404568
 20
28.2335449439113
 30
0.0
  0
VERTEX
  5
BE4
330
BE2
100
AcDbEntity
  8
0
100
AcDbVertex
100
AcDb2dVertex
 10
32.67296099404567
 20
28.2366449439113
 30
0.0
  0
VERTEX
  5
BE5
330
BE2
100
AcDbEntity
  8
0
100
AcDbVertex
100
AcDb2dVertex
 10
32.67571699404567
 20
28.2366449439113
 30
0.0
  0
SEQEND
  5
BE6
330
BE2
100
AcDbEntity
  8
0
  0
POLYLINE
  5
BE7
330
1F
100
AcDbEntity
  8
0
100
AcDb2dPolyline
 66
     1
 10
0.0
 20
0.0
 30
0.0
  0
VERTEX
  5
BE8
330
BE7
100
AcDbEntity
  8
0
100
AcDbVertex
100
AcDb2dVertex
 10
31.45684199404568
 20
28.2521479439113
 30
0.0
  0
VERTEX
  5
BE9
330
BE7
100
AcDbEntity
  8
0
100
AcDbVertex
100
AcDb2dVertex
 10
30.13392599404568
 20
28.24594694391131
 30
0.0
  0
VERTEX
  5
BEA
330
BE7
100
AcDbEntity
  8
0
100
AcDbVertex
100
AcDb2dVertex
 10
30.13702599404567
 20
28.24594694391131
 30
0.0
  0
SEQEND
  5
BEB
330
BE7
100
AcDbEntity
  8
0
  0
POLYLINE
  5
BEC
330
1F
100
AcDbEntity
  8
0
100
AcDb2dPolyline
 66
     1
 10
0.0
 20
0.0
 30
0.0
  0
VERTEX
  5
BED
330
BEC
100
AcDbEntity
  8
0
100
AcDbVertex
100
AcDb2dVertex
 10
34.52917799404568
 20
28.2462919439113
 30
0.0
  0
VERTEX
  5
BEE
330
BEC
100
AcDbEntity
  8
0
100
AcDbVertex
100
AcDb2dVertex
 10
34.81546599404567
 20
28.24939194391131
 30
0.0
  0
VERTEX
  5
BEF
330
BEC
100
AcDbEntity
  8
0
100
AcDbVertex
100
AcDb2dVertex
 10
34.95258099404566
 20
28.2521479439113
 30
0.0
  0
VERTEX
  5
BF0
330
BEC
100
AcDbEntity
  8
0
100
AcDbVertex
100
AcDb2dVertex
 10
34.95602599404569
 20
28.2521479439113
 30
0.0
  0
SEQEND
  5
BF1
330
BEC
100
AcDbEntity
  8
0
  0
POLYLINE
  5
BF2
330
1F
100
AcDbEntity
  8
0
100
AcDb2dPolyline
 66
     1
 10
0.0
 20
0.0
 30
0.0
  0
VERTEX
  5
BF3
330
BF2
100
AcDbEntity
  8
0
100
AcDbVertex
100
AcDb2dVertex
 10
34.71176799404569
 20
28.0454419439113
 30
0.0
  0
VERTEX
  5
BF4
330
BF2
100
AcDbEntity
  8
0
100
AcDbVertex
100
AcDb2dVertex
 10
35.00150099404567
 20
28.0481989439113
 30
0.0
  0
VERTEX
  5
BF5
330
BF2
100
AcDbEntity
  8
0
100
AcDbVertex
100
AcDb2dVertex
 10
35.14137199404567
 20
28.0481989439113
 30
0.0
  0
SEQEND
  5
BF6
330
BF2
100
AcDbEntity
  8
0
  0
POLYLINE
  5
BF7
330
1F
100
AcDbEntity
  8
0
100
AcDb2dPolyline
 66
     1
 10
0.0
 20
0.0
 30
0.0
  0
VERTEX
  5
BF8
330
BF7
100
AcDbEntity
  8
0
100
AcDbVertex
100
AcDb2dVertex
 10
34.95258099404566
 20
28.2521479439113
 30
0.0
  0
VERTEX
  5
BF9
330
BF7
100
AcDbEntity
  8
0
100
AcDbVertex
100
AcDb2dVertex
 10
35.50448499404567
 20
28.24939194391131
 30
0.0
  0
VERTEX
  5
BFA
330
BF7
100
AcDbEntity
  8
0
100
AcDbVertex
100
AcDb2dVertex
 10
35.50724099404567
 20
28.24939194391131
 30
0.0
  0
SEQEND
  5
BFB
330
BF7
100
AcDbEntity
  8
0
  0
POLYLINE
  5
BFC
330
1F
100
AcDbEntity
  8
0
100
AcDb2dPolyline
 66
     1
 10
0.0
 20
0.0
 30
0.0
  0
VERTEX
  5
BFD
330
BFC
100
AcDbEntity
  8
0
100
AcDbVertex
100
AcDb2dVertex
 10
36.27859799404567
 20
28.2462919439113
 30
0.0
  0
VERTEX
  5
BFE
330
BFC
100
AcDbEntity
  8
0
100
AcDbVertex
100
AcDb2dVertex
 10
36.97037299404568
 20
28.2428459439113
 30
0.0
  0
VERTEX
  5
BFF
330
BFC
100
AcDbEntity
  8
0
100
AcDbVertex
100
AcDb2dVertex
 10
36.97347399404569
 20
28.2428459439113
 30
0.0
  0
SEQEND
  5
C00
330
BFC
100
AcDbEntity
  8
0
  0
POLYLINE
  5
C01
330
1F
100
AcDbEntity
  8
0
100
AcDb2dPolyline
 66
     1
 10
0.0
 20
0.0
 30
0.0
  0
VERTEX
  5
C02
330
C01
100
AcDbEntity
  8
0
100
AcDbVertex
100
AcDb2dVertex
 10
35.50413999404566
 20
28.24939194391131
 30
0.0
  0
VERTEX
  5
C03
330
C01
100
AcDbEntity
  8
0
100
AcDbVertex
100
AcDb2dVertex
 10
36.27859799404567
 20
28.24594694391131
 30
0.0
  0
VERTEX
  5
C04
330
C01
100
AcDbEntity
  8
0
100
AcDbVertex
100
AcDb2dVertex
 10
36.28135399404567
 20
28.24594694391131
 30
0.0
  0
SEQEND
  5
C05
330
C01
100
AcDbEntity
  8
0
  0
POLYLINE
  5
C06
330
1F
100
AcDbEntity
  8
0
100
AcDb2dPolyline
 66
     1
 10
0.0
 20
0.0
 30
0.0
  0
VERTEX
  5
C07
330
C06
100
AcDbEntity
  8
0
100
AcDbVertex
100
AcDb2dVertex
 10
37.58911199404568
 20
28.2400899439113
 30
0.0
  0
VERTEX
  5
C08
330
C06
100
AcDbEntity
  8
0
100
AcDbVertex
100
AcDb2dVertex
 10
38.38768499404566
 20
28.2335449439113
 30
0.0
  0
VERTEX
  5
C09
330
C06
100
AcDbEntity
  8
0
100
AcDbVertex
100
AcDb2dVertex
 10
38.39044099404566
 20
28.2335449439113
 30
0.0
  0
SEQEND
  5
C0A
330
C06
100
AcDbEntity
  8
0
  0
POLYLINE
  5
C0B
330
1F
100
AcDbEntity
  8
0
100
AcDb2dPolyline
 66
     1
 10
0.0
 20
0.0
 30
0.0
  0
VERTEX
  5
C0C
330
C0B
100
AcDbEntity
  8
0
100
AcDbVertex
100
AcDb2dVertex
 10
39.03949699404569
 20
28.22458694391129
 30
0.0
  0
VERTEX
  5
C0D
330
C0B
100
AcDbEntity
  8
0
100
AcDbVertex
100
AcDb2dVertex
 10
39.56073999404566
 20
28.2187309439113
 30
0.0
  0
VERTEX
  5
C0E
330
C0B
100
AcDbEntity
  8
0
100
AcDbVertex
100
AcDb2dVertex
 10
39.56384099404568
 20
28.2187309439113
 30
0.0
  0
SEQEND
  5
C0F
330
C0B
100
AcDbEntity
  8
0
  0
POLYLINE
  5
C10
330
1F
100
AcDbEntity
  8
0
100
AcDb2dPolyline
 66
     1
 10
0.0
 20
0.0
 30
0.0
  0
VERTEX
  5
C11
330
C10
100
AcDbEntity
  8
0
100
AcDbVertex
100
AcDb2dVertex
 10
39.56073999404566
 20
28.2187309439113
 30
0.0
  0
VERTEX
  5
C12
330
C10
100
AcDbEntity
  8
0
100
AcDbVertex
100
AcDb2dVertex
 10
39.86218599404566
 20
28.2125299439113
 30
0.0
  0
VERTEX
  5
C13
330
C10
100
AcDbEntity
  8
0
100
AcDbVertex
100
AcDb2dVertex
 10
39.86563099404566
 20
28.2125299439113
 30
0.0
  0
SEQEND
  5
C14
330
C10
100
AcDbEntity
  8
0
  0
POLYLINE
  5
C15
330
1F
100
AcDbEntity
  8
0
100
AcDb2dPolyline
 66
     1
 10
0.0
 20
0.0
 30
0.0
  0
VERTEX
  5
C16
330
C15
100
AcDbEntity
  8
0
100
AcDbVertex
100
AcDb2dVertex
 10
38.38734099404567
 20
28.2335449439113
 30
0.0
  0
VERTEX
  5
C17
330
C15
100
AcDbEntity
  8
0
100
AcDbVertex
100
AcDb2dVertex
 10
39.03949699404569
 20
28.22458694391129
 30
0.0
  0
VERTEX
  5
C18
330
C15
100
AcDbEntity
  8
0
100
AcDbVertex
100
AcDb2dVertex
 10
39.04294199404566
 20
28.22458694391129
 30
0.0
  0
SEQEND
  5
C19
330
C15
100
AcDbEntity
  8
0
  0
POLYLINE
  5
C1A
330
1F
100
AcDbEntity
  8
0
100
AcDb2dPolyline
 66
     1
 10
0.0
 20
0.0
 30
0.0
  0
VERTEX
  5
C1B
330
C1A
100
AcDbEntity
  8
0
100
AcDbVertex
100
AcDb2dVertex
 10
36.97002899404569
 20
28.2428459439113
 30
0.0
  0
VERTEX
  5
C1C
330
C1A
100
AcDbEntity
  8
0
100
AcDbVertex
100
AcDb2dVertex
 10
37.58876799404567
 20
28.2400899439113
 30
0.0
  0
VERTEX
  5
C1D
330
C1A
100
AcDbEntity
  8
0
100
AcDbVertex
100
AcDb2dVertex
 10
37.59186799404569
 20
28.2400899439113
 30
0.0
  0
SEQEND
  5
C1E
330
C1A
100
AcDbEntity
  8
0
  0
POLYLINE
  5
C1F
330
1F
100
AcDbEntity
  8
0
100
AcDb2dPolyline
 66
     1
 10
0.0
 20
0.0
 30
0.0
  0
VERTEX
  5
C20
330
C1F
100
AcDbEntity
  8
0
100
AcDbVertex
100
AcDb2dVertex
 10
39.70405599404566
 20
21.3543779439113
 30
0.0
  0
VERTEX
  5
C21
330
C1F
100
AcDbEntity
  8
0
100
AcDbVertex
100
AcDb2dVertex
 10
39.96002699404568
 20
21.4976939439113
 30
0.0
  0
VERTEX
  5
C22
330
C1F
100
AcDbEntity
  8
0
100
AcDbVertex
100
AcDb2dVertex
 10
39.96278299404565
 20
21.4976939439113
 30
0.0
  0
SEQEND
  5
C23
330
C1F
100
AcDbEntity
  8
0
  0
POLYLINE
  5
C24
330
1F
100
AcDbEntity
  8
0
100
AcDb2dPolyline
 66
     1
 10
0.0
 20
0.0
 30
0.0
  0
VERTEX
  5
C25
330
C24
100
AcDbEntity
  8
0
100
AcDbVertex
100
AcDb2dVertex
 10
39.43878399404568
 20
21.22690994391129
 30
0.0
  0
VERTEX
  5
C26
330
C24
100
AcDbEntity
  8
0
100
AcDbVertex
100
AcDb2dVertex
 10
39.70405599404566
 20
21.3543779439113
 30
0.0
  0
VERTEX
  5
C27
330
C24
100
AcDbEntity
  8
0
100
AcDbVertex
100
AcDb2dVertex
 10
39.70681199404566
 20
21.3543779439113
 30
0.0
  0
SEQEND
  5
C28
330
C24
100
AcDbEntity
  8
0
  0
POLYLINE
  5
C29
330
1F
100
AcDbEntity
  8
0
100
AcDb2dPolyline
 66
     1
 10
0.0
 20
0.0
 30
0.0
  0
VERTEX
  5
C2A
330
C29
100
AcDbEntity
  8
0
100
AcDbVertex
100
AcDb2dVertex
 10
33.73611699404569
 20
28.23733394391131
 30
0.0
  0
VERTEX
  5
C2B
330
C29
100
AcDbEntity
  8
0
100
AcDbVertex
100
AcDb2dVertex
 10
34.52848899404566
 20
28.24594694391131
 30
0.0
  0
VERTEX
  5
C2C
330
C29
100
AcDbEntity
  8
0
100
AcDbVertex
100
AcDb2dVertex
 10
34.53158999404568
 20
28.24594694391131
 30
0.0
  0
SEQEND
  5
C2D
330
C29
100
AcDbEntity
  8
0
  0
POLYLINE
  5
C2E
330
1F
100
AcDbEntity
  8
0
100
AcDb2dPolyline
 66
     1
 10
0.0
 20
0.0
 30
0.0
  0
VERTEX
  5
C2F
330
C2E
100
AcDbEntity
  8
0
100
AcDbVertex
100
AcDb2dVertex
 10
33.75127599404567
 20
28.03614094391131
 30
0.0
  0
VERTEX
  5
C30
330
C2E
100
AcDbEntity
  8
0
100
AcDbVertex
100
AcDb2dVertex
 10
34.71142399404568
 20
28.0450979439113
 30
0.0
  0
VERTEX
  5
C31
330
C2E
100
AcDbEntity
  8
0
100
AcDbVertex
100
AcDb2dVertex
 10
34.71417999404568
 20
28.0450979439113
 30
0.0
  0
SEQEND
  5
C32
330
C2E
100
AcDbEntity
  8
0
  0
SPLINE
  5
C33
330
1F
100
AcDbEntity
  8
0
100
AcDbSpline
210
0.0
220
0.0
230
1.0
 70
     8
 71
     3
 72
    17
 73
    13
 74
     0
 42
0.0000000001
 43
0.0000000001
 40
0.0
 40
0.0
 40
0.0
 40
0.0
 40
1.0
 40
1.0
 40
1.0
 40
2.0
 40
2.0
 40
2.0
 40
3.0
 40
3.0
 40
3.0
 40
4.0
 40
4.0
 40
4.0
 40
4.0
 10
29.77666914421926
 20
16.34693169911963
 30
0.0
 10
29.77666914421926
 20
16.34693169911963
 30
0.0
 10
29.755654061754
 20
16.34417562273074
 30
0.0
 10
29.755654061754
 20
16.34417562273074
 30
0.0
 10
29.72395918328175
 20
16.34314209408489
 30
0.0
 10
29.69226430480956
 20
16.3396969985988
 30
0.0
 10
29.66091393588593
 20
16.33762994130712
 30
0.0
 10
29.66091393588593
 20
16.33762994130712
 30
0.0
 10
29.65195668762209
 20
16.33487386491824
 30
0.0
 10
29.65195668762209
 20
16.33487386491824
 30
0.0
 10
29.65195668762209
 20
16.33487386491824
 30
0.0
 10
29.65471276401093
 20
16.33487386491824
 30
0.0
 10
29.65471276401093
 20
16.33487386491824
 30
0.0
  0
SPLINE
  5
C34
330
1F
100
AcDbEntity
  8
0
100
AcDbSpline
210
0.0
220
0.0
230
1.0
 70
     8
 71
     3
 72
    14
 73
    10
 74
     0
 42
0.0000000001
 43
0.0000000001
 40
0.0
 40
0.0
 40
0.0
 40
0.0
 40
1.0
 40
1.0
 40
1.0
 40
2.0
 40
2.0
 40
2.0
 40
3.0
 40
3.0
 40
3.0
 40
3.0
 10
29.52069854960121
 20
16.30731310102934
 30
0.0
 10
29.52069854960121
 20
16.30731310102934
 30
0.0
 10
29.42940351921925
 20
16.26149333106407
 30
0.0
 10
29.42940351921925
 20
16.26149333106407
 30
0.0
 10
28.94054446974013
 20
16.00655626509184
 30
0.0
 10
29.50554012946233
 20
15.80019504547379
 30
0.0
 10
29.75255347581649
 20
15.74369547950157
 30
0.0
 10
29.75255347581649
 20
15.74369547950157
 30
0.0
 10
29.76771189595539
 20
15.74369547950157
 30
0.0
 10
29.76771189595539
 20
15.74369547950157
 30
0.0
  0
POLYLINE
  5
C35
330
1F
100
AcDbEntity
  8
0
100
AcDb2dPolyline
 66
     1
 10
0.0
 20
0.0
 30
0.0
  0
VERTEX
  5
C36
330
C35
100
AcDbEntity
  8
0
100
AcDbVertex
100
AcDb2dVertex
 10
29.92274099404568
 20
16.3503769439113
 30
0.0
  0
VERTEX
  5
C37
330
C35
100
AcDbEntity
  8
0
100
AcDbVertex
100
AcDb2dVertex
 10
29.87106499404567
 20
16.3503769439113
 30
0.0
  0
VERTEX
  5
C38
330
C35
100
AcDbEntity
  8
0
100
AcDbVertex
100
AcDb2dVertex
 10
29.87416499404569
 20
16.3503769439113
 30
0.0
  0
SEQEND
  5
C39
330
C35
100
AcDbEntity
  8
0
  0
POLYLINE
  5
C3A
330
1F
100
AcDbEntity
  8
0
100
AcDb2dPolyline
 66
     1
 10
0.0
 20
0.0
 30
0.0
  0
VERTEX
  5
C3B
330
C3A
100
AcDbEntity
  8
0
100
AcDbVertex
100
AcDb2dVertex
 10
30.00507899404567
 20
16.3531329439113
 30
0.0
  0
VERTEX
  5
C3C
330
C3A
100
AcDbEntity
  8
0
100
AcDbVertex
100
AcDb2dVertex
 10
29.92274099404568
 20
16.3503769439113
 30
0.0
  0
VERTEX
  5
C3D
330
C3A
100
AcDbEntity
  8
0
100
AcDbVertex
100
AcDb2dVertex
 10
29.92549699404569
 20
16.3503769439113
 30
0.0
  0
SEQEND
  5
C3E
330
C3A
100
AcDbEntity
  8
0
  0
POLYLINE
  5
C3F
330
1F
100
AcDbEntity
  8
0
100
AcDb2dPolyline
 66
     1
 10
0.0
 20
0.0
 30
0.0
  0
VERTEX
  5
C40
330
C3F
100
AcDbEntity
  8
0
100
AcDbVertex
100
AcDb2dVertex
 10
30.09051699404569
 20
16.3565779439113
 30
0.0
  0
VERTEX
  5
C41
330
C3F
100
AcDbEntity
  8
0
100
AcDbVertex
100
AcDb2dVertex
 10
30.00507899404567
 20
16.3531329439113
 30
0.0
  0
VERTEX
  5
C42
330
C3F
100
AcDbEntity
  8
0
100
AcDbVertex
100
AcDb2dVertex
 10
30.00817999404569
 20
16.3531329439113
 30
0.0
  0
SEQEND
  5
C43
330
C3F
100
AcDbEntity
  8
0
  0
POLYLINE
  5
C44
330
1F
100
AcDbEntity
  8
0
100
AcDb2dPolyline
 66
     1
 10
0.0
 20
0.0
 30
0.0
  0
VERTEX
  5
C45
330
C44
100
AcDbEntity
  8
0
100
AcDbVertex
100
AcDb2dVertex
 10
30.2124739940457
 20
16.3596789439113
 30
0.0
  0
VERTEX
  5
C46
330
C44
100
AcDbEntity
  8
0
100
AcDbVertex
100
AcDb2dVertex
 10
30.09051699404569
 20
16.3565779439113
 30
0.0
  0
VERTEX
  5
C47
330
C44
100
AcDbEntity
  8
0
100
AcDbVertex
100
AcDb2dVertex
 10
30.09361799404568
 20
16.3565779439113
 30
0.0
  0
SEQEND
  5
C48
330
C44
100
AcDbEntity
  8
0
  0
POLYLINE
  5
C49
330
1F
100
AcDbEntity
  8
0
100
AcDb2dPolyline
 66
     1
 10
0.0
 20
0.0
 30
0.0
  0
VERTEX
  5
C4A
330
C49
100
AcDbEntity
  8
0
100
AcDbVertex
100
AcDb2dVertex
 10
30.33442999404568
 20
16.3596789439113
 30
0.0
  0
VERTEX
  5
C4B
330
C49
100
AcDbEntity
  8
0
100
AcDbVertex
100
AcDb2dVertex
 10
30.2124739940457
 20
16.3596789439113
 30
0.0
  0
VERTEX
  5
C4C
330
C49
100
AcDbEntity
  8
0
100
AcDbVertex
100
AcDb2dVertex
 10
30.21557399404569
 20
16.3596789439113
 30
0.0
  0
SEQEND
  5
C4D
330
C49
100
AcDbEntity
  8
0
  0
POLYLINE
  5
C4E
330
1F
100
AcDbEntity
  8
0
100
AcDb2dPolyline
 66
     1
 10
0.0
 20
0.0
 30
0.0
  0
VERTEX
  5
C4F
330
C4E
100
AcDbEntity
  8
0
100
AcDbVertex
100
AcDb2dVertex
 10
30.46568799404568
 20
16.3596789439113
 30
0.0
  0
VERTEX
  5
C50
330
C4E
100
AcDbEntity
  8
0
100
AcDbVertex
100
AcDb2dVertex
 10
30.33442999404568
 20
16.3596789439113
 30
0.0
  0
VERTEX
  5
C51
330
C4E
100
AcDbEntity
  8
0
100
AcDbVertex
100
AcDb2dVertex
 10
30.33753099404567
 20
16.3596789439113
 30
0.0
  0
SEQEND
  5
C52
330
C4E
100
AcDbEntity
  8
0
  0
POLYLINE
  5
C53
330
1F
100
AcDbEntity
  8
0
100
AcDb2dPolyline
 66
     1
 10
0.0
 20
0.0
 30
0.0
  0
VERTEX
  5
C54
330
C53
100
AcDbEntity
  8
0
100
AcDbVertex
100
AcDb2dVertex
 10
29.98096299404569
 20
15.7164789439113
 30
0.0
  0
VERTEX
  5
C55
330
C53
100
AcDbEntity
  8
0
100
AcDbVertex
100
AcDb2dVertex
 10
30.02368199404566
 20
15.71372294391129
 30
0.0
  0
VERTEX
  5
C56
330
C53
100
AcDbEntity
  8
0
100
AcDbVertex
100
AcDb2dVertex
 10
30.04504199404568
 20
15.71372294391129
 30
0.0
  0
SEQEND
  5
C57
330
C53
100
AcDbEntity
  8
0
  0
LINE
  5
C58
330
1F
100
AcDbEntity
  8
0
100
AcDbLine
 10
29.9596039940457
 20
15.7164789439113
 30
0.0
 11
29.98992099404569
 21
15.7164789439113
 31
0.0
  0
POLYLINE
  5
C59
330
1F
100
AcDbEntity
  8
0
100
AcDb2dPolyline
 66
     1
 10
0.0
 20
0.0
 30
0.0
  0
VERTEX
  5
C5A
330
C59
100
AcDbEntity
  8
0
100
AcDbVertex
100
AcDb2dVertex
 10
30.00542299404569
 20
15.7164789439113
 30
0.0
  0
VERTEX
  5
C5B
330
C59
100
AcDbEntity
  8
0
100
AcDbVertex
100
AcDb2dVertex
 10
30.01438099404567
 20
15.71372294391129
 30
0.0
  0
VERTEX
  5
C5C
330
C59
100
AcDbEntity
  8
0
100
AcDbVertex
100
AcDb2dVertex
 10
30.01782599404569
 20
15.71372294391129
 30
0.0
  0
SEQEND
  5
C5D
330
C59
100
AcDbEntity
  8
0
  0
LINE
  5
C5E
330
1F
100
AcDbEntity
  8
0
100
AcDbLine
 10
29.93824399404568
 20
15.7164789439113
 30
0.0
 11
29.96270399404568
 21
15.7164789439113
 31
0.0
  0
LINE
  5
C5F
330
1F
100
AcDbEntity
  8
0
100
AcDbLine
 10
29.99612199404566
 20
15.7164789439113
 30
0.0
 11
30.00852399404568
 21
15.7164789439113
 31
0.0
  0
LINE
  5
C60
330
1F
100
AcDbEntity
  8
0
100
AcDbLine
 10
29.98371899404569
 20
15.7164789439113
 30
0.0
 11
29.99887799404567
 21
15.7164789439113
 31
0.0
  0
POLYLINE
  5
C61
330
1F
100
AcDbEntity
  8
0
100
AcDb2dPolyline
 66
     1
 10
0.0
 20
0.0
 30
0.0
  0
VERTEX
  5
C62
330
C61
100
AcDbEntity
  8
0
100
AcDbVertex
100
AcDb2dVertex
 10
29.84970499404568
 20
15.7226799439113
 30
0.0
  0
VERTEX
  5
C63
330
C61
100
AcDbEntity
  8
0
100
AcDbVertex
100
AcDb2dVertex
 10
29.94444499404568
 20
15.7164789439113
 30
0.0
  0
VERTEX
  5
C64
330
C61
100
AcDbEntity
  8
0
100
AcDbVertex
100
AcDb2dVertex
 10
29.94720099404569
 20
15.7164789439113
 30
0.0
  0
SEQEND
  5
C65
330
C61
100
AcDbEntity
  8
0
  0
POLYLINE
  5
C66
330
1F
100
AcDbEntity
  8
0
100
AcDb2dPolyline
 66
     1
 10
0.0
 20
0.0
 30
0.0
  0
VERTEX
  5
C67
330
C66
100
AcDbEntity
  8
0
100
AcDbVertex
100
AcDb2dVertex
 10
29.87106499404567
 20
16.3503769439113
 30
0.0
  0
VERTEX
  5
C68
330
C66
100
AcDbEntity
  8
0
100
AcDbVertex
100
AcDb2dVertex
 10
29.82214399404569
 20
16.3476209439113
 30
0.0
  0
VERTEX
  5
C69
330
C66
100
AcDbEntity
  8
0
100
AcDbVertex
100
AcDb2dVertex
 10
29.82524499404568
 20
16.3476209439113
 30
0.0
  0
SEQEND
  5
C6A
330
C66
100
AcDbEntity
  8
0
  0
SPLINE
  5
C6B
330
1F
100
AcDbEntity
  8
0
100
AcDbSpline
210
0.0
220
0.0
230
1.0
 70
     8
 71
     3
 72
    14
 73
    10
 74
     0
 42
0.0000000001
 43
0.0000000001
 40
0.0
 40
0.0
 40
0.0
 40
0.0
 40
1.0
 40
1.0
 40
1.0
 40
2.0
 40
2.0
 40
2.0
 40
3.0
 40
3.0
 40
3.0
 40
3.0
 10
29.76426680046927
 20
15.74403998905019
 30
0.0
 10
29.76426680046927
 20
15.74403998905019
 30
0.0
 10
29.77632463467063
 20
15.7412839126613
 30
0.0
 10
29.77632463467063
 20
15.7412839126613
 30
0.0
 10
29.83971439161513
 20
15.72647000207102
 30
0.0
 10
29.90586022494841
 20
15.72371392568212
 30
0.0
 10
29.96856096279567
 20
15.7164792251613
 30
0.0
 10
29.96856096279567
 20
15.7164792251613
 30
0.0
 10
29.98681996887206
 20
15.7164792251613
 30
0.0
 10
29.98681996887206
 20
15.7164792251613
 30
0.0
  0
SPLINE
  5
C6C
330
1F
100
AcDbEntity
  8
0
100
AcDbSpline
210
0.0
220
0.0
230
1.0
 70
     8
 71
     3
 72
    14
 73
    10
 74
     0
 42
0.0000000001
 43
0.0000000001
 40
0.0
 40
0.0
 40
0.0
 40
0.0
 40
1.0
 40
1.0
 40
1.0
 40
2.0
 40
2.0
 40
2.0
 40
3.0
 40
3.0
 40
3.0
 40
3.0
 10
28.72729305914979
 20
15.98381863488352
 30
0.0
 10
28.72729305914979
 20
15.98381863488352
 30
0.0
 10
28.93262075012206
 20
15.91353868696684
 30
0.0
 10
28.93262075012206
 20
15.91353868696684
 30
0.0
 10
29.22717641418456
 20
15.80536268870296
 30
0.0
 10
29.53792402703175
 20
15.74610704634184
 30
0.0
 10
29.85039418762204
 20
15.72233588748768
 30
0.0
 10
29.85039418762204
 20
15.72233588748768
 30
0.0
 10
29.85280575446234
 20
15.72233588748768
 30
0.0
 10
29.85280575446234
 20
15.72233588748768
 30
0.0
  0
POLYLINE
  5
C6D
330
1F
100
AcDbEntity
  8
0
100
AcDb2dPolyline
 66
     1
 10
0.0
 20
0.0
 30
0.0
  0
VERTEX
  5
C6E
330
C6D
100
AcDbEntity
  8
0
100
AcDbVertex
100
AcDb2dVertex
 10
29.82214399404569
 20
16.3476209439113
 30
0.0
  0
VERTEX
  5
C6F
330
C6D
100
AcDbEntity
  8
0
100
AcDbVertex
100
AcDb2dVertex
 10
29.77632499404569
 20
16.3476209439113
 30
0.0
  0
VERTEX
  5
C70
330
C6D
100
AcDbEntity
  8
0
100
AcDbVertex
100
AcDb2dVertex
 10
29.77942499404568
 20
16.3476209439113
 30
0.0
  0
SEQEND
  5
C71
330
C6D
100
AcDbEntity
  8
0
  0
POLYLINE
  5
C72
330
1F
100
AcDbEntity
  8
0
100
AcDb2dPolyline
 66
     1
 10
0.0
 20
0.0
 30
0.0
  0
VERTEX
  5
C73
330
C72
100
AcDbEntity
  8
0
100
AcDbVertex
100
AcDb2dVertex
 10
32.34602099404569
 20
15.3878169439113
 30
0.0
  0
VERTEX
  5
C74
330
C72
100
AcDbEntity
  8
0
100
AcDbVertex
100
AcDb2dVertex
 10
32.21476299404566
 20
15.5766079439113
 30
0.0
  0
VERTEX
  5
C75
330
C72
100
AcDbEntity
  8
0
100
AcDbVertex
100
AcDb2dVertex
 10
31.99841099404566
 20
15.6558459439113
 30
0.0
  0
VERTEX
  5
C76
330
C72
100
AcDbEntity
  8
0
100
AcDbVertex
100
AcDb2dVertex
 10
32.00151199404567
 20
15.6558459439113
 30
0.0
  0
SEQEND
  5
C77
330
C72
100
AcDbEntity
  8
0
  0
POLYLINE
  5
C78
330
1F
100
AcDbEntity
  8
0
100
AcDb2dPolyline
 66
     1
 10
0.0
 20
0.0
 30
0.0
  0
VERTEX
  5
C79
330
C78
100
AcDbEntity
  8
0
100
AcDbVertex
100
AcDb2dVertex
 10
33.35164499404567
 20
16.36863594391129
 30
0.0
  0
VERTEX
  5
C7A
330
C78
100
AcDbEntity
  8
0
100
AcDbVertex
100
AcDb2dVertex
 10
34.06512399404568
 20
16.3658799439113
 30
0.0
  0
VERTEX
  5
C7B
330
C78
100
AcDbEntity
  8
0
100
AcDbVertex
100
AcDb2dVertex
 10
34.06787999404568
 20
16.3658799439113
 30
0.0
  0
SEQEND
  5
C7C
330
C78
100
AcDbEntity
  8
0
  0
POLYLINE
  5
C7D
330
1F
100
AcDbEntity
  8
0
100
AcDb2dPolyline
 66
     1
 10
0.0
 20
0.0
 30
0.0
  0
VERTEX
  5
C7E
330
C7D
100
AcDbEntity
  8
0
100
AcDbVertex
100
AcDb2dVertex
 10
34.06202299404569
 20
15.3878169439113
 30
0.0
  0
VERTEX
  5
C7F
330
C7D
100
AcDbEntity
  8
0
100
AcDbVertex
100
AcDb2dVertex
 10
32.34602099404569
 20
15.3878169439113
 30
0.0
  0
VERTEX
  5
C80
330
C7D
100
AcDbEntity
  8
0
100
AcDbVertex
100
AcDb2dVertex
 10
32.34912199404567
 20
15.3878169439113
 30
0.0
  0
SEQEND
  5
C81
330
C7D
100
AcDbEntity
  8
0
  0
POLYLINE
  5
C82
330
1F
100
AcDbEntity
  8
0
100
AcDb2dPolyline
 66
     1
 10
0.0
 20
0.0
 30
0.0
  0
VERTEX
  5
C83
330
C82
100
AcDbEntity
  8
0
100
AcDbVertex
100
AcDb2dVertex
 10
30.46534399404567
 20
16.3596789439113
 30
0.0
  0
VERTEX
  5
C84
330
C82
100
AcDbEntity
  8
0
100
AcDbVertex
100
AcDb2dVertex
 10
33.35164499404567
 20
16.36863594391129
 30
0.0
  0
VERTEX
  5
C85
330
C82
100
AcDbEntity
  8
0
100
AcDbVertex
100
AcDb2dVertex
 10
33.35474499404569
 20
16.36863594391129
 30
0.0
  0
SEQEND
  5
C86
330
C82
100
AcDbEntity
  8
0
  0
POLYLINE
  5
C87
330
1F
100
AcDbEntity
  8
0
100
AcDb2dPolyline
 66
     1
 10
0.0
 20
0.0
 30
0.0
  0
VERTEX
  5
C88
330
C87
100
AcDbEntity
  8
0
100
AcDbVertex
100
AcDb2dVertex
 10
30.04159699404568
 20
15.71372294391129
 30
0.0
  0
VERTEX
  5
C89
330
C87
100
AcDbEntity
  8
0
100
AcDbVertex
100
AcDb2dVertex
 10
31.99841099404566
 20
15.6558459439113
 30
0.0
  0
VERTEX
  5
C8A
330
C87
100
AcDbEntity
  8
0
100
AcDbVertex
100
AcDb2dVertex
 10
32.00151199404567
 20
15.6558459439113
 30
0.0
  0
SEQEND
  5
C8B
330
C87
100
AcDbEntity
  8
0
  0
SPLINE
  5
C8C
330
1F
100
AcDbEntity
  8
0
100
AcDbSpline
210
0.0
220
0.0
230
1.0
 70
     8
 71
     3
 72
    17
 73
    13
 74
     0
 42
0.0000000001
 43
0.0000000001
 40
0.0
 40
0.0
 40
0.0
 40
0.0
 40
1.0
 40
1.0
 40
1.0
 40
2.0
 40
2.0
 40
2.0
 40
3.0
 40
3.0
 40
3.0
 40
4.0
 40
4.0
 40
4.0
 40
4.0
 10
36.64343346713593
 20
15.74403998905019
 30
0.0
 10
36.64343346713593
 20
15.74403998905019
 30
0.0
 10
36.63137563293458
 20
15.74059489356408
 30
0.0
 10
36.63137563293458
 20
15.74059489356408
 30
0.0
 10
36.56626332824706
 20
15.72715902116823
 30
0.0
 10
36.50528513814285
 20
15.72164686839046
 30
0.0
 10
36.43948381435814
 20
15.7164792251613
 30
0.0
 10
36.43948381435814
 20
15.7164792251613
 30
0.0
 10
36.42742598015678
 20
15.7164792251613
 30
0.0
 10
36.42742598015678
 20
15.7164792251613
 30
0.0
 10
36.42742598015678
 20
15.7164792251613
 30
0.0
 10
36.43018205654565
 20
15.7164792251613
 30
0.0
 10
36.43018205654565
 20
15.7164792251613
 30
0.0
  0
POLYLINE
  5
C8D
330
1F
100
AcDbEntity
  8
0
100
AcDb2dPolyline
 66
     1
 10
0.0
 20
0.0
 30
0.0
  0
VERTEX
  5
C8E
330
C8D
100
AcDbEntity
  8
0
100
AcDbVertex
100
AcDb2dVertex
 10
36.46669999404569
 20
15.7164789439113
 30
0.0
  0
VERTEX
  5
C8F
330
C8D
100
AcDbEntity
  8
0
100
AcDbVertex
100
AcDb2dVertex
 10
36.56143999404569
 20
15.7219909439113
 30
0.0
  0
VERTEX
  5
C90
330
C8D
100
AcDbEntity
  8
0
100
AcDbVertex
100
AcDb2dVertex
 10
36.56419599404569
 20
15.7219909439113
 30
0.0
  0
SEQEND
  5
C91
330
C8D
100
AcDbEntity
  8
0
  0
POLYLINE
  5
C92
330
1F
100
AcDbEntity
  8
0
100
AcDb2dPolyline
 66
     1
 10
0.0
 20
0.0
 30
0.0
  0
VERTEX
  5
C93
330
C92
100
AcDbEntity
  8
0
100
AcDbVertex
100
AcDb2dVertex
 10
36.42742599404568
 20
15.7164789439113
 30
0.0
  0
VERTEX
  5
C94
330
C92
100
AcDbEntity
  8
0
100
AcDbVertex
100
AcDb2dVertex
 10
36.41502399404567
 20
15.7164789439113
 30
0.0
  0
VERTEX
  5
C95
330
C92
100
AcDbEntity
  8
0
100
AcDbVertex
100
AcDb2dVertex
 10
36.41812399404569
 20
15.7164789439113
 30
0.0
  0
SEQEND
  5
C96
330
C92
100
AcDbEntity
  8
0
  0
LINE
  5
C97
330
1F
100
AcDbEntity
  8
0
100
AcDbLine
 10
36.44844099404568
 20
15.7164789439113
 30
0.0
 11
36.47290099404569
 21
15.7164789439113
 31
0.0
  0
POLYLINE
  5
C98
330
1F
100
AcDbEntity
  8
0
100
AcDb2dPolyline
 66
     1
 10
0.0
 20
0.0
 30
0.0
  0
VERTEX
  5
C99
330
C98
100
AcDbEntity
  8
0
100
AcDbVertex
100
AcDb2dVertex
 10
36.41502399404567
 20
15.7164789439113
 30
0.0
  0
VERTEX
  5
C9A
330
C98
100
AcDbEntity
  8
0
100
AcDbVertex
100
AcDb2dVertex
 10
36.40262099404569
 20
15.7164789439113
 30
0.0
  0
VERTEX
  5
C9B
330
C98
100
AcDbEntity
  8
0
100
AcDbVertex
100
AcDb2dVertex
 10
36.40572199404568
 20
15.7164789439113
 30
0.0
  0
SEQEND
  5
C9C
330
C98
100
AcDbEntity
  8
0
  0
POLYLINE
  5
C9D
330
1F
100
AcDbEntity
  8
0
100
AcDb2dPolyline
 66
     1
 10
0.0
 20
0.0
 30
0.0
  0
VERTEX
  5
C9E
330
C9D
100
AcDbEntity
  8
0
100
AcDbVertex
100
AcDb2dVertex
 10
36.40262099404569
 20
15.7164789439113
 30
0.0
  0
VERTEX
  5
C9F
330
C9D
100
AcDbEntity
  8
0
100
AcDbVertex
100
AcDb2dVertex
 10
36.39331999404567
 20
15.7130339439113
 30
0.0
  0
VERTEX
  5
CA0
330
C9D
100
AcDbEntity
  8
0
100
AcDbVertex
100
AcDb2dVertex
 10
36.39676499404567
 20
15.7130339439113
 30
0.0
  0
SEQEND
  5
CA1
330
C9D
100
AcDbEntity
  8
0
  0
LINE
  5
CA2
330
1F
100
AcDbEntity
  8
0
100
AcDbLine
 10
36.42708099404567
 20
15.7164789439113
 30
0.0
 11
36.45119699404569
 21
15.7164789439113
 31
0.0
  0
POLYLINE
  5
CA3
330
1F
100
AcDbEntity
  8
0
100
AcDb2dPolyline
 66
     1
 10
0.0
 20
0.0
 30
0.0
  0
VERTEX
  5
CA4
330
CA3
100
AcDbEntity
  8
0
100
AcDbVertex
100
AcDb2dVertex
 10
36.37816099404566
 20
15.7130339439113
 30
0.0
  0
VERTEX
  5
CA5
330
CA3
100
AcDbEntity
  8
0
100
AcDbVertex
100
AcDb2dVertex
 10
36.42708099404567
 20
15.71613494391129
 30
0.0
  0
VERTEX
  5
CA6
330
CA3
100
AcDbEntity
  8
0
100
AcDbVertex
100
AcDb2dVertex
 10
36.43018199404565
 20
15.71613494391129
 30
0.0
  0
SEQEND
  5
CA7
330
CA3
100
AcDbEntity
  8
0
  0
POLYLINE
  5
CA8
330
1F
100
AcDbEntity
  8
0
100
AcDb2dPolyline
 66
     1
 10
0.0
 20
0.0
 30
0.0
  0
VERTEX
  5
CA9
330
CA8
100
AcDbEntity
  8
0
100
AcDbVertex
100
AcDb2dVertex
 10
36.37816099404566
 20
15.7130339439113
 30
0.0
  0
VERTEX
  5
CAA
330
CA8
100
AcDbEntity
  8
0
100
AcDbVertex
100
AcDb2dVertex
 10
36.33234099404567
 20
15.7130339439113
 30
0.0
  0
VERTEX
  5
CAB
330
CA8
100
AcDbEntity
  8
0
100
AcDbVertex
100
AcDb2dVertex
 10
36.33544199404568
 20
15.7130339439113
 30
0.0
  0
SEQEND
  5
CAC
330
CA8
100
AcDbEntity
  8
0
  0
LINE
  5
CAD
330
1F
100
AcDbEntity
  8
0
100
AcDbLine
 10
35.99713399404567
 20
16.3596789439113
 30
0.0
 11
36.1404499940457
 21
16.3596789439113
 31
0.0
  0
POLYLINE
  5
CAE
330
1F
100
AcDbEntity
  8
0
100
AcDb2dPolyline
 66
     1
 10
0.0
 20
0.0
 30
0.0
  0
VERTEX
  5
CAF
330
CAE
100
AcDbEntity
  8
0
100
AcDbVertex
100
AcDb2dVertex
 10
36.13734899404568
 20
16.3596789439113
 30
0.0
  0
VERTEX
  5
CB0
330
CAE
100
AcDbEntity
  8
0
100
AcDbVertex
100
AcDb2dVertex
 10
36.25620499404567
 20
16.35588894391129
 30
0.0
  0
VERTEX
  5
CB1
330
CAE
100
AcDbEntity
  8
0
100
AcDbVertex
100
AcDb2dVertex
 10
36.2593049940457
 20
16.35588894391129
 30
0.0
  0
SEQEND
  5
CB2
330
CAE
100
AcDbEntity
  8
0
  0
LINE
  5
CB3
330
1F
100
AcDbEntity
  8
0
100
AcDbLine
 10
36.25620499404567
 20
16.35588894391129
 30
0.0
 11
36.35094499404568
 21
16.35588894391129
 31
0.0
  0
POLYLINE
  5
CB4
330
1F
100
AcDbEntity
  8
0
100
AcDb2dPolyline
 66
     1
 10
0.0
 20
0.0
 30
0.0
  0
VERTEX
  5
CB5
330
CB4
100
AcDbEntity
  8
0
100
AcDbVertex
100
AcDb2dVertex
 10
36.3471549940457
 20
16.3565779439113
 30
0.0
  0
VERTEX
  5
CB6
330
CB4
100
AcDbEntity
  8
0
100
AcDbVertex
100
AcDb2dVertex
 10
36.43259399404568
 20
16.3531329439113
 30
0.0
  0
VERTEX
  5
CB7
330
CB4
100
AcDbEntity
  8
0
100
AcDbVertex
100
AcDb2dVertex
 10
36.43569399404567
 20
16.3531329439113
 30
0.0
  0
SEQEND
  5
CB8
330
CB4
100
AcDbEntity
  8
0
  0
POLYLINE
  5
CB9
330
1F
100
AcDbEntity
  8
0
100
AcDb2dPolyline
 66
     1
 10
0.0
 20
0.0
 30
0.0
  0
VERTEX
  5
CBA
330
CB9
100
AcDbEntity
  8
0
100
AcDbVertex
100
AcDb2dVertex
 10
36.43259399404568
 20
16.3531329439113
 30
0.0
  0
VERTEX
  5
CBB
330
CB9
100
AcDbEntity
  8
0
100
AcDbVertex
100
AcDb2dVertex
 10
36.48771499404566
 20
16.3503769439113
 30
0.0
  0
VERTEX
  5
CBC
330
CB9
100
AcDbEntity
  8
0
100
AcDbVertex
100
AcDb2dVertex
 10
36.49047099404567
 20
16.3503769439113
 30
0.0
  0
SEQEND
  5
CBD
330
CB9
100
AcDbEntity
  8
0
  0
LINE
  5
CBE
330
1F
100
AcDbEntity
  8
0
100
AcDbLine
 10
36.48771499404566
 20
16.3503769439113
 30
0.0
 11
36.54283699404567
 21
16.3503769439113
 31
0.0
  0
POLYLINE
  5
CBF
330
1F
100
AcDbEntity
  8
0
100
AcDb2dPolyline
 66
     1
 10
0.0
 20
0.0
 30
0.0
  0
VERTEX
  5
CC0
330
CBF
100
AcDbEntity
  8
0
100
AcDbVertex
100
AcDb2dVertex
 10
36.53939199404567
 20
16.3503769439113
 30
0.0
  0
VERTEX
  5
CC1
330
CBF
100
AcDbEntity
  8
0
100
AcDbVertex
100
AcDb2dVertex
 10
36.58831199404569
 20
16.3472759439113
 30
0.0
  0
VERTEX
  5
CC2
330
CBF
100
AcDbEntity
  8
0
100
AcDbVertex
100
AcDb2dVertex
 10
36.59141299404567
 20
16.3472759439113
 30
0.0
  0
SEQEND
  5
CC3
330
CBF
100
AcDbEntity
  8
0
  0
SPLINE
  5
CC4
330
1F
100
AcDbEntity
  8
0
100
AcDbSpline
210
0.0
220
0.0
230
1.0
 70
     8
 71
     3
 72
    14
 73
    10
 74
     0
 42
0.0000000001
 43
0.0000000001
 40
0.0
 40
0.0
 40
0.0
 40
0.0
 40
1.0
 40
1.0
 40
1.0
 40
2.0
 40
2.0
 40
2.0
 40
3.0
 40
3.0
 40
3.0
 40
3.0
 10
36.58831193935814
 20
16.34762071821684
 30
0.0
 10
36.58831193935814
 20
16.34762071821684
 30
0.0
 10
36.63103112338593
 20
16.34762071821684
 30
0.0
 10
36.63103112338593
 20
16.34762071821684
 30
0.0
 10
36.66720462599011
 20
16.33900797950157
 30
0.0
 10
36.7233596824137
 20
16.34555366092519
 30
0.0
 10
36.75574357998315
 20
16.33487386491824
 30
0.0
 10
36.75574357998315
 20
16.33487386491824
 30
0.0
 10
36.75884416592066
 20
16.33487386491824
 30
0.0
 10
36.75884416592066
 20
16.33487386491824
 30
0.0
  0
SPLINE
  5
CC5
330
1F
100
AcDbEntity
  8
0
100
AcDbSpline
210
0.0
220
0.0
230
1.0
 70
     8
 71
     3
 72
    14
 73
    10
 74
     0
 42
0.0000000001
 43
0.0000000001
 40
0.0
 40
0.0
 40
0.0
 40
0.0
 40
1.0
 40
1.0
 40
1.0
 40
2.0
 40
2.0
 40
2.0
 40
3.0
 40
3.0
 40
3.0
 40
3.0
 10
36.75574357998315
 20
16.33487386491824
 30
0.0
 10
36.75574357998315
 20
16.33487386491824
 30
0.0
 10
36.77400258605957
 20
16.33487386491824
 30
0.0
 10
36.77400258605957
 20
16.33487386491824
 30
0.0
 10
36.80983157911507
 20
16.32591661665435
 30
0.0
 10
36.8473831199137
 20
16.32350504981407
 30
0.0
 10
36.880800546129
 20
16.30731310102934
 30
0.0
 10
36.880800546129
 20
16.30731310102934
 30
0.0
 10
36.88975779439289
 20
16.30731310102934
 30
0.0
 10
36.88975779439289
 20
16.30731310102934
 30
0.0
  0
POLYLINE
  5
CC6
330
1F
100
AcDbEntity
  8
0
100
AcDb2dPolyline
 66
     1
 10
0.0
 20
0.0
 30
0.0
  0
VERTEX
  5
CC7
330
CC6
100
AcDbEntity
  8
0
100
AcDbVertex
100
AcDb2dVertex
 10
34.40859999404569
 20
15.6551569439113
 30
0.0
  0
VERTEX
  5
CC8
330
CC6
100
AcDbEntity
  8
0
100
AcDbVertex
100
AcDb2dVertex
 10
36.33199699404568
 20
15.7130339439113
 30
0.0
  0
VERTEX
  5
CC9
330
CC6
100
AcDbEntity
  8
0
100
AcDbVertex
100
AcDb2dVertex
 10
36.33475299404569
 20
15.7130339439113
 30
0.0
  0
SEQEND
  5
CCA
330
CC6
100
AcDbEntity
  8
0
  0
SPLINE
  5
CCB
330
1F
100
AcDbEntity
  8
0
100
AcDbSpline
210
0.0
220
0.0
230
1.0
 70
     8
 71
     3
 72
    14
 73
    10
 74
     0
 42
0.0000000001
 43
0.0000000001
 40
0.0
 40
0.0
 40
0.0
 40
0.0
 40
1.0
 40
1.0
 40
1.0
 40
2.0
 40
2.0
 40
2.0
 40
3.0
 40
3.0
 40
3.0
 40
3.0
 10
36.56075117546928
 20
15.72199137793908
 30
0.0
 10
36.56075117546928
 20
15.72199137793908
 30
0.0
 10
36.65962541592063
 20
15.73198215484878
 30
0.0
 10
36.65962541592063
 20
15.73198215484878
 30
0.0
 10
36.96107127095539
 20
15.75850939009184
 30
0.0
 10
37.27905358432344
 20
15.82913384755713
 30
0.0
 10
37.56155141418458
 20
15.93730984582102
 30
0.0
 10
37.56155141418458
 20
15.93730984582102
 30
0.0
 10
37.56396298102482
 20
15.93730984582102
 30
0.0
 10
37.56396298102482
 20
15.93730984582102
 30
0.0
  0
SPLINE
  5
CCC
330
1F
100
AcDbEntity
  8
0
100
AcDbSpline
210
0.0
220
0.0
230
1.0
 70
     8
 71
     3
 72
    17
 73
    13
 74
     0
 42
0.0000000001
 43
0.0000000001
 40
0.0
 40
0.0
 40
0.0
 40
0.0
 40
1.0
 40
1.0
 40
1.0
 40
2.0
 40
2.0
 40
2.0
 40
3.0
 40
3.0
 40
3.0
 40
4.0
 40
4.0
 40
4.0
 40
4.0
 10
36.75574357998315
 20
16.33487386491824
 30
0.0
 10
36.75574357998315
 20
16.33487386491824
 30
0.0
 10
36.98105282477482
 20
16.34727620866823
 30
0.0
 10
36.98105282477482
 20
16.34727620866823
 30
0.0
 10
38.22989993849006
 20
16.47577827030018
 30
0.0
 10
39.24895918328179
 20
17.37012505849463
 30
0.0
 10
39.53524661817764
 20
18.59347846561268
 30
0.0
 10
39.53524661817764
 20
18.59347846561268
 30
0.0
 10
39.57796580220534
 20
18.81637614356408
 30
0.0
 10
39.57796580220534
 20
18.81637614356408
 30
0.0
 10
39.57796580220534
 20
18.81637614356408
 30
0.0
 10
39.58106638814286
 20
18.81637614356408
 30
0.0
 10
39.58106638814286
 20
18.81637614356408
 30
0.0
  0
SPLINE
  5
CCD
330
1F
100
AcDbEntity
  8
0
100
AcDbSpline
210
0.0
220
0.0
230
1.0
 70
     8
 71
     3
 72
    17
 73
    13
 74
     0
 42
0.0000000001
 43
0.0000000001
 40
0.0
 40
0.0
 40
0.0
 40
0.0
 40
1.0
 40
1.0
 40
1.0
 40
2.0
 40
2.0
 40
2.0
 40
3.0
 40
3.0
 40
3.0
 40
4.0
 40
4.0
 40
4.0
 40
4.0
 10
36.887001718004
 20
16.30731310102934
 30
0.0
 10
36.887001718004
 20
16.30731310102934
 30
0.0
 10
36.93867815029563
 20
16.28354194217519
 30
0.0
 10
36.93867815029563
 20
16.28354194217519
 30
0.0
 10
37.48472578484427
 20
16.02274821387657
 30
0.0
 10
36.93798913119844
 20
15.80846327464046
 30
0.0
 10
36.65514679178869
 20
15.74369547950157
 30
0.0
 10
36.65514679178869
 20
15.74369547950157
 30
0.0
 10
36.64308895758731
 20
15.74369547950157
 30
0.0
 10
36.64308895758731
 20
15.74369547950157
 30
0.0
 10
36.64308895758731
 20
15.74369547950157
 30
0.0
 10
36.64618954352483
 20
15.74369547950157
 30
0.0
 10
36.64618954352483
 20
15.74369547950157
 30
0.0
  0
POLYLINE
  5
CCE
330
1F
100
AcDbEntity
  8
0
100
AcDb2dPolyline
 66
     1
 10
0.0
 20
0.0
 30
0.0
  0
VERTEX
  5
CCF
330
CCE
100
AcDbEntity
  8
0
100
AcDbVertex
100
AcDb2dVertex
 10
34.40894499404567
 20
15.6551569439113
 30
0.0
  0
VERTEX
  5
CD0
330
CCE
100
AcDbEntity
  8
0
100
AcDbVertex
100
AcDb2dVertex
 10
31.99806699404567
 20
15.6551569439113
 30
0.0
  0
VERTEX
  5
CD1
330
CCE
100
AcDbEntity
  8
0
100
AcDbVertex
100
AcDb2dVertex
 10
32.00116699404566
 20
15.6551569439113
 30
0.0
  0
SEQEND
  5
CD2
330
CCE
100
AcDbEntity
  8
0
  0
POLYLINE
  5
CD3
330
1F
100
AcDbEntity
  8
0
100
AcDb2dPolyline
 66
     1
 10
0.0
 20
0.0
 30
0.0
  0
VERTEX
  5
CD4
330
CD3
100
AcDbEntity
  8
0
100
AcDbVertex
100
AcDb2dVertex
 10
34.06477999404569
 20
16.3651909439113
 30
0.0
  0
VERTEX
  5
CD5
330
CD3
100
AcDbEntity
  8
0
100
AcDbVertex
100
AcDb2dVertex
 10
35.99713399404567
 20
16.3593339439113
 30
0.0
  0
VERTEX
  5
CD6
330
CD3
100
AcDbEntity
  8
0
100
AcDbVertex
100
AcDb2dVertex
 10
36.00023399404566
 20
16.3593339439113
 30
0.0
  0
SEQEND
  5
CD7
330
CD3
100
AcDbEntity
  8
0
  0
POLYLINE
  5
CD8
330
1F
100
AcDbEntity
  8
0
100
AcDb2dPolyline
 66
     1
 10
0.0
 20
0.0
 30
0.0
  0
VERTEX
  5
CD9
330
CD8
100
AcDbEntity
  8
0
100
AcDbVertex
100
AcDb2dVertex
 10
34.40894499404567
 20
15.6551569439113
 30
0.0
  0
VERTEX
  5
CDA
330
CD8
100
AcDbEntity
  8
0
100
AcDbVertex
100
AcDb2dVertex
 10
34.19293699404568
 20
15.5759189439113
 30
0.0
  0
VERTEX
  5
CDB
330
CD8
100
AcDbEntity
  8
0
100
AcDbVertex
100
AcDb2dVertex
 10
34.06167899404568
 20
15.3867839439113
 30
0.0
  0
VERTEX
  5
CDC
330
CD8
100
AcDbEntity
  8
0
100
AcDbVertex
100
AcDb2dVertex
 10
34.06477999404569
 20
15.3867839439113
 30
0.0
  0
SEQEND
  5
CDD
330
CD8
100
AcDbEntity
  8
0
  0
SPLINE
  5
CDE
330
1F
100
AcDbEntity
  8
0
100
AcDbSpline
210
0.0
220
0.0
230
1.0
 70
     8
 71
     3
 72
    17
 73
    13
 74
     0
 42
0.0000000001
 43
0.0000000001
 40
0.0
 40
0.0
 40
0.0
 40
0.0
 40
1.0
 40
1.0
 40
1.0
 40
2.0
 40
2.0
 40
2.0
 40
3.0
 40
3.0
 40
3.0
 40
4.0
 40
4.0
 40
4.0
 40
4.0
 10
39.70336727789982
 20
21.36092366960574
 30
0.0
 10
39.70336727789982
 20
21.36092366960574
 30
0.0
 10
39.6999221824137
 20
21.04190782759184
 30
0.0
 10
39.6999221824137
 20
21.04190782759184
 30
0.0
 10
39.68338572408038
 20
20.3025903362724
 30
0.0
 10
39.65100182651097
 20
19.57395264095989
 30
0.0
 10
39.60277048970537
 20
18.83635769738352
 30
0.0
 10
39.60277048970537
 20
18.83635769738352
 30
0.0
 10
39.58106638814286
 20
18.52388753679324
 30
0.0
 10
39.58106638814286
 20
18.52388753679324
 30
0.0
 10
39.58106638814286
 20
18.52388753679324
 30
0.0
 10
39.584511483629
 20
18.52388753679324
 30
0.0
 10
39.584511483629
 20
18.52388753679324
 30
0.0
  0
SPLINE
  5
CDF
330
1F
100
AcDbEntity
  8
0
100
AcDbSpline
210
0.0
220
0.0
230
1.0
 70
     8
 71
     3
 72
    14
 73
    10
 74
     0
 42
0.0000000001
 43
0.0000000001
 40
0.0
 40
0.0
 40
0.0
 40
0.0
 40
1.0
 40
1.0
 40
1.0
 40
2.0
 40
2.0
 40
2.0
 40
3.0
 40
3.0
 40
3.0
 40
3.0
 10
40.14537302876791
 20
28.20701741960574
 30
0.0
 10
40.14537302876791
 20
28.20701741960574
 30
0.0
 10
40.40134362338597
 20
28.20047173818213
 30
0.0
 10
40.40134362338597
 20
28.20047173818213
 30
0.0
 10
40.73586239508736
 20
28.18910292307796
 30
0.0
 10
41.08243900099006
 20
28.17842312707102
 30
0.0
 10
41.41316816765677
 20
28.12433512793908
 30
0.0
 10
41.41316816765677
 20
28.12433512793908
 30
0.0
 10
41.41626875359423
 20
28.12433512793908
 30
0.0
 10
41.41626875359423
 20
28.12433512793908
 30
0.0
  0
SPLINE
  5
CE0
330
1F
100
AcDbEntity
  8
0
100
AcDbSpline
210
0.0
220
0.0
230
1.0
 70
     8
 71
     3
 72
    17
 73
    13
 74
     0
 42
0.0000000001
 43
0.0000000001
 40
0.0
 40
0.0
 40
0.0
 40
0.0
 40
1.0
 40
1.0
 40
1.0
 40
2.0
 40
2.0
 40
2.0
 40
3.0
 40
3.0
 40
3.0
 40
4.0
 40
4.0
 40
4.0
 40
4.0
 10
41.17545657911509
 20
26.99641086578628
 30
0.0
 10
41.17545657911509
 20
26.99641086578628
 30
0.0
 10
41.18441382737896
 20
27.08805040571683
 30
0.0
 10
41.18441382737896
 20
27.08805040571683
 30
0.0
 10
41.20439538119842
 20
27.22757677290433
 30
0.0
 10
41.21404164855957
 20
27.36331353505713
 30
0.0
 10
41.24573652703179
 20
27.50249539269602
 30
0.0
 10
41.24573652703179
 20
27.50249539269602
 30
0.0
 10
41.25159318935814
 20
27.53005615658491
 30
0.0
 10
41.25159318935814
 20
27.53005615658491
 30
0.0
 10
41.25159318935814
 20
27.53005615658491
 30
0.0
 10
41.25469377529566
 20
27.53005615658491
 30
0.0
 10
41.25469377529566
 20
27.53005615658491
 30
0.0
  0
POLYLINE
  5
CE1
330
1F
100
AcDbEntity
  8
0
100
AcDb2dPolyline
 66
     1
 10
0.0
 20
0.0
 30
0.0
  0
VERTEX
  5
CE2
330
CE1
100
AcDbEntity
  8
0
100
AcDbVertex
100
AcDb2dVertex
 10
41.07795999404567
 20
27.00571294391129
 30
0.0
  0
VERTEX
  5
CE3
330
CE1
100
AcDbEntity
  8
0
100
AcDbVertex
100
AcDb2dVertex
 10
41.09897499404567
 20
27.1855469439113
 30
0.0
  0
VERTEX
  5
CE4
330
CE1
100
AcDbEntity
  8
0
100
AcDbVertex
100
AcDb2dVertex
 10
41.10242099404567
 20
27.1855469439113
 30
0.0
  0
SEQEND
  5
CE5
330
CE1
100
AcDbEntity
  8
0
  0
POLYLINE
  5
CE6
330
1F
100
AcDbEntity
  8
0
100
AcDb2dPolyline
 66
     1
 10
0.0
 20
0.0
 30
0.0
  0
VERTEX
  5
CE7
330
CE6
100
AcDbEntity
  8
0
100
AcDbVertex
100
AcDb2dVertex
 10
41.09897499404567
 20
27.1855469439113
 30
0.0
  0
VERTEX
  5
CE8
330
CE6
100
AcDbEntity
  8
0
100
AcDbVertex
100
AcDb2dVertex
 10
41.11137799404568
 20
27.27408594391129
 30
0.0
  0
VERTEX
  5
CE9
330
CE6
100
AcDbEntity
  8
0
100
AcDbVertex
100
AcDb2dVertex
 10
41.12067999404567
 20
27.3564229439113
 30
0.0
  0
VERTEX
  5
CEA
330
CE6
100
AcDbEntity
  8
0
100
AcDbVertex
100
AcDb2dVertex
 10
41.13583799404565
 20
27.43841694391131
 30
0.0
  0
VERTEX
  5
CEB
330
CE6
100
AcDbEntity
  8
0
100
AcDbVertex
100
AcDb2dVertex
 10
41.14789599404568
 20
27.5179979439113
 30
0.0
  0
VERTEX
  5
CEC
330
CE6
100
AcDbEntity
  8
0
100
AcDbVertex
100
AcDb2dVertex
 10
41.15099599404567
 20
27.53005594391131
 30
0.0
  0
VERTEX
  5
CED
330
CE6
100
AcDbEntity
  8
0
100
AcDbVertex
100
AcDb2dVertex
 10
41.15409699404568
 20
27.53005594391131
 30
0.0
  0
SEQEND
  5
CEE
330
CE6
100
AcDbEntity
  8
0
  0
POLYLINE
  5
CEF
330
1F
100
AcDbEntity
  8
0
100
AcDb2dPolyline
 66
     1
 10
0.0
 20
0.0
 30
0.0
  0
VERTEX
  5
CF0
330
CEF
100
AcDbEntity
  8
0
100
AcDbVertex
100
AcDb2dVertex
 10
41.05315599404565
 20
26.8048639439113
 30
0.0
  0
VERTEX
  5
CF1
330
CEF
100
AcDbEntity
  8
0
100
AcDbVertex
100
AcDb2dVertex
 10
41.07761599404568
 20
27.00571294391129
 30
0.0
  0
VERTEX
  5
CF2
330
CEF
100
AcDbEntity
  8
0
100
AcDbVertex
100
AcDb2dVertex
 10
41.08071599404567
 20
27.00571294391129
 30
0.0
  0
SEQEND
  5
CF3
330
CEF
100
AcDbEntity
  8
0
  0
POLYLINE
  5
CF4
330
1F
100
AcDbEntity
  8
0
100
AcDb2dPolyline
 66
     1
 10
0.0
 20
0.0
 30
0.0
  0
VERTEX
  5
CF5
330
CF4
100
AcDbEntity
  8
0
100
AcDbVertex
100
AcDb2dVertex
 10
41.14169499404567
 20
26.7500869439113
 30
0.0
  0
VERTEX
  5
CF6
330
CF4
100
AcDbEntity
  8
0
100
AcDbVertex
100
AcDb2dVertex
 10
41.17545699404567
 20
26.9964109439113
 30
0.0
  0
VERTEX
  5
CF7
330
CF4
100
AcDbEntity
  8
0
100
AcDbVertex
100
AcDb2dVertex
 10
41.17855699404566
 20
26.9964109439113
 30
0.0
  0
SEQEND
  5
CF8
330
CF4
100
AcDbEntity
  8
0
  0
POLYLINE
  5
CF9
330
1F
100
AcDbEntity
  8
0
100
AcDb2dPolyline
 66
     1
 10
0.0
 20
0.0
 30
0.0
  0
VERTEX
  5
CFA
330
CF9
100
AcDbEntity
  8
0
100
AcDbVertex
100
AcDb2dVertex
 10
41.02903999404566
 20
26.62158494391129
 30
0.0
  0
VERTEX
  5
CFB
330
CF9
100
AcDbEntity
  8
0
100
AcDbVertex
100
AcDb2dVertex
 10
41.05315599404565
 20
26.80417494391129
 30
0.0
  0
VERTEX
  5
CFC
330
CF9
100
AcDbEntity
  8
0
100
AcDbVertex
100
AcDb2dVertex
 10
41.05660099404568
 20
26.80417494391129
 30
0.0
  0
SEQEND
  5
CFD
330
CF9
100
AcDbEntity
  8
0
  0
POLYLINE
  5
CFE
330
1F
100
AcDbEntity
  8
0
100
AcDb2dPolyline
 66
     1
 10
0.0
 20
0.0
 30
0.0
  0
VERTEX
  5
CFF
330
CFE
100
AcDbEntity
  8
0
100
AcDbVertex
100
AcDb2dVertex
 10
41.12033499404566
 20
26.56990794391131
 30
0.0
  0
VERTEX
  5
D00
330
CFE
100
AcDbEntity
  8
0
100
AcDbVertex
100
AcDb2dVertex
 10
41.14134999404567
 20
26.7500869439113
 30
0.0
  0
VERTEX
  5
D01
330
CFE
100
AcDbEntity
  8
0
100
AcDbVertex
100
AcDb2dVertex
 10
41.14479499404566
 20
26.7500869439113
 30
0.0
  0
SEQEND
  5
D02
330
CFE
100
AcDbEntity
  8
0
  0
SPLINE
  5
D03
330
1F
100
AcDbEntity
  8
0
100
AcDbSpline
210
0.0
220
0.0
230
1.0
 70
     8
 71
     3
 72
    17
 73
    13
 74
     0
 42
0.0000000001
 43
0.0000000001
 40
0.0
 40
0.0
 40
0.0
 40
0.0
 40
1.0
 40
1.0
 40
1.0
 40
2.0
 40
2.0
 40
2.0
 40
3.0
 40
3.0
 40
3.0
 40
4.0
 40
4.0
 40
4.0
 40
4.0
 10
41.17511206956649
 20
26.99641086578628
 30
0.0
 10
41.17511206956649
 20
26.99641086578628
 30
0.0
 10
41.16581031175402
 20
26.9998559612724
 30
0.0
 10
41.16581031175402
 20
26.9998559612724
 30
0.0
 10
41.13893856696231
 20
27.00846869998769
 30
0.0
 10
41.11103329352483
 20
27.01260281457101
 30
0.0
 10
41.08381703918456
 20
27.0088132095363
 30
0.0
 10
41.08381703918456
 20
27.0088132095363
 30
0.0
 10
41.07761586730956
 20
27.0057126235988
 30
0.0
 10
41.07761586730956
 20
27.0057126235988
 30
0.0
 10
41.07761586730956
 20
27.0057126235988
 30
0.0
 10
41.08037194369842
 20
27.0057126235988
 30
0.0
 10
41.08037194369842
 20
27.0057126235988
 30
0.0
  0
POLYLINE
  5
D04
330
1F
100
AcDbEntity
  8
0
100
AcDb2dPolyline
 66
     1
 10
0.0
 20
0.0
 30
0.0
  0
VERTEX
  5
D05
330
D04
100
AcDbEntity
  8
0
100
AcDbVertex
100
AcDb2dVertex
 10
42.21759799404568
 20
28.0481989439113
 30
0.0
  0
VERTEX
  5
D06
330
D04
100
AcDbEntity
  8
0
100
AcDbVertex
100
AcDb2dVertex
 10
42.18107999404568
 20
28.0481989439113
 30
0.0
  0
VERTEX
  5
D07
330
D04
100
AcDbEntity
  8
0
100
AcDbVertex
100
AcDb2dVertex
 10
42.13801599404567
 20
28.05129894391129
 30
0.0
  0
VERTEX
  5
D08
330
D04
100
AcDbEntity
  8
0
100
AcDbVertex
100
AcDb2dVertex
 10
42.14111699404566
 20
28.05129894391129
 30
0.0
  0
SEQEND
  5
D09
330
D04
100
AcDbEntity
  8
0
  0
LINE
  5
D0A
330
1F
100
AcDbEntity
  8
0
100
AcDbLine
 10
42.16282099404568
 20
28.0481989439113
 30
0.0
 11
42.18383599404567
 21
28.0481989439113
 31
0.0
  0
POLYLINE
  5
D0B
330
1F
100
AcDbEntity
  8
0
100
AcDb2dPolyline
 66
     1
 10
0.0
 20
0.0
 30
0.0
  0
VERTEX
  5
D0C
330
D0B
100
AcDbEntity
  8
0
100
AcDbVertex
100
AcDb2dVertex
 10
42.03466299404567
 20
28.0481989439113
 30
0.0
  0
VERTEX
  5
D0D
330
D0B
100
AcDbEntity
  8
0
100
AcDbVertex
100
AcDb2dVertex
 10
42.01330399404568
 20
28.0481989439113
 30
0.0
  0
VERTEX
  5
D0E
330
D0B
100
AcDbEntity
  8
0
100
AcDbVertex
100
AcDb2dVertex
 10
42.00710299404568
 20
28.05129894391129
 30
0.0
  0
VERTEX
  5
D0F
330
D0B
100
AcDbEntity
  8
0
100
AcDbVertex
100
AcDb2dVertex
 10
41.98884399404568
 20
28.05129894391129
 30
0.0
  0
VERTEX
  5
D10
330
D0B
100
AcDbEntity
  8
0
100
AcDbVertex
100
AcDb2dVertex
 10
41.98298699404566
 20
28.05439994391129
 30
0.0
  0
VERTEX
  5
D11
330
D0B
100
AcDbEntity
  8
0
100
AcDbVertex
100
AcDb2dVertex
 10
41.97678599404565
 20
28.05439994391129
 30
0.0
  0
VERTEX
  5
D12
330
D0B
100
AcDbEntity
  8
0
100
AcDbVertex
100
AcDb2dVertex
 10
41.97954199404565
 20
28.05439994391129
 30
0.0
  0
SEQEND
  5
D13
330
D0B
100
AcDbEntity
  8
0
  0
LINE
  5
D14
330
1F
100
AcDbEntity
  8
0
100
AcDbLine
 10
42.12940399404567
 20
28.0481989439113
 30
0.0
 11
42.16557699404569
 21
28.0481989439113
 31
0.0
  0
POLYLINE
  5
D15
330
1F
100
AcDbEntity
  8
0
100
AcDb2dPolyline
 66
     1
 10
0.0
 20
0.0
 30
0.0
  0
VERTEX
  5
D16
330
D15
100
AcDbEntity
  8
0
100
AcDbVertex
100
AcDb2dVertex
 10
42.09908699404567
 20
28.0516439439113
 30
0.0
  0
VERTEX
  5
D17
330
D15
100
AcDbEntity
  8
0
100
AcDbVertex
100
AcDb2dVertex
 10
42.12940399404567
 20
28.0481989439113
 30
0.0
  0
VERTEX
  5
D18
330
D15
100
AcDbEntity
  8
0
100
AcDbVertex
100
AcDb2dVertex
 10
42.13250399404569
 20
28.0481989439113
 30
0.0
  0
SEQEND
  5
D19
330
D15
100
AcDbEntity
  8
0
  0
LINE
  5
D1A
330
1F
100
AcDbEntity
  8
0
100
AcDbLine
 10
42.06532499404568
 20
28.0516439439113
 30
0.0
 11
42.10218699404566
 21
28.0516439439113
 31
0.0
  0
POLYLINE
  5
D1B
330
1F
100
AcDbEntity
  8
0
100
AcDb2dPolyline
 66
     1
 10
0.0
 20
0.0
 30
0.0
  0
VERTEX
  5
D1C
330
D1B
100
AcDbEntity
  8
0
100
AcDbVertex
100
AcDb2dVertex
 10
42.13836099404566
 20
28.0516439439113
 30
0.0
  0
VERTEX
  5
D1D
330
D1B
100
AcDbEntity
  8
0
100
AcDbVertex
100
AcDb2dVertex
 10
42.09254099404566
 20
28.0516439439113
 30
0.0
  0
VERTEX
  5
D1E
330
D1B
100
AcDbEntity
  8
0
100
AcDbVertex
100
AcDb2dVertex
 10
42.04396499404566
 20
28.05439994391129
 30
0.0
  0
VERTEX
  5
D1F
330
D1B
100
AcDbEntity
  8
0
100
AcDbVertex
100
AcDb2dVertex
 10
41.99194399404567
 20
28.0574999439113
 30
0.0
  0
VERTEX
  5
D20
330
D1B
100
AcDbEntity
  8
0
100
AcDbVertex
100
AcDb2dVertex
 10
41.91305199404567
 20
28.0637019439113
 30
0.0
  0
VERTEX
  5
D21
330
D1B
100
AcDbEntity
  8
0
100
AcDbVertex
100
AcDb2dVertex
 10
41.91580799404568
 20
28.0637019439113
 30
0.0
  0
SEQEND
  5
D22
330
D1B
100
AcDbEntity
  8
0
  0
POLYLINE
  5
D23
330
1F
100
AcDbEntity
  8
0
100
AcDb2dPolyline
 66
     1
 10
0.0
 20
0.0
 30
0.0
  0
VERTEX
  5
D24
330
D23
100
AcDbEntity
  8
0
100
AcDbVertex
100
AcDb2dVertex
 10
42.01950499404569
 20
28.05439994391129
 30
0.0
  0
VERTEX
  5
D25
330
D23
100
AcDbEntity
  8
0
100
AcDbVertex
100
AcDb2dVertex
 10
42.06532499404568
 20
28.05129894391129
 30
0.0
  0
VERTEX
  5
D26
330
D23
100
AcDbEntity
  8
0
100
AcDbVertex
100
AcDb2dVertex
 10
42.06842499404567
 20
28.05129894391129
 30
0.0
  0
SEQEND
  5
D27
330
D23
100
AcDbEntity
  8
0
  0
POLYLINE
  5
D28
330
1F
100
AcDbEntity
  8
0
100
AcDb2dPolyline
 66
     1
 10
0.0
 20
0.0
 30
0.0
  0
VERTEX
  5
D29
330
D28
100
AcDbEntity
  8
0
100
AcDbVertex
100
AcDb2dVertex
 10
41.94646899404569
 20
28.0574999439113
 30
0.0
  0
VERTEX
  5
D2A
330
D28
100
AcDbEntity
  8
0
100
AcDbVertex
100
AcDb2dVertex
 10
41.95887099404567
 20
28.05439994391129
 30
0.0
  0
VERTEX
  5
D2B
330
D28
100
AcDbEntity
  8
0
100
AcDbVertex
100
AcDb2dVertex
 10
42.02260599404567
 20
28.05439994391129
 30
0.0
  0
SEQEND
  5
D2C
330
D28
100
AcDbEntity
  8
0
  0
LINE
  5
D2D
330
1F
100
AcDbEntity
  8
0
100
AcDbLine
 10
41.90719499404568
 20
28.0637019439113
 30
0.0
 11
41.91615199404568
 21
28.0637019439113
 31
0.0
  0
POLYLINE
  5
D2E
330
1F
100
AcDbEntity
  8
0
100
AcDb2dPolyline
 66
     1
 10
0.0
 20
0.0
 30
0.0
  0
VERTEX
  5
D2F
330
D2E
100
AcDbEntity
  8
0
100
AcDbVertex
100
AcDb2dVertex
 10
41.84931699404566
 20
28.0637019439113
 30
0.0
  0
VERTEX
  5
D30
330
D2E
100
AcDbEntity
  8
0
100
AcDbVertex
100
AcDb2dVertex
 10
41.86137499404568
 20
28.0602559439113
 30
0.0
  0
VERTEX
  5
D31
330
D2E
100
AcDbEntity
  8
0
100
AcDbVertex
100
AcDb2dVertex
 10
41.88893599404567
 20
28.0602559439113
 30
0.0
  0
VERTEX
  5
D32
330
D2E
100
AcDbEntity
  8
0
100
AcDbVertex
100
AcDb2dVertex
 10
41.90409399404567
 20
28.0574999439113
 30
0.0
  0
VERTEX
  5
D33
330
D2E
100
AcDbEntity
  8
0
100
AcDbVertex
100
AcDb2dVertex
 10
41.94956999404567
 20
28.0574999439113
 30
0.0
  0
SEQEND
  5
D34
330
D2E
100
AcDbEntity
  8
0
  0
POLYLINE
  5
D35
330
1F
100
AcDbEntity
  8
0
100
AcDb2dPolyline
 66
     1
 10
0.0
 20
0.0
 30
0.0
  0
VERTEX
  5
D36
330
D35
100
AcDbEntity
  8
0
100
AcDbVertex
100
AcDb2dVertex
 10
41.91305199404567
 20
28.0637019439113
 30
0.0
  0
VERTEX
  5
D37
330
D35
100
AcDbEntity
  8
0
100
AcDbVertex
100
AcDb2dVertex
 10
41.92235299404569
 20
28.0637019439113
 30
0.0
  0
VERTEX
  5
D38
330
D35
100
AcDbEntity
  8
0
100
AcDbVertex
100
AcDb2dVertex
 10
41.97712999404569
 20
28.05439994391129
 30
0.0
  0
VERTEX
  5
D39
330
D35
100
AcDbEntity
  8
0
100
AcDbVertex
100
AcDb2dVertex
 10
41.98023099404565
 20
28.05439994391129
 30
0.0
  0
SEQEND
  5
D3A
330
D35
100
AcDbEntity
  8
0
  0
SPLINE
  5
D3B
330
1F
100
AcDbEntity
  8
0
100
AcDbSpline
210
0.0
220
0.0
230
1.0
 70
     8
 71
     3
 72
    14
 73
    10
 74
     0
 42
0.0000000001
 43
0.0000000001
 40
0.0
 40
0.0
 40
0.0
 40
0.0
 40
1.0
 40
1.0
 40
1.0
 40
2.0
 40
2.0
 40
2.0
 40
3.0
 40
3.0
 40
3.0
 40
3.0
 10
41.7211597041151
 20
28.0785153579738
 30
0.0
 10
41.7211597041151
 20
28.0785153579738
 30
0.0
 10
41.74217478658039
 20
28.07575928158491
 30
0.0
 10
41.74217478658039
 20
28.07575928158491
 30
0.0
 10
41.77490319369849
 20
28.06783556196683
 30
0.0
 10
41.80108591939284
 20
28.06818007151546
 30
0.0
 10
41.83071374057337
 20
28.06335693783491
 30
0.0
 10
41.83071374057337
 20
28.06335693783491
 30
0.0
 10
41.85241784213594
 20
28.06335693783491
 30
0.0
 10
41.85241784213594
 20
28.06335693783491
 30
0.0
  0
POLYLINE
  5
D3C
330
1F
100
AcDbEntity
  8
0
100
AcDb2dPolyline
 66
     1
 10
0.0
 20
0.0
 30
0.0
  0
VERTEX
  5
D3D
330
D3C
100
AcDbEntity
  8
0
100
AcDbVertex
100
AcDb2dVertex
 10
41.65087999404568
 20
28.08781694391131
 30
0.0
  0
VERTEX
  5
D3E
330
D3C
100
AcDbEntity
  8
0
100
AcDbVertex
100
AcDb2dVertex
 10
41.67533999404568
 20
28.0847169439113
 30
0.0
  0
VERTEX
  5
D3F
330
D3C
100
AcDbEntity
  8
0
100
AcDbVertex
100
AcDb2dVertex
 10
41.69669999404567
 20
28.0816159439113
 30
0.0
  0
VERTEX
  5
D40
330
D3C
100
AcDbEntity
  8
0
100
AcDbVertex
100
AcDb2dVertex
 10
41.72115999404567
 20
28.0785149439113
 30
0.0
  0
VERTEX
  5
D41
330
D3C
100
AcDbEntity
  8
0
100
AcDbVertex
100
AcDb2dVertex
 10
41.72425999404566
 20
28.0785149439113
 30
0.0
  0
SEQEND
  5
D42
330
D3C
100
AcDbEntity
  8
0
  0
POLYLINE
  5
D43
330
1F
100
AcDbEntity
  8
0
100
AcDb2dPolyline
 66
     1
 10
0.0
 20
0.0
 30
0.0
  0
VERTEX
  5
D44
330
D43
100
AcDbEntity
  8
0
100
AcDbVertex
100
AcDb2dVertex
 10
41.5992029940457
 20
28.0967739439113
 30
0.0
  0
VERTEX
  5
D45
330
D43
100
AcDbEntity
  8
0
100
AcDbVertex
100
AcDb2dVertex
 10
41.65087999404568
 20
28.08781694391131
 30
0.0
  0
VERTEX
  5
D46
330
D43
100
AcDbEntity
  8
0
100
AcDbVertex
100
AcDb2dVertex
 10
41.6539799940457
 20
28.08781694391131
 30
0.0
  0
SEQEND
  5
D47
330
D43
100
AcDbEntity
  8
0
  0
POLYLINE
  5
D48
330
1F
100
AcDbEntity
  8
0
100
AcDb2dPolyline
 66
     1
 10
0.0
 20
0.0
 30
0.0
  0
VERTEX
  5
D49
330
D48
100
AcDbEntity
  8
0
100
AcDbVertex
100
AcDb2dVertex
 10
41.48000299404569
 20
28.1150329439113
 30
0.0
  0
VERTEX
  5
D4A
330
D48
100
AcDbEntity
  8
0
100
AcDbVertex
100
AcDb2dVertex
 10
41.5992029940457
 20
28.0967739439113
 30
0.0
  0
VERTEX
  5
D4B
330
D48
100
AcDbEntity
  8
0
100
AcDbVertex
100
AcDb2dVertex
 10
41.60230399404568
 20
28.0967739439113
 30
0.0
  0
SEQEND
  5
D4C
330
D48
100
AcDbEntity
  8
0
  0
POLYLINE
  5
D4D
330
1F
100
AcDbEntity
  8
0
100
AcDb2dPolyline
 66
     1
 10
0.0
 20
0.0
 30
0.0
  0
VERTEX
  5
D4E
330
D4D
100
AcDbEntity
  8
0
100
AcDbVertex
100
AcDb2dVertex
 10
42.40363299404566
 20
27.00571294391129
 30
0.0
  0
VERTEX
  5
D4F
330
D4D
100
AcDbEntity
  8
0
100
AcDbVertex
100
AcDb2dVertex
 10
42.40983399404567
 20
27.0484319439113
 30
0.0
  0
VERTEX
  5
D50
330
D4D
100
AcDbEntity
  8
0
100
AcDbVertex
100
AcDb2dVertex
 10
42.42809299404567
 20
27.1948479439113
 30
0.0
  0
VERTEX
  5
D51
330
D4D
100
AcDbEntity
  8
0
100
AcDbVertex
100
AcDb2dVertex
 10
42.43119399404569
 20
27.1948479439113
 30
0.0
  0
SEQEND
  5
D52
330
D4D
100
AcDbEntity
  8
0
  0
POLYLINE
  5
D53
330
1F
100
AcDbEntity
  8
0
100
AcDb2dPolyline
 66
     1
 10
0.0
 20
0.0
 30
0.0
  0
VERTEX
  5
D54
330
D53
100
AcDbEntity
  8
0
100
AcDbVertex
100
AcDb2dVertex
 10
41.41316799404566
 20
28.12433494391129
 30
0.0
  0
VERTEX
  5
D55
330
D53
100
AcDbEntity
  8
0
100
AcDbVertex
100
AcDb2dVertex
 10
41.48000299404569
 20
28.1150329439113
 30
0.0
  0
VERTEX
  5
D56
330
D53
100
AcDbEntity
  8
0
100
AcDbVertex
100
AcDb2dVertex
 10
41.48344799404569
 20
28.1150329439113
 30
0.0
  0
SEQEND
  5
D57
330
D53
100
AcDbEntity
  8
0
  0
POLYLINE
  5
D58
330
1F
100
AcDbEntity
  8
0
100
AcDb2dPolyline
 66
     1
 10
0.0
 20
0.0
 30
0.0
  0
VERTEX
  5
D59
330
D58
100
AcDbEntity
  8
0
100
AcDbVertex
100
AcDb2dVertex
 10
40.91638499404567
 20
25.8357579439113
 30
0.0
  0
VERTEX
  5
D5A
330
D58
100
AcDbEntity
  8
0
100
AcDbVertex
100
AcDb2dVertex
 10
40.91914099404568
 20
25.8478159439113
 30
0.0
  0
VERTEX
  5
D5B
330
D58
100
AcDbEntity
  8
0
100
AcDbVertex
100
AcDb2dVertex
 10
40.91914099404568
 20
25.8629749439113
 30
0.0
  0
VERTEX
  5
D5C
330
D58
100
AcDbEntity
  8
0
100
AcDbVertex
100
AcDb2dVertex
 10
40.92258699404567
 20
25.8781329439113
 30
0.0
  0
VERTEX
  5
D5D
330
D58
100
AcDbEntity
  8
0
100
AcDbVertex
100
AcDb2dVertex
 10
40.92568699404566
 20
25.8932909439113
 30
0.0
  0
VERTEX
  5
D5E
330
D58
100
AcDbEntity
  8
0
100
AcDbVertex
100
AcDb2dVertex
 10
40.92878799404568
 20
25.8932909439113
 30
0.0
  0
SEQEND
  5
D5F
330
D58
100
AcDbEntity
  8
0
  0
POLYLINE
  5
D60
330
1F
100
AcDbEntity
  8
0
100
AcDb2dPolyline
 66
     1
 10
0.0
 20
0.0
 30
0.0
  0
VERTEX
  5
D61
330
D60
100
AcDbEntity
  8
0
100
AcDbVertex
100
AcDb2dVertex
 10
40.98666499404567
 20
26.3077359439113
 30
0.0
  0
VERTEX
  5
D62
330
D60
100
AcDbEntity
  8
0
100
AcDbVertex
100
AcDb2dVertex
 10
41.00767999404567
 20
26.4572529439113
 30
0.0
  0
VERTEX
  5
D63
330
D60
100
AcDbEntity
  8
0
100
AcDbVertex
100
AcDb2dVertex
 10
41.01078099404566
 20
26.4572529439113
 30
0.0
  0
SEQEND
  5
D64
330
D60
100
AcDbEntity
  8
0
  0
POLYLINE
  5
D65
330
1F
100
AcDbEntity
  8
0
100
AcDb2dPolyline
 66
     1
 10
0.0
 20
0.0
 30
0.0
  0
VERTEX
  5
D66
330
D65
100
AcDbEntity
  8
0
100
AcDbVertex
100
AcDb2dVertex
 10
41.07795999404567
 20
26.2591599439113
 30
0.0
  0
VERTEX
  5
D67
330
D65
100
AcDbEntity
  8
0
100
AcDbVertex
100
AcDb2dVertex
 10
41.09621899404567
 20
26.40833294391131
 30
0.0
  0
VERTEX
  5
D68
330
D65
100
AcDbEntity
  8
0
100
AcDbVertex
100
AcDb2dVertex
 10
41.09897499404567
 20
26.40833294391131
 30
0.0
  0
SEQEND
  5
D69
330
D65
100
AcDbEntity
  8
0
  0
POLYLINE
  5
D6A
330
1F
100
AcDbEntity
  8
0
100
AcDb2dPolyline
 66
     1
 10
0.0
 20
0.0
 30
0.0
  0
VERTEX
  5
D6B
330
D6A
100
AcDbEntity
  8
0
100
AcDbVertex
100
AcDb2dVertex
 10
40.96496099404567
 20
26.1709659439113
 30
0.0
  0
VERTEX
  5
D6C
330
D6A
100
AcDbEntity
  8
0
100
AcDbVertex
100
AcDb2dVertex
 10
40.98666499404567
 20
26.3077359439113
 30
0.0
  0
VERTEX
  5
D6D
330
D6A
100
AcDbEntity
  8
0
100
AcDbVertex
100
AcDb2dVertex
 10
40.98942099404567
 20
26.3077359439113
 30
0.0
  0
SEQEND
  5
D6E
330
D6A
100
AcDbEntity
  8
0
  0
POLYLINE
  5
D6F
330
1F
100
AcDbEntity
  8
0
100
AcDb2dPolyline
 66
     1
 10
0.0
 20
0.0
 30
0.0
  0
VERTEX
  5
D70
330
D6F
100
AcDbEntity
  8
0
100
AcDbVertex
100
AcDb2dVertex
 10
41.05660099404568
 20
26.1279019439113
 30
0.0
  0
VERTEX
  5
D71
330
D6F
100
AcDbEntity
  8
0
100
AcDbVertex
100
AcDb2dVertex
 10
41.07761599404568
 20
26.2588159439113
 30
0.0
  0
VERTEX
  5
D72
330
D6F
100
AcDbEntity
  8
0
100
AcDbVertex
100
AcDb2dVertex
 10
41.08071599404567
 20
26.2588159439113
 30
0.0
  0
SEQEND
  5
D73
330
D6F
100
AcDbEntity
  8
0
  0
POLYLINE
  5
D74
330
1F
100
AcDbEntity
  8
0
100
AcDb2dPolyline
 66
     1
 10
0.0
 20
0.0
 30
0.0
  0
VERTEX
  5
D75
330
D74
100
AcDbEntity
  8
0
100
AcDbVertex
100
AcDb2dVertex
 10
40.94980299404568
 20
26.05176594391131
 30
0.0
  0
VERTEX
  5
D76
330
D74
100
AcDbEntity
  8
0
100
AcDbVertex
100
AcDb2dVertex
 10
40.96496099404567
 20
26.1706219439113
 30
0.0
  0
VERTEX
  5
D77
330
D74
100
AcDbEntity
  8
0
100
AcDbVertex
100
AcDb2dVertex
 10
40.96840599404567
 20
26.1706219439113
 30
0.0
  0
SEQEND
  5
D78
330
D74
100
AcDbEntity
  8
0
  0
POLYLINE
  5
D79
330
1F
100
AcDbEntity
  8
0
100
AcDb2dPolyline
 66
     1
 10
0.0
 20
0.0
 30
0.0
  0
VERTEX
  5
D7A
330
D79
100
AcDbEntity
  8
0
100
AcDbVertex
100
AcDb2dVertex
 10
41.03834199404568
 20
26.0093909439113
 30
0.0
  0
VERTEX
  5
D7B
330
D79
100
AcDbEntity
  8
0
100
AcDbVertex
100
AcDb2dVertex
 10
41.05694499404566
 20
26.1279019439113
 30
0.0
  0
VERTEX
  5
D7C
330
D79
100
AcDbEntity
  8
0
100
AcDbVertex
100
AcDb2dVertex
 10
41.05970099404567
 20
26.1279019439113
 30
0.0
  0
SEQEND
  5
D7D
330
D79
100
AcDbEntity
  8
0
  0
POLYLINE
  5
D7E
330
1F
100
AcDbEntity
  8
0
100
AcDb2dPolyline
 66
     1
 10
0.0
 20
0.0
 30
0.0
  0
VERTEX
  5
D7F
330
D7E
100
AcDbEntity
  8
0
100
AcDbVertex
100
AcDb2dVertex
 10
40.93188799404567
 20
25.9425559439113
 30
0.0
  0
VERTEX
  5
D80
330
D7E
100
AcDbEntity
  8
0
100
AcDbVertex
100
AcDb2dVertex
 10
40.95014699404567
 20
26.05176594391131
 30
0.0
  0
VERTEX
  5
D81
330
D7E
100
AcDbEntity
  8
0
100
AcDbVertex
100
AcDb2dVertex
 10
40.95324799404568
 20
26.05176594391131
 30
0.0
  0
SEQEND
  5
D82
330
D7E
100
AcDbEntity
  8
0
  0
POLYLINE
  5
D83
330
1F
100
AcDbEntity
  8
0
100
AcDb2dPolyline
 66
     1
 10
0.0
 20
0.0
 30
0.0
  0
VERTEX
  5
D84
330
D83
100
AcDbEntity
  8
0
100
AcDbVertex
100
AcDb2dVertex
 10
40.92603199404567
 20
25.89363594391129
 30
0.0
  0
VERTEX
  5
D85
330
D83
100
AcDbEntity
  8
0
100
AcDbVertex
100
AcDb2dVertex
 10
40.93188799404567
 20
25.94221194391129
 30
0.0
  0
VERTEX
  5
D86
330
D83
100
AcDbEntity
  8
0
100
AcDbVertex
100
AcDb2dVertex
 10
40.93498899404568
 20
25.94221194391129
 30
0.0
  0
SEQEND
  5
D87
330
D83
100
AcDbEntity
  8
0
  0
POLYLINE
  5
D88
330
1F
100
AcDbEntity
  8
0
100
AcDb2dPolyline
 66
     1
 10
0.0
 20
0.0
 30
0.0
  0
VERTEX
  5
D89
330
D88
100
AcDbEntity
  8
0
100
AcDbVertex
100
AcDb2dVertex
 10
41.02042699404569
 20
25.8815779439113
 30
0.0
  0
VERTEX
  5
D8A
330
D88
100
AcDbEntity
  8
0
100
AcDbVertex
100
AcDb2dVertex
 10
41.02318299404567
 20
25.9056939439113
 30
0.0
  0
VERTEX
  5
D8B
330
D88
100
AcDbEntity
  8
0
100
AcDbVertex
100
AcDb2dVertex
 10
41.03868599404566
 20
26.0093909439113
 30
0.0
  0
VERTEX
  5
D8C
330
D88
100
AcDbEntity
  8
0
100
AcDbVertex
100
AcDb2dVertex
 10
41.04178699404568
 20
26.0093909439113
 30
0.0
  0
SEQEND
  5
D8D
330
D88
100
AcDbEntity
  8
0
  0
POLYLINE
  5
D8E
330
1F
100
AcDbEntity
  8
0
100
AcDb2dPolyline
 66
     1
 10
0.0
 20
0.0
 30
0.0
  0
VERTEX
  5
D8F
330
D8E
100
AcDbEntity
  8
0
100
AcDbVertex
100
AcDb2dVertex
 10
40.96530599404565
 20
25.7076009439113
 30
0.0
  0
VERTEX
  5
D90
330
D8E
100
AcDbEntity
  8
0
100
AcDbVertex
100
AcDb2dVertex
 10
40.96875099404567
 20
25.7231039439113
 30
0.0
  0
VERTEX
  5
D91
330
D8E
100
AcDbEntity
  8
0
100
AcDbVertex
100
AcDb2dVertex
 10
40.97150699404565
 20
25.7317159439113
 30
0.0
  0
VERTEX
  5
D92
330
D8E
100
AcDbEntity
  8
0
100
AcDbVertex
100
AcDb2dVertex
 10
40.97460799404567
 20
25.7410179439113
 30
0.0
  0
VERTEX
  5
D93
330
D8E
100
AcDbEntity
  8
0
100
AcDbVertex
100
AcDb2dVertex
 10
40.97770799404566
 20
25.75031994391131
 30
0.0
  0
VERTEX
  5
D94
330
D8E
100
AcDbEntity
  8
0
100
AcDbVertex
100
AcDb2dVertex
 10
40.97770799404566
 20
25.7592769439113
 30
0.0
  0
VERTEX
  5
D95
330
D8E
100
AcDbEntity
  8
0
100
AcDbVertex
100
AcDb2dVertex
 10
40.98046399404566
 20
25.76857894391129
 30
0.0
  0
VERTEX
  5
D96
330
D8E
100
AcDbEntity
  8
0
100
AcDbVertex
100
AcDb2dVertex
 10
40.98390899404566
 20
25.76857894391129
 30
0.0
  0
SEQEND
  5
D97
330
D8E
100
AcDbEntity
  8
0
  0
POLYLINE
  5
D98
330
1F
100
AcDbEntity
  8
0
100
AcDb2dPolyline
 66
     1
 10
0.0
 20
0.0
 30
0.0
  0
VERTEX
  5
D99
330
D98
100
AcDbEntity
  8
0
100
AcDbVertex
100
AcDb2dVertex
 10
40.98976599404568
 20
25.6586799439113
 30
0.0
  0
VERTEX
  5
D9A
330
D98
100
AcDbEntity
  8
0
100
AcDbVertex
100
AcDb2dVertex
 10
40.98976599404568
 20
25.6528239439113
 30
0.0
  0
VERTEX
  5
D9B
330
D98
100
AcDbEntity
  8
0
100
AcDbVertex
100
AcDb2dVertex
 10
40.98390899404566
 20
25.64352194391131
 30
0.0
  0
VERTEX
  5
D9C
330
D98
100
AcDbEntity
  8
0
100
AcDbVertex
100
AcDb2dVertex
 10
40.98046399404566
 20
25.6349089439113
 30
0.0
  0
VERTEX
  5
D9D
330
D98
100
AcDbEntity
  8
0
100
AcDbVertex
100
AcDb2dVertex
 10
40.97460799404567
 20
25.6311199439113
 30
0.0
  0
VERTEX
  5
D9E
330
D98
100
AcDbEntity
  8
0
100
AcDbVertex
100
AcDb2dVertex
 10
40.95944899404568
 20
25.6311199439113
 30
0.0
  0
VERTEX
  5
D9F
330
D98
100
AcDbEntity
  8
0
100
AcDbVertex
100
AcDb2dVertex
 10
40.95324799404568
 20
25.6349089439113
 30
0.0
  0
VERTEX
  5
DA0
330
D98
100
AcDbEntity
  8
0
100
AcDbVertex
100
AcDb2dVertex
 10
40.95634899404567
 20
25.6349089439113
 30
0.0
  0
SEQEND
  5
DA1
330
D98
100
AcDbEntity
  8
0
  0
POLYLINE
  5
DA2
330
1F
100
AcDbEntity
  8
0
100
AcDb2dPolyline
 66
     1
 10
0.0
 20
0.0
 30
0.0
  0
VERTEX
  5
DA3
330
DA2
100
AcDbEntity
  8
0
100
AcDbVertex
100
AcDb2dVertex
 10
40.98046399404566
 20
25.76892294391129
 30
0.0
  0
VERTEX
  5
DA4
330
DA2
100
AcDbEntity
  8
0
100
AcDbVertex
100
AcDb2dVertex
 10
40.98666499404567
 20
25.7868379439113
 30
0.0
  0
VERTEX
  5
DA5
330
DA2
100
AcDbEntity
  8
0
100
AcDbVertex
100
AcDb2dVertex
 10
40.98976599404568
 20
25.7961399439113
 30
0.0
  0
VERTEX
  5
DA6
330
DA2
100
AcDbEntity
  8
0
100
AcDbVertex
100
AcDb2dVertex
 10
40.99286699404567
 20
25.7961399439113
 30
0.0
  0
SEQEND
  5
DA7
330
DA2
100
AcDbEntity
  8
0
  0
POLYLINE
  5
DA8
330
1F
100
AcDbEntity
  8
0
100
AcDb2dPolyline
 66
     1
 10
0.0
 20
0.0
 30
0.0
  0
VERTEX
  5
DA9
330
DA8
100
AcDbEntity
  8
0
100
AcDbVertex
100
AcDb2dVertex
 10
40.98976599404568
 20
25.7964839439113
 30
0.0
  0
VERTEX
  5
DAA
330
DA8
100
AcDbEntity
  8
0
100
AcDbVertex
100
AcDb2dVertex
 10
40.99562299404567
 20
25.81749894391129
 30
0.0
  0
VERTEX
  5
DAB
330
DA8
100
AcDbEntity
  8
0
100
AcDbVertex
100
AcDb2dVertex
 10
40.99906799404567
 20
25.82680094391129
 30
0.0
  0
VERTEX
  5
DAC
330
DA8
100
AcDbEntity
  8
0
100
AcDbVertex
100
AcDb2dVertex
 10
41.00216799404566
 20
25.82680094391129
 30
0.0
  0
SEQEND
  5
DAD
330
DA8
100
AcDbEntity
  8
0
  0
POLYLINE
  5
DAE
330
1F
100
AcDbEntity
  8
0
100
AcDb2dPolyline
 66
     1
 10
0.0
 20
0.0
 30
0.0
  0
VERTEX
  5
DAF
330
DAE
100
AcDbEntity
  8
0
100
AcDbVertex
100
AcDb2dVertex
 10
40.99906799404567
 20
25.82680094391129
 30
0.0
  0
VERTEX
  5
DB0
330
DAE
100
AcDbEntity
  8
0
100
AcDbVertex
100
AcDb2dVertex
 10
41.00802499404568
 20
25.8478159439113
 30
0.0
  0
VERTEX
  5
DB1
330
DAE
100
AcDbEntity
  8
0
100
AcDbVertex
100
AcDb2dVertex
 10
41.01078099404566
 20
25.8598739439113
 30
0.0
  0
VERTEX
  5
DB2
330
DAE
100
AcDbEntity
  8
0
100
AcDbVertex
100
AcDb2dVertex
 10
41.01422599404568
 20
25.8691759439113
 30
0.0
  0
VERTEX
  5
DB3
330
DAE
100
AcDbEntity
  8
0
100
AcDbVertex
100
AcDb2dVertex
 10
41.01732699404567
 20
25.8781329439113
 30
0.0
  0
VERTEX
  5
DB4
330
DAE
100
AcDbEntity
  8
0
100
AcDbVertex
100
AcDb2dVertex
 10
41.02008299404568
 20
25.8781329439113
 30
0.0
  0
SEQEND
  5
DB5
330
DAE
100
AcDbEntity
  8
0
  0
LINE
  5
DB6
330
1F
100
AcDbEntity
  8
0
100
AcDbLine
 10
40.98390899404566
 20
25.6497229439113
 30
0.0
 11
40.98700999404568
 21
25.6497229439113
 31
0.0
  0
POLYLINE
  5
DB7
330
1F
100
AcDbEntity
  8
0
100
AcDb2dPolyline
 66
     1
 10
0.0
 20
0.0
 30
0.0
  0
VERTEX
  5
DB8
330
DB7
100
AcDbEntity
  8
0
100
AcDbVertex
100
AcDb2dVertex
 10
40.98390899404566
 20
25.6497229439113
 30
0.0
  0
VERTEX
  5
DB9
330
DB7
100
AcDbEntity
  8
0
100
AcDbVertex
100
AcDb2dVertex
 10
40.98046399404566
 20
25.6497229439113
 30
0.0
  0
VERTEX
  5
DBA
330
DB7
100
AcDbEntity
  8
0
100
AcDbVertex
100
AcDb2dVertex
 10
40.98046399404566
 20
25.66212494391129
 30
0.0
  0
VERTEX
  5
DBB
330
DB7
100
AcDbEntity
  8
0
100
AcDbVertex
100
AcDb2dVertex
 10
40.98390899404566
 20
25.6679819439113
 30
0.0
  0
VERTEX
  5
DBC
330
DB7
100
AcDbEntity
  8
0
100
AcDbVertex
100
AcDb2dVertex
 10
40.98700999404568
 20
25.6679819439113
 30
0.0
  0
SEQEND
  5
DBD
330
DB7
100
AcDbEntity
  8
0
  0
SPLINE
  5
DBE
330
1F
100
AcDbEntity
  8
0
100
AcDbSpline
210
0.0
220
0.0
230
1.0
 70
     8
 71
     3
 72
    17
 73
    13
 74
     0
 42
0.0000000001
 43
0.0000000001
 40
0.0
 40
0.0
 40
0.0
 40
0.0
 40
1.0
 40
1.0
 40
1.0
 40
2.0
 40
2.0
 40
2.0
 40
3.0
 40
3.0
 40
3.0
 40
4.0
 40
4.0
 40
4.0
 40
4.0
 10
40.96530575446232
 20
25.70760064443213
 30
0.0
 10
40.96530575446232
 20
25.70760064443213
 30
0.0
 10
40.95944909213597
 20
25.70450005849463
 30
0.0
 10
40.95944909213597
 20
25.70450005849463
 30
0.0
 10
40.94739125793455
 20
25.70518907759187
 30
0.0
 10
40.9401565574137
 20
25.68830810970991
 30
0.0
 10
40.93498891418457
 20
25.68003988054324
 30
0.0
 10
40.93498891418457
 20
25.68003988054324
 30
0.0
 10
40.93188832824705
 20
25.67728380415433
 30
0.0
 10
40.93188832824705
 20
25.67728380415433
 30
0.0
 10
40.93188832824705
 20
25.67728380415433
 30
0.0
 10
40.93498891418457
 20
25.67728380415433
 30
0.0
 10
40.93498891418457
 20
25.67728380415433
 30
0.0
  0
POLYLINE
  5
DBF
330
1F
100
AcDbEntity
  8
0
100
AcDb2dPolyline
 66
     1
 10
0.0
 20
0.0
 30
0.0
  0
VERTEX
  5
DC0
330
DBF
100
AcDbEntity
  8
0
100
AcDbVertex
100
AcDb2dVertex
 10
40.98390899404566
 20
25.6679819439113
 30
0.0
  0
VERTEX
  5
DC1
330
DBF
100
AcDbEntity
  8
0
100
AcDbVertex
100
AcDb2dVertex
 10
40.97770799404566
 20
25.6652259439113
 30
0.0
  0
VERTEX
  5
DC2
330
DBF
100
AcDbEntity
  8
0
100
AcDbVertex
100
AcDb2dVertex
 10
40.97460799404567
 20
25.6652259439113
 30
0.0
  0
VERTEX
  5
DC3
330
DBF
100
AcDbEntity
  8
0
100
AcDbVertex
100
AcDb2dVertex
 10
40.96875099404567
 20
25.66212494391129
 30
0.0
  0
VERTEX
  5
DC4
330
DBF
100
AcDbEntity
  8
0
100
AcDbVertex
100
AcDb2dVertex
 10
40.96530599404565
 20
25.6586799439113
 30
0.0
  0
VERTEX
  5
DC5
330
DBF
100
AcDbEntity
  8
0
100
AcDbVertex
100
AcDb2dVertex
 10
40.96254999404567
 20
25.6528239439113
 30
0.0
  0
VERTEX
  5
DC6
330
DBF
100
AcDbEntity
  8
0
100
AcDbVertex
100
AcDb2dVertex
 10
40.95634899404567
 20
25.6497229439113
 30
0.0
  0
VERTEX
  5
DC7
330
DBF
100
AcDbEntity
  8
0
100
AcDbVertex
100
AcDb2dVertex
 10
40.95359199404566
 20
25.6462779439113
 30
0.0
  0
VERTEX
  5
DC8
330
DBF
100
AcDbEntity
  8
0
100
AcDbVertex
100
AcDb2dVertex
 10
40.95359199404566
 20
25.64042094391131
 30
0.0
  0
VERTEX
  5
DC9
330
DBF
100
AcDbEntity
  8
0
100
AcDbVertex
100
AcDb2dVertex
 10
40.95014699404567
 20
25.6376649439113
 30
0.0
  0
VERTEX
  5
DCA
330
DBF
100
AcDbEntity
  8
0
100
AcDbVertex
100
AcDb2dVertex
 10
40.95359199404566
 20
25.6376649439113
 30
0.0
  0
SEQEND
  5
DCB
330
DBF
100
AcDbEntity
  8
0
  0
SPLINE
  5
DCC
330
1F
100
AcDbEntity
  8
0
100
AcDbSpline
210
0.0
220
0.0
230
1.0
 70
     8
 71
     3
 72
    17
 73
    13
 74
     0
 42
0.0000000001
 43
0.0000000001
 40
0.0
 40
0.0
 40
0.0
 40
0.0
 40
1.0
 40
1.0
 40
1.0
 40
2.0
 40
2.0
 40
2.0
 40
3.0
 40
3.0
 40
3.0
 40
4.0
 40
4.0
 40
4.0
 40
4.0
 10
41.02042728224006
 20
25.88157796648073
 30
0.0
 10
41.02042728224006
 20
25.88157796648073
 30
0.0
 10
41.0114700339762
 20
25.88467855241824
 30
0.0
 10
41.0114700339762
 20
25.88467855241824
 30
0.0
 10
40.9866653464762
 20
25.89639187707101
 30
0.0
 10
40.95944909213597
 20
25.89742540571683
 30
0.0
 10
40.93188832824705
 20
25.89639187707101
 30
0.0
 10
40.93188832824705
 20
25.89639187707101
 30
0.0
 10
40.92603166592065
 20
25.89363580068213
 30
0.0
 10
40.92603166592065
 20
25.89363580068213
 30
0.0
 10
40.92603166592065
 20
25.89363580068213
 30
0.0
 10
40.92913225185813
 20
25.89363580068213
 30
0.0
 10
40.92913225185813
 20
25.89363580068213
 30
0.0
  0
POLYLINE
  5
DCD
330
1F
100
AcDbEntity
  8
0
100
AcDb2dPolyline
 66
     1
 10
0.0
 20
0.0
 30
0.0
  0
VERTEX
  5
DCE
330
DCD
100
AcDbEntity
  8
0
100
AcDbVertex
100
AcDb2dVertex
 10
40.95359199404566
 20
25.6349089439113
 30
0.0
  0
VERTEX
  5
DCF
330
DCD
100
AcDbEntity
  8
0
100
AcDbVertex
100
AcDb2dVertex
 10
40.95014699404567
 20
25.6376649439113
 30
0.0
  0
VERTEX
  5
DD0
330
DCD
100
AcDbEntity
  8
0
100
AcDbVertex
100
AcDb2dVertex
 10
40.95359199404566
 20
25.6376649439113
 30
0.0
  0
SEQEND
  5
DD1
330
DCD
100
AcDbEntity
  8
0
  0
POLYLINE
  5
DD2
330
1F
100
AcDbEntity
  8
0
100
AcDb2dPolyline
 66
     1
 10
0.0
 20
0.0
 30
0.0
  0
VERTEX
  5
DD3
330
DD2
100
AcDbEntity
  8
0
100
AcDbVertex
100
AcDb2dVertex
 10
40.98390899404566
 20
25.6679819439113
 30
0.0
  0
VERTEX
  5
DD4
330
DD2
100
AcDbEntity
  8
0
100
AcDbVertex
100
AcDb2dVertex
 10
40.96530599404565
 20
25.7076009439113
 30
0.0
  0
VERTEX
  5
DD5
330
DD2
100
AcDbEntity
  8
0
100
AcDbVertex
100
AcDb2dVertex
 10
40.96875099404567
 20
25.7076009439113
 30
0.0
  0
SEQEND
  5
DD6
330
DD2
100
AcDbEntity
  8
0
  0
POLYLINE
  5
DD7
330
1F
100
AcDbEntity
  8
0
100
AcDb2dPolyline
 66
     1
 10
0.0
 20
0.0
 30
0.0
  0
VERTEX
  5
DD8
330
DD7
100
AcDbEntity
  8
0
100
AcDbVertex
100
AcDb2dVertex
 10
40.95014699404567
 20
25.6376649439113
 30
0.0
  0
VERTEX
  5
DD9
330
DD7
100
AcDbEntity
  8
0
100
AcDbVertex
100
AcDb2dVertex
 10
40.93188799404567
 20
25.67728394391131
 30
0.0
  0
VERTEX
  5
DDA
330
DD7
100
AcDbEntity
  8
0
100
AcDbVertex
100
AcDb2dVertex
 10
40.93498899404568
 20
25.67728394391131
 30
0.0
  0
SEQEND
  5
DDB
330
DD7
100
AcDbEntity
  8
0
  0
SPLINE
  5
DDC
330
1F
100
AcDbEntity
  8
0
100
AcDbSpline
210
0.0
220
0.0
230
1.0
 70
     8
 71
     3
 72
    17
 73
    13
 74
     0
 42
0.0000000001
 43
0.0000000001
 40
0.0
 40
0.0
 40
0.0
 40
0.0
 40
1.0
 40
1.0
 40
1.0
 40
2.0
 40
2.0
 40
2.0
 40
3.0
 40
3.0
 40
3.0
 40
4.0
 40
4.0
 40
4.0
 40
4.0
 10
40.93188832824705
 20
25.67728380415433
 30
0.0
 10
40.93188832824705
 20
25.67728380415433
 30
0.0
 10
40.92913225185813
 20
25.68624105241824
 30
0.0
 10
40.92913225185813
 20
25.68624105241824
 30
0.0
 10
40.91707441765677
 20
25.7131127972099
 30
0.0
 10
40.92293107998313
 20
25.7375729751613
 30
0.0
 10
40.91672990810812
 20
25.75927707672379
 30
0.0
 10
40.91672990810812
 20
25.75927707672379
 30
0.0
 10
40.91672990810812
 20
25.83541368696683
 30
0.0
 10
40.91672990810812
 20
25.83541368696683
 30
0.0
 10
40.91672990810812
 20
25.83541368696683
 30
0.0
 10
40.91948598449707
 20
25.83541368696683
 30
0.0
 10
40.91948598449707
 20
25.83541368696683
 30
0.0
  0
POLYLINE
  5
DDD
330
1F
100
AcDbEntity
  8
0
100
AcDb2dPolyline
 66
     1
 10
0.0
 20
0.0
 30
0.0
  0
VERTEX
  5
DDE
330
DDD
100
AcDbEntity
  8
0
100
AcDbVertex
100
AcDb2dVertex
 10
42.30062499404567
 20
26.2777639439113
 30
0.0
  0
VERTEX
  5
DDF
330
DDD
100
AcDbEntity
  8
0
100
AcDbVertex
100
AcDb2dVertex
 10
42.29166799404566
 20
26.19852694391131
 30
0.0
  0
VERTEX
  5
DE0
330
DDD
100
AcDbEntity
  8
0
100
AcDbVertex
100
AcDb2dVertex
 10
42.29442399404567
 20
26.19852694391131
 30
0.0
  0
SEQEND
  5
DE1
330
DDD
100
AcDbEntity
  8
0
  0
POLYLINE
  5
DE2
330
1F
100
AcDbEntity
  8
0
100
AcDb2dPolyline
 66
     1
 10
0.0
 20
0.0
 30
0.0
  0
VERTEX
  5
DE3
330
DE2
100
AcDbEntity
  8
0
100
AcDbVertex
100
AcDb2dVertex
 10
42.25480499404568
 20
25.96701594391131
 30
0.0
  0
VERTEX
  5
DE4
330
DE2
100
AcDbEntity
  8
0
100
AcDbVertex
100
AcDb2dVertex
 10
42.30338099404565
 20
26.29636794391131
 30
0.0
  0
VERTEX
  5
DE5
330
DE2
100
AcDbEntity
  8
0
100
AcDbVertex
100
AcDb2dVertex
 10
42.30682599404568
 20
26.29636794391131
 30
0.0
  0
SEQEND
  5
DE6
330
DE2
100
AcDbEntity
  8
0
  0
POLYLINE
  5
DE7
330
1F
100
AcDbEntity
  8
0
100
AcDb2dPolyline
 66
     1
 10
0.0
 20
0.0
 30
0.0
  0
VERTEX
  5
DE8
330
DE7
100
AcDbEntity
  8
0
100
AcDbVertex
100
AcDb2dVertex
 10
42.29166799404566
 20
26.1988709439113
 30
0.0
  0
VERTEX
  5
DE9
330
DE7
100
AcDbEntity
  8
0
100
AcDbVertex
100
AcDb2dVertex
 10
42.27650899404565
 20
26.1130879439113
 30
0.0
  0
VERTEX
  5
DEA
330
DE7
100
AcDbEntity
  8
0
100
AcDbVertex
100
AcDb2dVertex
 10
42.27926499404566
 20
26.1130879439113
 30
0.0
  0
SEQEND
  5
DEB
330
DE7
100
AcDbEntity
  8
0
  0
POLYLINE
  5
DEC
330
1F
100
AcDbEntity
  8
0
100
AcDb2dPolyline
 66
     1
 10
0.0
 20
0.0
 30
0.0
  0
VERTEX
  5
DED
330
DEC
100
AcDbEntity
  8
0
100
AcDbVertex
100
AcDb2dVertex
 10
42.27650899404565
 20
26.1130879439113
 30
0.0
  0
VERTEX
  5
DEE
330
DEC
100
AcDbEntity
  8
0
100
AcDbVertex
100
AcDb2dVertex
 10
42.26410699404567
 20
26.0276499439113
 30
0.0
  0
VERTEX
  5
DEF
330
DEC
100
AcDbEntity
  8
0
100
AcDbVertex
100
AcDb2dVertex
 10
42.25514999404569
 20
25.98182994391131
 30
0.0
  0
VERTEX
  5
DF0
330
DEC
100
AcDbEntity
  8
0
100
AcDbVertex
100
AcDb2dVertex
 10
42.24894799404569
 20
25.9332539439113
 30
0.0
  0
VERTEX
  5
DF1
330
DEC
100
AcDbEntity
  8
0
100
AcDbVertex
100
AcDb2dVertex
 10
42.25204899404568
 20
25.9332539439113
 30
0.0
  0
SEQEND
  5
DF2
330
DEC
100
AcDbEntity
  8
0
  0
POLYLINE
  5
DF3
330
1F
100
AcDbEntity
  8
0
100
AcDb2dPolyline
 66
     1
 10
0.0
 20
0.0
 30
0.0
  0
VERTEX
  5
DF4
330
DF3
100
AcDbEntity
  8
0
100
AcDbVertex
100
AcDb2dVertex
 10
42.30062499404567
 20
26.2777639439113
 30
0.0
  0
VERTEX
  5
DF5
330
DF3
100
AcDbEntity
  8
0
100
AcDbVertex
100
AcDb2dVertex
 10
42.40432199404568
 20
27.0064019439113
 30
0.0
  0
VERTEX
  5
DF6
330
DF3
100
AcDbEntity
  8
0
100
AcDbVertex
100
AcDb2dVertex
 10
42.40742299404567
 20
27.0064019439113
 30
0.0
  0
SEQEND
  5
DF7
330
DF3
100
AcDbEntity
  8
0
  0
POLYLINE
  5
DF8
330
1F
100
AcDbEntity
  8
0
100
AcDb2dPolyline
 66
     1
 10
0.0
 20
0.0
 30
0.0
  0
VERTEX
  5
DF9
330
DF8
100
AcDbEntity
  8
0
100
AcDbVertex
100
AcDb2dVertex
 10
41.00802499404568
 20
26.45794194391129
 30
0.0
  0
VERTEX
  5
DFA
330
DF8
100
AcDbEntity
  8
0
100
AcDbVertex
100
AcDb2dVertex
 10
41.02938499404567
 20
26.62261794391131
 30
0.0
  0
VERTEX
  5
DFB
330
DF8
100
AcDbEntity
  8
0
100
AcDbVertex
100
AcDb2dVertex
 10
41.03248499404566
 20
26.62261794391131
 30
0.0
  0
SEQEND
  5
DFC
330
DF8
100
AcDbEntity
  8
0
  0
POLYLINE
  5
DFD
330
1F
100
AcDbEntity
  8
0
100
AcDb2dPolyline
 66
     1
 10
0.0
 20
0.0
 30
0.0
  0
VERTEX
  5
DFE
330
DFD
100
AcDbEntity
  8
0
100
AcDbVertex
100
AcDb2dVertex
 10
41.09656399404568
 20
26.4090219439113
 30
0.0
  0
VERTEX
  5
DFF
330
DFD
100
AcDbEntity
  8
0
100
AcDbVertex
100
AcDb2dVertex
 10
41.12102399404569
 20
26.57059694391131
 30
0.0
  0
VERTEX
  5
E00
330
DFD
100
AcDbEntity
  8
0
100
AcDbVertex
100
AcDb2dVertex
 10
41.12412499404567
 20
26.57059694391131
 30
0.0
  0
SEQEND
  5
E01
330
DFD
100
AcDbEntity
  8
0
  0
POLYLINE
  5
E02
330
1F
100
AcDbEntity
  8
0
100
AcDb2dPolyline
 66
     1
 10
0.0
 20
0.0
 30
0.0
  0
VERTEX
  5
E03
330
E02
100
AcDbEntity
  8
0
100
AcDbVertex
100
AcDb2dVertex
 10
41.01732699404567
 20
25.87882194391131
 30
0.0
  0
VERTEX
  5
E04
330
E02
100
AcDbEntity
  8
0
100
AcDbVertex
100
AcDb2dVertex
 10
42.19658299404565
 20
27.5310899439113
 30
0.0
  0
VERTEX
  5
E05
330
E02
100
AcDbEntity
  8
0
100
AcDbVertex
100
AcDb2dVertex
 10
42.19968299404567
 20
27.5310899439113
 30
0.0
  0
SEQEND
  5
E06
330
E02
100
AcDbEntity
  8
0
  0
POLYLINE
  5
E07
330
1F
100
AcDbEntity
  8
0
100
AcDb2dPolyline
 66
     1
 10
0.0
 20
0.0
 30
0.0
  0
VERTEX
  5
E08
330
E07
100
AcDbEntity
  8
0
100
AcDbVertex
100
AcDb2dVertex
 10
42.32784099404568
 20
27.5310899439113
 30
0.0
  0
VERTEX
  5
E09
330
E07
100
AcDbEntity
  8
0
100
AcDbVertex
100
AcDb2dVertex
 10
40.98390899404566
 20
25.6504119439113
 30
0.0
  0
VERTEX
  5
E0A
330
E07
100
AcDbEntity
  8
0
100
AcDbVertex
100
AcDb2dVertex
 10
40.98666499404567
 20
25.6504119439113
 30
0.0
  0
SEQEND
  5
E0B
330
E07
100
AcDbEntity
  8
0
  0
POLYLINE
  5
E0C
330
1F
100
AcDbEntity
  8
0
100
AcDb2dPolyline
 66
     1
 10
0.0
 20
0.0
 30
0.0
  0
VERTEX
  5
E0D
330
E0C
100
AcDbEntity
  8
0
100
AcDbVertex
100
AcDb2dVertex
 10
42.31268299404567
 20
27.5310899439113
 30
0.0
  0
VERTEX
  5
E0E
330
E0C
100
AcDbEntity
  8
0
100
AcDbVertex
100
AcDb2dVertex
 10
40.98390899404566
 20
25.66867094391131
 30
0.0
  0
VERTEX
  5
E0F
330
E0C
100
AcDbEntity
  8
0
100
AcDbVertex
100
AcDb2dVertex
 10
40.98700999404568
 20
25.66867094391131
 30
0.0
  0
SEQEND
  5
E10
330
E0C
100
AcDbEntity
  8
0
  0
POLYLINE
  5
E11
330
1F
100
AcDbEntity
  8
0
100
AcDb2dPolyline
 66
     1
 10
0.0
 20
0.0
 30
0.0
  0
VERTEX
  5
E12
330
E11
100
AcDbEntity
  8
0
100
AcDbVertex
100
AcDb2dVertex
 10
40.96530599404565
 20
25.7082899439113
 30
0.0
  0
VERTEX
  5
E13
330
E11
100
AcDbEntity
  8
0
100
AcDbVertex
100
AcDb2dVertex
 10
42.26686299404568
 20
27.5310899439113
 30
0.0
  0
VERTEX
  5
E14
330
E11
100
AcDbEntity
  8
0
100
AcDbVertex
100
AcDb2dVertex
 10
42.26996299404567
 20
27.5310899439113
 30
0.0
  0
SEQEND
  5
E15
330
E11
100
AcDbEntity
  8
0
  0
POLYLINE
  5
E16
330
1F
100
AcDbEntity
  8
0
100
AcDb2dPolyline
 66
     1
 10
0.0
 20
0.0
 30
0.0
  0
VERTEX
  5
E17
330
E16
100
AcDbEntity
  8
0
100
AcDbVertex
100
AcDb2dVertex
 10
41.13308199404565
 20
22.5990909439113
 30
0.0
  0
VERTEX
  5
E18
330
E16
100
AcDbEntity
  8
0
100
AcDbVertex
100
AcDb2dVertex
 10
41.12998099404566
 20
22.59633494391129
 30
0.0
  0
VERTEX
  5
E19
330
E16
100
AcDbEntity
  8
0
100
AcDbVertex
100
AcDb2dVertex
 10
41.13308199404565
 20
22.59633494391129
 30
0.0
  0
SEQEND
  5
E1A
330
E16
100
AcDbEntity
  8
0
  0
POLYLINE
  5
E1B
330
1F
100
AcDbEntity
  8
0
100
AcDb2dPolyline
 66
     1
 10
0.0
 20
0.0
 30
0.0
  0
VERTEX
  5
E1C
330
E1B
100
AcDbEntity
  8
0
100
AcDbVertex
100
AcDb2dVertex
 10
41.78213799404568
 20
24.16591994391131
 30
0.0
  0
VERTEX
  5
E1D
330
E1B
100
AcDbEntity
  8
0
100
AcDbVertex
100
AcDb2dVertex
 10
41.74217499404568
 20
24.0563659439113
 30
0.0
  0
VERTEX
  5
E1E
330
E1B
100
AcDbEntity
  8
0
100
AcDbVertex
100
AcDb2dVertex
 10
41.74527499404567
 20
24.0563659439113
 30
0.0
  0
SEQEND
  5
E1F
330
E1B
100
AcDbEntity
  8
0
  0
POLYLINE
  5
E20
330
1F
100
AcDbEntity
  8
0
100
AcDb2dPolyline
 66
     1
 10
0.0
 20
0.0
 30
0.0
  0
VERTEX
  5
E21
330
E20
100
AcDbEntity
  8
0
100
AcDbVertex
100
AcDb2dVertex
 10
41.13308199404565
 20
22.5990909439113
 30
0.0
  0
VERTEX
  5
E22
330
E20
100
AcDbEntity
  8
0
100
AcDbVertex
100
AcDb2dVertex
 10
41.23953499404566
 20
22.7823699439113
 30
0.0
  0
VERTEX
  5
E23
330
E20
100
AcDbEntity
  8
0
100
AcDbVertex
100
AcDb2dVertex
 10
41.36149199404568
 20
23.0080239439113
 30
0.0
  0
VERTEX
  5
E24
330
E20
100
AcDbEntity
  8
0
100
AcDbVertex
100
AcDb2dVertex
 10
41.46828999404568
 20
23.23298894391129
 30
0.0
  0
VERTEX
  5
E25
330
E20
100
AcDbEntity
  8
0
100
AcDbVertex
100
AcDb2dVertex
 10
41.47138999404567
 20
23.23298894391129
 30
0.0
  0
SEQEND
  5
E26
330
E20
100
AcDbEntity
  8
0
  0
SPLINE
  5
E27
330
1F
100
AcDbEntity
  8
0
100
AcDbSpline
210
0.0
220
0.0
230
1.0
 70
     8
 71
     3
 72
    17
 73
    13
 74
     0
 42
0.0000000001
 43
0.0000000001
 40
0.0
 40
0.0
 40
0.0
 40
0.0
 40
1.0
 40
1.0
 40
1.0
 40
2.0
 40
2.0
 40
2.0
 40
3.0
 40
3.0
 40
3.0
 40
4.0
 40
4.0
 40
4.0
 40
4.0
 10
42.23034481696231
 20
25.83954780155018
 30
0.0
 10
42.23034481696231
 20
25.83954780155018
 30
0.0
 10
42.22104305914982
 20
25.78718235016129
 30
0.0
 10
42.22104305914982
 20
25.78718235016129
 30
0.0
 10
42.11872372321233
 20
25.2569821548488
 30
0.0
 10
41.98023088467064
 20
24.73298313141129
 30
0.0
 10
41.80039690029568
 20
24.22379801856408
 30
0.0
 10
41.80039690029568
 20
24.22379801856408
 30
0.0
 10
41.78213789421929
 20
24.16592041439739
 30
0.0
 10
41.78213789421929
 20
24.16592041439739
 30
0.0
 10
41.78213789421929
 20
24.16592041439739
 30
0.0
 10
41.78523848015678
 20
24.16592041439739
 30
0.0
 10
41.78523848015678
 20
24.16592041439739
 30
0.0
  0
SPLINE
  5
E28
330
1F
100
AcDbEntity
  8
0
100
AcDbSpline
210
0.0
220
0.0
230
1.0
 70
     8
 71
     3
 72
    17
 73
    13
 74
     0
 42
0.0000000001
 43
0.0000000001
 40
0.0
 40
0.0
 40
0.0
 40
0.0
 40
1.0
 40
1.0
 40
1.0
 40
2.0
 40
2.0
 40
2.0
 40
3.0
 40
3.0
 40
3.0
 40
4.0
 40
4.0
 40
4.0
 40
4.0
 10
41.46828969543458
 20
23.23298855675852
 30
0.0
 10
41.46828969543458
 20
23.23298855675852
 30
0.0
 10
41.55682864942764
 20
23.44934055328629
 30
0.0
 10
41.55682864942764
 20
23.44934055328629
 30
0.0
 10
41.8327807978651
 20
24.1628198284599
 30
0.0
 10
42.04913279439284
 20
24.89972575293908
 30
0.0
 10
42.19658288119842
 20
25.65041205936268
 30
0.0
 10
42.19658288119842
 20
25.65041205936268
 30
0.0
 10
42.25446048536511
 20
25.9670163345363
 30
0.0
 10
42.25446048536511
 20
25.9670163345363
 30
0.0
 10
42.25446048536511
 20
25.9670163345363
 30
0.0
 10
42.25756107130258
 20
25.9670163345363
 30
0.0
 10
42.25756107130258
 20
25.9670163345363
 30
0.0
  0
POLYLINE
  5
E29
330
1F
100
AcDbEntity
  8
0
100
AcDb2dPolyline
 66
     1
 10
0.0
 20
0.0
 30
0.0
  0
VERTEX
  5
E2A
330
E29
100
AcDbEntity
  8
0
100
AcDbVertex
100
AcDb2dVertex
 10
39.95348099404566
 20
18.39435194391129
 30
0.0
  0
VERTEX
  5
E2B
330
E29
100
AcDbEntity
  8
0
100
AcDbVertex
100
AcDb2dVertex
 10
40.41960299404567
 20
21.81291994391131
 30
0.0
  0
VERTEX
  5
E2C
330
E29
100
AcDbEntity
  8
0
100
AcDbVertex
100
AcDb2dVertex
 10
40.42304799404567
 20
21.81291994391131
 30
0.0
  0
SEQEND
  5
E2D
330
E29
100
AcDbEntity
  8
0
  0
SPLINE
  5
E2E
330
1F
100
AcDbEntity
  8
0
100
AcDbSpline
210
0.0
220
0.0
230
1.0
 70
     8
 71
     3
 72
    17
 73
    13
 74
     0
 42
0.0000000001
 43
0.0000000001
 40
0.0
 40
0.0
 40
0.0
 40
0.0
 40
1.0
 40
1.0
 40
1.0
 40
2.0
 40
2.0
 40
2.0
 40
3.0
 40
3.0
 40
3.0
 40
4.0
 40
4.0
 40
4.0
 40
4.0
 10
39.95933787251792
 20
21.49872748905018
 30
0.0
 10
39.95933787251792
 20
21.49872748905018
 30
0.0
 10
40.18809221279568
 20
21.64204346127241
 30
0.0
 10
40.18809221279568
 20
21.64204346127241
 30
0.0
 10
40.51296471713593
 20
21.86149604373768
 30
0.0
 10
40.81785566765677
 20
22.15295112186268
 30
0.0
 10
41.04729902703178
 20
22.47093343523073
 30
0.0
 10
41.04729902703178
 20
22.47093343523073
 30
0.0
 10
41.1299813186985
 20
22.59599040137658
 30
0.0
 10
41.1299813186985
 20
22.59599040137658
 30
0.0
 10
41.1299813186985
 20
22.59599040137658
 30
0.0
 10
41.13273739508736
 20
22.59599040137658
 30
0.0
 10
41.13273739508736
 20
22.59599040137658
 30
0.0
  0
POLYLINE
  5
E2F
330
1F
100
AcDbEntity
  8
0
100
AcDb2dPolyline
 66
     1
 10
0.0
 20
0.0
 30
0.0
  0
VERTEX
  5
E30
330
E2F
100
AcDbEntity
  8
0
100
AcDbVertex
100
AcDb2dVertex
 10
39.86184199404568
 20
28.2135629439113
 30
0.0
  0
VERTEX
  5
E31
330
E2F
100
AcDbEntity
  8
0
100
AcDbVertex
100
AcDb2dVertex
 10
40.14537299404568
 20
28.20736194391129
 30
0.0
  0
VERTEX
  5
E32
330
E2F
100
AcDbEntity
  8
0
100
AcDbVertex
100
AcDb2dVertex
 10
40.14847399404567
 20
28.20736194391129
 30
0.0
  0
SEQEND
  5
E33
330
E2F
100
AcDbEntity
  8
0
  0
SPLINE
  5
E34
330
1F
100
AcDbEntity
  8
0
100
AcDbSpline
210
0.0
220
0.0
230
1.0
 70
     8
 71
     3
 72
    17
 73
    13
 74
     0
 42
0.0000000001
 43
0.0000000001
 40
0.0
 40
0.0
 40
0.0
 40
0.0
 40
1.0
 40
1.0
 40
1.0
 40
2.0
 40
2.0
 40
2.0
 40
3.0
 40
3.0
 40
3.0
 40
4.0
 40
4.0
 40
4.0
 40
4.0
 10
29.65126766852484
 20
16.33556288401546
 30
0.0
 10
29.65126766852484
 20
16.33556288401546
 30
0.0
 10
29.42905900967062
 20
16.34796522776546
 30
0.0
 10
29.42905900967062
 20
16.34796522776546
 30
0.0
 10
28.1836569914415
 20
16.47198866526546
 30
0.0
 10
27.15564049838594
 20
17.3752927017238
 30
0.0
 10
26.87176463033038
 20
18.59416748470991
 30
0.0
 10
26.87176463033038
 20
18.59416748470991
 30
0.0
 10
26.82904544630261
 20
18.8170651626613
 30
0.0
 10
26.82904544630261
 20
18.8170651626613
 30
0.0
 10
26.82904544630261
 20
18.8170651626613
 30
0.0
 10
26.83180152269151
 20
18.8170651626613
 30
0.0
 10
26.83180152269151
 20
18.8170651626613
 30
0.0
  0
POLYLINE
  5
E35
330
1F
100
AcDbEntity
  8
0
100
AcDb2dPolyline
 66
     1
 10
0.0
 20
0.0
 30
0.0
  0
VERTEX
  5
E36
330
E35
100
AcDbEntity
  8
0
100
AcDbVertex
100
AcDb2dVertex
 10
29.12106699404566
 20
28.2438799439113
 30
0.0
  0
VERTEX
  5
E37
330
E35
100
AcDbEntity
  8
0
100
AcDbVertex
100
AcDb2dVertex
 10
28.27081799404567
 20
28.2349229439113
 30
0.0
  0
VERTEX
  5
E38
330
E35
100
AcDbEntity
  8
0
100
AcDbVertex
100
AcDb2dVertex
 10
28.27357399404568
 20
28.2349229439113
 30
0.0
  0
SEQEND
  5
E39
330
E35
100
AcDbEntity
  8
0
  0
LINE
  5
E3A
330
1F
100
AcDbEntity
  8
0
100
AcDbLine
 10
23.18654599404567
 20
28.0488879439113
 30
0.0
 11
31.27562999404569
 21
28.0488879439113
 31
0.0
  0
SPLINE
  5
E3B
330
1F
100
AcDbEntity
  8
0
100
AcDbSpline
210
0.0
220
0.0
230
1.0
 70
     8
 71
     3
 72
    17
 73
    13
 74
     0
 42
0.0000000001
 43
0.0000000001
 40
0.0
 40
0.0
 40
0.0
 40
0.0
 40
1.0
 40
1.0
 40
1.0
 40
2.0
 40
2.0
 40
2.0
 40
3.0
 40
3.0
 40
3.0
 40
4.0
 40
4.0
 40
4.0
 40
4.0
 10
33.20488366244843
 20
29.10653185102935
 30
0.0
 10
33.20488366244843
 20
29.10653185102935
 30
0.0
 10
32.77528025533039
 20
29.10653185102935
 30
0.0
 10
32.77528025533039
 20
29.10653185102935
 30
0.0
 10
30.03298424838593
 20
29.07966010623768
 30
0.0
 10
27.25692630567758
 20
28.86950928158491
 30
0.0
 10
24.61867218241372
 20
28.07920437707102
 30
0.0
 10
24.61867218241372
 20
28.07920437707102
 30
0.0
 10
24.49981638814288
 20
28.06404595693212
 30
0.0
 10
24.49981638814288
 20
28.06404595693212
 30
0.0
 10
24.49981638814288
 20
28.06404595693212
 30
0.0
 10
24.50326148362899
 20
28.06404595693212
 30
0.0
 10
24.50326148362899
 20
28.06404595693212
 30
0.0
  0
SPLINE
  5
E3C
330
1F
100
AcDbEntity
  8
0
100
AcDbSpline
210
0.0
220
0.0
230
1.0
 70
     8
 71
     3
 72
    17
 73
    13
 74
     0
 42
0.0000000001
 43
0.0000000001
 40
0.0
 40
0.0
 40
0.0
 40
0.0
 40
1.0
 40
1.0
 40
1.0
 40
2.0
 40
2.0
 40
2.0
 40
3.0
 40
3.0
 40
3.0
 40
4.0
 40
4.0
 40
4.0
 40
4.0
 10
41.90719486036511
 20
28.06404595693212
 30
0.0
 10
41.90719486036511
 20
28.06404595693212
 30
0.0
 10
41.78799455654567
 20
28.07920437707102
 30
0.0
 10
41.78799455654567
 20
28.07920437707102
 30
0.0
 10
39.1511184714762
 20
28.87019830068212
 30
0.0
 10
36.3760940574137
 20
29.07862657759185
 30
0.0
 10
33.63483157911512
 20
29.10653185102935
 30
0.0
 10
33.63483157911512
 20
29.10653185102935
 30
0.0
 10
33.20488366244843
 20
29.10653185102935
 30
0.0
 10
33.20488366244843
 20
29.10653185102935
 30
0.0
 10
33.20488366244843
 20
29.10653185102935
 30
0.0
 10
33.20832875793457
 20
29.10653185102935
 30
0.0
 10
33.20832875793457
 20
29.10653185102935
 30
0.0
  0
POLYLINE
  5
E3D
330
1F
100
AcDbEntity
  8
0
100
AcDb2dPolyline
 66
     1
 10
0.0
 20
0.0
 30
0.0
  0
VERTEX
  5
E3E
330
E3D
100
AcDbEntity
  8
0
100
AcDbVertex
100
AcDb2dVertex
 10
42.42809299404567
 20
27.19553694391129
 30
0.0
  0
VERTEX
  5
E3F
330
E3D
100
AcDbEntity
  8
0
100
AcDbVertex
100
AcDb2dVertex
 10
42.43739499404568
 20
27.26581694391131
 30
0.0
  0
VERTEX
  5
E40
330
E3D
100
AcDbEntity
  8
0
100
AcDbVertex
100
AcDb2dVertex
 10
42.44945299404569
 20
27.3326519439113
 30
0.0
  0
VERTEX
  5
E41
330
E3D
100
AcDbEntity
  8
0
100
AcDbVertex
100
AcDb2dVertex
 10
42.46151099404568
 20
27.4032769439113
 30
0.0
  0
VERTEX
  5
E42
330
E3D
100
AcDbEntity
  8
0
100
AcDbVertex
100
AcDb2dVertex
 10
42.47976999404568
 20
27.46666594391129
 30
0.0
  0
VERTEX
  5
E43
330
E3D
100
AcDbEntity
  8
0
100
AcDbVertex
100
AcDb2dVertex
 10
42.50147399404568
 20
27.5310899439113
 30
0.0
  0
VERTEX
  5
E44
330
E3D
100
AcDbEntity
  8
0
100
AcDbVertex
100
AcDb2dVertex
 10
42.50422999404569
 20
27.5310899439113
 30
0.0
  0
SEQEND
  5
E45
330
E3D
100
AcDbEntity
  8
0
  0
POLYLINE
  5
E46
330
1F
100
AcDbEntity
  8
0
100
AcDb2dPolyline
 66
     1
 10
0.0
 20
0.0
 30
0.0
  0
VERTEX
  5
E47
330
E46
100
AcDbEntity
  8
0
100
AcDbVertex
100
AcDb2dVertex
 10
43.80578699404566
 20
27.5310899439113
 30
0.0
  0
VERTEX
  5
E48
330
E46
100
AcDbEntity
  8
0
100
AcDbVertex
100
AcDb2dVertex
 10
43.70518999404566
 20
27.7960179439113
 30
0.0
  0
VERTEX
  5
E49
330
E46
100
AcDbEntity
  8
0
100
AcDbVertex
100
AcDb2dVertex
 10
43.49469499404569
 20
27.9820529439113
 30
0.0
  0
VERTEX
  5
E4A
330
E46
100
AcDbEntity
  8
0
100
AcDbVertex
100
AcDb2dVertex
 10
43.22046499404566
 20
28.04923194391131
 30
0.0
  0
VERTEX
  5
E4B
330
E46
100
AcDbEntity
  8
0
100
AcDbVertex
100
AcDb2dVertex
 10
43.22356599404568
 20
28.04923194391131
 30
0.0
  0
SEQEND
  5
E4C
330
E46
100
AcDbEntity
  8
0
  0
POLYLINE
  5
E4D
330
1F
100
AcDbEntity
  8
0
100
AcDb2dPolyline
 66
     1
 10
0.0
 20
0.0
 30
0.0
  0
VERTEX
  5
E4E
330
E4D
100
AcDbEntity
  8
0
100
AcDbVertex
100
AcDb2dVertex
 10
43.22046499404566
 20
28.04923194391131
 30
0.0
  0
VERTEX
  5
E4F
330
E4D
100
AcDbEntity
  8
0
100
AcDbVertex
100
AcDb2dVertex
 10
35.13723799404568
 20
28.04923194391131
 30
0.0
  0
VERTEX
  5
E50
330
E4D
100
AcDbEntity
  8
0
100
AcDbVertex
100
AcDb2dVertex
 10
35.14033799404567
 20
28.04923194391131
 30
0.0
  0
SEQEND
  5
E51
330
E4D
100
AcDbEntity
  8
0
  0
POLYLINE
  5
E52
330
1F
100
AcDbEntity
  8
0
100
AcDb2dPolyline
 66
     1
 10
0.0
 20
0.0
 30
0.0
  0
VERTEX
  5
E53
330
E52
100
AcDbEntity
  8
0
100
AcDbVertex
100
AcDb2dVertex
 10
43.80578699404566
 20
27.5310899439113
 30
0.0
  0
VERTEX
  5
E54
330
E52
100
AcDbEntity
  8
0
100
AcDbVertex
100
AcDb2dVertex
 10
22.60397999404569
 20
27.5310899439113
 30
0.0
  0
VERTEX
  5
E55
330
E52
100
AcDbEntity
  8
0
100
AcDbVertex
100
AcDb2dVertex
 10
22.60708099404567
 20
27.5310899439113
 30
0.0
  0
SEQEND
  5
E56
330
E52
100
AcDbEntity
  8
0
  0
LINE
  5
E57
330
1F
100
AcDbEntity
  8
0
100
AcDbLine
 10
43.04958899404567
 20
28.0888509439113
 30
0.0
 11
43.05268899404566
 21
28.0888509439113
 31
0.0
  0
LINE
  5
E58
330
1F
100
AcDbEntity
  8
0
100
AcDbLine
 10
43.63801099404565
 20
27.5676079439113
 30
0.0
 11
43.64076699404566
 21
27.5676079439113
 31
0.0
  0
ENDSEC
  0
SECTION
  2
OBJECTS
  0
DICTIONARY
  5
C
330
0
100
AcDbDictionary
281
     1
  3
ACAD_COLOR
350
C9
  3
ACAD_GROUP
350
D
  3
ACAD_LAYOUT
350
1A
  3
ACAD_MATERIAL
350
C8
  3
ACAD_MLEADERSTYLE
350
2EC
  3
ACAD_MLINESTYLE
350
17
  3
ACAD_PLOTSETTINGS
350
19
  3
ACAD_PLOTSTYLENAME
350
E
  3
ACAD_SCALELIST
350
2CA
  3
ACAD_TABLESTYLE
350
123
  3
ACAD_VISUALSTYLE
350
296
  3
ACDB_RECOMPOSE_DATA
350
30D
  3
AcDbVariableDictionary
350
9E
  3
AcmDictionary
350
63
  3
AMG
350
49
  3
AMGSNAPSETTINGS
350
8F1
  3
ASE_INDEX_DICTIONARY
350
E66
  0
DICTIONARY
  5
E61
330
10
100
AcDbDictionary
280
     1
281
     1
  3
ADSK_XREC_LAYER_RECONCILED
360
E62
  0
DICTIONARY
  5
E63
330
38C
100
AcDbDictionary
280
     1
281
     1
  3
ADSK_XREC_LAYER_RECONCILED
360
E64
  0
DICTIONARY
  5
99
330
1F
100
AcDbDictionary
280
     1
281
     1
  0
DICTIONARY
  5
C9
102
{ACAD_REACTORS
330
C
102
}
330
C
100
AcDbDictionary
281
     1
  0
DICTIONARY
  5
D
102
{ACAD_REACTORS
330
C
102
}
330
C
100
AcDbDictionary
281
     1
  0
DICTIONARY
  5
1A
102
{ACAD_REACTORS
330
C
102
}
330
C
100
AcDbDictionary
281
     1
  3
Layout1
350
1E
  3
Layout2
350
26
  3
Model
350
22
  0
DICTIONARY
  5
C8
102
{ACAD_REACTORS
330
C
102
}
330
C
100
AcDbDictionary
281
     1
  3
ByBlock
350
294
  3
ByLayer
350
293
  3
Global
350
295
  0
DICTIONARY
  5
2EC
102
{ACAD_REACTORS
330
C
102
}
330
C
100
AcDbDictionary
281
     1
  3
Standard
350
2ED
  0
DICTIONARY
  5
17
102
{ACAD_REACTORS
330
C
102
}
330
C
100
AcDbDictionary
281
     1
  3
Standard
350
18
  0
DICTIONARY
  5
19
102
{ACAD_REACTORS
330
C
102
}
330
C
100
AcDbDictionary
281
     1
  0
ACDBDICTIONARYWDFLT
  5
E
102
{ACAD_REACTORS
330
C
102
}
330
C
100
AcDbDictionary
281
     1
  3
Normal
350
F
100
AcDbDictionaryWithDefault
340
F
  0
DICTIONARY
  5
2CA
102
{ACAD_REACTORS
330
C
102
}
330
C
100
AcDbDictionary
281
     1
  3
A0
350
2CB
  3
A1
350
2CC
  3
A2
350
2CD
  3
A3
350
2CE
  3
A4
350
2CF
  3
A5
350
2D0
  3
A6
350
2D1
  3
A7
350
2D2
  3
A8
350
2D3
  3
A9
350
2D4
  3
B0
350
2D5
  3
B1
350
2D6
  3
B2
350
2D7
  3
B3
350
2D8
  3
B4
350
2D9
  3
B5
350
2DA
  3
B6
350
2DB
  3
B7
350
2DC
  3
B8
350
2DD
  3
B9
350
2DE
  3
C0
350
2DF
  3
C1
350
2E0
  3
C2
350
2E1
  3
C3
350
2E2
  3
C4
350
2E3
  3
C5
350
2E4
  3
C6
350
2E5
  3
C7
350
2E6
  3
C8
350
2E7
  3
C9
350
2E8
  3
D0
350
2E9
  3
D1
350
2EA
  3
D2
350
2EB
  0
DICTIONARY
  5
123
102
{ACAD_REACTORS
330
C
102
}
330
C
100
AcDbDictionary
281
     1
  3
Standard
350
124
  0
DICTIONARY
  5
296
102
{ACAD_REACTORS
330
C
102
}
330
C
100
AcDbDictionary
281
     1
  3
2dWireframe
350
29C
  3
3D Hidden
350
29E
  3
3dWireframe
350
29D
  3
Basic
350
29B
  3
Brighten
350
2A2
  3
ColorChange
350
2A6
  3
Conceptual
350
29F
  3
Dim
350
2A1
  3
Facepattern
350
2A5
  3
Flat
350
297
  3
FlatWithEdges
350
298
  3
Gouraud
350
299
  3
GouraudWithEdges
350
29A
  3
Linepattern
350
2A4
  3
Realistic
350
2A0
  3
Thicken
350
2A3
  0
XRECORD
  5
30D
102
{ACAD_REACTORS
330
C
102
}
330
C
100
AcDbXrecord
280
     1
 90
        1
330
124
  0
DICTIONARY
  5
9E
102
{ACAD_REACTORS
330
C
102
}
330
C
100
AcDbDictionary
281
     1
  3
CANNOSCALE
350
310
  3
CMLEADERSTYLE
350
30E
  3
CTABLESTYLE
350
144
  3
DIMASSOC
350
A0
  3
INDEXCTL
350
9F
  3
LAYEREVAL
350
36B
  3
LAYERNOTIFY
350
36C
  3
LIGHTINGUNITS
350
311
  3
MSLTSCALE
350
30F
  0
DICTIONARY
  5
63
102
{ACAD_REACTORS
330
C
102
}
330
C
100
AcDbDictionary
281
     1
  3
AcmStdDictionary
350
69
  3
AMDTSECTSYM_ARROWCOLOR
350
12C
  0
DICTIONARY
  5
49
102
{ACAD_REACTORS
330
C
102
}
330
C
100
AcDbDictionary
281
     1
  0
DICTIONARY
  5
8F1
102
{ACAD_REACTORS
330
C
102
}
330
C
100
AcDbDictionary
281
     1
  0
DICTIONARY
  5
E66
102
{ACAD_REACTORS
330
C
102
}
330
C
100
AcDbDictionary
281
     1
  3
ASEBlockHierarchyIndexRecord
350
E67
1001
DCO15
1040
1687863239.139
  0
XRECORD
  5
E62
102
{ACAD_REACTORS
330
E61
102
}
330
E61
100
AcDbXrecord
280
     1
290
     1
  0
XRECORD
  5
E64
102
{ACAD_REACTORS
330
E63
102
}
330
E63
100
AcDbXrecord
280
     1
290
     1
  0
LAYOUT
  5
1E
102
{ACAD_REACTORS
330
1A
102
}
330
1A
100
AcDbPlotSettings
  1

  2

  4

  6

 40
0.0
 41
0.0
 42
0.0
 43
0.0
 44
0.0
 45
0.0
 46
0.0
 47
0.0
 48
0.0
 49
0.0
140
0.0
141
0.0
142
1.0
143
1.0
 70
   688
 72
     0
 73
     0
 74
     5
  7

 75
    16
147
1.0
 76
     0
 77
     2
 78
   300
148
0.0
149
0.0
100
AcDbLayout
  1
Layout1
 70
     1
 71
     1
 10
0.0
 20
0.0
 11
12.0
 21
9.0
 12
0.0
 22
0.0
 32
0.0
 14
1.000000000000000E+20
 24
1.000000000000000E+20
 34
1.000000000000000E+20
 15
-1.000000000000000E+20
 25
-1.000000000000000E+20
 35
-1.000000000000000E+20
146
0.0
 13
0.0
 23
0.0
 33
0.0
 16
1.0
 26
0.0
 36
0.0
 17
0.0
 27
1.0
 37
0.0
 76
     0
330
1B
  0
LAYOUT
  5
26
102
{ACAD_REACTORS
330
1A
102
}
330
1A
100
AcDbPlotSettings
  1

  2

  4

  6

 40
0.0
 41
0.0
 42
0.0
 43
0.0
 44
0.0
 45
0.0
 46
0.0
 47
0.0
 48
0.0
 49
0.0
140
0.0
141
0.0
142
1.0
143
1.0
 70
   688
 72
     0
 73
     0
 74
     5
  7

 75
    16
147
1.0
 76
     0
 77
     2
 78
   300
148
0.0
149
0.0
100
AcDbLayout
  1
Layout2
 70
     1
 71
     2
 10
0.0
 20
0.0
 11
12.0
 21
9.0
 12
0.0
 22
0.0
 32
0.0
 14
0.0
 24
0.0
 34
0.0
 15
0.0
 25
0.0
 35
0.0
146
0.0
 13
0.0
 23
0.0
 33
0.0
 16
1.0
 26
0.0
 36
0.0
 17
0.0
 27
1.0
 37
0.0
 76
     0
330
23
  0
LAYOUT
  5
22
102
{ACAD_REACTORS
330
1A
102
}
330
1A
100
AcDbPlotSettings
  1

  2

  4

  6

 40
0.0
 41
0.0
 42
0.0
 43
0.0
 44
0.0
 45
0.0
 46
0.0
 47
0.0
 48
0.0
 49
0.0
140
0.0
141
0.0
142
1.0
143
1.0
 70
  1712
 72
     0
 73
     0
 74
     0
  7

 75
     0
147
1.0
 76
     0
 77
     2
 78
   300
148
0.0
149
0.0
100
AcDbLayout
  1
Model
 70
     1
 71
     0
 10
0.0
 20
0.0
 11
12.0
 21
9.0
 12
0.0
 22
0.0
 32
0.0
 14
0.0
 24
0.0
 34
0.0
 15
0.0
 25
0.0
 35
0.0
146
0.0
 13
0.0
 23
0.0
 33
0.0
 16
1.0
 26
0.0
 36
0.0
 17
0.0
 27
1.0
 37
0.0
 76
     0
330
1F
331
291
  0
MATERIAL
  5
294
102
{ACAD_REACTORS
330
C8
102
}
330
C8
100
AcDbMaterial
  1
ByBlock
 73
     1
 78
     1
172
     1
176
     1
270
     1
274
     1
 94
       63
  0
MATERIAL
  5
293
102
{ACAD_REACTORS
330
C8
102
}
330
C8
100
AcDbMaterial
  1
ByLayer
 73
     1
 78
     1
172
     1
176
     1
270
     1
274
     1
 94
       63
  0
MATERIAL
  5
295
102
{ACAD_REACTORS
330
C8
102
}
330
C8
100
AcDbMaterial
  1
Global
 73
     1
 78
     1
172
     1
176
     1
270
     1
274
     1
 94
       63
  0
MLEADERSTYLE
  5
2ED
102
{ACAD_REACTORS
330
2EC
102
}
330
2EC
100
AcDbMLeaderStyle
170
     2
171
     1
172
     0
 90
        2
 40
0.0
 41
0.0
173
     1
 91
-1056964608
340
14
 92
       -2
290
     1
 42
0.09
291
     1
 43
0.36
  3
Standard
 44
0.18
300

342
11
174
     1
178
     6
175
     1
176
     0
 93
-1056964608
 45
0.18
292
     0
297
     0
 46
0.18
 94
-1056964608
 47
1.0
 49
1.0
140
1.0
293
     1
141
0.0
294
     1
177
     0
142
1.0
295
     0
296
     0
143
0.125
1001
ACAD_MLEADERVER
1070
     2
  0
MLINESTYLE
  5
18
102
{ACAD_REACTORS
330
17
102
}
330
17
100
AcDbMlineStyle
  2
STANDARD
 70
     0
  3

 62
   256
 51
90.0
 52
90.0
 71
     2
 49
0.5
 62
   256
  6
BYLAYER
 49
-0.5
 62
   256
  6
BYLAYER
  0
ACDBPLACEHOLDER
  5
F
102
{ACAD_REACTORS
330
E
102
}
330
E
  0
SCALE
  5
2CB
102
{ACAD_REACTORS
330
2CA
102
}
330
2CA
100
AcDbScale
 70
     0
300
1:1
140
1.0
141
1.0
290
     1
  0
SCALE
  5
2CC
102
{ACAD_REACTORS
330
2CA
102
}
330
2CA
100
AcDbScale
 70
     0
300
1:2
140
1.0
141
2.0
290
     0
  0
SCALE
  5
2CD
102
{ACAD_REACTORS
330
2CA
102
}
330
2CA
100
AcDbScale
 70
     0
300
1:4
140
1.0
141
4.0
290
     0
  0
SCALE
  5
2CE
102
{ACAD_REACTORS
330
2CA
102
}
330
2CA
100
AcDbScale
 70
     0
300
1:5
140
1.0
141
5.0
290
     0
  0
SCALE
  5
2CF
102
{ACAD_REACTORS
330
2CA
102
}
330
2CA
100
AcDbScale
 70
     0
300
1:8
140
1.0
141
8.0
290
     0
  0
SCALE
  5
2D0
102
{ACAD_REACTORS
330
2CA
102
}
330
2CA
100
AcDbScale
 70
     0
300
1:10
140
1.0
141
10.0
290
     0
  0
SCALE
  5
2D1
102
{ACAD_REACTORS
330
2CA
102
}
330
2CA
100
AcDbScale
 70
     0
300
1:16
140
1.0
141
16.0
290
     0
  0
SCALE
  5
2D2
102
{ACAD_REACTORS
330
2CA
102
}
330
2CA
100
AcDbScale
 70
     0
300
1:20
140
1.0
141
20.0
290
     0
  0
SCALE
  5
2D3
102
{ACAD_REACTORS
330
2CA
102
}
330
2CA
100
AcDbScale
 70
     0
300
1:30
140
1.0
141
30.0
290
     0
  0
SCALE
  5
2D4
102
{ACAD_REACTORS
330
2CA
102
}
330
2CA
100
AcDbScale
 70
     0
300
1:40
140
1.0
141
40.0
290
     0
  0
SCALE
  5
2D5
102
{ACAD_REACTORS
330
2CA
102
}
330
2CA
100
AcDbScale
 70
     0
300
1:50
140
1.0
141
50.0
290
     0
  0
SCALE
  5
2D6
102
{ACAD_REACTORS
330
2CA
102
}
330
2CA
100
AcDbScale
 70
     0
300
1:100
140
1.0
141
100.0
290
     0
  0
SCALE
  5
2D7
102
{ACAD_REACTORS
330
2CA
102
}
330
2CA
100
AcDbScale
 70
     0
300
2:1
140
2.0
141
1.0
290
     0
  0
SCALE
  5
2D8
102
{ACAD_REACTORS
330
2CA
102
}
330
2CA
100
AcDbScale
 70
     0
300
4:1
140
4.0
141
1.0
290
     0
  0
SCALE
  5
2D9
102
{ACAD_REACTORS
330
2CA
102
}
330
2CA
100
AcDbScale
 70
     0
300
8:1
140
8.0
141
1.0
290
     0
  0
SCALE
  5
2DA
102
{ACAD_REACTORS
330
2CA
102
}
330
2CA
100
AcDbScale
 70
     0
300
10:1
140
10.0
141
1.0
290
     0
  0
SCALE
  5
2DB
102
{ACAD_REACTORS
330
2CA
102
}
330
2CA
100
AcDbScale
 70
     0
300
100:1
140
100.0
141
1.0
290
     0
  0
SCALE
  5
2DC
102
{ACAD_REACTORS
330
2CA
102
}
330
2CA
100
AcDbScale
 70
     0
300
1/128" = 1'-0"
140
0.0078125
141
12.0
290
     0
  0
SCALE
  5
2DD
102
{ACAD_REACTORS
330
2CA
102
}
330
2CA
100
AcDbScale
 70
     0
300
1/64" = 1'-0"
140
0.015625
141
12.0
290
     0
  0
SCALE
  5
2DE
102
{ACAD_REACTORS
330
2CA
102
}
330
2CA
100
AcDbScale
 70
     0
300
1/32" = 1'-0"
140
0.03125
141
12.0
290
     0
  0
SCALE
  5
2DF
102
{ACAD_REACTORS
330
2CA
102
}
330
2CA
100
AcDbScale
 70
     0
300
1/16" = 1'-0"
140
0.0625
141
12.0
290
     0
  0
SCALE
  5
2E0
102
{ACAD_REACTORS
330
2CA
102
}
330
2CA
100
AcDbScale
 70
     0
300
3/32" = 1'-0"
140
0.09375
141
12.0
290
     0
  0
SCALE
  5
2E1
102
{ACAD_REACTORS
330
2CA
102
}
330
2CA
100
AcDbScale
 70
     0
300
1/8" = 1'-0"
140
0.125
141
12.0
290
     0
  0
SCALE
  5
2E2
102
{ACAD_REACTORS
330
2CA
102
}
330
2CA
100
AcDbScale
 70
     0
300
3/16" = 1'-0"
140
0.1875
141
12.0
290
     0
  0
SCALE
  5
2E3
102
{ACAD_REACTORS
330
2CA
102
}
330
2CA
100
AcDbScale
 70
     0
300
1/4" = 1'-0"
140
0.25
141
12.0
290
     0
  0
SCALE
  5
2E4
102
{ACAD_REACTORS
330
2CA
102
}
330
2CA
100
AcDbScale
 70
     0
300
3/8" = 1'-0"
140
0.375
141
12.0
290
     0
  0
SCALE
  5
2E5
102
{ACAD_REACTORS
330
2CA
102
}
330
2CA
100
AcDbScale
 70
     0
300
1/2" = 1'-0"
140
0.5
141
12.0
290
     0
  0
SCALE
  5
2E6
102
{ACAD_REACTORS
330
2CA
102
}
330
2CA
100
AcDbScale
 70
     0
300
3/4" = 1'-0"
140
0.75
141
12.0
290
     0
  0
SCALE
  5
2E7
102
{ACAD_REACTORS
330
2CA
102
}
330
2CA
100
AcDbScale
 70
     0
300
1" = 1'-0"
140
1.0
141
12.0
290
     0
  0
SCALE
  5
2E8
102
{ACAD_REACTORS
330
2CA
102
}
330
2CA
100
AcDbScale
 70
     0
300
1-1/2" = 1'-0"
140
1.5
141
12.0
290
     0
  0
SCALE
  5
2E9
102
{ACAD_REACTORS
330
2CA
102
}
330
2CA
100
AcDbScale
 70
     0
300
3" = 1'-0"
140
3.0
141
12.0
290
     0
  0
SCALE
  5
2EA
102
{ACAD_REACTORS
330
2CA
102
}
330
2CA
100
AcDbScale
 70
     0
300
6" = 1'-0"
140
6.0
141
12.0
290
     0
  0
SCALE
  5
2EB
102
{ACAD_REACTORS
330
2CA
102
}
330
2CA
100
AcDbScale
 70
     0
300
1'-0" = 1'-0"
140
12.0
141
12.0
290
     0
  0
TABLESTYLE
  5
124
102
{ACAD_XDICTIONARY
360
30B
102
}
102
{ACAD_REACTORS
330
123
102
}
330
123
100
AcDbTableStyle
  3
Standard
 70
     0
 71
     0
 40
0.06
 41
0.06
280
     0
281
     0
  7
STANDARD
140
0.18
170
     2
 62
     0
 63
     7
283
     0
 90
      512
 91
        0
  1

274
    -2
284
     1
 64
     0
275
    -2
285
     1
 65
     0
276
    -2
286
     1
 66
     0
277
    -2
287
     1
 67
     0
278
    -2
288
     1
 68
     0
279
    -2
289
     1
 69
     0
  7
STANDARD
140
0.25
170
     5
 62
     0
 63
     7
283
     0
 90
      512
 91
        0
  1

274
    -2
284
     1
 64
     0
275
    -2
285
     1
 65
     0
276
    -2
286
     1
 66
     0
277
    -2
287
     1
 67
     0
278
    -2
288
     1
 68
     0
279
    -2
289
     1
 69
     0
  7
STANDARD
140
0.18
170
     5
 62
     0
 63
     7
283
     0
 90
      512
 91
        0
  1

274
    -2
284
     1
 64
     0
275
    -2
285
     1
 65
     0
276
    -2
286
     1
 66
     0
277
    -2
287
     1
 67
     0
278
    -2
288
     1
 68
     0
279
    -2
289
     1
 69
     0
  0
VISUALSTYLE
  5
29C
102
{ACAD_REACTORS
330
296
102
}
330
296
100
AcDbVisualStyle
  2
2dWireframe
 70
     4
 71
     0
 72
     2
 73
     0
 90
        0
 40
-0.6
 41
-30.0
 62
     5
 63
     7
421
 16777215
 74
     1
 91
        4
 64
     7
 65
   257
 75
     1
175
     1
 42
1.0
 92
        0
 66
   257
 43
1.0
 76
     1
 77
     6
 78
     2
 67
     7
 79
     5
170
     0
171
     0
290
     0
174
     0
 93
        1
 44
0.0
173
     0
291
     0
 45
0.0
  0
VISUALSTYLE
  5
29E
102
{ACAD_REACTORS
330
296
102
}
330
296
100
AcDbVisualStyle
  2
3D Hidden
 70
     6
 71
     1
 72
     2
 73
     2
 90
        0
 40
-0.6
 41
-30.0
 62
     5
 63
     7
421
 16777215
 74
     2
 91
        2
 64
     7
 65
   257
 75
     2
175
     1
 42
40.0
 92
        0
 66
   257
 43
1.0
 76
     1
 77
     6
 78
     2
 67
     7
 79
     3
170
     0
171
     0
290
     0
174
     0
 93
        1
 44
0.0
173
     0
291
     0
 45
0.0
  0
VISUALSTYLE
  5
29D
102
{ACAD_REACTORS
330
296
102
}
330
296
100
AcDbVisualStyle
  2
3dWireframe
 70
     5
 71
     0
 72
     2
 73
     0
 90
        0
 40
-0.6
 41
-30.0
 62
     5
 63
     7
421
 16777215
 74
     1
 91
        4
 64
     7
 65
   257
 75
     1
175
     1
 42
1.0
 92
        0
 66
   257
 43
1.0
 76
     1
 77
     6
 78
     2
 67
     7
 79
     5
170
     0
171
     0
290
     0
174
     0
 93
        1
 44
0.0
173
     0
291
     0
 45
0.0
  0
VISUALSTYLE
  5
29B
102
{ACAD_REACTORS
330
296
102
}
330
296
100
AcDbVisualStyle
  2
Basic
 70
     7
 71
     1
 72
     0
 73
     1
 90
        0
 40
-0.6
 41
-30.0
 62
     5
 63
     7
421
 16777215
 74
     0
 91
        4
 64
     7
 65
   257
 75
     1
175
     1
 42
1.0
 92
        8
 66
     7
 43
1.0
 76
     1
 77
     6
 78
     2
 67
     7
 79
     5
170
     0
171
     0
290
     0
174
     0
 93
        1
 44
0.0
173
     0
291
     1
 45
0.0
  0
VISUALSTYLE
  5
2A2
102
{ACAD_REACTORS
330
296
102
}
330
296
100
AcDbVisualStyle
  2
Brighten
 70
    12
 71
     2
 72
     2
 73
     0
 90
        0
 40
-0.6
 41
-30.0
 62
     5
 63
     7
421
 16777215
 74
     1
 91
        4
 64
     7
 65
   257
 75
     1
175
     1
 42
1.0
 92
        8
 66
     7
 43
1.0
 76
     1
 77
     6
 78
     2
 67
     7
 79
     5
170
     0
171
     0
290
     0
174
     0
 93
        1
 44
50.0
173
     0
291
     1
 45
0.0
  0
VISUALSTYLE
  5
2A6
102
{ACAD_REACTORS
330
296
102
}
330
296
100
AcDbVisualStyle
  2
ColorChange
 70
    16
 71
     2
 72
     2
 73
     3
 90
        0
 40
-0.6
 41
-30.0
 62
     5
 63
     8
421
  8421504
 74
     1
 91
        4
 64
     7
 65
   257
 75
     1
175
     1
 42
1.0
 92
        8
 66
     8
424
  8421504
 43
1.0
 76
     1
 77
     6
 78
     2
 67
     7
 79
     5
170
     0
171
     0
290
     0
174
     0
 93
        1
 44
0.0
173
     0
291
     1
 45
0.0
  0
VISUALSTYLE
  5
29F
102
{ACAD_REACTORS
330
296
102
}
330
296
100
AcDbVisualStyle
  2
Conceptual
 70
     9
 71
     3
 72
     2
 73
     0
 90
        0
 40
-0.6
 41
-30.0
 62
     5
 63
     7
421
 16777215
 74
     2
 91
        2
 64
     7
 65
   257
 75
     1
175
     1
 42
40.0
 92
        8
 66
     7
 43
1.0
 76
     1
 77
     6
 78
     2
 67
     7
 79
     3
170
     0
171
     0
290
     0
174
     0
 93
        1
 44
0.0
173
     0
291
     0
 45
0.0
  0
VISUALSTYLE
  5
2A1
102
{ACAD_REACTORS
330
296
102
}
330
296
100
AcDbVisualStyle
  2
Dim
 70
    11
 71
     2
 72
     2
 73
     0
 90
        0
 40
-0.6
 41
-30.0
 62
     5
 63
     7
421
 16777215
 74
     1
 91
        4
 64
     7
 65
   257
 75
     1
175
     1
 42
1.0
 92
        8
 66
     7
 43
1.0
 76
     1
 77
     6
 78
     2
 67
     7
 79
     5
170
     0
171
     0
290
     0
174
     0
 93
        1
 44
-50.0
173
     0
291
     1
 45
0.0
  0
VISUALSTYLE
  5
2A5
102
{ACAD_REACTORS
330
296
102
}
330
296
100
AcDbVisualStyle
  2
Facepattern
 70
    15
 71
     2
 72
     2
 73
     0
 90
        0
 40
-0.6
 41
-30.0
 62
     5
 63
     7
421
 16777215
 74
     1
 91
        4
 64
     7
 65
   257
 75
     1
175
     1
 42
1.0
 92
        8
 66
     7
 43
1.0
 76
     1
 77
     6
 78
     2
 67
     7
 79
     5
170
     0
171
     0
290
     0
174
     0
 93
        1
 44
0.0
173
     0
291
     1
 45
0.0
  0
VISUALSTYLE
  5
297
102
{ACAD_REACTORS
330
296
102
}
330
296
100
AcDbVisualStyle
  2
Flat
 70
     0
 71
     2
 72
     1
 73
     1
 90
        2
 40
-0.6
 41
30.0
 62
     5
 63
     7
421
 16777215
 74
     0
 91
        4
 64
     7
 65
   257
 75
     1
175
     1
 42
1.0
 92
        8
 66
     7
 43
1.0
 76
     1
 77
     6
 78
     2
 67
     7
 79
     5
170
     0
171
     0
290
     0
174
     0
 93
       13
 44
0.0
173
     0
291
     1
 45
0.0
  0
VISUALSTYLE
  5
298
102
{ACAD_REACTORS
330
296
102
}
330
296
100
AcDbVisualStyle
  2
FlatWithEdges
 70
     1
 71
     2
 72
     1
 73
     1
 90
        2
 40
-0.6
 41
30.0
 62
     5
 63
     7
421
 16777215
 74
     1
 91
        4
 64
     7
 65
   257
 75
     1
175
     1
 42
1.0
 92
        0
 66
   257
 43
1.0
 76
     1
 77
     6
 78
     2
 67
     7
 79
     5
170
     0
171
     0
290
     0
174
     0
 93
       13
 44
0.0
173
     0
291
     1
 45
0.0
  0
VISUALSTYLE
  5
299
102
{ACAD_REACTORS
330
296
102
}
330
296
100
AcDbVisualStyle
  2
Gouraud
 70
     2
 71
     2
 72
     2
 73
     1
 90
        2
 40
-0.6
 41
30.0
 62
     5
 63
     7
421
 16777215
 74
     0
 91
        4
 64
     7
 65
   257
 75
     1
175
     1
 42
1.0
 92
        0
 66
     7
 43
1.0
 76
     1
 77
     6
 78
     2
 67
     7
 79
     5
170
     0
171
     0
290
     0
174
     0
 93
       13
 44
0.0
173
     0
291
     1
 45
0.0
  0
VISUALSTYLE
  5
29A
102
{ACAD_REACTORS
330
296
102
}
330
296
100
AcDbVisualStyle
  2
GouraudWithEdges
 70
     3
 71
     2
 72
     2
 73
     1
 90
        2
 40
-0.6
 41
30.0
 62
     5
 63
     7
421
 16777215
 74
     1
 91
        4
 64
     7
 65
   257
 75
     1
175
     1
 42
1.0
 92
        0
 66
   257
 43
1.0
 76
     1
 77
     6
 78
     2
 67
     7
 79
     5
170
     0
171
     0
290
     0
174
     0
 93
       13
 44
0.0
173
     0
291
     1
 45
0.0
  0
VISUALSTYLE
  5
2A4
102
{ACAD_REACTORS
330
296
102
}
330
296
100
AcDbVisualStyle
  2
Linepattern
 70
    14
 71
     2
 72
     2
 73
     0
 90
        0
 40
-0.6
 41
-30.0
 62
     5
 63
     7
421
 16777215
 74
     1
 91
        4
 64
     7
 65
   257
 75
     7
175
     7
 42
1.0
 92
        8
 66
     7
 43
1.0
 76
     1
 77
     6
 78
     2
 67
     7
 79
     5
170
     0
171
     0
290
     0
174
     0
 93
        1
 44
0.0
173
     0
291
     1
 45
0.0
  0
VISUALSTYLE
  5
2A0
102
{ACAD_REACTORS
330
296
102
}
330
296
100
AcDbVisualStyle
  2
Realistic
 70
     8
 71
     2
 72
     2
 73
     0
 90
        0
 40
-0.6
 41
-30.0
 62
     5
 63
     7
421
 16777215
 74
     1
 91
        0
 64
     7
 65
   257
 75
     1
175
     1
 42
1.0
 92
        8
 66
     8
424
  7895160
 43
1.0
 76
     1
 77
     6
 78
     2
 67
     7
 79
     5
170
     0
171
     0
290
     0
174
     0
 93
       13
 44
0.0
173
     0
291
     0
 45
0.0
  0
VISUALSTYLE
  5
2A3
102
{ACAD_REACTORS
330
296
102
}
330
296
100
AcDbVisualStyle
  2
Thicken
 70
    13
 71
     2
 72
     2
 73
     0
 90
        0
 40
-0.6
 41
-30.0
 62
     5
 63
     7
421
 16777215
 74
     1
 91
        4
 64
     7
 65
   257
 75
     1
175
     1
 42
1.0
 92
       12
 66
     7
 43
1.0
 76
     1
 77
     6
 78
     2
 67
     7
 79
     5
170
     0
171
     0
290
     0
174
     0
 93
        1
 44
0.0
173
     0
291
     1
 45
0.0
  0
DICTIONARYVAR
  5
310
102
{ACAD_REACTORS
330
9E
102
}
330
9E
100
DictionaryVariables
280
     0
  1
1:1
  0
DICTIONARYVAR
  5
30E
102
{ACAD_REACTORS
330
9E
102
}
330
9E
100
DictionaryVariables
280
     0
  1
STANDARD
  0
DICTIONARYVAR
  5
144
102
{ACAD_REACTORS
330
9E
102
}
330
9E
100
DictionaryVariables
280
     0
  1
STANDARD
  0
DICTIONARYVAR
  5
A0
102
{ACAD_REACTORS
330
9E
102
}
330
9E
100
DictionaryVariables
280
     0
  1
2
  0
DICTIONARYVAR
  5
9F
102
{ACAD_REACTORS
330
9E
102
}
330
9E
100
DictionaryVariables
280
     0
  1
1
  0
DICTIONARYVAR
  5
36B
102
{ACAD_REACTORS
330
9E
102
}
330
9E
100
DictionaryVariables
280
     0
  1
1
  0
DICTIONARYVAR
  5
36C
102
{ACAD_REACTORS
330
9E
102
}
330
9E
100
DictionaryVariables
280
     0
  1
15
  0
DICTIONARYVAR
  5
311
102
{ACAD_REACTORS
330
9E
102
}
330
9E
100
DictionaryVariables
280
     0
  1
0
  0
DICTIONARYVAR
  5
30F
102
{ACAD_REACTORS
330
9E
102
}
330
9E
100
DictionaryVariables
280
     0
  1
0
  0
DICTIONARY
  5
69
102
{ACAD_REACTORS
330
63
102
}
330
63
100
AcDbDictionary
281
     1
  0
XRECORD
  5
12C
102
{ACAD_REACTORS
330
63
102
}
330
63
100
AcDbXrecord
280
     1
 90
-1023410169
  0
XRECORD
  5
E67
102
{ACAD_REACTORS
330
E66
102
}
330
E66
100
AcDbXrecord
280
     1
  0
DICTIONARY
  5
30B
330
124
100
AcDbDictionary
280
     1
281
     1
  3
ACAD_ROUNDTRIP_2008_TABLESTYLE_CELLSTYLEMAP
360
E68
  0
CELLSTYLEMAP
  5
E68
102
{ACAD_REACTORS
330
30B
102
}
330
30B
100
AcDbCellStyleMap
 90
        3
300
CELLSTYLE
  1
TABLEFORMAT_BEGIN
 90
        5
170
     1
 91
        0
 92
    32768
 62
   257
 93
        1
300
CONTENTFORMAT
  1
CONTENTFORMAT_BEGIN
 90
        0
 91
        0
 92
      512
 93
        0
300

 40
0.0
140
1.0
 94
        5
 62
     0
340
11
144
0.25
309
CONTENTFORMAT_END
171
     0
 94
        6
 95
        1
302
GRIDFORMAT
  1
GRIDFORMAT_BEGIN
 90
        0
 91
        1
 62
     0
 92
       -2
340
0
 93
        0
 40
0.045
309
GRIDFORMAT_END
 95
        2
302
GRIDFORMAT
  1
GRIDFORMAT_BEGIN
 90
        0
 91
        1
 62
     0
 92
       -2
340
0
 93
        0
 40
0.045
309
GRIDFORMAT_END
 95
        4
302
GRIDFORMAT
  1
GRIDFORMAT_BEGIN
 90
        0
 91
        1
 62
     0
 92
       -2
340
0
 93
        0
 40
0.045
309
GRIDFORMAT_END
 95
        8
302
GRIDFORMAT
  1
GRIDFORMAT_BEGIN
 90
        0
 91
        1
 62
     0
 92
       -2
340
0
 93
        0
 40
0.045
309
GRIDFORMAT_END
 95
       16
302
GRIDFORMAT
  1
GRIDFORMAT_BEGIN
 90
        0
 91
        1
 62
     0
 92
       -2
340
0
 93
        0
 40
0.045
309
GRIDFORMAT_END
 95
       32
302
GRIDFORMAT
  1
GRIDFORMAT_BEGIN
 90
        0
 91
        1
 62
     0
 92
       -2
340
0
 93
        0
 40
0.045
309
GRIDFORMAT_END
309
TABLEFORMAT_END
  1
CELLSTYLE_BEGIN
 90
        1
 91
        1
300
_TITLE
309
CELLSTYLE_END
300
CELLSTYLE
  1
TABLEFORMAT_BEGIN
 90
        5
170
     1
 91
        0
 92
        0
 62
   257
 93
        1
300
CONTENTFORMAT
  1
CONTENTFORMAT_BEGIN
 90
        0
 91
        0
 92
      512
 93
        0
300

 40
0.0
140
1.0
 94
        5
 62
     0
340
11
144
0.18
309
CONTENTFORMAT_END
171
     0
 94
        6
 95
        1
302
GRIDFORMAT
  1
GRIDFORMAT_BEGIN
 90
        0
 91
        1
 62
     0
 92
       -2
340
0
 93
        0
 40
0.045
309
GRIDFORMAT_END
 95
        2
302
GRIDFORMAT
  1
GRIDFORMAT_BEGIN
 90
        0
 91
        1
 62
     0
 92
       -2
340
0
 93
        0
 40
0.045
309
GRIDFORMAT_END
 95
        4
302
GRIDFORMAT
  1
GRIDFORMAT_BEGIN
 90
        0
 91
        1
 62
     0
 92
       -2
340
0
 93
        0
 40
0.045
309
GRIDFORMAT_END
 95
        8
302
GRIDFORMAT
  1
GRIDFORMAT_BEGIN
 90
        0
 91
        1
 62
     0
 92
       -2
340
0
 93
        0
 40
0.045
309
GRIDFORMAT_END
 95
       16
302
GRIDFORMAT
  1
GRIDFORMAT_BEGIN
 90
        0
 91
        1
 62
     0
 92
       -2
340
0
 93
        0
 40
0.045
309
GRIDFORMAT_END
 95
       32
302
GRIDFORMAT
  1
GRIDFORMAT_BEGIN
 90
        0
 91
        1
 62
     0
 92
       -2
340
0
 93
        0
 40
0.045
309
GRIDFORMAT_END
309
TABLEFORMAT_END
  1
CELLSTYLE_BEGIN
 90
        2
 91
        1
300
_HEADER
309
CELLSTYLE_END
300
CELLSTYLE
  1
TABLEFORMAT_BEGIN
 90
        5
170
     1
 91
        0
 92
        0
 62
   257
 93
        1
300
CONTENTFORMAT
  1
CONTENTFORMAT_BEGIN
 90
        0
 91
        0
 92
      512
 93
        0
300

 40
0.0
140
1.0
 94
        2
 62
     0
340
11
144
0.18
309
CONTENTFORMAT_END
171
     0
 94
        6
 95
        1
302
GRIDFORMAT
  1
GRIDFORMAT_BEGIN
 90
        0
 91
        1
 62
     0
 92
       -2
340
0
 93
        0
 40
0.045
309
GRIDFORMAT_END
 95
        2
302
GRIDFORMAT
  1
GRIDFORMAT_BEGIN
 90
        0
 91
        1
 62
     0
 92
       -2
340
0
 93
        0
 40
0.045
309
GRIDFORMAT_END
 95
        4
302
GRIDFORMAT
  1
GRIDFORMAT_BEGIN
 90
        0
 91
        1
 62
     0
 92
       -2
340
0
 93
        0
 40
0.045
309
GRIDFORMAT_END
 95
        8
302
GRIDFORMAT
  1
GRIDFORMAT_BEGIN
 90
        0
 91
        1
 62
     0
 92
       -2
340
0
 93
        0
 40
0.045
309
GRIDFORMAT_END
 95
       16
302
GRIDFORMAT
  1
GRIDFORMAT_BEGIN
 90
        0
 91
        1
 62
     0
 92
       -2
340
0
 93
        0
 40
0.045
309
GRIDFORMAT_END
 95
       32
302
GRIDFORMAT
  1
GRIDFORMAT_BEGIN
 90
        0
 91
        1
 62
     0
 92
       -2
340
0
 93
        0
 40
0.045
309
GRIDFORMAT_END
309
TABLEFORMAT_END
  1
CELLSTYLE_BEGIN
 90
        3
 91
        2
300
_DATA
309
CELLSTYLE_END
  0
ENDSEC
  0
EOF
