  0
SECTION
  2
HEADER
  9
$ACADVER
  1
AC1021
  9
$ACADMAINTVER
 70
    50
  9
$DWGCODEPAGE
  3
ANSI_936
  9
$LASTSAVEDBY
  1
ko69185
  9
$CUSTOMPROPERTYTAG
  1
AmdtFileType
  9
$CUSTOMPROPERTY
  1
84
  9
$INSBASE
 10
0.0
 20
0.0
 30
0.0
  9
$EXTMIN
 10
7.311913089023988
 20
12.78167788988314
 30
0.0
  9
$EXTMAX
 10
61.09985814400369
 20
42.51786256336898
 30
0.0
  9
$LIMMIN
 10
0.0
 20
0.0
  9
$LIMMAX
 10
17.0
 20
11.0
  9
$ORTHOMODE
 70
     0
  9
$REGENMODE
 70
     1
  9
$FILLMODE
 70
     1
  9
$QTEXTMODE
 70
     0
  9
$MIRRTEXT
 70
     1
  9
$LTSCALE
 40
1.0
  9
$ATTMODE
 70
     1
  9
$TEXTSIZE
 40
0.2
  9
$TRACEWID
 40
0.05
  9
$TEXTSTYLE
  7
STANDARD
  9
$CLAYER
  8
0
  9
$CELTYPE
  6
ByLayer
  9
$CECOLOR
 62
   256
  9
$CELTSCALE
 40
1.0
  9
$DISPSILH
 70
     0
  9
$DIMSCALE
 40
1.0
  9
$DIMASZ
 40
0.12
  9
$DIMEXO
 40
0.05
  9
$DIMDLI
 40
0.5
  9
$DIMRND
 40
0.0
  9
$DIMDLE
 40
0.0
  9
$DIMEXE
 40
0.1
  9
$DIMTP
 40
0.1
  9
$DIMTM
 40
0.1
  9
$DIMTXT
 40
0.12
  9
$DIMCEN
 40
0.0
  9
$DIMTSZ
 40
0.0
  9
$DIMTOL
 70
     0
  9
$DIMLIM
 70
     0
  9
$DIMTIH
 70
     1
  9
$DIMTOH
 70
     1
  9
$DIMSE1
 70
     0
  9
$DIMSE2
 70
     0
  9
$DIMTAD
 70
     0
  9
$DIMZIN
 70
     7
  9
$DIMBLK
  1

  9
$DIMASO
 70
     1
  9
$DIMSHO
 70
     1
  9
$DIMPOST
  1

  9
$DIMAPOST
  1
mm
  9
$DIMALT
 70
     0
  9
$DIMALTD
 70
     2
  9
$DIMALTF
 40
25.4
  9
$DIMLFAC
 40
1.0
  9
$DIMTOFL
 70
     0
  9
$DIMTVP
 40
0.0
  9
$DIMTIX
 70
     0
  9
$DIMSOXD
 70
     0
  9
$DIMSAH
 70
     0
  9
$DIMBLK1
  1

  9
$DIMBLK2
  1

  9
$DIMSTYLE
  2
AM_ANSI
  9
$DIMCLRD
 70
   256
  9
$DIMCLRE
 70
   256
  9
$DIMCLRT
 70
   140
  9
$DIMTFAC
 40
0.71
  9
$DIMGAP
 40
0.06
  9
$DIMJUST
 70
     0
  9
$DIMSD1
 70
     0
  9
$DIMSD2
 70
     0
  9
$DIMTOLJ
 70
     1
  9
$DIMTZIN
 70
     7
  9
$DIMALTZ
 70
     0
  9
$DIMALTTZ
 70
     0
  9
$DIMUPT
 70
     0
  9
$DIMDEC
 70
     4
  9
$DIMTDEC
 70
     4
  9
$DIMALTU
 70
     2
  9
$DIMALTTD
 70
     4
  9
$DIMTXSTY
  7
STANDARD
  9
$DIMAUNIT
 70
     0
  9
$DIMADEC
 70
     0
  9
$DIMALTRND
 40
0.0
  9
$DIMAZIN
 70
     2
  9
$DIMDSEP
 70
    46
  9
$DIMATFIT
 70
     3
  9
$DIMFRAC
 70
     0
  9
$DIMLDRBLK
  1

  9
$DIMLUNIT
 70
     2
  9
$DIMLWD
 70
    -1
  9
$DIMLWE
 70
    -1
  9
$DIMTMOVE
 70
     0
  9
$DIMFXL
 40
1.0
  9
$DIMFXLON
 70
     0
  9
$DIMJOGANG
 40
0.7853981633974483
  9
$DIMTFILL
 70
     0
  9
$DIMTFILLCLR
 70
     0
  9
$DIMARCSYM
 70
     1
  9
$DIMLTYPE
  6
ByBlock
  9
$DIMLTEX1
  6
ByBlock
  9
$DIMLTEX2
  6
ByBlock
  9
$LUNITS
 70
     2
  9
$LUPREC
 70
     4
  9
$SKETCHINC
 40
0.1
  9
$FILLETRAD
 40
0.125
  9
$AUNITS
 70
     0
  9
$AUPREC
 70
     0
  9
$MENU
  1
.
  9
$ELEVATION
 40
0.0
  9
$PELEVATION
 40
0.0
  9
$THICKNESS
 40
0.0
  9
$LIMCHECK
 70
     0
  9
$CHAMFERA
 40
0.125
  9
$CHAMFERB
 40
0.125
  9
$CHAMFERC
 40
1.0
  9
$CHAMFERD
 40
0.0
  9
$SKPOLY
 70
     0
  9
$TDCREATE
 40
2455338.664466736
  9
$TDUCREATE
 40
2455338.331133403
  9
$TDUPDATE
 40
2455338.665508414
  9
$TDUUPDATE
 40
2455338.332175081
  9
$TDINDWG
 40
0.0010431250
  9
$TDUSRTIMER
 40
0.0010429398
  9
$USRTIMER
 70
     1
  9
$ANGBASE
 50
0.0
  9
$ANGDIR
 70
     0
  9
$PDMODE
 70
     0
  9
$PDSIZE
 40
0.0
  9
$PLINEWID
 40
0.0
  9
$SPLFRAME
 70
     0
  9
$SPLINETYPE
 70
     6
  9
$SPLINESEGS
 70
     8
  9
$HANDSEED
  5
8D1
  9
$SURFTAB1
 70
     6
  9
$SURFTAB2
 70
     6
  9
$SURFTYPE
 70
     6
  9
$SURFU
 70
     6
  9
$SURFV
 70
     6
  9
$UCSBASE
  2

  9
$UCSNAME
  2

  9
$UCSORG
 10
0.0
 20
0.0
 30
0.0
  9
$UCSXDIR
 10
1.0
 20
0.0
 30
0.0
  9
$UCSYDIR
 10
0.0
 20
1.0
 30
0.0
  9
$UCSORTHOREF
  2

  9
$UCSORTHOVIEW
 70
     0
  9
$UCSORGTOP
 10
0.0
 20
0.0
 30
0.0
  9
$UCSORGBOTTOM
 10
0.0
 20
0.0
 30
0.0
  9
$UCSORGLEFT
 10
0.0
 20
0.0
 30
0.0
  9
$UCSORGRIGHT
 10
0.0
 20
0.0
 30
0.0
  9
$UCSORGFRONT
 10
0.0
 20
0.0
 30
0.0
  9
$UCSORGBACK
 10
0.0
 20
0.0
 30
0.0
  9
$PUCSBASE
  2

  9
$PUCSNAME
  2

  9
$PUCSORG
 10
0.0
 20
0.0
 30
0.0
  9
$PUCSXDIR
 10
1.0
 20
0.0
 30
0.0
  9
$PUCSYDIR
 10
0.0
 20
1.0
 30
0.0
  9
$PUCSORTHOREF
  2

  9
$PUCSORTHOVIEW
 70
     0
  9
$PUCSORGTOP
 10
0.0
 20
0.0
 30
0.0
  9
$PUCSORGBOTTOM
 10
0.0
 20
0.0
 30
0.0
  9
$PUCSORGLEFT
 10
0.0
 20
0.0
 30
0.0
  9
$PUCSORGRIGHT
 10
0.0
 20
0.0
 30
0.0
  9
$PUCSORGFRONT
 10
0.0
 20
0.0
 30
0.0
  9
$PUCSORGBACK
 10
0.0
 20
0.0
 30
0.0
  9
$USERI1
 70
     0
  9
$USERI2
 70
     0
  9
$USERI3
 70
     0
  9
$USERI4
 70
     0
  9
$USERI5
 70
     0
  9
$USERR1
 40
0.0
  9
$USERR2
 40
0.0
  9
$USERR3
 40
0.0
  9
$USERR4
 40
0.0
  9
$USERR5
 40
0.0
  9
$WORLDVIEW
 70
     1
  9
$SHADEDGE
 70
     3
  9
$SHADEDIF
 70
    70
  9
$TILEMODE
 70
     1
  9
$MAXACTVP
 70
    64
  9
$PINSBASE
 10
0.0
 20
0.0
 30
0.0
  9
$PLIMCHECK
 70
     0
  9
$PEXTMIN
 10
1.000000000000000E+20
 20
1.000000000000000E+20
 30
1.000000000000000E+20
  9
$PEXTMAX
 10
-1.000000000000000E+20
 20
-1.000000000000000E+20
 30
-1.000000000000000E+20
  9
$PLIMMIN
 10
0.0
 20
0.0
  9
$PLIMMAX
 10
12.0
 20
9.0
  9
$UNITMODE
 70
     0
  9
$VISRETAIN
 70
     1
  9
$PLINEGEN
 70
     0
  9
$PSLTSCALE
 70
     1
  9
$TREEDEPTH
 70
  3020
  9
$CMLSTYLE
  2
Standard
  9
$CMLJUST
 70
     0
  9
$CMLSCALE
 40
1.0
  9
$PROXYGRAPHICS
 70
     1
  9
$MEASUREMENT
 70
     0
  9
$CELWEIGHT
370
    -1
  9
$ENDCAPS
280
     0
  9
$JOINSTYLE
280
     0
  9
$LWDISPLAY
290
     0
  9
$INSUNITS
 70
     1
  9
$HYPERLINKBASE
  1

  9
$STYLESHEET
  1

  9
$XEDIT
290
     1
  9
$CEPSNTYPE
380
     0
  9
$PSTYLEMODE
290
     1
  9
$FINGERPRINTGUID
  2
{3899E94F-8C71-4D33-AE08-E38C24077BEC}
  9
$VERSIONGUID
  2
{42D7F74B-9605-4E3C-9E58-B545BDA4312B}
  9
$EXTNAMES
290
     1
  9
$PSVPSCALE
 40
0.0
  9
$OLESTARTUP
290
     0
  9
$SORTENTS
280
   127
  9
$INDEXCTL
280
     0
  9
$HIDETEXT
280
     0
  9
$XCLIPFRAME
290
     0
  9
$HALOGAP
280
     0
  9
$OBSCOLOR
 70
   257
  9
$OBSLTYPE
280
     0
  9
$INTERSECTIONDISPLAY
280
     0
  9
$INTERSECTIONCOLOR
 70
   257
  9
$DIMASSOC
280
     2
  9
$PROJECTNAME
  1

  9
$CAMERADISPLAY
290
     0
  9
$LENSLENGTH
 40
50.0
  9
$CAMERAHEIGHT
 40
0.0
  9
$STEPSPERSEC
 40
2.0
  9
$STEPSIZE
 40
6.0
  9
$3DDWFPREC
 40
2.0
  9
$PSOLWIDTH
 40
0.25
  9
$PSOLHEIGHT
 40
4.0
  9
$LOFTANG1
 40
1.570796326794896
  9
$LOFTANG2
 40
1.570796326794896
  9
$LOFTMAG1
 40
0.0
  9
$LOFTMAG2
 40
0.0
  9
$LOFTPARAM
 70
     7
  9
$LOFTNORMALS
280
     1
  9
$LATITUDE
 40
37.795
  9
$LONGITUDE
 40
-122.394
  9
$NORTHDIRECTION
 40
0.0
  9
$TIMEZONE
 70
 -8000
  9
$LIGHTGLYPHDISPLAY
280
     1
  9
$TILEMODELIGHTSYNCH
280
     1
  9
$CMATERIAL
347
293
  9
$SOLIDHIST
280
     1
  9
$SHOWHIST
280
     1
  9
$DWFFRAME
280
     2
  9
$DGNFRAME
280
     0
  9
$REALWORLDSCALE
290
     1
  9
$INTERFERECOLOR
 62
     1
  9
$INTERFEREOBJVS
345
2A0
  9
$INTERFEREVPVS
346
29D
  9
$CSHADOW
280
     0
  9
$SHADOWPLANELOCATION
 40
0.0
  0
ENDSEC
  0
SECTION
  2
CLASSES
  0
CLASS
  1
ACDBDICTIONARYWDFLT
  2
AcDbDictionaryWithDefault
  3
ObjectDBX Classes
 90
        0
 91
        1
280
     0
281
     0
  0
CLASS
  1
ACME_DOCUMENT
  2
AcMeDbDoc
  3
AcMeServices
 90
     1024
 91
        2
280
     0
281
     0
  0
CLASS
  1
AMGSETTINGSOBJ
  2
AmgSettingsObj
  3
"AcadM|Product Description: AutoCAD Mechanical|Company: Autodesk, Inc."
 90
     1024
 91
        4
280
     0
281
     0
  0
CLASS
  1
ACMESCOPE
  2
AcMeScope
  3
AcMeServices
 90
     1024
 91
        1
280
     0
281
     0
  0
CLASS
  1
ACMECOMMANDHISTORY
  2
AcMeCommandHistory
  3
AcMeServices
 90
     1024
 91
        1
280
     0
281
     0
  0
CLASS
  1
ACIMSYSVARMAN
  2
AcImSysVarManager
  3
AcMeServices
 90
     1024
 91
        5
280
     0
281
     0
  0
CLASS
  1
ACIMREALSYSVAR
  2
AcImRealSysVar
  3
AcMeServices
 90
     1024
 91
        3
280
     0
281
     0
  0
CLASS
  1
ACIMINTSYSVAR
  2
AcImIntSysVar
  3
AcMeServices
 90
     1024
 91
       27
280
     0
281
     0
  0
CLASS
  1
ACMEDRAWINGMAN
  2
AcMeDrawingMan
  3
AcMeServices
 90
     1024
 91
        1
280
     0
281
     0
  0
CLASS
  1
ACMEVIEW
  2
AcMeView
  3
AcMeServices
 90
     1024
 91
        1
280
     0
281
     0
  0
CLASS
  1
ACDBENTITYCACHE
  2
AcMeEntityCache
  3
AcMeServices
 90
     1024
 91
        1
280
     0
281
     0
  0
CLASS
  1
GSMANAGER
  2
AcMeGSManager
  3
AcMeServices
 90
     1024
 91
        1
280
     0
281
     0
  0
CLASS
  1
AMDTINTERNALREACTOR
  2
AmdtInternalReactor
  3
AcMeServices
 90
     1024
 91
        2
280
     0
281
     0
  0
CLASS
  1
ACMESTATEMGR
  2
AcMeStateMgr
  3
AcMeServices
 90
     1024
 91
        1
280
     0
281
     0
  0
CLASS
  1
ACGREFMASTER
  2
AcGrefMaster
  3
AcAttribServices
 90
     1024
 91
        1
280
     0
281
     0
  0
CLASS
  1
ACME_DATABASE
  2
AcMeDbDatabase
  3
AcMeServices
 90
     1024
 91
        2
280
     0
281
     0
  0
CLASS
  1
ACRFINSADJUSTERMGR
  2
AcRfInsAdjusterMgr
  3
AcMeServices
 90
     1024
 91
        1
280
     0
281
     0
  0
CLASS
  1
ACGREFACADMASTER
  2
AcGrefacadMaster
  3
AcGrefServices
 90
     1024
 91
        1
280
     0
281
     0
  0
CLASS
  1
AMIMASTER
  2
AmiMaster
  3
AmiServices
 90
     1024
 91
        1
280
     0
281
     0
  0
CLASS
  1
ACMDATADICTIONARY
  2
AcmDataDictionary
  3
"AcmSymBB|Product Description: AutoCAD Mechanical|Company: Autodesk, Inc."
 90
     1024
 91
        1
280
     0
281
     0
  0
CLASS
  1
ACMDATAENTRYBLOCK
  2
AcmDataEntryBlock
  3
AcmSymBB|Product Description: AutoCAD Mechanical|Company: Autodesk, Inc.
 90
     1024
 91
        1
280
     0
281
     0
  0
CLASS
  1
ACIMSTRSYSVAR
  2
AcImStrSysVar
  3
AcMeServices
 90
     1024
 91
        5
280
     0
281
     0
  0
CLASS
  1
ACMSTANDARDANSI
  2
AcmStandardANSI
  3
"Amdt_StdImp|Product Description: AutoCAD Mechanical|Company: Autodesk, Inc."
 90
     1024
 91
        1
280
     0
281
     0
  0
CLASS
  1
AMGOBJPROPCFG
  2
AmgObjPropCfg
  3
"AmgLay|Product Description: AutoCAD Mechanical|Company: Autodesk, Inc."
 90
     1025
 91
        1
280
     0
281
     0
  0
CLASS
  1
ACMSURFSTANDARDANSI
  2
AcmSurfTextStdANSI
  3
"Amdt_StdImp|Product Description: AutoCAD Mechanical|Company: Autodesk, Inc."
 90
     1024
 91
        1
280
     0
281
     0
  0
CLASS
  1
ACMFCFSTANDARDANSI
  2
AcmFCFStdANSI
  3
"Amdt_StdImp|Product Description: AutoCAD Mechanical|Company: Autodesk, Inc."
 90
     1024
 91
        1
280
     0
281
     0
  0
CLASS
  1
ACMWELDSTANDARDANSI
  2
AcmWeldingStdANSI
  3
"Amdt_StdImp|Product Description: AutoCAD Mechanical|Company: Autodesk, Inc."
 90
     1024
 91
        1
280
     0
281
     0
  0
CLASS
  1
ACMIDSTANDARDANSI
  2
AcmIdStdANSI
  3
"Amdt_StdImp|Product Description: AutoCAD Mechanical|Company: Autodesk, Inc."
 90
     1024
 91
        1
280
     0
281
     0
  0
CLASS
  1
ACMDATUMSTANDARDANSI
  2
AcmDatumStdANSI
  3
"Amdt_StdImp|Product Description: AutoCAD Mechanical|Company: Autodesk, Inc."
 90
     1024
 91
        1
280
     0
281
     0
  0
CLASS
  1
ACMBOMSTANDARDANSI
  2
AcmBOMStdANSI
  3
"Amdt_StdImp|Product Description: AutoCAD Mechanical|Company: Autodesk, Inc."
 90
     1024
 91
        1
280
     0
281
     0
  0
CLASS
  1
ACMDETAILSTANDARDANSI
  2
AmdtDetailSymStdANSI
  3
"Amdt_StdImp|Product Description: AutoCAD Mechanical|Company: Autodesk, Inc."
 90
     1024
 91
        1
280
     0
281
     0
  0
CLASS
  1
ACMSECTIONSTANDARDANSI
  2
AmdtSectionSymStdANSI
  3
"Amdt_StdImp|Product Description: AutoCAD Mechanical|Company: Autodesk, Inc."
 90
     1024
 91
        1
280
     0
281
     0
  0
CLASS
  1
ACMCENTERLINESTANDARDANSI
  2
AmdtCenterLineStdANSI
  3
"Amdt_StdImp|Product Description: AutoCAD Mechanical|Company: Autodesk, Inc."
 90
     1024
 91
        1
280
     0
281
     0
  0
CLASS
  1
ACMNOTESTANDARDANSI
  2
AmdtNoteStdANSI
  3
"Amdt_StdImp|Product Description: AutoCAD Mechanical|Company: Autodesk, Inc."
 90
     1024
 91
        1
280
     0
281
     0
  0
CLASS
  1
ACAMGLAYSTD
  2
AcAmgLayStd
  3
"AmgLay|Product Description: AutoCAD Mechanical|Company: Autodesk, Inc."
 90
     1024
 91
        1
280
     0
281
     0
  0
CLASS
  1
ACAMGDIMSTD
  2
AcAmgDimStd
  3
"AmgDim|Product Description: AutoCAD Mechanical|Company: Autodesk, Inc."
 90
     1024
 91
        1
280
     0
281
     0
  0
CLASS
  1
ACAMGHOLECHARTSTDANSI
  2
AcAmgHoleChartStdANSI
  3
AmgDim|Product Description: AutoCAD Mechanical|Company: Autodesk, Inc.
 90
     1024
 91
        1
280
     0
281
     0
  0
CLASS
  1
ACAMGTITLESTD
  2
AcAmgTitleStd
  3
"AmgTitle|Product Description: AutoCAD Mechanical|Company: Autodesk, Inc."
 90
     4095
 91
        1
280
     0
281
     0
  0
CLASS
  1
LAYER_INDEX
  2
AcDbLayerIndex
  3
ObjectDBX Classes
 90
        0
 91
        0
280
     0
281
     0
  0
CLASS
  1
IDBUFFER
  2
AcDbIdBuffer
  3
ObjectDBX Classes
 90
        0
 91
        0
280
     0
281
     0
  0
CLASS
  1
DICTIONARYVAR
  2
AcDbDictionaryVar
  3
ObjectDBX Classes
 90
        0
 91
        9
280
     0
281
     0
  0
CLASS
  1
AM_DRAWING_MGR
  2
AcDmDwgMgr
  3
AcMechDwgViewMgmt
 90
     1024
 91
        1
280
     0
281
     0
  0
CLASS
  1
AM_DWG_DOCUMENT
  2
AcDmDwgDocument
  3
AcMechDwgViewMgmt
 90
     1024
 91
        1
280
     0
281
     0
  0
CLASS
  1
AM_DWG_SHEET
  2
AcDmSheet
  3
AcMechDwgViewMgmt
 90
     1024
 91
        2
280
     0
281
     0
  0
CLASS
  1
AM_VIEWDIMPARMAP
  2
AcDmViewDimParMap
  3
AcMechDwgViewMgmt
 90
     1024
 91
        2
280
     0
281
     0
  0
CLASS
  1
AM_DWGMGR_NAME
  2
AcDmDwgMgrName
  3
AcMechDwgViewMgmt
 90
     1024
 91
        1
280
     0
281
     0
  0
CLASS
  1
AMDTMENUSTATEMGR
  2
AmdtMenuStateMgr
  3
McadcomServices
 90
     1024
 91
        1
280
     0
281
     0
  0
CLASS
  1
AMDTMCOMMENUSTATE
  2
AmdtMcomMenuState
  3
McadcomServices
 90
     1024
 91
        1
280
     0
281
     0
  0
CLASS
  1
MAPIAMMOUDLE
  2
MApiAmModule
  3
MApiAmServices
 90
     1024
 91
        1
280
     0
281
     0
  0
CLASS
  1
AMDTADMENUSTATE
  2
AmdtAdMenuState
  3
DesignerServices
 90
     1024
 91
        1
280
     0
281
     0
  0
CLASS
  1
ADAPPL
  2
AcAdAppl
  3
DesignerServices
 90
     1024
 91
        1
280
     0
281
     0
  0
CLASS
  1
DEPMGR
  2
AcAdDepMgr
  3
DesignerServices
 90
     1024
 91
        1
280
     0
281
     0
  0
CLASS
  1
PARAMMGR
  2
AcAdParamMgr
  3
DesignerServices
 90
     1024
 91
        1
280
     0
281
     0
  0
CLASS
  1
PARAMSCOPE
  2
AcAdParamScope
  3
DesignerServices
 90
     1024
 91
        1
280
     0
281
     0
  0
CLASS
  1
NAMEDAPPL
  2
AcAdNamedAppl
  3
DesignerServices
 90
     1024
 91
        1
280
     0
281
     0
  0
CLASS
  1
AMDTDMMENUSTATE
  2
AmdtDmMenuState
  3
AcMechDwgViewMgmt
 90
     1024
 91
        1
280
     0
281
     0
  0
CLASS
  1
AMDTAMMENUSTATE
  2
AmdtAmMenuState
  3
DesignerAssemblies
 90
     1024
 91
        1
280
     0
281
     0
  0
CLASS
  1
ACAMPROJECT
  2
AcAmProject
  3
DesignerAssemblies
 90
     1024
 91
        1
280
     0
281
     0
  0
CLASS
  1
ACAMGRCOMPDEF
  2
AcAmGrCompDef
  3
DesignerAssemblies
 90
     1024
 91
        1
280
     0
281
     0
  0
CLASS
  1
ACCMCONTEXT
  2
AcCmContext
  3
DesignerAssemblies
 90
     1024
 91
        1
280
     0
281
     0
  0
CLASS
  1
ACAMCOMPDEF
  2
AcAmCompDef
  3
DesignerAssemblies
 90
     1024
 91
        1
280
     0
281
     0
  0
CLASS
  1
ACAMCOMPDEFMGR
  2
AcAmCompDefMgr
  3
DesignerAssemblies
 90
     1024
 91
        1
280
     0
281
     0
  0
CLASS
  1
AMCONTEXTMGR
  2
AcAmContextMgr
  3
DesignerAssemblies
 90
     1024
 91
        1
280
     0
281
     0
  0
CLASS
  1
ACAMCONTEXTMODELER
  2
AcAmContextModeler
  3
DesignerAssemblies
 90
     1024
 91
        1
280
     0
281
     0
  0
CLASS
  1
ACMTHREADLINESTANDARDANSI
  2
AmdtThreadLineStdANSI
  3
"Amdt_StdImp|Product Description: AutoCAD Mechanical|Company: Autodesk, Inc."
 90
     1024
 91
        1
280
     0
281
     0
  0
CLASS
  1
CATALOGSTATE
  2
AcAmCatalogState
  3
DesignerAssemblies
 90
     1024
 91
        1
280
     0
281
     0
  0
CLASS
  1
ACAMGRCOMPDEFSET
  2
AcAmGrCompDefSet
  3
DesignerAssemblies
 90
     1024
 91
        1
280
     0
281
     0
  0
CLASS
  1
AMDTBROWSERDBTAB
  2
AmdtBrowserDbTab
  3
McadcomServices
 90
     1024
 91
        1
280
     0
281
     0
  0
CLASS
  1
CBROWSERAPPOBJECT
  2
CBrowserAppObject
  3
McadcomServices
 90
     1024
 91
        3
280
     0
281
     0
  0
CLASS
  1
DM_PLACEHOLDER
  2
AcDmSelsetPlaceholder
  3
AcMechDwgViewMgmt
 90
     1024
 91
        1
280
     0
281
     0
  0
CLASS
  1
TABLESTYLE
  2
AcDbTableStyle
  3
ObjectDBX Classes
 90
     4095
 91
        1
280
     0
281
     0
  0
CLASS
  1
AMDTNOTETEMPLATEDB
  2
AmdtNoteTemplateDB
  3
AcmSymBB|Product Description: AutoCAD Mechanical|Company: Autodesk, Inc.
 90
     1024
 91
        6
280
     0
281
     0
  0
CLASS
  1
MATERIAL
  2
AcDbMaterial
  3
ObjectDBX Classes
 90
     1153
 91
        3
280
     0
281
     0
  0
CLASS
  1
VISUALSTYLE
  2
AcDbVisualStyle
  3
ObjectDBX Classes
 90
     4095
 91
       16
280
     0
281
     0
  0
CLASS
  1
ACRFATTGENMGR
  2
AcRfAttGeneralMgr
  3
AcAttribServices
 90
     1024
 91
        1
280
     0
281
     0
  0
CLASS
  1
ACRFOBJATTMGR
  2
AcRfObjAttGroupMgr
  3
AcAttribServices
 90
     1024
 91
        1
280
     0
281
     0
  0
CLASS
  1
ACRFMCADAPIATTHOLDER
  2
AcRfMCADAPIAttHolder
  3
AcAttribServices
 90
     1024
 91
        1
280
     0
281
     0
  0
CLASS
  1
AMDTSYSATTR
  2
AmdtSystemAttribute
  3
AcAttribServices
 90
     1024
 91
        1
280
     0
281
     0
  0
CLASS
  1
ACMTAPERSTANDARDANSI
  2
AcmTaperStdANSI
  3
"Amdt_StdImp|Product Description: AutoCAD Mechanical|Company: Autodesk, Inc."
 90
     1024
 91
        1
280
     0
281
     0
  0
CLASS
  1
CAMSSTRUCTBTNSTATE
  2
StructBtnState
  3
DesignerAssemblies
 90
     1024
 91
        1
280
     0
281
     0
  0
CLASS
  1
SCALE
  2
AcDbScale
  3
ObjectDBX Classes
 90
     1153
 91
       33
280
     0
281
     0
  0
CLASS
  1
MLEADERSTYLE
  2
AcDbMLeaderStyle
  3
ACDB_MLEADERSTYLE_CLASS
 90
     4095
 91
        1
280
     0
281
     0
  0
CLASS
  1
ACMANOOTATIONVIEWSTANDARDANSI
  2
AmdtAnViewStdANSI
  3
"Amdt_StdImp|Product Description: AutoCAD Mechanical|Company: Autodesk, Inc."
 90
     1024
 91
        1
280
     0
281
     0
  0
CLASS
  1
CELLSTYLEMAP
  2
AcDbCellStyleMap
  3
ObjectDBX Classes
 90
     1152
 91
        2
280
     0
281
     0
  0
CLASS
  1
EXACXREFPANELOBJECT
  2
ExAcXREFPanelObject
  3
EXAC_ESW
 90
     1025
 91
        1
280
     0
281
     0
  0
CLASS
  1
NPOCOLLECTION
  2
AcDbImpNonPersistentObjectsCollection
  3
ObjectDBX Classes
 90
     1153
 91
        1
280
     0
281
     0
  0
CLASS
  1
ACAMGFILTERDAT
  2
AcAmgFilterDat
  3
"AcadM|Product Description: AutoCAD Mechanical|Company: Autodesk, Inc."
 90
     1024
 91
        6
280
     0
281
     0
  0
ENDSEC
  0
SECTION
  2
TABLES
  0
TABLE
  2
VPORT
  5
8
330
0
100
AcDbSymbolTable
 70
     1
  0
VPORT
  5
291
330
8
100
AcDbSymbolTableRecord
100
AcDbViewportTableRecord
  2
*Active
 70
     0
 10
0.0
 20
0.0
 11
1.0
 21
1.0
 12
29.72244060297393
 22
29.38142653830784
 13
0.0
 23
0.0
 14
0.125
 24
0.125
 15
1.0
 25
1.0
 16
0.0
 26
0.0
 36
1.0
 17
0.0
 27
0.0
 37
0.0
 40
66.90403061328062
 41
1.439655172413793
 42
50.0
 43
0.0
 44
0.0
 50
0.0
 51
0.0
 71
     0
 72
   100
 73
     1
 74
     3
 75
     0
 76
     0
 77
     0
 78
     0
281
     0
 65
     1
110
0.0
120
0.0
130
0.0
111
1.0
121
0.0
131
0.0
112
0.0
122
1.0
132
0.0
 79
     0
146
0.0
348
29C
 60
     3
 61
     5
292
     1
282
     0
141
0.0
142
0.0
 63
   250
421
  3355443
  0
ENDTAB
  0
TABLE
  2
LTYPE
  5
5
330
0
100
AcDbSymbolTable
 70
    17
  0
LTYPE
  5
14
330
5
100
AcDbSymbolTableRecord
100
AcDbLinetypeTableRecord
  2
ByBlock
 70
     0
  3

 72
    65
 73
     0
 40
0.0
  0
LTYPE
  5
15
330
5
100
AcDbSymbolTableRecord
100
AcDbLinetypeTableRecord
  2
ByLayer
 70
     0
  3

 72
    65
 73
     0
 40
0.0
  0
LTYPE
  5
16
330
5
100
AcDbSymbolTableRecord
100
AcDbLinetypeTableRecord
  2
Continuous
 70
     0
  3
Solid line
 72
    65
 73
     0
 40
0.0
  0
LTYPE
  5
6C
330
5
100
AcDbSymbolTableRecord
100
AcDbLinetypeTableRecord
  2
AM_ISO02W050
 70
     0
  3
__ __ __ __ __ __ __ __ __ __ __ __ __ __ __
 72
    65
 73
     2
 40
7.5
 49
6.0
 74
     0
 49
-1.5
 74
     0
  0
LTYPE
  5
6D
330
5
100
AcDbSymbolTableRecord
100
AcDbLinetypeTableRecord
  2
AM_ISO08W050
 70
     0
  3
____ . ____ . ____ . ____ . ____ . ____ . ____
 72
    65
 73
     4
 40
18.0
 49
12.0
 74
     0
 49
-1.5
 74
     0
 49
3.0
 74
     0
 49
-1.5
 74
     0
  0
LTYPE
  5
6E
330
5
100
AcDbSymbolTableRecord
100
AcDbLinetypeTableRecord
  2
AM_ISO09W050
 70
     0
  3
_____ . . _____ . . _____ . . ____ .. ____
 72
    65
 73
     6
 40
22.5
 49
12.0
 74
     0
 49
-1.5
 74
     0
 49
3.0
 74
     0
 49
-1.5
 74
     0
 49
3.0
 74
     0
 49
-1.5
 74
     0
  0
LTYPE
  5
6F
330
5
100
AcDbSymbolTableRecord
100
AcDbLinetypeTableRecord
  2
Amconstr
 70
     0
  3
_______________________
 72
    65
 73
     2
 40
9999.0
 49
9999.0
 74
     0
 49
0.0
 74
     0
  0
LTYPE
  5
70
330
5
100
AcDbSymbolTableRecord
100
AcDbLinetypeTableRecord
  2
AM_ISO08W050x2
 70
     0
  3
__ . __ . __ . __ . __ . __
 72
    65
 73
     4
 40
9.0
 49
6.0
 74
     0
 49
-0.75
 74
     0
 49
1.5
 74
     0
 49
-0.75
 74
     0
  0
LTYPE
  5
71
330
5
100
AcDbSymbolTableRecord
100
AcDbLinetypeTableRecord
  2
AM_ISO02W050x2
 70
     0
  3
 _ _ _ _ _ _ _ _ _ _ _ _
 72
    65
 73
     2
 40
3.75
 49
3.0
 74
     0
 49
-0.75
 74
     0
  0
LTYPE
  5
74
330
5
100
AcDbSymbolTableRecord
100
AcDbLinetypeTableRecord
  2
Amzigzag
 70
     0
  3
/\/-/\/-/\/-/\/-/\/-/\/
 72
    65
 73
     2
 40
11.0001
 49
0.0001
 74
     4
 75
   136
340
254
 46
0.04
 50
0.0
 44
0.0
 45
0.0
 49
-11.0
 74
     0
  0
LTYPE
  5
75
330
5
100
AcDbSymbolTableRecord
100
AcDbLinetypeTableRecord
  2
HIDDEN
 70
     0
  3
Hidden __ __ __ __ __ __ __ __ __ __ __ __ __ _
 72
    65
 73
     2
 40
0.375
 49
0.25
 74
     0
 49
-0.125
 74
     0
  0
LTYPE
  5
76
330
5
100
AcDbSymbolTableRecord
100
AcDbLinetypeTableRecord
  2
CENTER
 70
     0
  3
Center ____ _ ____ _ ____ _ ____ _ ____ _ ____
 72
    65
 73
     4
 40
2.0
 49
1.25
 74
     0
 49
-0.25
 74
     0
 49
0.25
 74
     0
 49
-0.25
 74
     0
  0
LTYPE
  5
77
330
5
100
AcDbSymbolTableRecord
100
AcDbLinetypeTableRecord
  2
PHANTOM2
 70
     0
  3
Phantom (.5x) ___ _ _ ___ _ _ ___ _ _ ___ _ _
 72
    65
 73
     6
 40
1.25
 49
0.625
 74
     0
 49
-0.125
 74
     0
 49
0.125
 74
     0
 49
-0.125
 74
     0
 49
0.125
 74
     0
 49
-0.125
 74
     0
  0
LTYPE
  5
78
330
5
100
AcDbSymbolTableRecord
100
AcDbLinetypeTableRecord
  2
CENTER2
 70
     0
  3
Center (.5x) ___ _ ___ _ ___ _ ___ _ ___ _ ___
 72
    65
 73
     4
 40
1.125
 49
0.75
 74
     0
 49
-0.125
 74
     0
 49
0.125
 74
     0
 49
-0.125
 74
     0
  0
LTYPE
  5
79
330
5
100
AcDbSymbolTableRecord
100
AcDbLinetypeTableRecord
  2
HIDDEN2
 70
     0
  3
Hidden (.5x) _ _ _ _ _ _ _ _ _ _ _ _ _ _ _ _ _
 72
    65
 73
     2
 40
0.1875
 49
0.125
 74
     0
 49
-0.0625
 74
     0
  0
LTYPE
  5
7A
330
5
100
AcDbSymbolTableRecord
100
AcDbLinetypeTableRecord
  2
Amzigzag2
 70
     0
  3
/\/-/\/-/\/-/\/-/\/-/\/
 72
    65
 73
     2
 40
0.4401
 49
0.0001
 74
     4
 75
   136
340
254
 46
0.0016
 50
0.0
 44
0.0
 45
0.0
 49
-0.4400000000000001
 74
     0
  0
LTYPE
  5
87
330
5
100
AcDbSymbolTableRecord
100
AcDbLinetypeTableRecord
  2
ACANSTGB
 70
     0
  3
__ . . __ . .
 72
    65
 73
     6
 40
0.35433070866
 49
0.15748031496
 74
     0
 49
-0.03937007874
 74
     0
 49
0.03937007874
 74
     0
 49
-0.03937007874
 74
     0
 49
0.03937007874
 74
     0
 49
-0.03937007874
 74
     0
  0
LTYPE
  5
88
330
5
100
AcDbSymbolTableRecord
100
AcDbLinetypeTableRecord
  2
ACANSTGL
 70
     0
  3
_ _ _ _ _
 72
    65
 73
     2
 40
0.11811023622
 49
0.07874015748
 74
     0
 49
-0.03937007874
 74
     0
  0
ENDTAB
  0
TABLE
  2
LAYER
  5
2
330
0
100
AcDbSymbolTable
 70
     2
  0
LAYER
  5
10
102
{ACAD_XDICTIONARY
360
8C9
102
}
330
2
100
AcDbSymbolTableRecord
100
AcDbLayerTableRecord
  2
0
 70
     0
 62
     7
  6
Continuous
370
    -3
390
F
347
295
  0
LAYER
  5
38C
102
{ACAD_XDICTIONARY
360
8CB
102
}
330
2
100
AcDbSymbolTableRecord
100
AcDbLayerTableRecord
  2
LAYER_1
 70
     0
 62
   160
  6
Continuous
370
    -3
390
F
347
295
  0
ENDTAB
  0
TABLE
  2
STYLE
  5
3
330
0
100
AcDbSymbolTable
 70
     8
  0
STYLE
  5
11
330
3
100
AcDbSymbolTableRecord
100
AcDbTextStyleTableRecord
  2
STANDARD
 70
     0
 40
0.0
 41
1.0
 50
0.0
 71
     0
 42
0.2
  3
ROMANS.SHX
  4

  0
STYLE
  5
73
330
3
100
AcDbSymbolTableRecord
100
AcDbTextStyleTableRecord
  2

 70
     1
 40
0.0
 41
1.0
 50
0.0
 71
     0
 42
0.2
  3
ltypeshp.shx
  4

  0
STYLE
  5
7B
330
3
100
AcDbSymbolTableRecord
100
AcDbTextStyleTableRecord
  2
ACANSTS
 70
     0
 40
1.0
 41
1.0
 50
0.0
 71
     0
 42
0.2
  3
romans.shx
  4

  0
STYLE
  5
86
330
3
100
AcDbSymbolTableRecord
100
AcDbTextStyleTableRecord
  2
ACANSGDT
 70
     0
 40
0.0
 41
1.0
 50
0.0
 71
     0
 42
0.2
  3
amgdt.shx
  4

  0
STYLE
  5
13F
330
3
100
AcDbSymbolTableRecord
100
AcDbTextStyleTableRecord
  2
USER1
 70
     0
 40
0.0
 41
1.0
 50
0.0
 71
     0
 42
0.2
  3
TXT.SHX
  4

  0
STYLE
  5
140
330
3
100
AcDbSymbolTableRecord
100
AcDbTextStyleTableRecord
  2
USER2
 70
     0
 40
0.0
 41
1.0
 50
0.0
 71
     0
 42
0.2
  3
SIMPLEX.SHX
  4

  0
STYLE
  5
141
330
3
100
AcDbSymbolTableRecord
100
AcDbTextStyleTableRecord
  2
USER3
 70
     0
 40
0.0
 41
1.0
 50
0.0
 71
     0
 42
0.2
  3
ITALIC.SHX
  4

  0
STYLE
  5
254
330
3
100
AcDbSymbolTableRecord
100
AcDbTextStyleTableRecord
  2

 70
     1
 40
0.0
 41
1.0
 50
0.0
 71
     0
 42
0.2
  3
genltshp.shx
  4

  0
ENDTAB
  0
TABLE
  2
VIEW
  5
6
330
0
100
AcDbSymbolTable
 70
     0
  0
ENDTAB
  0
TABLE
  2
UCS
  5
7
330
0
100
AcDbSymbolTable
 70
     0
  0
ENDTAB
  0
TABLE
  2
APPID
  5
9
330
0
100
AcDbSymbolTable
 70
    13
  0
APPID
  5
12
330
9
100
AcDbSymbolTableRecord
100
AcDbRegAppTableRecord
  2
ACAD
 70
     0
  0
APPID
  5
4E
330
9
100
AcDbSymbolTableRecord
100
AcDbRegAppTableRecord
  2
MCAD_NO_VIS
 70
     0
  0
APPID
  5
4F
330
9
100
AcDbSymbolTableRecord
100
AcDbRegAppTableRecord
  2
ACAD_TEMP_GRAPHIC
 70
     0
  0
APPID
  5
60
330
9
100
AcDbSymbolTableRecord
100
AcDbRegAppTableRecord
  2
ACATTRIBSERVICES
 70
     0
  0
APPID
  5
F7
330
9
100
AcDbSymbolTableRecord
100
AcDbRegAppTableRecord
  2
AD_DRAW
 70
     0
  0
APPID
  5
115
330
9
100
AcDbSymbolTableRecord
100
AcDbRegAppTableRecord
  2
DESIGNERASSEMBLIES
 70
     0
  0
APPID
  5
11A
330
9
100
AcDbSymbolTableRecord
100
AcDbRegAppTableRecord
  2
ACADM_DIM_EDIT
 70
     0
  0
APPID
  5
11B
330
9
100
AcDbSymbolTableRecord
100
AcDbRegAppTableRecord
  2
AMDT_DM_ADJ
 70
     0
  0
APPID
  5
1D3
330
9
100
AcDbSymbolTableRecord
100
AcDbRegAppTableRecord
  2
ACAD_DSTYLE_DIMARC_LENGTH_SYMBOL
 70
     0
  0
APPID
  5
1D4
330
9
100
AcDbSymbolTableRecord
100
AcDbRegAppTableRecord
  2
ACAD_DSTYLE_DIMJOGGED_JOGANGLE_SYMBOL
 70
     0
  0
APPID
  5
2EE
330
9
100
AcDbSymbolTableRecord
100
AcDbRegAppTableRecord
  2
ACAD_MLEADERVER
 70
     0
  0
APPID
  5
38D
330
9
100
AcDbSymbolTableRecord
100
AcDbRegAppTableRecord
  2
DCO15
 70
     0
  0
APPID
  5
8C2
330
9
100
AcDbSymbolTableRecord
100
AcDbRegAppTableRecord
  2
ACAD_EXEMPT_FROM_CAD_STANDARDS
 70
     0
  0
ENDTAB
  0
TABLE
  2
DIMSTYLE
  5
A
330
0
100
AcDbSymbolTable
 70
     8
100
AcDbDimStyleTable
 71
     1
340
8C
  0
DIMSTYLE
105
27
330
A
100
AcDbSymbolTableRecord
100
AcDbDimStyleTableRecord
  2
Standard
 70
     0
340
11
  0
DIMSTYLE
105
8C
102
{ACAD_REACTORS
330
6A
102
}
330
A
100
AcDbSymbolTableRecord
100
AcDbDimStyleTableRecord
  2
AM_ANSI
 70
     0
  4
mm
 41
0.12
 42
0.05
 43
0.5
 44
0.1
 47
0.1
 48
0.1
 78
     7
 79
     2
 90
     1
140
0.12
141
0.0
146
0.71
147
0.06
176
   256
177
   256
178
   140
274
     4
284
     7
340
11
345
14
346
14
347
14
371
    -1
372
    -1
1001
ACAD_DSTYLE_DIMJOGGED_JOGANGLE_SYMBOL
1070
   384
1040
0.7853981633974483
  0
DIMSTYLE
105
8D
330
A
100
AcDbSymbolTableRecord
100
AcDbDimStyleTableRecord
  2
AM_ANSI$3
 70
     0
  4
mm
 41
0.12
 42
0.05
 43
0.5
 44
0.1
 47
0.1
 48
0.1
 78
     7
 79
     2
 90
     1
140
0.12
141
0.0
146
0.71
147
0.06
176
   256
177
   256
178
   140
274
     4
284
     7
288
     1
289
     0
340
11
345
14
346
14
347
14
371
    -1
372
    -1
1001
ACAD_DSTYLE_DIMJOGGED_JOGANGLE_SYMBOL
1070
   384
1040
0.7853981633974483
  0
DIMSTYLE
105
8E
330
A
100
AcDbSymbolTableRecord
100
AcDbDimStyleTableRecord
  2
AM_ANSI$4
 70
     0
  4
mm
 41
0.12
 42
0.05
 43
0.5
 44
0.1
 47
0.1
 48
0.1
 78
     7
 79
     2
 90
     1
140
0.12
141
0.0
146
0.71
147
0.06
176
   256
177
   256
178
   140
274
     4
284
     7
340
11
345
14
346
14
347
14
371
    -1
372
    -1
1001
ACAD_DSTYLE_DIMJOGGED_JOGANGLE_SYMBOL
1070
   384
1040
0.7853981633974483
  0
DIMSTYLE
105
8F
330
A
100
AcDbSymbolTableRecord
100
AcDbDimStyleTableRecord
  2
AM_ANSI$7
 70
     0
  4
mm
 41
0.12
 42
0.05
 43
0.5
 44
0.1
 47
0.1
 48
0.1
 78
     7
 79
     2
 90
     1
140
0.12
141
0.0
146
0.71
147
0.06
176
   256
177
   256
178
   140
274
     4
284
     7
340
11
345
14
346
14
347
14
371
    -1
372
    -1
1001
ACAD_DSTYLE_DIMJOGGED_JOGANGLE_SYMBOL
1070
   384
1040
0.7853981633974483
  0
DIMSTYLE
105
90
330
A
100
AcDbSymbolTableRecord
100
AcDbDimStyleTableRecord
  2
AM_ANSI$SF
 70
     0
  4
mm
 41
0.12
 42
0.05
 43
0.5
 44
0.1
 47
0.1
 48
0.1
 75
     1
 76
     1
 78
     7
 79
     2
 90
     1
140
0.12
141
0.0
146
0.71
147
0.06
176
   256
177
   256
178
   140
274
     4
284
     7
340
11
345
14
346
14
347
14
371
    -1
372
    -1
1001
ACAD_DSTYLE_DIMJOGGED_JOGANGLE_SYMBOL
1070
   384
1040
0.7853981633974483
  0
DIMSTYLE
105
95
330
A
100
AcDbSymbolTableRecord
100
AcDbDimStyleTableRecord
  2
AM_ANSI$SH
 70
     0
  4
mm
 41
0.12
 42
0.05
 43
0.5
 44
0.1
 47
0.1
 48
0.1
 75
     1
 76
     1
 78
     7
 79
     2
 90
     1
140
0.12
141
0.0
146
0.71
147
0.06
173
     1
176
   256
177
   256
178
   140
274
     4
284
     7
340
11
343
91
345
14
346
14
347
14
371
    -1
372
    -1
1001
ACAD_DSTYLE_DIMJOGGED_JOGANGLE_SYMBOL
1070
   384
1040
0.7853981633974483
  0
ENDTAB
  0
TABLE
  2
BLOCK_RECORD
  5
1
330
0
100
AcDbSymbolTable
 70
     5
  0
BLOCK_RECORD
  5
1F
102
{ACAD_XDICTIONARY
360
99
102
}
330
1
100
AcDbSymbolTableRecord
100
AcDbBlockTableRecord
  2
*Model_Space
340
22
 70
     0
280
     1
281
     0
  0
BLOCK_RECORD
  5
1B
330
1
100
AcDbSymbolTableRecord
100
AcDbBlockTableRecord
  2
*Paper_Space
340
1E
 70
     0
280
     1
281
     0
  0
BLOCK_RECORD
  5
23
330
1
100
AcDbSymbolTableRecord
100
AcDbBlockTableRecord
  2
*Paper_Space0
340
26
 70
     0
280
     1
281
     0
  0
BLOCK_RECORD
  5
91
330
1
100
AcDbSymbolTableRecord
100
AcDbBlockTableRecord
  2
GENAXEH
340
0
 70
     0
280
     1
281
     0
  0
ENDTAB
  0
ENDSEC
  0
SECTION
  2
BLOCKS
  0
BLOCK
  5
20
330
1F
100
AcDbEntity
  8
0
100
AcDbBlockBegin
  2
*Model_Space
 70
     0
 10
0.0
 20
0.0
 30
0.0
  3
*Model_Space
  1

  0
ENDBLK
  5
21
330
1F
100
AcDbEntity
  8
0
100
AcDbBlockEnd
  0
BLOCK
  5
1C
330
1B
100
AcDbEntity
 67
     1
  8
0
100
AcDbBlockBegin
  2
*Paper_Space
 70
     0
 10
0.0
 20
0.0
 30
0.0
  3
*Paper_Space
  1

  0
ENDBLK
  5
1D
330
1B
100
AcDbEntity
 67
     1
  8
0
100
AcDbBlockEnd
  0
BLOCK
  5
24
330
23
100
AcDbEntity
 67
     1
  8
0
100
AcDbBlockBegin
  2
*Paper_Space0
 70
     0
 10
0.0
 20
0.0
 30
0.0
  3
*Paper_Space0
  1

  0
ENDBLK
  5
25
330
23
100
AcDbEntity
 67
     1
  8
0
100
AcDbBlockEnd
  0
BLOCK
  5
93
330
91
100
AcDbEntity
  8
0
100
AcDbBlockBegin
  2
GENAXEH
 70
     0
 10
0.0
 20
0.0
 30
0.0
  3
GENAXEH
  1

  0
LINE
  5
92
330
91
100
AcDbEntity
  8
0
100
AcDbLine
 10
-1.0
 20
0.0
 30
0.0
 11
1.0
 21
0.0
 31
0.0
  0
ENDBLK
  5
94
330
91
100
AcDbEntity
  8
0
100
AcDbBlockEnd
  0
ENDSEC
  0
SECTION
  2
ENTITIES
  0
LINE
  5
63F
330
1F
100
AcDbEntity
  8
0
100
AcDbLine
 10
25.03832114400369
 20
14.61102388988313
 30
0.0
 11
24.9742421440037
 21
14.56106988988313
 31
0.0
  0
POLYLINE
  5
640
330
1F
100
AcDbEntity
  8
0
100
AcDb2dPolyline
 66
     1
 10
0.0
 20
0.0
 30
0.0
  0
VERTEX
  5
641
330
640
100
AcDbEntity
  8
0
100
AcDbVertex
100
AcDb2dVertex
 10
24.85745314400367
 20
14.31750188988314
 30
0.0
  0
VERTEX
  5
642
330
640
100
AcDbEntity
  8
0
100
AcDbVertex
100
AcDb2dVertex
 10
24.87295614400368
 20
14.32714788988313
 30
0.0
  0
VERTEX
  5
643
330
640
100
AcDbEntity
  8
0
100
AcDbVertex
100
AcDb2dVertex
 10
24.88053514400369
 20
14.34712988988312
 30
0.0
  0
SEQEND
  5
644
330
640
100
AcDbEntity
  8
0
  0
POLYLINE
  5
645
330
1F
100
AcDbEntity
  8
0
100
AcDb2dPolyline
 66
     1
 10
0.0
 20
0.0
 30
0.0
  0
VERTEX
  5
646
330
645
100
AcDbEntity
  8
0
100
AcDbVertex
100
AcDb2dVertex
 10
24.9742421440037
 20
14.56141488988314
 30
0.0
  0
VERTEX
  5
647
330
645
100
AcDbEntity
  8
0
100
AcDbVertex
100
AcDb2dVertex
 10
24.9235991440037
 20
14.48114388988313
 30
0.0
  0
VERTEX
  5
648
330
645
100
AcDbEntity
  8
0
100
AcDbVertex
100
AcDb2dVertex
 10
24.88673714400369
 20
14.37744688988313
 30
0.0
  0
VERTEX
  5
649
330
645
100
AcDbEntity
  8
0
100
AcDbVertex
100
AcDb2dVertex
 10
24.88053514400369
 20
14.34712988988312
 30
0.0
  0
SEQEND
  5
64A
330
645
100
AcDbEntity
  8
0
  0
LINE
  5
64B
330
1F
100
AcDbEntity
  8
0
100
AcDbLine
 10
24.85745314400367
 20
14.31750188988314
 30
0.0
 11
24.65522614400368
 21
14.31750188988314
 31
0.0
  0
LINE
  5
64C
330
1F
100
AcDbEntity
  8
0
100
AcDbLine
 10
24.65315914400368
 20
14.31750188988314
 30
0.0
 11
23.86905514400368
 21
14.31750188988314
 31
0.0
  0
LINE
  5
64E
330
1F
100
AcDbEntity
  8
0
100
AcDbLine
 10
23.61790814400368
 20
14.34712988988312
 30
0.0
 11
23.42532714400368
 21
14.63134988988314
 31
0.0
  0
POLYLINE
  5
64F
330
1F
100
AcDbEntity
  8
0
100
AcDb2dPolyline
 66
     1
 10
0.0
 20
0.0
 30
0.0
  0
VERTEX
  5
650
330
64F
100
AcDbEntity
  8
0
100
AcDbVertex
100
AcDb2dVertex
 10
23.61790814400368
 20
14.34712988988312
 30
0.0
  0
VERTEX
  5
651
330
64F
100
AcDbEntity
  8
0
100
AcDbVertex
100
AcDb2dVertex
 10
23.62204214400369
 20
14.33369388988313
 30
0.0
  0
VERTEX
  5
652
330
64F
100
AcDbEntity
  8
0
100
AcDbVertex
100
AcDb2dVertex
 10
23.63168814400369
 20
14.32025788988313
 30
0.0
  0
VERTEX
  5
653
330
64F
100
AcDbEntity
  8
0
100
AcDbVertex
100
AcDb2dVertex
 10
23.64133514400369
 20
14.31715688988313
 30
0.0
  0
SEQEND
  5
654
330
64F
100
AcDbEntity
  8
0
  0
LINE
  5
65F
330
1F
100
AcDbEntity
  8
0
100
AcDbLine
 10
23.86664414400369
 20
14.31750188988314
 30
0.0
 11
23.64133514400369
 21
14.31750188988314
 31
0.0
  0
LINE
  5
660
330
1F
100
AcDbEntity
  8
0
100
AcDbLine
 10
23.52075614400368
 20
14.72919088988314
 30
0.0
 11
23.52385714400369
 21
14.72919088988314
 31
0.0
  0
LINE
  5
66B
330
1F
100
AcDbEntity
  8
0
100
AcDbLine
 10
23.36193714400369
 20
14.68509388988313
 30
0.0
 11
23.36469314400369
 21
14.68509388988313
 31
0.0
  0
POLYLINE
  5
66C
330
1F
100
AcDbEntity
  8
0
100
AcDb2dPolyline
 66
     1
 10
0.0
 20
0.0
 30
0.0
  0
VERTEX
  5
66D
330
66C
100
AcDbEntity
  8
0
100
AcDbVertex
100
AcDb2dVertex
 10
45.3729971440037
 20
15.65833288988313
 30
0.0
  0
VERTEX
  5
66E
330
66C
100
AcDbEntity
  8
0
100
AcDbVertex
100
AcDb2dVertex
 10
45.36645114400366
 20
15.67590288988314
 30
0.0
  0
VERTEX
  5
66F
330
66C
100
AcDbEntity
  8
0
100
AcDbVertex
100
AcDb2dVertex
 10
45.33957914400366
 20
15.69278388988313
 30
0.0
  0
VERTEX
  5
670
330
66C
100
AcDbEntity
  8
0
100
AcDbVertex
100
AcDb2dVertex
 10
45.30960714400367
 20
15.69278388988313
 30
0.0
  0
SEQEND
  5
671
330
66C
100
AcDbEntity
  8
0
  0
POLYLINE
  5
672
330
1F
100
AcDbEntity
  8
0
100
AcDb2dPolyline
 66
     1
 10
0.0
 20
0.0
 30
0.0
  0
VERTEX
  5
673
330
672
100
AcDbEntity
  8
0
100
AcDbVertex
100
AcDb2dVertex
 10
44.69224614400369
 20
15.70449688988313
 30
0.0
  0
VERTEX
  5
674
330
672
100
AcDbEntity
  8
0
100
AcDbVertex
100
AcDb2dVertex
 10
44.89929614400369
 20
15.69864088988313
 30
0.0
  0
VERTEX
  5
675
330
672
100
AcDbEntity
  8
0
100
AcDbVertex
100
AcDb2dVertex
 10
45.10634614400368
 20
15.69278388988313
 30
0.0
  0
VERTEX
  5
676
330
672
100
AcDbEntity
  8
0
100
AcDbVertex
100
AcDb2dVertex
 10
45.30995214400369
 20
15.69278388988313
 30
0.0
  0
SEQEND
  5
677
330
672
100
AcDbEntity
  8
0
  0
POLYLINE
  5
678
330
1F
100
AcDbEntity
  8
0
100
AcDb2dPolyline
 66
     1
 10
0.0
 20
0.0
 30
0.0
  0
VERTEX
  5
679
330
678
100
AcDbEntity
  8
0
100
AcDbVertex
100
AcDb2dVertex
 10
44.24507314400369
 20
15.69864088988313
 30
0.0
  0
VERTEX
  5
67A
330
678
100
AcDbEntity
  8
0
100
AcDbVertex
100
AcDb2dVertex
 10
44.25161814400368
 20
15.71586588988314
 30
0.0
  0
VERTEX
  5
67B
330
678
100
AcDbEntity
  8
0
100
AcDbVertex
100
AcDb2dVertex
 10
44.27504514400368
 20
15.72723488988313
 30
0.0
  0
VERTEX
  5
67C
330
678
100
AcDbEntity
  8
0
100
AcDbVertex
100
AcDb2dVertex
 10
44.3084621440037
 20
15.73343588988313
 30
0.0
  0
VERTEX
  5
67D
330
678
100
AcDbEntity
  8
0
100
AcDbVertex
100
AcDb2dVertex
 10
44.43524214400369
 20
15.71586588988314
 30
0.0
  0
SEQEND
  5
67E
330
678
100
AcDbEntity
  8
0
  0
POLYLINE
  5
67F
330
1F
100
AcDbEntity
  8
0
100
AcDb2dPolyline
 66
     1
 10
0.0
 20
0.0
 30
0.0
  0
VERTEX
  5
680
330
67F
100
AcDbEntity
  8
0
100
AcDbVertex
100
AcDb2dVertex
 10
44.43524214400369
 20
15.71586588988314
 30
0.0
  0
VERTEX
  5
681
330
67F
100
AcDbEntity
  8
0
100
AcDbVertex
100
AcDb2dVertex
 10
44.56202114400369
 20
15.71035388988313
 30
0.0
  0
VERTEX
  5
682
330
67F
100
AcDbEntity
  8
0
100
AcDbVertex
100
AcDb2dVertex
 10
44.69224614400369
 20
15.70518588988313
 30
0.0
  0
SEQEND
  5
683
330
67F
100
AcDbEntity
  8
0
  0
LINE
  5
684
330
1F
100
AcDbEntity
  8
0
100
AcDbLine
 10
44.65882914400367
 20
15.12640988988313
 30
0.0
 11
44.94236014400368
 21
15.14363588988313
 31
0.0
  0
LINE
  5
685
330
1F
100
AcDbEntity
  8
0
100
AcDbLine
 10
44.63195714400367
 20
14.56589288988313
 30
0.0
 11
44.64849314400368
 21
15.08679188988313
 31
0.0
  0
LINE
  5
686
330
1F
100
AcDbEntity
  8
0
100
AcDbLine
 10
45.01918614400369
 20
14.51456088988313
 30
0.0
 11
45.1128921440037
 21
14.51456088988313
 31
0.0
  0
POLYLINE
  5
687
330
1F
100
AcDbEntity
  8
0
100
AcDb2dPolyline
 66
     1
 10
0.0
 20
0.0
 30
0.0
  0
VERTEX
  5
688
330
687
100
AcDbEntity
  8
0
100
AcDbVertex
100
AcDb2dVertex
 10
45.1128921440037
 20
14.51456088988313
 30
0.0
  0
VERTEX
  5
689
330
687
100
AcDbEntity
  8
0
100
AcDbVertex
100
AcDb2dVertex
 10
45.19970914400369
 20
14.56589288988313
 30
0.0
  0
VERTEX
  5
68A
330
687
100
AcDbEntity
  8
0
100
AcDbVertex
100
AcDb2dVertex
 10
45.24656214400368
 20
14.70300788988313
 30
0.0
  0
SEQEND
  5
68B
330
687
100
AcDbEntity
  8
0
  0
POLYLINE
  5
68C
330
1F
100
AcDbEntity
  8
0
100
AcDb2dPolyline
 66
     1
 10
0.0
 20
0.0
 30
0.0
  0
VERTEX
  5
68D
330
68C
100
AcDbEntity
  8
0
100
AcDbVertex
100
AcDb2dVertex
 10
44.9861131440037
 20
14.56589288988313
 30
0.0
  0
VERTEX
  5
68E
330
68C
100
AcDbEntity
  8
0
100
AcDbVertex
100
AcDb2dVertex
 10
44.99610314400368
 20
14.52558588988313
 30
0.0
  0
VERTEX
  5
68F
330
68C
100
AcDbEntity
  8
0
100
AcDbVertex
100
AcDb2dVertex
 10
45.01953014400368
 20
14.51456088988313
 30
0.0
  0
SEQEND
  5
690
330
68C
100
AcDbEntity
  8
0
  0
POLYLINE
  5
691
330
1F
100
AcDbEntity
  8
0
100
AcDb2dPolyline
 66
     1
 10
0.0
 20
0.0
 30
0.0
  0
VERTEX
  5
692
330
691
100
AcDbEntity
  8
0
100
AcDbVertex
100
AcDb2dVertex
 10
45.35646014400367
 20
15.50468188988313
 30
0.0
  0
VERTEX
  5
693
330
691
100
AcDbEntity
  8
0
100
AcDbVertex
100
AcDb2dVertex
 10
45.3399241440037
 20
15.49882488988314
 30
0.0
  0
VERTEX
  5
694
330
691
100
AcDbEntity
  8
0
100
AcDbVertex
100
AcDb2dVertex
 10
45.32958914400367
 20
15.48159988988313
 30
0.0
  0
VERTEX
  5
695
330
691
100
AcDbEntity
  8
0
100
AcDbVertex
100
AcDb2dVertex
 10
45.32304314400369
 20
15.45886188988314
 30
0.0
  0
VERTEX
  5
696
330
691
100
AcDbEntity
  8
0
100
AcDbVertex
100
AcDb2dVertex
 10
45.24656214400368
 20
14.70300788988313
 30
0.0
  0
SEQEND
  5
697
330
691
100
AcDbEntity
  8
0
  0
LINE
  5
698
330
1F
100
AcDbEntity
  8
0
100
AcDbLine
 10
44.9861131440037
 20
14.56589288988313
 30
0.0
 11
44.96957614400367
 21
15.08679188988313
 31
0.0
  0
POLYLINE
  5
699
330
1F
100
AcDbEntity
  8
0
100
AcDb2dPolyline
 66
     1
 10
0.0
 20
0.0
 30
0.0
  0
VERTEX
  5
69A
330
699
100
AcDbEntity
  8
0
100
AcDbVertex
100
AcDb2dVertex
 10
44.96957614400367
 20
15.08679188988313
 30
0.0
  0
VERTEX
  5
69B
330
699
100
AcDbEntity
  8
0
100
AcDbVertex
100
AcDb2dVertex
 10
44.91962214400368
 20
15.27523788988314
 30
0.0
  0
VERTEX
  5
69C
330
699
100
AcDbEntity
  8
0
100
AcDbVertex
100
AcDb2dVertex
 10
44.80937914400368
 20
15.34965188988314
 30
0.0
  0
VERTEX
  5
69D
330
699
100
AcDbEntity
  8
0
100
AcDbVertex
100
AcDb2dVertex
 10
44.69948114400366
 20
15.27523788988314
 30
0.0
  0
VERTEX
  5
69E
330
699
100
AcDbEntity
  8
0
100
AcDbVertex
100
AcDb2dVertex
 10
44.64918214400367
 20
15.08679188988313
 30
0.0
  0
SEQEND
  5
69F
330
699
100
AcDbEntity
  8
0
  0
POLYLINE
  5
6A0
330
1F
100
AcDbEntity
  8
0
100
AcDb2dPolyline
 66
     1
 10
0.0
 20
0.0
 30
0.0
  0
VERTEX
  5
6A1
330
6A0
100
AcDbEntity
  8
0
100
AcDbVertex
100
AcDb2dVertex
 10
44.37564214400367
 20
14.70335288988314
 30
0.0
  0
VERTEX
  5
6A2
330
6A0
100
AcDbEntity
  8
0
100
AcDbVertex
100
AcDb2dVertex
 10
44.41870514400366
 20
14.56589288988313
 30
0.0
  0
VERTEX
  5
6A3
330
6A0
100
AcDbEntity
  8
0
100
AcDbVertex
100
AcDb2dVertex
 10
44.50552214400369
 20
14.51456088988313
 30
0.0
  0
VERTEX
  5
6A4
330
6A0
100
AcDbEntity
  8
0
100
AcDbVertex
100
AcDb2dVertex
 10
44.59922814400369
 20
14.51456088988313
 30
0.0
  0
SEQEND
  5
6A5
330
6A0
100
AcDbEntity
  8
0
  0
POLYLINE
  5
6A6
330
1F
100
AcDbEntity
  8
0
100
AcDb2dPolyline
 66
     1
 10
0.0
 20
0.0
 30
0.0
  0
VERTEX
  5
6A7
330
6A6
100
AcDbEntity
  8
0
100
AcDbVertex
100
AcDb2dVertex
 10
44.59922814400369
 20
14.51456088988313
 30
0.0
  0
VERTEX
  5
6A8
330
6A6
100
AcDbEntity
  8
0
100
AcDbVertex
100
AcDb2dVertex
 10
44.62231114400367
 20
14.52558588988313
 30
0.0
  0
VERTEX
  5
6A9
330
6A6
100
AcDbEntity
  8
0
100
AcDbVertex
100
AcDb2dVertex
 10
44.6326461440037
 20
14.56589288988313
 30
0.0
  0
SEQEND
  5
6AA
330
6A6
100
AcDbEntity
  8
0
  0
POLYLINE
  5
6AB
330
1F
100
AcDbEntity
  8
0
100
AcDb2dPolyline
 66
     1
 10
0.0
 20
0.0
 30
0.0
  0
VERTEX
  5
6AC
330
6AB
100
AcDbEntity
  8
0
100
AcDbVertex
100
AcDb2dVertex
 10
44.24541714400368
 20
15.69864088988313
 30
0.0
  0
VERTEX
  5
6AD
330
6AB
100
AcDbEntity
  8
0
100
AcDbVertex
100
AcDb2dVertex
 10
44.26195414400368
 20
15.53327588988313
 30
0.0
  0
VERTEX
  5
6AE
330
6AB
100
AcDbEntity
  8
0
100
AcDbVertex
100
AcDb2dVertex
 10
44.27538914400369
 20
15.52741888988313
 30
0.0
  0
VERTEX
  5
6AF
330
6AB
100
AcDbEntity
  8
0
100
AcDbVertex
100
AcDb2dVertex
 10
44.28882514400368
 20
15.51019388988313
 30
0.0
  0
VERTEX
  5
6B0
330
6AB
100
AcDbEntity
  8
0
100
AcDbVertex
100
AcDb2dVertex
 10
44.29192614400366
 20
15.48745588988313
 30
0.0
  0
VERTEX
  5
6B1
330
6AB
100
AcDbEntity
  8
0
100
AcDbVertex
100
AcDb2dVertex
 10
44.37564214400367
 20
14.70300788988313
 30
0.0
  0
SEQEND
  5
6B2
330
6AB
100
AcDbEntity
  8
0
  0
LINE
  5
6B3
330
1F
100
AcDbEntity
  8
0
100
AcDbLine
 10
45.37334114400368
 20
15.65902188988313
 30
0.0
 11
45.35680514400368
 21
15.50468188988313
 31
0.0
  0
LINE
  5
6B4
330
1F
100
AcDbEntity
  8
0
100
AcDbLine
 10
26.9017731440037
 20
14.26169088988314
 30
0.0
 11
26.88523614400369
 21
14.56830488988313
 31
0.0
  0
POLYLINE
  5
6B5
330
1F
100
AcDbEntity
  8
0
100
AcDb2dPolyline
 66
     1
 10
0.0
 20
0.0
 30
0.0
  0
VERTEX
  5
6B6
330
6B5
100
AcDbEntity
  8
0
100
AcDbVertex
100
AcDb2dVertex
 10
27.27212114400369
 20
14.80946188988314
 30
0.0
  0
VERTEX
  5
6B7
330
6B5
100
AcDbEntity
  8
0
100
AcDbVertex
100
AcDb2dVertex
 10
27.25868514400368
 20
14.80601588988314
 30
0.0
  0
VERTEX
  5
6B8
330
6B5
100
AcDbEntity
  8
0
100
AcDbVertex
100
AcDb2dVertex
 10
27.24524914400369
 20
14.79912588988313
 30
0.0
  0
VERTEX
  5
6B9
330
6B5
100
AcDbEntity
  8
0
100
AcDbVertex
100
AcDb2dVertex
 10
27.23870314400368
 20
14.78603488988313
 30
0.0
  0
VERTEX
  5
6BA
330
6B5
100
AcDbEntity
  8
0
100
AcDbVertex
100
AcDb2dVertex
 10
27.16187814400368
 20
14.34161788988313
 30
0.0
  0
SEQEND
  5
6BB
330
6B5
100
AcDbEntity
  8
0
  0
POLYLINE
  5
6BC
330
1F
100
AcDbEntity
  8
0
100
AcDb2dPolyline
 66
     1
 10
0.0
 20
0.0
 30
0.0
  0
VERTEX
  5
6BD
330
6BC
100
AcDbEntity
  8
0
100
AcDbVertex
100
AcDb2dVertex
 10
27.28865714400368
 20
14.89937888988313
 30
0.0
  0
VERTEX
  5
6BE
330
6BC
100
AcDbEntity
  8
0
100
AcDbVertex
100
AcDb2dVertex
 10
27.28211114400368
 20
14.90902488988313
 30
0.0
  0
VERTEX
  5
6BF
330
6BC
100
AcDbEntity
  8
0
100
AcDbVertex
100
AcDb2dVertex
 10
27.25868514400368
 20
14.91935988988313
 30
0.0
  0
VERTEX
  5
6C0
330
6BC
100
AcDbEntity
  8
0
100
AcDbVertex
100
AcDb2dVertex
 10
27.2252671440037
 20
14.91935988988313
 30
0.0
  0
SEQEND
  5
6C1
330
6BC
100
AcDbEntity
  8
0
  0
LINE
  5
6C2
330
1F
100
AcDbEntity
  8
0
100
AcDbLine
 10
27.28865714400368
 20
14.89937888988313
 30
0.0
 11
27.27212114400369
 21
14.80946188988314
 31
0.0
  0
LINE
  5
6C3
330
1F
100
AcDbEntity
  8
0
100
AcDbLine
 10
24.74135314400368
 20
14.78879088988314
 30
0.0
 11
26.42187114400369
 21
14.80188188988313
 31
0.0
  0
LINE
  5
6C4
330
1F
100
AcDbEntity
  8
0
100
AcDbLine
 10
26.55106214400368
 20
14.26169088988314
 30
0.0
 11
26.5644981440037
 21
14.56830488988313
 31
0.0
  0
POLYLINE
  5
6C5
330
1F
100
AcDbEntity
  8
0
100
AcDb2dPolyline
 66
     1
 10
0.0
 20
0.0
 30
0.0
  0
VERTEX
  5
6C6
330
6C5
100
AcDbEntity
  8
0
100
AcDbVertex
100
AcDb2dVertex
 10
26.16038814400369
 20
14.92211588988314
 30
0.0
  0
VERTEX
  5
6C7
330
6C5
100
AcDbEntity
  8
0
100
AcDbVertex
100
AcDb2dVertex
 10
26.17692514400367
 20
14.82599788988313
 30
0.0
  0
VERTEX
  5
6C8
330
6C5
100
AcDbEntity
  8
0
100
AcDbVertex
100
AcDb2dVertex
 10
26.19415014400367
 20
14.82220788988313
 30
0.0
  0
VERTEX
  5
6C9
330
6C5
100
AcDbEntity
  8
0
100
AcDbVertex
100
AcDb2dVertex
 10
26.2037971440037
 20
14.81221788988313
 30
0.0
  0
VERTEX
  5
6CA
330
6C5
100
AcDbEntity
  8
0
100
AcDbVertex
100
AcDb2dVertex
 10
26.21068714400369
 20
14.79912588988313
 30
0.0
  0
VERTEX
  5
6CB
330
6C5
100
AcDbEntity
  8
0
100
AcDbVertex
100
AcDb2dVertex
 10
26.29061314400369
 20
14.34161788988313
 30
0.0
  0
SEQEND
  5
6CC
330
6C5
100
AcDbEntity
  8
0
  0
POLYLINE
  5
6CD
330
1F
100
AcDbEntity
  8
0
100
AcDb2dPolyline
 66
     1
 10
0.0
 20
0.0
 30
0.0
  0
VERTEX
  5
6CE
330
6CD
100
AcDbEntity
  8
0
100
AcDbVertex
100
AcDb2dVertex
 10
26.16038814400369
 20
14.92211588988314
 30
0.0
  0
VERTEX
  5
6CF
330
6CD
100
AcDbEntity
  8
0
100
AcDbVertex
100
AcDb2dVertex
 10
26.16727914400367
 20
14.93245088988313
 30
0.0
  0
VERTEX
  5
6D0
330
6CD
100
AcDbEntity
  8
0
100
AcDbVertex
100
AcDb2dVertex
 10
26.19415014400367
 20
14.94244188988313
 30
0.0
  0
VERTEX
  5
6D1
330
6CD
100
AcDbEntity
  8
0
100
AcDbVertex
100
AcDb2dVertex
 10
26.2241231440037
 20
14.94244188988313
 30
0.0
  0
SEQEND
  5
6D2
330
6CD
100
AcDbEntity
  8
0
  0
POLYLINE
  5
6D3
330
1F
100
AcDbEntity
  8
0
100
AcDb2dPolyline
 66
     1
 10
0.0
 20
0.0
 30
0.0
  0
VERTEX
  5
6D4
330
6D3
100
AcDbEntity
  8
0
100
AcDbVertex
100
AcDb2dVertex
 10
26.2241231440037
 20
14.94244188988313
 30
0.0
  0
VERTEX
  5
6D5
330
6D3
100
AcDbEntity
  8
0
100
AcDbVertex
100
AcDb2dVertex
 10
26.35090214400367
 20
14.93245088988313
 30
0.0
  0
VERTEX
  5
6D6
330
6D3
100
AcDbEntity
  8
0
100
AcDbVertex
100
AcDb2dVertex
 10
26.47768214400368
 20
14.92900588988313
 30
0.0
  0
VERTEX
  5
6D7
330
6D3
100
AcDbEntity
  8
0
100
AcDbVertex
100
AcDb2dVertex
 10
26.61135114400368
 20
14.92590588988313
 30
0.0
  0
SEQEND
  5
6D8
330
6D3
100
AcDbEntity
  8
0
  0
POLYLINE
  5
6D9
330
1F
100
AcDbEntity
  8
0
100
AcDb2dPolyline
 66
     1
 10
0.0
 20
0.0
 30
0.0
  0
VERTEX
  5
6DA
330
6D9
100
AcDbEntity
  8
0
100
AcDbVertex
100
AcDb2dVertex
 10
26.88523614400369
 20
14.56830488988313
 30
0.0
  0
VERTEX
  5
6DB
330
6D9
100
AcDbEntity
  8
0
100
AcDbVertex
100
AcDb2dVertex
 10
26.83493814400369
 20
14.67544688988313
 30
0.0
  0
VERTEX
  5
6DC
330
6D9
100
AcDbEntity
  8
0
100
AcDbVertex
100
AcDb2dVertex
 10
26.72503914400369
 20
14.71919988988313
 30
0.0
  0
VERTEX
  5
6DD
330
6D9
100
AcDbEntity
  8
0
100
AcDbVertex
100
AcDb2dVertex
 10
26.61479614400369
 20
14.67544688988313
 30
0.0
  0
VERTEX
  5
6DE
330
6D9
100
AcDbEntity
  8
0
100
AcDbVertex
100
AcDb2dVertex
 10
26.56484314400369
 20
14.56830488988313
 30
0.0
  0
SEQEND
  5
6DF
330
6D9
100
AcDbEntity
  8
0
  0
POLYLINE
  5
6E0
330
1F
100
AcDbEntity
  8
0
100
AcDb2dPolyline
 66
     1
 10
0.0
 20
0.0
 30
0.0
  0
VERTEX
  5
6E1
330
6E0
100
AcDbEntity
  8
0
100
AcDbVertex
100
AcDb2dVertex
 10
26.61135114400368
 20
14.92590588988313
 30
0.0
  0
VERTEX
  5
6E2
330
6E0
100
AcDbEntity
  8
0
100
AcDbVertex
100
AcDb2dVertex
 10
26.81495614400367
 20
14.92211588988314
 30
0.0
  0
VERTEX
  5
6E3
330
6E0
100
AcDbEntity
  8
0
100
AcDbVertex
100
AcDb2dVertex
 10
27.02200714400368
 20
14.91935988988313
 30
0.0
  0
VERTEX
  5
6E4
330
6E0
100
AcDbEntity
  8
0
100
AcDbVertex
100
AcDb2dVertex
 10
27.22561214400369
 20
14.91935988988313
 30
0.0
  0
SEQEND
  5
6E5
330
6E0
100
AcDbEntity
  8
0
  0
LINE
  5
6E6
330
1F
100
AcDbEntity
  8
0
100
AcDbLine
 10
26.6010161440037
 20
14.65856588988314
 30
0.0
 11
26.84492914400367
 21
14.66545688988313
 31
0.0
  0
LINE
  5
6E7
330
1F
100
AcDbEntity
  8
0
100
AcDbLine
 10
26.9348461440037
 20
14.23137388988314
 30
0.0
 11
27.03165314400369
 21
14.23137388988314
 31
0.0
  0
LINE
  5
6E8
330
1F
100
AcDbEntity
  8
0
100
AcDbLine
 10
26.42083814400368
 20
14.23137388988314
 30
0.0
 11
26.51764514400369
 21
14.23137388988314
 31
0.0
  0
POLYLINE
  5
6E9
330
1F
100
AcDbEntity
  8
0
100
AcDb2dPolyline
 66
     1
 10
0.0
 20
0.0
 30
0.0
  0
VERTEX
  5
6EA
330
6E9
100
AcDbEntity
  8
0
100
AcDbVertex
100
AcDb2dVertex
 10
26.9017731440037
 20
14.26169088988314
 30
0.0
  0
VERTEX
  5
6EB
330
6E9
100
AcDbEntity
  8
0
100
AcDbVertex
100
AcDb2dVertex
 10
26.91141914400369
 20
14.23860888988313
 30
0.0
  0
VERTEX
  5
6EC
330
6E9
100
AcDbEntity
  8
0
100
AcDbVertex
100
AcDb2dVertex
 10
26.9348461440037
 20
14.23137388988314
 30
0.0
  0
SEQEND
  5
6ED
330
6E9
100
AcDbEntity
  8
0
  0
POLYLINE
  5
6EE
330
1F
100
AcDbEntity
  8
0
100
AcDb2dPolyline
 66
     1
 10
0.0
 20
0.0
 30
0.0
  0
VERTEX
  5
6EF
330
6EE
100
AcDbEntity
  8
0
100
AcDbVertex
100
AcDb2dVertex
 10
27.0319971440037
 20
14.23137388988314
 30
0.0
  0
VERTEX
  5
6F0
330
6EE
100
AcDbEntity
  8
0
100
AcDbVertex
100
AcDb2dVertex
 10
27.11536914400369
 20
14.26169088988314
 30
0.0
  0
VERTEX
  5
6F1
330
6EE
100
AcDbEntity
  8
0
100
AcDbVertex
100
AcDb2dVertex
 10
27.16187814400368
 20
14.34161788988313
 30
0.0
  0
SEQEND
  5
6F2
330
6EE
100
AcDbEntity
  8
0
  0
POLYLINE
  5
6F3
330
1F
100
AcDbEntity
  8
0
100
AcDb2dPolyline
 66
     1
 10
0.0
 20
0.0
 30
0.0
  0
VERTEX
  5
6F4
330
6F3
100
AcDbEntity
  8
0
100
AcDbVertex
100
AcDb2dVertex
 10
26.29095714400369
 20
14.34161788988313
 30
0.0
  0
VERTEX
  5
6F5
330
6F3
100
AcDbEntity
  8
0
100
AcDbVertex
100
AcDb2dVertex
 10
26.3343661440037
 20
14.26169088988314
 30
0.0
  0
VERTEX
  5
6F6
330
6F3
100
AcDbEntity
  8
0
100
AcDbVertex
100
AcDb2dVertex
 10
26.42118214400368
 20
14.23137388988314
 30
0.0
  0
SEQEND
  5
6F7
330
6F3
100
AcDbEntity
  8
0
  0
POLYLINE
  5
6F8
330
1F
100
AcDbEntity
  8
0
100
AcDb2dPolyline
 66
     1
 10
0.0
 20
0.0
 30
0.0
  0
VERTEX
  5
6F9
330
6F8
100
AcDbEntity
  8
0
100
AcDbVertex
100
AcDb2dVertex
 10
26.51798914400369
 20
14.23137388988314
 30
0.0
  0
VERTEX
  5
6FA
330
6F8
100
AcDbEntity
  8
0
100
AcDbVertex
100
AcDb2dVertex
 10
26.5410711440037
 20
14.23826488988314
 30
0.0
  0
VERTEX
  5
6FB
330
6F8
100
AcDbEntity
  8
0
100
AcDbVertex
100
AcDb2dVertex
 10
26.55140714400368
 20
14.26169088988314
 30
0.0
  0
SEQEND
  5
6FC
330
6F8
100
AcDbEntity
  8
0
  0
POLYLINE
  5
702
330
1F
100
AcDbEntity
  8
0
100
AcDb2dPolyline
 66
     1
 10
0.0
 20
0.0
 30
0.0
  0
VERTEX
  5
703
330
702
100
AcDbEntity
  8
0
100
AcDbVertex
100
AcDb2dVertex
 10
22.11033414400369
 20
26.12005488988314
 30
0.0
  0
VERTEX
  5
704
330
702
100
AcDbEntity
  8
0
100
AcDbVertex
100
AcDb2dVertex
 10
22.12273614400368
 20
26.11109688988313
 30
0.0
  0
VERTEX
  5
705
330
702
100
AcDbEntity
  8
0
100
AcDbVertex
100
AcDb2dVertex
 10
22.13445014400368
 20
26.09869488988314
 30
0.0
  0
VERTEX
  5
706
330
702
100
AcDbEntity
  8
0
100
AcDbVertex
100
AcDb2dVertex
 10
22.14650814400368
 20
26.08939288988313
 30
0.0
  0
VERTEX
  5
707
330
702
100
AcDbEntity
  8
0
100
AcDbVertex
100
AcDb2dVertex
 10
22.15891014400368
 20
26.08009088988314
 30
0.0
  0
VERTEX
  5
708
330
702
100
AcDbEntity
  8
0
100
AcDbVertex
100
AcDb2dVertex
 10
22.17131214400368
 20
26.06803388988314
 30
0.0
  0
VERTEX
  5
709
330
702
100
AcDbEntity
  8
0
100
AcDbVertex
100
AcDb2dVertex
 10
22.1740681440037
 20
26.06803388988314
 30
0.0
  0
SEQEND
  5
70A
330
702
100
AcDbEntity
  8
0
  0
POLYLINE
  5
70B
330
1F
100
AcDbEntity
  8
0
100
AcDb2dPolyline
 66
     1
 10
0.0
 20
0.0
 30
0.0
  0
VERTEX
  5
70C
330
70B
100
AcDbEntity
  8
0
100
AcDbVertex
100
AcDb2dVertex
 10
39.43778614400368
 20
20.99960888988313
 30
0.0
  0
VERTEX
  5
70D
330
70B
100
AcDbEntity
  8
0
100
AcDbVertex
100
AcDb2dVertex
 10
40.38863314400368
 20
20.73123588988314
 30
0.0
  0
VERTEX
  5
70E
330
70B
100
AcDbEntity
  8
0
100
AcDbVertex
100
AcDb2dVertex
 10
41.29986014400367
 20
20.47492088988313
 30
0.0
  0
VERTEX
  5
70F
330
70B
100
AcDbEntity
  8
0
100
AcDbVertex
100
AcDb2dVertex
 10
41.30330614400366
 20
20.47492088988313
 30
0.0
  0
SEQEND
  5
710
330
70B
100
AcDbEntity
  8
0
  0
SPLINE
  5
711
330
1F
100
AcDbEntity
  8
0
100
AcDbSpline
210
0.0
220
0.0
230
1.0
 70
     8
 71
     3
 72
    14
 73
    10
 74
     0
 42
0.0000000001
 43
0.0000000001
 40
0.0
 40
0.0
 40
0.0
 40
0.0
 40
1.0
 40
1.0
 40
1.0
 40
2.0
 40
2.0
 40
2.0
 40
3.0
 40
3.0
 40
3.0
 40
3.0
 10
23.50904298167727
 20
25.41897746800811
 30
0.0
 10
23.50904298167727
 20
25.41897746800811
 30
0.0
 10
24.99629070303145
 20
24.99178562773035
 30
0.0
 10
24.99629070303145
 20
24.99178562773035
 30
0.0
 10
29.82941516049674
 20
23.70710952095953
 30
0.0
 10
34.63360081587868
 20
22.38970500707063
 30
0.0
 10
39.43778647126064
 20
20.9996089784248
 30
0.0
 10
39.43778647126064
 20
20.9996089784248
 30
0.0
 10
39.44054254764953
 20
20.9996089784248
 30
0.0
 10
39.44054254764953
 20
20.9996089784248
 30
0.0
  0
SPLINE
  5
712
330
1F
100
AcDbEntity
  8
0
100
AcDbSpline
210
0.0
220
0.0
230
1.0
 70
     8
 71
     3
 72
    14
 73
    10
 74
     0
 42
0.0000000001
 43
0.0000000001
 40
0.0
 40
0.0
 40
0.0
 40
0.0
 40
1.0
 40
1.0
 40
1.0
 40
2.0
 40
2.0
 40
2.0
 40
3.0
 40
3.0
 40
3.0
 40
3.0
 10
22.17096789487174
 20
26.06803345759147
 30
0.0
 10
22.17096789487174
 20
26.06803345759147
 30
0.0
 10
22.23780274730227
 20
26.0132564393623
 30
0.0
 10
22.23780274730227
 20
26.0132564393623
 30
0.0
 10
22.60849502160785
 20
25.71766724665396
 30
0.0
 10
23.05635743480228
 20
25.54403443415396
 30
0.0
 10
23.50904298167727
 20
25.41863295845951
 30
0.0
 10
23.50904298167727
 20
25.41863295845951
 30
0.0
 10
23.51179905806616
 20
25.41863295845951
 30
0.0
 10
23.51179905806616
 20
25.41863295845951
 30
0.0
  0
POLYLINE
  5
713
330
1F
100
AcDbEntity
  8
0
100
AcDb2dPolyline
 66
     1
 10
0.0
 20
0.0
 30
0.0
  0
VERTEX
  5
714
330
713
100
AcDbEntity
  8
0
100
AcDbVertex
100
AcDb2dVertex
 10
53.4424441440037
 20
19.77384388988313
 30
0.0
  0
VERTEX
  5
715
330
713
100
AcDbEntity
  8
0
100
AcDbVertex
100
AcDb2dVertex
 10
53.22919314400369
 20
19.51787388988313
 30
0.0
  0
VERTEX
  5
716
330
713
100
AcDbEntity
  8
0
100
AcDbVertex
100
AcDb2dVertex
 10
52.87572614400366
 20
19.06105388988313
 30
0.0
  0
VERTEX
  5
717
330
713
100
AcDbEntity
  8
0
100
AcDbVertex
100
AcDb2dVertex
 10
52.53121614400368
 20
18.56702688988313
 30
0.0
  0
VERTEX
  5
718
330
713
100
AcDbEntity
  8
0
100
AcDbVertex
100
AcDb2dVertex
 10
52.19635314400367
 20
18.04302788988314
 30
0.0
  0
VERTEX
  5
719
330
713
100
AcDbEntity
  8
0
100
AcDbVertex
100
AcDb2dVertex
 10
51.87595914400367
 20
17.47872188988313
 30
0.0
  0
VERTEX
  5
71A
330
713
100
AcDbEntity
  8
0
100
AcDbVertex
100
AcDb2dVertex
 10
51.87906014400368
 20
17.47872188988313
 30
0.0
  0
SEQEND
  5
71B
330
713
100
AcDbEntity
  8
0
  0
SPLINE
  5
71C
330
1F
100
AcDbEntity
  8
0
100
AcDbSpline
210
0.0
220
0.0
230
1.0
 70
     8
 71
     3
 72
    17
 73
    13
 74
     0
 42
0.0000000001
 43
0.0000000001
 40
0.0
 40
0.0
 40
0.0
 40
0.0
 40
1.0
 40
1.0
 40
1.0
 40
2.0
 40
2.0
 40
2.0
 40
3.0
 40
3.0
 40
3.0
 40
4.0
 40
4.0
 40
4.0
 40
4.0
 10
56.54544163619118
 20
24.31861396974424
 30
0.0
 10
56.54544163619118
 20
24.31861396974424
 30
0.0
 10
56.49376520389949
 20
24.17254192113313
 30
0.0
 10
56.49376520389949
 20
24.17254192113313
 30
0.0
 10
55.94358345476755
 20
22.65084324491786
 30
0.0
 10
55.11159289487171
 20
21.44540433432757
 30
0.0
 10
53.93957141049671
 20
20.33160496366786
 30
0.0
 10
53.93957141049671
 20
20.33160496366786
 30
0.0
 10
53.92716906674673
 20
20.31679105307757
 30
0.0
 10
53.92716906674673
 20
20.31679105307757
 30
0.0
 10
53.92716906674673
 20
20.31679105307757
 30
0.0
 10
53.93061416223284
 20
20.31679105307757
 30
0.0
 10
53.93061416223284
 20
20.31679105307757
 30
0.0
  0
POLYLINE
  5
71D
330
1F
100
AcDbEntity
  8
0
100
AcDb2dPolyline
 66
     1
 10
0.0
 20
0.0
 30
0.0
  0
VERTEX
  5
71E
330
71D
100
AcDbEntity
  8
0
100
AcDbVertex
100
AcDb2dVertex
 10
45.53939514400369
 20
15.49434688988313
 30
0.0
  0
VERTEX
  5
71F
330
71D
100
AcDbEntity
  8
0
100
AcDbVertex
100
AcDb2dVertex
 10
48.89836314400369
 20
15.63525088988314
 30
0.0
  0
VERTEX
  5
720
330
71D
100
AcDbEntity
  8
0
100
AcDbVertex
100
AcDb2dVertex
 10
48.9011191440037
 20
15.63525088988314
 30
0.0
  0
SEQEND
  5
721
330
71D
100
AcDbEntity
  8
0
  0
POLYLINE
  5
722
330
1F
100
AcDbEntity
  8
0
100
AcDb2dPolyline
 66
     1
 10
0.0
 20
0.0
 30
0.0
  0
VERTEX
  5
723
330
722
100
AcDbEntity
  8
0
100
AcDbVertex
100
AcDb2dVertex
 10
26.29130214400368
 20
14.90282388988314
 30
0.0
  0
VERTEX
  5
724
330
722
100
AcDbEntity
  8
0
100
AcDbVertex
100
AcDb2dVertex
 10
44.09831214400367
 20
15.50674888988313
 30
0.0
  0
VERTEX
  5
725
330
722
100
AcDbEntity
  8
0
100
AcDbVertex
100
AcDb2dVertex
 10
44.10106814400371
 20
15.50674888988313
 30
0.0
  0
SEQEND
  5
726
330
722
100
AcDbEntity
  8
0
  0
SPLINE
  5
727
330
1F
100
AcDbEntity
  8
0
100
AcDbSpline
210
0.0
220
0.0
230
1.0
 70
     8
 71
     3
 72
    17
 73
    13
 74
     0
 42
0.0000000001
 43
0.0000000001
 40
0.0
 40
0.0
 40
0.0
 40
0.0
 40
1.0
 40
1.0
 40
1.0
 40
2.0
 40
2.0
 40
2.0
 40
3.0
 40
3.0
 40
3.0
 40
4.0
 40
4.0
 40
4.0
 40
4.0
 10
59.69425891049673
 20
28.36901273276507
 30
0.0
 10
59.69425891049673
 20
28.36901273276507
 30
0.0
 10
59.63018013445505
 20
28.36005548450117
 30
0.0
 10
59.63018013445505
 20
28.36005548450117
 30
0.0
 10
59.27774686622587
 20
28.26772692547341
 30
0.0
 10
59.16647028202451
 20
27.98040596193174
 30
0.0
 10
59.07551976119115
 20
27.66207913901508
 30
0.0
 10
59.07551976119115
 20
27.66207913901508
 30
0.0
 10
59.02935548167727
 20
27.50360474665395
 30
0.0
 10
59.02935548167727
 20
27.50360474665395
 30
0.0
 10
59.02935548167727
 20
27.50360474665395
 30
0.0
 10
59.03280057716338
 20
27.50360474665395
 30
0.0
 10
59.03280057716338
 20
27.50360474665395
 30
0.0
  0
POLYLINE
  5
728
330
1F
100
AcDbEntity
  8
0
100
AcDb2dPolyline
 66
     1
 10
0.0
 20
0.0
 30
0.0
  0
VERTEX
  5
729
330
728
100
AcDbEntity
  8
0
100
AcDbVertex
100
AcDb2dVertex
 10
59.4258861440037
 20
28.32043688988314
 30
0.0
  0
VERTEX
  5
72A
330
728
100
AcDbEntity
  8
0
100
AcDbVertex
100
AcDb2dVertex
 10
59.52062614400367
 20
28.33869588988313
 30
0.0
  0
VERTEX
  5
72B
330
728
100
AcDbEntity
  8
0
100
AcDbVertex
100
AcDb2dVertex
 10
59.59951914400369
 20
28.35695488988313
 30
0.0
  0
VERTEX
  5
72C
330
728
100
AcDbEntity
  8
0
100
AcDbVertex
100
AcDb2dVertex
 10
59.65774114400369
 20
28.36625688988313
 30
0.0
  0
VERTEX
  5
72D
330
728
100
AcDbEntity
  8
0
100
AcDbVertex
100
AcDb2dVertex
 10
59.69425914400369
 20
28.36901288988314
 30
0.0
  0
VERTEX
  5
72E
330
728
100
AcDbEntity
  8
0
100
AcDbVertex
100
AcDb2dVertex
 10
59.69735914400368
 20
28.36901288988314
 30
0.0
  0
SEQEND
  5
72F
330
728
100
AcDbEntity
  8
0
  0
POLYLINE
  5
730
330
1F
100
AcDbEntity
  8
0
100
AcDb2dPolyline
 66
     1
 10
0.0
 20
0.0
 30
0.0
  0
VERTEX
  5
731
330
730
100
AcDbEntity
  8
0
100
AcDbVertex
100
AcDb2dVertex
 10
59.03280014400369
 20
28.23224288988313
 30
0.0
  0
VERTEX
  5
732
330
730
100
AcDbEntity
  8
0
100
AcDbVertex
100
AcDb2dVertex
 10
59.4258861440037
 20
28.32043688988314
 30
0.0
  0
VERTEX
  5
733
330
730
100
AcDbEntity
  8
0
100
AcDbVertex
100
AcDb2dVertex
 10
59.42898614400369
 20
28.32043688988314
 30
0.0
  0
SEQEND
  5
734
330
730
100
AcDbEntity
  8
0
  0
POLYLINE
  5
735
330
1F
100
AcDbEntity
  8
0
100
AcDb2dPolyline
 66
     1
 10
0.0
 20
0.0
 30
0.0
  0
VERTEX
  5
736
330
735
100
AcDbEntity
  8
0
100
AcDbVertex
100
AcDb2dVertex
 10
58.94426114400369
 20
26.79632688988313
 30
0.0
  0
VERTEX
  5
737
330
735
100
AcDbEntity
  8
0
100
AcDbVertex
100
AcDb2dVertex
 10
58.94081614400369
 20
26.79357088988313
 30
0.0
  0
VERTEX
  5
738
330
735
100
AcDbEntity
  8
0
100
AcDbVertex
100
AcDb2dVertex
 10
58.8829391440037
 20
26.68987288988314
 30
0.0
  0
VERTEX
  5
739
330
735
100
AcDbEntity
  8
0
100
AcDbVertex
100
AcDb2dVertex
 10
58.81920514400369
 20
26.58893188988313
 30
0.0
  0
VERTEX
  5
73A
330
735
100
AcDbEntity
  8
0
100
AcDbVertex
100
AcDb2dVertex
 10
58.74892514400366
 20
26.48592388988314
 30
0.0
  0
VERTEX
  5
73B
330
735
100
AcDbEntity
  8
0
100
AcDbVertex
100
AcDb2dVertex
 10
58.67588914400369
 20
26.37878088988313
 30
0.0
  0
VERTEX
  5
73C
330
735
100
AcDbEntity
  8
0
100
AcDbVertex
100
AcDb2dVertex
 10
58.59665114400368
 20
26.27198288988314
 30
0.0
  0
VERTEX
  5
73D
330
735
100
AcDbEntity
  8
0
100
AcDbVertex
100
AcDb2dVertex
 10
58.59975214400368
 20
26.27198288988314
 30
0.0
  0
SEQEND
  5
73E
330
735
100
AcDbEntity
  8
0
  0
POLYLINE
  5
73F
330
1F
100
AcDbEntity
  8
0
100
AcDb2dPolyline
 66
     1
 10
0.0
 20
0.0
 30
0.0
  0
VERTEX
  5
740
330
73F
100
AcDbEntity
  8
0
100
AcDbVertex
100
AcDb2dVertex
 10
59.02935514400368
 20
27.50360488988313
 30
0.0
  0
VERTEX
  5
741
330
73F
100
AcDbEntity
  8
0
100
AcDbVertex
100
AcDb2dVertex
 10
59.00524014400369
 20
27.42402288988313
 30
0.0
  0
VERTEX
  5
742
330
73F
100
AcDbEntity
  8
0
100
AcDbVertex
100
AcDb2dVertex
 10
58.97767914400367
 20
27.34478588988314
 30
0.0
  0
VERTEX
  5
743
330
73F
100
AcDbEntity
  8
0
100
AcDbVertex
100
AcDb2dVertex
 10
58.96837714400368
 20
27.31446888988313
 30
0.0
  0
VERTEX
  5
744
330
73F
100
AcDbEntity
  8
0
100
AcDbVertex
100
AcDb2dVertex
 10
58.97182214400368
 20
27.31446888988313
 30
0.0
  0
SEQEND
  5
745
330
73F
100
AcDbEntity
  8
0
  0
SPLINE
  5
746
330
1F
100
AcDbEntity
  8
0
100
AcDbSpline
210
0.0
220
0.0
230
1.0
 70
     8
 71
     3
 72
    17
 73
    13
 74
     0
 42
0.0000000001
 43
0.0000000001
 40
0.0
 40
0.0
 40
0.0
 40
0.0
 40
1.0
 40
1.0
 40
1.0
 40
2.0
 40
2.0
 40
2.0
 40
3.0
 40
3.0
 40
3.0
 40
4.0
 40
4.0
 40
4.0
 40
4.0
 10
59.69425891049673
 20
28.36901273276507
 30
0.0
 10
59.69425891049673
 20
28.36901273276507
 30
0.0
 10
59.74869141917728
 20
28.37176880915395
 30
0.0
 10
59.74869141917728
 20
28.37176880915395
 30
0.0
 10
60.13970975685089
 20
28.37004626141091
 30
0.0
 10
60.34331490008006
 20
27.89255602703591
 30
0.0
 10
60.4225520962606
 20
27.57354018502201
 30
0.0
 10
60.4225520962606
 20
27.57354018502201
 30
0.0
 10
60.44081110233699
 20
27.50084867026507
 30
0.0
 10
60.44081110233699
 20
27.50084867026507
 30
0.0
 10
60.44081110233699
 20
27.50084867026507
 30
0.0
 10
60.44391168827451
 20
27.50084867026507
 30
0.0
 10
60.44391168827451
 20
27.50084867026507
 30
0.0
  0
POLYLINE
  5
747
330
1F
100
AcDbEntity
  8
0
100
AcDb2dPolyline
 66
     1
 10
0.0
 20
0.0
 30
0.0
  0
VERTEX
  5
748
330
747
100
AcDbEntity
  8
0
100
AcDbVertex
100
AcDb2dVertex
 10
53.39696914400369
 20
19.81070688988313
 30
0.0
  0
VERTEX
  5
749
330
747
100
AcDbEntity
  8
0
100
AcDbVertex
100
AcDb2dVertex
 10
53.52822714400367
 20
19.71010988988313
 30
0.0
  0
VERTEX
  5
74A
330
747
100
AcDbEntity
  8
0
100
AcDbVertex
100
AcDb2dVertex
 10
53.53098314400367
 20
19.71010988988313
 30
0.0
  0
SEQEND
  5
74B
330
747
100
AcDbEntity
  8
0
  0
POLYLINE
  5
74C
330
1F
100
AcDbEntity
  8
0
100
AcDb2dPolyline
 66
     1
 10
0.0
 20
0.0
 30
0.0
  0
VERTEX
  5
74D
330
74C
100
AcDbEntity
  8
0
100
AcDbVertex
100
AcDb2dVertex
 10
53.67740014400368
 20
20.68507188988313
 30
0.0
  0
VERTEX
  5
74E
330
74C
100
AcDbEntity
  8
0
100
AcDbVertex
100
AcDb2dVertex
 10
53.82347214400368
 20
20.84320188988314
 30
0.0
  0
VERTEX
  5
74F
330
74C
100
AcDbEntity
  8
0
100
AcDbVertex
100
AcDb2dVertex
 10
53.96403114400368
 20
21.00202088988313
 30
0.0
  0
VERTEX
  5
750
330
74C
100
AcDbEntity
  8
0
100
AcDbVertex
100
AcDb2dVertex
 10
53.96713214400367
 20
21.00202088988313
 30
0.0
  0
SEQEND
  5
751
330
74C
100
AcDbEntity
  8
0
  0
POLYLINE
  5
752
330
1F
100
AcDbEntity
  8
0
100
AcDb2dPolyline
 66
     1
 10
0.0
 20
0.0
 30
0.0
  0
VERTEX
  5
753
330
752
100
AcDbEntity
  8
0
100
AcDbVertex
100
AcDb2dVertex
 10
53.31773214400368
 20
20.29784288988313
 30
0.0
  0
VERTEX
  5
754
330
752
100
AcDbEntity
  8
0
100
AcDbVertex
100
AcDb2dVertex
 10
53.38801114400368
 20
20.37397988988313
 30
0.0
  0
VERTEX
  5
755
330
752
100
AcDbEntity
  8
0
100
AcDbVertex
100
AcDb2dVertex
 10
53.67740014400368
 20
20.68472688988314
 30
0.0
  0
VERTEX
  5
756
330
752
100
AcDbEntity
  8
0
100
AcDbVertex
100
AcDb2dVertex
 10
53.68015614400369
 20
20.68472688988314
 30
0.0
  0
SEQEND
  5
757
330
752
100
AcDbEntity
  8
0
  0
POLYLINE
  5
758
330
1F
100
AcDbEntity
  8
0
100
AcDb2dPolyline
 66
     1
 10
0.0
 20
0.0
 30
0.0
  0
VERTEX
  5
759
330
758
100
AcDbEntity
  8
0
100
AcDbVertex
100
AcDb2dVertex
 10
53.89065114400366
 20
20.12455488988313
 30
0.0
  0
VERTEX
  5
75A
330
758
100
AcDbEntity
  8
0
100
AcDbVertex
100
AcDb2dVertex
 10
53.52788214400368
 20
19.70976488988314
 30
0.0
  0
VERTEX
  5
75B
330
758
100
AcDbEntity
  8
0
100
AcDbVertex
100
AcDb2dVertex
 10
53.53063814400369
 20
19.70976488988314
 30
0.0
  0
SEQEND
  5
75C
330
758
100
AcDbEntity
  8
0
  0
POLYLINE
  5
75D
330
1F
100
AcDbEntity
  8
0
100
AcDb2dPolyline
 66
     1
 10
0.0
 20
0.0
 30
0.0
  0
VERTEX
  5
75E
330
75D
100
AcDbEntity
  8
0
100
AcDbVertex
100
AcDb2dVertex
 10
53.96368714400367
 20
21.00202088988313
 30
0.0
  0
VERTEX
  5
75F
330
75D
100
AcDbEntity
  8
0
100
AcDbVertex
100
AcDb2dVertex
 10
53.92096814400369
 20
20.20379188988313
 30
0.0
  0
VERTEX
  5
760
330
75D
100
AcDbEntity
  8
0
100
AcDbVertex
100
AcDb2dVertex
 10
53.92372414400369
 20
20.20379188988313
 30
0.0
  0
SEQEND
  5
761
330
75D
100
AcDbEntity
  8
0
  0
POLYLINE
  5
762
330
1F
100
AcDbEntity
  8
0
100
AcDb2dPolyline
 66
     1
 10
0.0
 20
0.0
 30
0.0
  0
VERTEX
  5
763
330
762
100
AcDbEntity
  8
0
100
AcDbVertex
100
AcDb2dVertex
 10
53.89065114400366
 20
20.12455488988313
 30
0.0
  0
VERTEX
  5
764
330
762
100
AcDbEntity
  8
0
100
AcDbVertex
100
AcDb2dVertex
 10
53.92096814400369
 20
20.20379188988313
 30
0.0
  0
VERTEX
  5
765
330
762
100
AcDbEntity
  8
0
100
AcDbVertex
100
AcDb2dVertex
 10
53.92406814400368
 20
20.20379188988313
 30
0.0
  0
SEQEND
  5
766
330
762
100
AcDbEntity
  8
0
  0
SPLINE
  5
767
330
1F
100
AcDbEntity
  8
0
100
AcDbSpline
210
0.0
220
0.0
230
1.0
 70
     8
 71
     3
 72
    17
 73
    13
 74
     0
 42
0.0000000001
 43
0.0000000001
 40
0.0
 40
0.0
 40
0.0
 40
0.0
 40
1.0
 40
1.0
 40
1.0
 40
2.0
 40
2.0
 40
2.0
 40
3.0
 40
3.0
 40
3.0
 40
4.0
 40
4.0
 40
4.0
 40
4.0
 10
53.39662436188558
 20
19.81070652616785
 30
0.0
 10
53.39662436188558
 20
19.81070652616785
 30
0.0
 10
53.38146594174671
 20
19.82000828398035
 30
0.0
 10
53.38146594174671
 20
19.82000828398035
 30
0.0
 10
53.33702420997591
 20
19.85135865290395
 30
0.0
 10
53.27776856761477
 20
19.86892863988314
 30
0.0
 10
53.22299154938562
 20
19.85928237252202
 30
0.0
 10
53.22299154938562
 20
19.85928237252202
 30
0.0
 10
53.21679037751059
 20
19.85652629613312
 30
0.0
 10
53.21679037751059
 20
19.85652629613312
 30
0.0
 10
53.21679037751059
 20
19.85652629613312
 30
0.0
 10
53.21989096344807
 20
19.85652629613312
 30
0.0
 10
53.21989096344807
 20
19.85652629613312
 30
0.0
  0
SPLINE
  5
768
330
1F
100
AcDbEntity
  8
0
100
AcDbSpline
210
0.0
220
0.0
230
1.0
 70
     8
 71
     3
 72
    14
 73
    10
 74
     0
 42
0.0000000001
 43
0.0000000001
 40
0.0
 40
0.0
 40
0.0
 40
0.0
 40
1.0
 40
1.0
 40
1.0
 40
2.0
 40
2.0
 40
2.0
 40
3.0
 40
3.0
 40
3.0
 40
3.0
 10
53.3173871657051
 20
20.30094361384146
 30
0.0
 10
53.3173871657051
 20
20.30094361384146
 30
0.0
 10
53.28707032542727
 20
20.26787069717479
 30
0.0
 10
53.28707032542727
 20
20.26787069717479
 30
0.0
 10
53.16614747386478
 20
20.17313057130674
 30
0.0
 10
52.79373265181618
 20
19.52269654352895
 30
0.0
 10
53.21679037751059
 20
19.85652629613312
 30
0.0
 10
53.21679037751059
 20
19.85652629613312
 30
0.0
 10
53.21989096344807
 20
19.85652629613312
 30
0.0
 10
53.21989096344807
 20
19.85652629613312
 30
0.0
  0
SPLINE
  5
769
330
1F
100
AcDbEntity
  8
0
100
AcDbSpline
210
0.0
220
0.0
230
1.0
 70
     8
 71
     3
 72
    17
 73
    13
 74
     0
 42
0.0000000001
 43
0.0000000001
 40
0.0
 40
0.0
 40
0.0
 40
0.0
 40
1.0
 40
1.0
 40
1.0
 40
2.0
 40
2.0
 40
2.0
 40
3.0
 40
3.0
 40
3.0
 40
4.0
 40
4.0
 40
4.0
 40
4.0
 10
51.87561470476757
 20
17.47872139161923
 30
0.0
 10
51.87561470476757
 20
17.47872139161923
 30
0.0
 10
51.76881674469814
 20
17.29613133085536
 30
0.0
 10
51.76881674469814
 20
17.29613133085536
 30
0.0
 10
51.19245226987175
 20
16.35562026314701
 30
0.0
 10
50.20508790355228
 20
15.74687189075118
 30
0.0
 10
49.10782499122587
 20
15.64661961210535
 30
0.0
 10
49.10782499122587
 20
15.64661961210535
 30
0.0
 10
48.89767416657313
 20
15.63456177790395
 30
0.0
 10
48.89767416657313
 20
15.63456177790395
 30
0.0
 10
48.89767416657313
 20
15.63456177790395
 30
0.0
 10
48.90043024296201
 20
15.63456177790395
 30
0.0
 10
48.90043024296201
 20
15.63456177790395
 30
0.0
  0
POLYLINE
  5
76A
330
1F
100
AcDbEntity
  8
0
100
AcDb2dPolyline
 66
     1
 10
0.0
 20
0.0
 30
0.0
  0
VERTEX
  5
76B
330
76A
100
AcDbEntity
  8
0
100
AcDbVertex
100
AcDb2dVertex
 10
56.6518951440037
 20
24.30001088988314
 30
0.0
  0
VERTEX
  5
76C
330
76A
100
AcDbEntity
  8
0
100
AcDbVertex
100
AcDb2dVertex
 10
56.77660714400369
 20
24.24798988988314
 30
0.0
  0
VERTEX
  5
76D
330
76A
100
AcDbEntity
  8
0
100
AcDbVertex
100
AcDb2dVertex
 10
56.77970814400367
 20
24.24798988988314
 30
0.0
  0
SEQEND
  5
76E
330
76A
100
AcDbEntity
  8
0
  0
POLYLINE
  5
76F
330
1F
100
AcDbEntity
  8
0
100
AcDb2dPolyline
 66
     1
 10
0.0
 20
0.0
 30
0.0
  0
VERTEX
  5
770
330
76F
100
AcDbEntity
  8
0
100
AcDbVertex
100
AcDb2dVertex
 10
56.77660714400369
 20
24.24798988988314
 30
0.0
  0
VERTEX
  5
771
330
76F
100
AcDbEntity
  8
0
100
AcDbVertex
100
AcDb2dVertex
 10
57.02052014400369
 20
24.76337588988314
 30
0.0
  0
VERTEX
  5
772
330
76F
100
AcDbEntity
  8
0
100
AcDbVertex
100
AcDb2dVertex
 10
57.02362114400369
 20
24.76337588988314
 30
0.0
  0
SEQEND
  5
773
330
76F
100
AcDbEntity
  8
0
  0
POLYLINE
  5
774
330
1F
100
AcDbEntity
  8
0
100
AcDb2dPolyline
 66
     1
 10
0.0
 20
0.0
 30
0.0
  0
VERTEX
  5
775
330
774
100
AcDbEntity
  8
0
100
AcDbVertex
100
AcDb2dVertex
 10
57.05703814400369
 20
25.22949688988314
 30
0.0
  0
VERTEX
  5
776
330
774
100
AcDbEntity
  8
0
100
AcDbVertex
100
AcDb2dVertex
 10
57.0360231440037
 20
24.81195188988313
 30
0.0
  0
VERTEX
  5
777
330
774
100
AcDbEntity
  8
0
100
AcDbVertex
100
AcDb2dVertex
 10
57.03877914400369
 20
24.81195188988313
 30
0.0
  0
SEQEND
  5
778
330
774
100
AcDbEntity
  8
0
  0
POLYLINE
  5
779
330
1F
100
AcDbEntity
  8
0
100
AcDb2dPolyline
 66
     1
 10
0.0
 20
0.0
 30
0.0
  0
VERTEX
  5
77A
330
779
100
AcDbEntity
  8
0
100
AcDbVertex
100
AcDb2dVertex
 10
57.02052014400369
 20
24.76337588988314
 30
0.0
  0
VERTEX
  5
77B
330
779
100
AcDbEntity
  8
0
100
AcDbVertex
100
AcDb2dVertex
 10
57.03567914400366
 20
24.81195188988313
 30
0.0
  0
VERTEX
  5
77C
330
779
100
AcDbEntity
  8
0
100
AcDbVertex
100
AcDb2dVertex
 10
57.03877914400369
 20
24.81195188988313
 30
0.0
  0
SEQEND
  5
77D
330
779
100
AcDbEntity
  8
0
  0
SPLINE
  5
77E
330
1F
100
AcDbEntity
  8
0
100
AcDbSpline
210
0.0
220
0.0
230
1.0
 70
     8
 71
     3
 72
    32
 73
    28
 74
     0
 42
0.0000000001
 43
0.0000000001
 40
0.0
 40
0.0
 40
0.0
 40
0.0
 40
1.0
 40
1.0
 40
1.0
 40
2.0
 40
2.0
 40
2.0
 40
3.0
 40
3.0
 40
3.0
 40
4.0
 40
4.0
 40
4.0
 40
5.0
 40
5.0
 40
5.0
 40
6.0
 40
6.0
 40
6.0
 40
7.0
 40
7.0
 40
7.0
 40
8.0
 40
8.0
 40
8.0
 40
9.0
 40
9.0
 40
9.0
 40
9.0
 10
56.4141834981703
 20
24.27244969023035
 30
0.0
 10
56.4141834981703
 20
24.27244969023035
 30
0.0
 10
56.41073840268422
 20
24.26624851835536
 30
0.0
 10
56.41073840268422
 20
24.26624851835536
 30
0.0
 10
56.41073840268422
 20
24.26624851835536
 30
0.0
 10
56.40178115442035
 20
24.24523343589007
 30
0.0
 10
56.40178115442035
 20
24.24523343589007
 30
0.0
 10
56.28705947473284
 20
24.04369534995257
 30
0.0
 10
56.2608767490384
 20
24.17770956436229
 30
0.0
 10
56.28912653202451
 20
24.34238512859841
 30
0.0
 10
56.28912653202451
 20
24.34238512859841
 30
0.0
 10
56.2918826084134
 20
24.3606441346748
 30
0.0
 10
56.2918826084134
 20
24.3606441346748
 30
0.0
 10
56.2918826084134
 20
24.3606441346748
 30
0.0
 10
56.29498319435089
 20
24.37890314075116
 30
0.0
 10
56.29498319435089
 20
24.37890314075116
 30
0.0
 10
56.32047690094807
 20
24.51360637425813
 30
0.0
 10
56.38179960060089
 20
24.64038588814702
 30
0.0
 10
56.4627593445245
 20
24.75062894370257
 30
0.0
 10
56.4627593445245
 20
24.75062894370257
 30
0.0
 10
56.47171659278839
 20
24.76337579700118
 30
0.0
 10
56.47171659278839
 20
24.76337579700118
 30
0.0
 10
56.47171659278839
 20
24.76337579700118
 30
0.0
 10
56.48101835060089
 20
24.77818970759147
 30
0.0
 10
56.48101835060089
 20
24.77818970759147
 30
0.0
 10
56.48101835060089
 20
24.77818970759147
 30
0.0
 10
56.4841189365384
 20
24.77818970759147
 30
0.0
 10
56.4841189365384
 20
24.77818970759147
 30
0.0
  0
SPLINE
  5
77F
330
1F
100
AcDbEntity
  8
0
100
AcDbSpline
210
0.0
220
0.0
230
1.0
 70
     8
 71
     3
 72
    17
 73
    13
 74
     0
 42
0.0000000001
 43
0.0000000001
 40
0.0
 40
0.0
 40
0.0
 40
0.0
 40
1.0
 40
1.0
 40
1.0
 40
2.0
 40
2.0
 40
2.0
 40
3.0
 40
3.0
 40
3.0
 40
4.0
 40
4.0
 40
4.0
 40
4.0
 10
56.65189508671201
 20
24.30001045411925
 30
0.0
 10
56.65189508671201
 20
24.30001045411925
 30
0.0
 10
56.633291571087
 20
24.30586711644563
 30
0.0
 10
56.633291571087
 20
24.30586711644563
 30
0.0
 10
56.55474339400368
 20
24.32826023710536
 30
0.0
 10
56.48342991744119
 20
24.32068102703592
 30
0.0
 10
56.41728408410784
 20
24.27244969023035
 30
0.0
 10
56.41728408410784
 20
24.27244969023035
 30
0.0
 10
56.4141834981703
 20
24.27244969023035
 30
0.0
 10
56.4141834981703
 20
24.27244969023035
 30
0.0
 10
56.4141834981703
 20
24.27244969023035
 30
0.0
 10
56.41728408410784
 20
24.27244969023035
 30
0.0
 10
56.41728408410784
 20
24.27244969023035
 30
0.0
  0
SPLINE
  5
780
330
1F
100
AcDbEntity
  8
0
100
AcDbSpline
210
0.0
220
0.0
230
1.0
 70
     8
 71
     3
 72
    14
 73
    10
 74
     0
 42
0.0000000001
 43
0.0000000001
 40
0.0
 40
0.0
 40
0.0
 40
0.0
 40
1.0
 40
1.0
 40
1.0
 40
2.0
 40
2.0
 40
2.0
 40
3.0
 40
3.0
 40
3.0
 40
3.0
 10
56.48101835060089
 20
24.77818970759147
 30
0.0
 10
56.48101835060089
 20
24.77818970759147
 30
0.0
 10
56.50237794261477
 20
24.80264988554285
 30
0.0
 10
56.50237794261477
 20
24.80264988554285
 30
0.0
 10
56.664297430462
 20
25.00659953832063
 30
0.0
 10
56.83241809018423
 20
25.10788534561229
 30
0.0
 10
57.05703831587868
 20
25.22949721627202
 30
0.0
 10
57.05703831587868
 20
25.22949721627202
 30
0.0
 10
57.06013890181615
 20
25.22949721627202
 30
0.0
 10
57.06013890181615
 20
25.22949721627202
 30
0.0
  0
SPLINE
  5
781
330
1F
100
AcDbEntity
  8
0
100
AcDbSpline
210
0.0
220
0.0
230
1.0
 70
     8
 71
     3
 72
    17
 73
    13
 74
     0
 42
0.0000000001
 43
0.0000000001
 40
0.0
 40
0.0
 40
0.0
 40
0.0
 40
1.0
 40
1.0
 40
1.0
 40
2.0
 40
2.0
 40
2.0
 40
3.0
 40
3.0
 40
3.0
 40
4.0
 40
4.0
 40
4.0
 40
4.0
 10
52.26249892785785
 20
25.00108738554285
 30
0.0
 10
52.26249892785785
 20
25.00108738554285
 30
0.0
 10
52.27490127160786
 20
25.00659953832063
 30
0.0
 10
52.27490127160786
 20
25.00659953832063
 30
0.0
 10
52.31693143653839
 20
25.04621813641092
 30
0.0
 10
52.35034886275366
 20
25.09341594457062
 30
0.0
 10
52.37239747386482
 20
25.14715943415395
 30
0.0
 10
52.37239747386482
 20
25.14715943415395
 30
0.0
 10
52.37549805980228
 20
25.15921726835535
 30
0.0
 10
52.37549805980228
 20
25.15921726835535
 30
0.0
 10
52.37549805980228
 20
25.15921726835535
 30
0.0
 10
52.37825413619117
 20
25.15921726835535
 30
0.0
 10
52.37825413619117
 20
25.15921726835535
 30
0.0
  0
POLYLINE
  5
782
330
1F
100
AcDbEntity
  8
0
100
AcDb2dPolyline
 66
     1
 10
0.0
 20
0.0
 30
0.0
  0
VERTEX
  5
783
330
782
100
AcDbEntity
  8
0
100
AcDbVertex
100
AcDb2dVertex
 10
52.29936114400368
 20
25.03415988988313
 30
0.0
  0
VERTEX
  5
784
330
782
100
AcDbEntity
  8
0
100
AcDbVertex
100
AcDb2dVertex
 10
52.30831914400368
 20
25.04346188988313
 30
0.0
  0
VERTEX
  5
785
330
782
100
AcDbEntity
  8
0
100
AcDbVertex
100
AcDb2dVertex
 10
52.31452014400369
 20
25.04966288988314
 30
0.0
  0
VERTEX
  5
786
330
782
100
AcDbEntity
  8
0
100
AcDbVertex
100
AcDb2dVertex
 10
52.32037614400368
 20
25.05862088988313
 30
0.0
  0
VERTEX
  5
787
330
782
100
AcDbEntity
  8
0
100
AcDbVertex
100
AcDb2dVertex
 10
52.32347714400368
 20
25.05862088988313
 30
0.0
  0
SEQEND
  5
788
330
782
100
AcDbEntity
  8
0
  0
POLYLINE
  5
789
330
1F
100
AcDbEntity
  8
0
100
AcDb2dPolyline
 66
     1
 10
0.0
 20
0.0
 30
0.0
  0
VERTEX
  5
78A
330
789
100
AcDbEntity
  8
0
100
AcDbVertex
100
AcDb2dVertex
 10
52.32657814400369
 20
25.06826688988314
 30
0.0
  0
VERTEX
  5
78B
330
789
100
AcDbEntity
  8
0
100
AcDbVertex
100
AcDb2dVertex
 10
52.33277914400367
 20
25.07687988988313
 30
0.0
  0
VERTEX
  5
78C
330
789
100
AcDbEntity
  8
0
100
AcDbVertex
100
AcDb2dVertex
 10
52.33898014400367
 20
25.08618088988312
 30
0.0
  0
VERTEX
  5
78D
330
789
100
AcDbEntity
  8
0
100
AcDbVertex
100
AcDb2dVertex
 10
52.34518114400367
 20
25.09513888988313
 30
0.0
  0
VERTEX
  5
78E
330
789
100
AcDbEntity
  8
0
100
AcDbVertex
100
AcDb2dVertex
 10
52.34828214400369
 20
25.09513888988313
 30
0.0
  0
SEQEND
  5
78F
330
789
100
AcDbEntity
  8
0
  0
POLYLINE
  5
790
330
1F
100
AcDbEntity
  8
0
100
AcDb2dPolyline
 66
     1
 10
0.0
 20
0.0
 30
0.0
  0
VERTEX
  5
791
330
790
100
AcDbEntity
  8
0
100
AcDbVertex
100
AcDb2dVertex
 10
52.35103814400369
 20
25.10409588988313
 30
0.0
  0
VERTEX
  5
792
330
790
100
AcDbEntity
  8
0
100
AcDbVertex
100
AcDb2dVertex
 10
52.3572391440037
 20
25.11339788988313
 30
0.0
  0
VERTEX
  5
793
330
790
100
AcDbEntity
  8
0
100
AcDbVertex
100
AcDb2dVertex
 10
52.36344014400367
 20
25.12545488988313
 30
0.0
  0
VERTEX
  5
794
330
790
100
AcDbEntity
  8
0
100
AcDbVertex
100
AcDb2dVertex
 10
52.36619614400368
 20
25.13441288988314
 30
0.0
  0
VERTEX
  5
795
330
790
100
AcDbEntity
  8
0
100
AcDbVertex
100
AcDb2dVertex
 10
52.37239714400368
 20
25.14681488988315
 30
0.0
  0
VERTEX
  5
796
330
790
100
AcDbEntity
  8
0
100
AcDbVertex
100
AcDb2dVertex
 10
52.3754981440037
 20
25.14681488988315
 30
0.0
  0
SEQEND
  5
797
330
790
100
AcDbEntity
  8
0
  0
POLYLINE
  5
798
330
1F
100
AcDbEntity
  8
0
100
AcDb2dPolyline
 66
     1
 10
0.0
 20
0.0
 30
0.0
  0
VERTEX
  5
799
330
798
100
AcDbEntity
  8
0
100
AcDbVertex
100
AcDb2dVertex
 10
52.64662714400367
 20
26.27473888988314
 30
0.0
  0
VERTEX
  5
79A
330
798
100
AcDbEntity
  8
0
100
AcDbVertex
100
AcDb2dVertex
 10
52.69244714400369
 20
26.50314888988314
 30
0.0
  0
VERTEX
  5
79B
330
798
100
AcDbEntity
  8
0
100
AcDbVertex
100
AcDb2dVertex
 10
52.69554714400368
 20
26.50314888988314
 30
0.0
  0
SEQEND
  5
79C
330
798
100
AcDbEntity
  8
0
  0
POLYLINE
  5
79D
330
1F
100
AcDbEntity
  8
0
100
AcDb2dPolyline
 66
     1
 10
0.0
 20
0.0
 30
0.0
  0
VERTEX
  5
79E
330
79D
100
AcDbEntity
  8
0
100
AcDbVertex
100
AcDb2dVertex
 10
52.69244714400369
 20
26.50314888988314
 30
0.0
  0
VERTEX
  5
79F
330
79D
100
AcDbEntity
  8
0
100
AcDbVertex
100
AcDb2dVertex
 10
52.71690714400367
 20
26.61304788988314
 30
0.0
  0
VERTEX
  5
7A0
330
79D
100
AcDbEntity
  8
0
100
AcDbVertex
100
AcDb2dVertex
 10
52.74446814400369
 20
26.71674488988313
 30
0.0
  0
VERTEX
  5
7A1
330
79D
100
AcDbEntity
  8
0
100
AcDbVertex
100
AcDb2dVertex
 10
52.77202814400368
 20
26.79563788988314
 30
0.0
  0
VERTEX
  5
7A2
330
79D
100
AcDbEntity
  8
0
100
AcDbVertex
100
AcDb2dVertex
 10
52.77512914400367
 20
26.79563788988314
 30
0.0
  0
SEQEND
  5
7A3
330
79D
100
AcDbEntity
  8
0
  0
POLYLINE
  5
7A4
330
1F
100
AcDbEntity
  8
0
100
AcDb2dPolyline
 66
     1
 10
0.0
 20
0.0
 30
0.0
  0
VERTEX
  5
7A5
330
7A4
100
AcDbEntity
  8
0
100
AcDbVertex
100
AcDb2dVertex
 10
50.24815114400368
 20
27.31377988988314
 30
0.0
  0
VERTEX
  5
7A6
330
7A4
100
AcDbEntity
  8
0
100
AcDbVertex
100
AcDb2dVertex
 10
50.42798514400368
 20
27.31377988988314
 30
0.0
  0
VERTEX
  5
7A7
330
7A4
100
AcDbEntity
  8
0
100
AcDbVertex
100
AcDb2dVertex
 10
50.80005614400369
 20
27.31998088988313
 30
0.0
  0
VERTEX
  5
7A8
330
7A4
100
AcDbEntity
  8
0
100
AcDbVertex
100
AcDb2dVertex
 10
50.80281214400369
 20
27.31998088988313
 30
0.0
  0
SEQEND
  5
7A9
330
7A4
100
AcDbEntity
  8
0
  0
POLYLINE
  5
7AA
330
1F
100
AcDbEntity
  8
0
100
AcDb2dPolyline
 66
     1
 10
0.0
 20
0.0
 30
0.0
  0
VERTEX
  5
7AB
330
7AA
100
AcDbEntity
  8
0
100
AcDbVertex
100
AcDb2dVertex
 10
50.80005614400369
 20
27.31998088988313
 30
0.0
  0
VERTEX
  5
7AC
330
7AA
100
AcDbEntity
  8
0
100
AcDbVertex
100
AcDb2dVertex
 10
51.40639314400369
 20
27.33238388988314
 30
0.0
  0
VERTEX
  5
7AD
330
7AA
100
AcDbEntity
  8
0
100
AcDbVertex
100
AcDb2dVertex
 10
51.4094931440037
 20
27.33238388988314
 30
0.0
  0
SEQEND
  5
7AE
330
7AA
100
AcDbEntity
  8
0
  0
SPLINE
  5
7AF
330
1F
100
AcDbEntity
  8
0
100
AcDbSpline
210
0.0
220
0.0
230
1.0
 70
     8
 71
     3
 72
    17
 73
    13
 74
     0
 42
0.0000000001
 43
0.0000000001
 40
0.0
 40
0.0
 40
0.0
 40
0.0
 40
1.0
 40
1.0
 40
1.0
 40
2.0
 40
2.0
 40
2.0
 40
3.0
 40
3.0
 40
3.0
 40
4.0
 40
4.0
 40
4.0
 40
4.0
 10
52.3758425693509
 20
25.15921726835535
 30
0.0
 10
52.3758425693509
 20
25.15921726835535
 30
0.0
 10
52.41511665789255
 20
25.30184422148035
 30
0.0
 10
52.41511665789255
 20
25.30184422148035
 30
0.0
 10
52.48746366310086
 20
25.57882989856369
 30
0.0
 10
52.55464302508006
 20
25.85719361384146
 30
0.0
 10
52.61631023428143
 20
26.13693536731368
 30
0.0
 10
52.61631023428143
 20
26.13693536731368
 30
0.0
 10
52.64387099817034
 20
26.27473918675813
 30
0.0
 10
52.64387099817034
 20
26.27473918675813
 30
0.0
 10
52.64387099817034
 20
26.27473918675813
 30
0.0
 10
52.64697158410786
 20
26.27473918675813
 30
0.0
 10
52.64697158410786
 20
26.27473918675813
 30
0.0
  0
POLYLINE
  5
7B0
330
1F
100
AcDbEntity
  8
0
100
AcDb2dPolyline
 66
     1
 10
0.0
 20
0.0
 30
0.0
  0
VERTEX
  5
7B1
330
7B0
100
AcDbEntity
  8
0
100
AcDbVertex
100
AcDb2dVertex
 10
54.48493014400367
 20
26.79563788988314
 30
0.0
  0
VERTEX
  5
7B2
330
7B0
100
AcDbEntity
  8
0
100
AcDbVertex
100
AcDb2dVertex
 10
52.2659441440037
 20
25.00039788988313
 30
0.0
  0
VERTEX
  5
7B3
330
7B0
100
AcDbEntity
  8
0
100
AcDbVertex
100
AcDb2dVertex
 10
52.2693891440037
 20
25.00039788988313
 30
0.0
  0
SEQEND
  5
7B4
330
7B0
100
AcDbEntity
  8
0
  0
POLYLINE
  5
7B5
330
1F
100
AcDbEntity
  8
0
100
AcDb2dPolyline
 66
     1
 10
0.0
 20
0.0
 30
0.0
  0
VERTEX
  5
7B6
330
7B5
100
AcDbEntity
  8
0
100
AcDbVertex
100
AcDb2dVertex
 10
52.39995814400367
 20
25.14371388988315
 30
0.0
  0
VERTEX
  5
7B7
330
7B5
100
AcDbEntity
  8
0
100
AcDbVertex
100
AcDb2dVertex
 10
54.43911014400367
 20
26.79563788988314
 30
0.0
  0
VERTEX
  5
7B8
330
7B5
100
AcDbEntity
  8
0
100
AcDbVertex
100
AcDb2dVertex
 10
54.44221114400369
 20
26.79563788988314
 30
0.0
  0
SEQEND
  5
7B9
330
7B5
100
AcDbEntity
  8
0
  0
SPLINE
  5
7BA
330
1F
100
AcDbEntity
  8
0
100
AcDbSpline
210
0.0
220
0.0
230
1.0
 70
     8
 71
     3
 72
    14
 73
    10
 74
     0
 42
0.0000000001
 43
0.0000000001
 40
0.0
 40
0.0
 40
0.0
 40
0.0
 40
1.0
 40
1.0
 40
1.0
 40
2.0
 40
2.0
 40
2.0
 40
3.0
 40
3.0
 40
3.0
 40
3.0
 10
51.40363662317034
 20
27.33203899144563
 30
0.0
 10
51.40363662317034
 20
27.33203899144563
 30
0.0
 10
52.00377225685091
 20
27.34754192113313
 30
0.0
 10
52.00377225685091
 20
27.34754192113313
 30
0.0
 10
54.27340116310088
 20
27.48706828832063
 30
0.0
 10
56.80657987403839
 20
27.75061809300813
 30
0.0
 10
59.03245606761476
 20
28.23155342286923
 30
0.0
 10
59.03245606761476
 20
28.23155342286923
 30
0.0
 10
59.03555665355227
 20
28.23155342286923
 30
0.0
 10
59.03555665355227
 20
28.23155342286923
 30
0.0
  0
SPLINE
  5
7BB
330
1F
100
AcDbEntity
  8
0
100
AcDbSpline
210
0.0
220
0.0
230
1.0
 70
     8
 71
     3
 72
    17
 73
    13
 74
     0
 42
0.0000000001
 43
0.0000000001
 40
0.0
 40
0.0
 40
0.0
 40
0.0
 40
1.0
 40
1.0
 40
1.0
 40
2.0
 40
2.0
 40
2.0
 40
3.0
 40
3.0
 40
3.0
 40
4.0
 40
4.0
 40
4.0
 40
4.0
 10
58.59665148862172
 20
26.27094958172339
 30
0.0
 10
58.59665148862172
 20
26.27094958172339
 30
0.0
 10
58.4292198479967
 20
26.06079875707063
 30
0.0
 10
58.4292198479967
 20
26.06079875707063
 30
0.0
 10
58.096768133587
 20
25.67977119630675
 30
0.0
 10
57.72056370650364
 20
25.39830689509147
 30
0.0
 10
57.26477757369114
 20
25.17988784127203
 30
0.0
 10
57.26477757369114
 20
25.17988784127203
 30
0.0
 10
57.04842557716339
 20
25.04587362686229
 30
0.0
 10
57.04842557716339
 20
25.04587362686229
 30
0.0
 10
57.04842557716339
 20
25.04587362686229
 30
0.0
 10
57.0515261631009
 20
25.04587362686229
 30
0.0
 10
57.0515261631009
 20
25.04587362686229
 30
0.0
  0
POLYLINE
  5
7BC
330
1F
100
AcDbEntity
  8
0
100
AcDb2dPolyline
 66
     1
 10
0.0
 20
0.0
 30
0.0
  0
VERTEX
  5
7BD
330
7BC
100
AcDbEntity
  8
0
100
AcDbVertex
100
AcDb2dVertex
 10
22.82932514400368
 20
14.65236488988314
 30
0.0
  0
VERTEX
  5
7BE
330
7BC
100
AcDbEntity
  8
0
100
AcDbVertex
100
AcDb2dVertex
 10
22.7104701440037
 20
14.83495488988313
 30
0.0
  0
VERTEX
  5
7BF
330
7BC
100
AcDbEntity
  8
0
100
AcDbVertex
100
AcDb2dVertex
 10
22.50927614400368
 20
14.91729288988313
 30
0.0
  0
VERTEX
  5
7C0
330
7BC
100
AcDbEntity
  8
0
100
AcDbVertex
100
AcDb2dVertex
 10
22.51203214400368
 20
14.91729288988313
 30
0.0
  0
SEQEND
  5
7C1
330
7BC
100
AcDbEntity
  8
0
  0
POLYLINE
  5
7C2
330
1F
100
AcDbEntity
  8
0
100
AcDb2dPolyline
 66
     1
 10
0.0
 20
0.0
 30
0.0
  0
VERTEX
  5
7C3
330
7C2
100
AcDbEntity
  8
0
100
AcDbVertex
100
AcDb2dVertex
 10
22.82932514400368
 20
14.65236488988314
 30
0.0
  0
VERTEX
  5
7C4
330
7C2
100
AcDbEntity
  8
0
100
AcDbVertex
100
AcDb2dVertex
 10
25.21160914400369
 20
14.76915388988313
 30
0.0
  0
VERTEX
  5
7C5
330
7C2
100
AcDbEntity
  8
0
100
AcDbVertex
100
AcDb2dVertex
 10
24.8061211440037
 20
14.65236488988314
 30
0.0
  0
SEQEND
  5
7C6
330
7C2
100
AcDbEntity
  8
0
  0
POLYLINE
  5
7C7
330
1F
100
AcDbEntity
  8
0
100
AcDb2dPolyline
 66
     1
 10
0.0
 20
0.0
 30
0.0
  0
VERTEX
  5
7C8
330
7C7
100
AcDbEntity
  8
0
100
AcDbVertex
100
AcDb2dVertex
 10
30.0895201440037
 20
26.44802788988314
 30
0.0
  0
VERTEX
  5
7C9
330
7C7
100
AcDbEntity
  8
0
100
AcDbVertex
100
AcDb2dVertex
 10
30.10157814400368
 20
26.26784888988314
 30
0.0
  0
VERTEX
  5
7CA
330
7C7
100
AcDbEntity
  8
0
100
AcDbVertex
100
AcDb2dVertex
 10
30.10467814400367
 20
26.26784888988314
 30
0.0
  0
SEQEND
  5
7CB
330
7C7
100
AcDbEntity
  8
0
  0
POLYLINE
  5
7CC
330
1F
100
AcDbEntity
  8
0
100
AcDb2dPolyline
 66
     1
 10
0.0
 20
0.0
 30
0.0
  0
VERTEX
  5
7CD
330
7CC
100
AcDbEntity
  8
0
100
AcDbVertex
100
AcDb2dVertex
 10
30.10157814400368
 20
26.26784888988314
 30
0.0
  0
VERTEX
  5
7CE
330
7CC
100
AcDbEntity
  8
0
100
AcDbVertex
100
AcDb2dVertex
 10
30.10777914400367
 20
26.15863988988313
 30
0.0
  0
VERTEX
  5
7CF
330
7CC
100
AcDbEntity
  8
0
100
AcDbVertex
100
AcDb2dVertex
 10
30.11087914400368
 20
26.15863988988313
 30
0.0
  0
SEQEND
  5
7D0
330
7CC
100
AcDbEntity
  8
0
  0
POLYLINE
  5
7D1
330
1F
100
AcDbEntity
  8
0
100
AcDb2dPolyline
 66
     1
 10
0.0
 20
0.0
 30
0.0
  0
VERTEX
  5
7D2
330
7D1
100
AcDbEntity
  8
0
100
AcDbVertex
100
AcDb2dVertex
 10
30.10777914400367
 20
26.15829488988314
 30
0.0
  0
VERTEX
  5
7D3
330
7D1
100
AcDbEntity
  8
0
100
AcDbVertex
100
AcDb2dVertex
 10
30.10777914400367
 20
26.14313688988314
 30
0.0
  0
VERTEX
  5
7D4
330
7D1
100
AcDbEntity
  8
0
100
AcDbVertex
100
AcDb2dVertex
 10
30.11053514400368
 20
26.13383488988314
 30
0.0
  0
VERTEX
  5
7D5
330
7D1
100
AcDbEntity
  8
0
100
AcDbVertex
100
AcDb2dVertex
 10
30.11053514400368
 20
26.12797788988314
 30
0.0
  0
VERTEX
  5
7D6
330
7D1
100
AcDbEntity
  8
0
100
AcDbVertex
100
AcDb2dVertex
 10
30.11363514400368
 20
26.12797788988314
 30
0.0
  0
SEQEND
  5
7D7
330
7D1
100
AcDbEntity
  8
0
  0
SPLINE
  5
7D8
330
1F
100
AcDbEntity
  8
0
100
AcDbSpline
210
0.0
220
0.0
230
1.0
 70
     8
 71
     3
 72
    17
 73
    13
 74
     0
 42
0.0000000001
 43
0.0000000001
 40
0.0
 40
0.0
 40
0.0
 40
0.0
 40
1.0
 40
1.0
 40
1.0
 40
2.0
 40
2.0
 40
2.0
 40
3.0
 40
3.0
 40
3.0
 40
4.0
 40
4.0
 40
4.0
 40
4.0
 10
30.10777887577453
 20
26.15829495932758
 30
0.0
 10
30.10777887577453
 20
26.15829495932758
 30
0.0
 10
30.10777887577453
 20
26.14899320151507
 30
0.0
 10
30.10777887577453
 20
26.14899320151507
 30
0.0
 10
30.11260200945505
 20
26.11695381349424
 30
0.0
 10
30.11294651900369
 20
26.12177694717479
 30
0.0
 10
30.1229372959134
 20
26.09111559734841
 30
0.0
 10
30.1229372959134
 20
26.09111559734841
 30
0.0
 10
30.12603788185088
 20
26.08215834908452
 30
0.0
 10
30.12603788185088
 20
26.08215834908452
 30
0.0
 10
30.12603788185088
 20
26.08215834908452
 30
0.0
 10
30.12879395823977
 20
26.08215834908452
 30
0.0
 10
30.12879395823977
 20
26.08215834908452
 30
0.0
  0
POLYLINE
  5
7D9
330
1F
100
AcDbEntity
  8
0
100
AcDb2dPolyline
 66
     1
 10
0.0
 20
0.0
 30
0.0
  0
VERTEX
  5
7DA
330
7D9
100
AcDbEntity
  8
0
100
AcDbVertex
100
AcDb2dVertex
 10
30.11363514400368
 20
26.11867588988314
 30
0.0
  0
VERTEX
  5
7DB
330
7D9
100
AcDbEntity
  8
0
100
AcDbVertex
100
AcDb2dVertex
 10
30.11363514400368
 20
26.11281988988313
 30
0.0
  0
VERTEX
  5
7DC
330
7D9
100
AcDbEntity
  8
0
100
AcDbVertex
100
AcDb2dVertex
 10
30.11639114400369
 20
26.10351788988314
 30
0.0
  0
VERTEX
  5
7DD
330
7D9
100
AcDbEntity
  8
0
100
AcDbVertex
100
AcDb2dVertex
 10
30.11983714400368
 20
26.09766088988313
 30
0.0
  0
VERTEX
  5
7DE
330
7D9
100
AcDbEntity
  8
0
100
AcDbVertex
100
AcDb2dVertex
 10
30.12293714400369
 20
26.08835988988314
 30
0.0
  0
VERTEX
  5
7DF
330
7D9
100
AcDbEntity
  8
0
100
AcDbVertex
100
AcDb2dVertex
 10
30.12603814400369
 20
26.08835988988314
 30
0.0
  0
SEQEND
  5
7E0
330
7D9
100
AcDbEntity
  8
0
  0
POLYLINE
  5
7E1
330
1F
100
AcDbEntity
  8
0
100
AcDb2dPolyline
 66
     1
 10
0.0
 20
0.0
 30
0.0
  0
VERTEX
  5
7E2
330
7E1
100
AcDbEntity
  8
0
100
AcDbVertex
100
AcDb2dVertex
 10
30.05575814400368
 20
26.79529288988313
 30
0.0
  0
VERTEX
  5
7E3
330
7E1
100
AcDbEntity
  8
0
100
AcDbVertex
100
AcDb2dVertex
 10
30.05885814400368
 20
26.77703388988313
 30
0.0
  0
VERTEX
  5
7E4
330
7E1
100
AcDbEntity
  8
0
100
AcDbVertex
100
AcDb2dVertex
 10
30.06816014400369
 20
26.70089788988314
 30
0.0
  0
VERTEX
  5
7E5
330
7E1
100
AcDbEntity
  8
0
100
AcDbVertex
100
AcDb2dVertex
 10
30.07711714400369
 20
26.61890388988313
 30
0.0
  0
VERTEX
  5
7E6
330
7E1
100
AcDbEntity
  8
0
100
AcDbVertex
100
AcDb2dVertex
 10
30.0833191440037
 20
26.53346588988315
 30
0.0
  0
VERTEX
  5
7E7
330
7E1
100
AcDbEntity
  8
0
100
AcDbVertex
100
AcDb2dVertex
 10
30.0895201440037
 20
26.44802788988314
 30
0.0
  0
VERTEX
  5
7E8
330
7E1
100
AcDbEntity
  8
0
100
AcDbVertex
100
AcDb2dVertex
 10
30.09227614400368
 20
26.44802788988314
 30
0.0
  0
SEQEND
  5
7E9
330
7E1
100
AcDbEntity
  8
0
  0
POLYLINE
  5
7EA
330
1F
100
AcDbEntity
  8
0
100
AcDb2dPolyline
 66
     1
 10
0.0
 20
0.0
 30
0.0
  0
VERTEX
  5
7EB
330
7EA
100
AcDbEntity
  8
0
100
AcDbVertex
100
AcDb2dVertex
 10
30.12603814400369
 20
26.08250288988315
 30
0.0
  0
VERTEX
  5
7EC
330
7EA
100
AcDbEntity
  8
0
100
AcDbVertex
100
AcDb2dVertex
 10
29.82459214400369
 20
26.79529288988313
 30
0.0
  0
VERTEX
  5
7ED
330
7EA
100
AcDbEntity
  8
0
100
AcDbVertex
100
AcDb2dVertex
 10
29.8273481440037
 20
26.79529288988313
 30
0.0
  0
SEQEND
  5
7EE
330
7EA
100
AcDbEntity
  8
0
  0
POLYLINE
  5
7EF
330
1F
100
AcDbEntity
  8
0
100
AcDb2dPolyline
 66
     1
 10
0.0
 20
0.0
 30
0.0
  0
VERTEX
  5
7F0
330
7EF
100
AcDbEntity
  8
0
100
AcDbVertex
100
AcDb2dVertex
 10
22.14340714400368
 20
25.10065088988314
 30
0.0
  0
VERTEX
  5
7F1
330
7EF
100
AcDbEntity
  8
0
100
AcDbVertex
100
AcDb2dVertex
 10
22.14340714400368
 20
25.09134888988314
 30
0.0
  0
VERTEX
  5
7F2
330
7EF
100
AcDbEntity
  8
0
100
AcDbVertex
100
AcDb2dVertex
 10
22.14616314400368
 20
25.08549188988313
 30
0.0
  0
VERTEX
  5
7F3
330
7EF
100
AcDbEntity
  8
0
100
AcDbVertex
100
AcDb2dVertex
 10
22.14616314400368
 20
25.07308988988314
 30
0.0
  0
VERTEX
  5
7F4
330
7EF
100
AcDbEntity
  8
0
100
AcDbVertex
100
AcDb2dVertex
 10
22.14926414400368
 20
25.06757788988314
 30
0.0
  0
VERTEX
  5
7F5
330
7EF
100
AcDbEntity
  8
0
100
AcDbVertex
100
AcDb2dVertex
 10
22.14926414400368
 20
25.06103188988312
 30
0.0
  0
VERTEX
  5
7F6
330
7EF
100
AcDbEntity
  8
0
100
AcDbVertex
100
AcDb2dVertex
 10
22.15270914400368
 20
25.05483088988313
 30
0.0
  0
VERTEX
  5
7F7
330
7EF
100
AcDbEntity
  8
0
100
AcDbVertex
100
AcDb2dVertex
 10
22.15270914400368
 20
25.04552888988313
 30
0.0
  0
VERTEX
  5
7F8
330
7EF
100
AcDbEntity
  8
0
100
AcDbVertex
100
AcDb2dVertex
 10
22.15580914400368
 20
25.04277288988314
 30
0.0
  0
VERTEX
  5
7F9
330
7EF
100
AcDbEntity
  8
0
100
AcDbVertex
100
AcDb2dVertex
 10
22.15580914400368
 20
25.04001688988314
 30
0.0
  0
VERTEX
  5
7FA
330
7EF
100
AcDbEntity
  8
0
100
AcDbVertex
100
AcDb2dVertex
 10
22.15856514400369
 20
25.03347088988313
 30
0.0
  0
VERTEX
  5
7FB
330
7EF
100
AcDbEntity
  8
0
100
AcDbVertex
100
AcDb2dVertex
 10
22.15856514400369
 20
25.03071488988314
 30
0.0
  0
VERTEX
  5
7FC
330
7EF
100
AcDbEntity
  8
0
100
AcDbVertex
100
AcDb2dVertex
 10
22.16166614400369
 20
25.03071488988314
 30
0.0
  0
SEQEND
  5
7FD
330
7EF
100
AcDbEntity
  8
0
  0
SPLINE
  5
7FE
330
1F
100
AcDbEntity
  8
0
100
AcDbSpline
210
0.0
220
0.0
230
1.0
 70
     8
 71
     3
 72
    17
 73
    13
 74
     0
 42
0.0000000001
 43
0.0000000001
 40
0.0
 40
0.0
 40
0.0
 40
0.0
 40
1.0
 40
1.0
 40
1.0
 40
2.0
 40
2.0
 40
2.0
 40
3.0
 40
3.0
 40
3.0
 40
4.0
 40
4.0
 40
4.0
 40
4.0
 10
22.14340713098285
 20
25.10065064509146
 30
0.0
 10
22.14340713098285
 20
25.10065064509146
 30
0.0
 10
22.14340713098285
 20
25.09134888727897
 30
0.0
 10
22.14340713098285
 20
25.09134888727897
 30
0.0
 10
22.14685222646897
 20
25.07240086210535
 30
0.0
 10
22.15064183150369
 20
25.05862048016091
 30
0.0
 10
22.15580947473285
 20
25.04001696453591
 30
0.0
 10
22.15580947473285
 20
25.04001696453591
 30
0.0
 10
22.15856555112174
 20
25.03071520672339
 30
0.0
 10
22.15856555112174
 20
25.03071520672339
 30
0.0
 10
22.15856555112174
 20
25.03071520672339
 30
0.0
 10
22.16166613705924
 20
25.03071520672339
 30
0.0
 10
22.16166613705924
 20
25.03071520672339
 30
0.0
  0
POLYLINE
  5
7FF
330
1F
100
AcDbEntity
  8
0
100
AcDb2dPolyline
 66
     1
 10
0.0
 20
0.0
 30
0.0
  0
VERTEX
  5
800
330
7FF
100
AcDbEntity
  8
0
100
AcDbVertex
100
AcDb2dVertex
 10
22.0610691440037
 20
26.44458288988314
 30
0.0
  0
VERTEX
  5
801
330
7FF
100
AcDbEntity
  8
0
100
AcDbVertex
100
AcDb2dVertex
 10
22.07347214400369
 20
26.26784888988314
 30
0.0
  0
VERTEX
  5
802
330
7FF
100
AcDbEntity
  8
0
100
AcDbVertex
100
AcDb2dVertex
 10
22.07622814400368
 20
26.26784888988314
 30
0.0
  0
SEQEND
  5
803
330
7FF
100
AcDbEntity
  8
0
  0
POLYLINE
  5
804
330
1F
100
AcDbEntity
  8
0
100
AcDb2dPolyline
 66
     1
 10
0.0
 20
0.0
 30
0.0
  0
VERTEX
  5
805
330
804
100
AcDbEntity
  8
0
100
AcDbVertex
100
AcDb2dVertex
 10
22.02765214400368
 20
26.79529288988313
 30
0.0
  0
VERTEX
  5
806
330
804
100
AcDbEntity
  8
0
100
AcDbVertex
100
AcDb2dVertex
 10
22.03385314400367
 20
26.77427788988314
 30
0.0
  0
VERTEX
  5
807
330
804
100
AcDbEntity
  8
0
100
AcDbVertex
100
AcDb2dVertex
 10
22.04281014400368
 20
26.69779688988314
 30
0.0
  0
VERTEX
  5
808
330
804
100
AcDbEntity
  8
0
100
AcDbVertex
100
AcDb2dVertex
 10
22.05211214400369
 20
26.61545888988313
 30
0.0
  0
VERTEX
  5
809
330
804
100
AcDbEntity
  8
0
100
AcDbVertex
100
AcDb2dVertex
 10
22.05796914400369
 20
26.53346588988315
 30
0.0
  0
VERTEX
  5
80A
330
804
100
AcDbEntity
  8
0
100
AcDbVertex
100
AcDb2dVertex
 10
22.0610691440037
 20
26.44458288988314
 30
0.0
  0
VERTEX
  5
80B
330
804
100
AcDbEntity
  8
0
100
AcDbVertex
100
AcDb2dVertex
 10
22.06451414400368
 20
26.44458288988314
 30
0.0
  0
SEQEND
  5
80C
330
804
100
AcDbEntity
  8
0
  0
POLYLINE
  5
80D
330
1F
100
AcDbEntity
  8
0
100
AcDb2dPolyline
 66
     1
 10
0.0
 20
0.0
 30
0.0
  0
VERTEX
  5
80E
330
80D
100
AcDbEntity
  8
0
100
AcDbVertex
100
AcDb2dVertex
 10
22.07347214400369
 20
26.26784888988314
 30
0.0
  0
VERTEX
  5
80F
330
80D
100
AcDbEntity
  8
0
100
AcDbVertex
100
AcDb2dVertex
 10
22.14375114400367
 20
25.10065088988314
 30
0.0
  0
VERTEX
  5
810
330
80D
100
AcDbEntity
  8
0
100
AcDbVertex
100
AcDb2dVertex
 10
22.14650814400368
 20
25.10065088988314
 30
0.0
  0
SEQEND
  5
811
330
80D
100
AcDbEntity
  8
0
  0
POLYLINE
  5
812
330
1F
100
AcDbEntity
  8
0
100
AcDb2dPolyline
 66
     1
 10
0.0
 20
0.0
 30
0.0
  0
VERTEX
  5
813
330
812
100
AcDbEntity
  8
0
100
AcDbVertex
100
AcDb2dVertex
 10
18.92499914400369
 20
24.90875888988313
 30
0.0
  0
VERTEX
  5
814
330
812
100
AcDbEntity
  8
0
100
AcDbVertex
100
AcDb2dVertex
 10
18.87005014400367
 20
25.32906088988314
 30
0.0
  0
VERTEX
  5
815
330
812
100
AcDbEntity
  8
0
100
AcDbVertex
100
AcDb2dVertex
 10
18.87315014400367
 20
25.32906088988314
 30
0.0
  0
SEQEND
  5
816
330
812
100
AcDbEntity
  8
0
  0
POLYLINE
  5
817
330
1F
100
AcDbEntity
  8
0
100
AcDb2dPolyline
 66
     1
 10
0.0
 20
0.0
 30
0.0
  0
VERTEX
  5
818
330
817
100
AcDbEntity
  8
0
100
AcDbVertex
100
AcDb2dVertex
 10
18.73000614400368
 20
26.29850988988314
 30
0.0
  0
VERTEX
  5
819
330
817
100
AcDbEntity
  8
0
100
AcDbVertex
100
AcDb2dVertex
 10
18.71157514400367
 20
26.44492688988314
 30
0.0
  0
VERTEX
  5
81A
330
817
100
AcDbEntity
  8
0
100
AcDbVertex
100
AcDb2dVertex
 10
18.71484814400369
 20
26.44492688988314
 30
0.0
  0
SEQEND
  5
81B
330
817
100
AcDbEntity
  8
0
  0
POLYLINE
  5
81C
330
1F
100
AcDbEntity
  8
0
100
AcDb2dPolyline
 66
     1
 10
0.0
 20
0.0
 30
0.0
  0
VERTEX
  5
81D
330
81C
100
AcDbEntity
  8
0
100
AcDbVertex
100
AcDb2dVertex
 10
19.36993314400368
 20
26.27094988988314
 30
0.0
  0
VERTEX
  5
81E
330
81C
100
AcDbEntity
  8
0
100
AcDbVertex
100
AcDb2dVertex
 10
19.37303314400368
 20
26.24993488988314
 30
0.0
  0
VERTEX
  5
81F
330
81C
100
AcDbEntity
  8
0
100
AcDbVertex
100
AcDb2dVertex
 10
19.37596214400368
 20
26.24993488988314
 30
0.0
  0
SEQEND
  5
820
330
81C
100
AcDbEntity
  8
0
  0
POLYLINE
  5
821
330
1F
100
AcDbEntity
  8
0
100
AcDb2dPolyline
 66
     1
 10
0.0
 20
0.0
 30
0.0
  0
VERTEX
  5
822
330
821
100
AcDbEntity
  8
0
100
AcDbVertex
100
AcDb2dVertex
 10
19.37303314400368
 20
26.24993488988314
 30
0.0
  0
VERTEX
  5
823
330
821
100
AcDbEntity
  8
0
100
AcDbVertex
100
AcDb2dVertex
 10
19.37303314400368
 20
26.24407788988314
 30
0.0
  0
VERTEX
  5
824
330
821
100
AcDbEntity
  8
0
100
AcDbVertex
100
AcDb2dVertex
 10
19.37630614400368
 20
26.23477588988314
 30
0.0
  0
VERTEX
  5
825
330
821
100
AcDbEntity
  8
0
100
AcDbVertex
100
AcDb2dVertex
 10
19.37906214400368
 20
26.23477588988314
 30
0.0
  0
SEQEND
  5
826
330
821
100
AcDbEntity
  8
0
  0
POLYLINE
  5
827
330
1F
100
AcDbEntity
  8
0
100
AcDb2dPolyline
 66
     1
 10
0.0
 20
0.0
 30
0.0
  0
VERTEX
  5
828
330
827
100
AcDbEntity
  8
0
100
AcDbVertex
100
AcDb2dVertex
 10
18.73000614400368
 20
26.29850988988314
 30
0.0
  0
VERTEX
  5
829
330
827
100
AcDbEntity
  8
0
100
AcDbVertex
100
AcDb2dVertex
 10
18.73276214400368
 20
26.28645288988314
 30
0.0
  0
VERTEX
  5
82A
330
827
100
AcDbEntity
  8
0
100
AcDbVertex
100
AcDb2dVertex
 10
18.73586314400369
 20
26.28645288988314
 30
0.0
  0
SEQEND
  5
82B
330
827
100
AcDbEntity
  8
0
  0
POLYLINE
  5
82C
330
1F
100
AcDbEntity
  8
0
100
AcDb2dPolyline
 66
     1
 10
0.0
 20
0.0
 30
0.0
  0
VERTEX
  5
82D
330
82C
100
AcDbEntity
  8
0
100
AcDbVertex
100
AcDb2dVertex
 10
18.83043114400368
 20
25.60949088988313
 30
0.0
  0
VERTEX
  5
82E
330
82C
100
AcDbEntity
  8
0
100
AcDbVertex
100
AcDb2dVertex
 10
18.78788414400368
 20
25.90197988988312
 30
0.0
  0
VERTEX
  5
82F
330
82C
100
AcDbEntity
  8
0
100
AcDbVertex
100
AcDb2dVertex
 10
18.79098514400368
 20
25.90197988988312
 30
0.0
  0
SEQEND
  5
830
330
82C
100
AcDbEntity
  8
0
  0
POLYLINE
  5
831
330
1F
100
AcDbEntity
  8
0
100
AcDb2dPolyline
 66
     1
 10
0.0
 20
0.0
 30
0.0
  0
VERTEX
  5
832
330
831
100
AcDbEntity
  8
0
100
AcDbVertex
100
AcDb2dVertex
 10
18.73276214400368
 20
26.28610788988313
 30
0.0
  0
VERTEX
  5
833
330
831
100
AcDbEntity
  8
0
100
AcDbVertex
100
AcDb2dVertex
 10
18.73913614400368
 20
26.24683388988314
 30
0.0
  0
VERTEX
  5
834
330
831
100
AcDbEntity
  8
0
100
AcDbVertex
100
AcDb2dVertex
 10
18.74189214400368
 20
26.24683388988314
 30
0.0
  0
SEQEND
  5
835
330
831
100
AcDbEntity
  8
0
  0
POLYLINE
  5
836
330
1F
100
AcDbEntity
  8
0
100
AcDb2dPolyline
 66
     1
 10
0.0
 20
0.0
 30
0.0
  0
VERTEX
  5
837
330
836
100
AcDbEntity
  8
0
100
AcDbVertex
100
AcDb2dVertex
 10
18.79064014400369
 20
25.89336688988313
 30
0.0
  0
VERTEX
  5
838
330
836
100
AcDbEntity
  8
0
100
AcDbVertex
100
AcDb2dVertex
 10
18.73879114400368
 20
26.24648988988314
 30
0.0
  0
VERTEX
  5
839
330
836
100
AcDbEntity
  8
0
100
AcDbVertex
100
AcDb2dVertex
 10
18.74189214400368
 20
26.24648988988314
 30
0.0
  0
SEQEND
  5
83A
330
836
100
AcDbEntity
  8
0
  0
POLYLINE
  5
83B
330
1F
100
AcDbEntity
  8
0
100
AcDb2dPolyline
 66
     1
 10
0.0
 20
0.0
 30
0.0
  0
VERTEX
  5
83C
330
83B
100
AcDbEntity
  8
0
100
AcDbVertex
100
AcDb2dVertex
 10
19.42763814400368
 20
26.10007288988314
 30
0.0
  0
VERTEX
  5
83D
330
83B
100
AcDbEntity
  8
0
100
AcDbVertex
100
AcDb2dVertex
 10
19.42763814400368
 20
26.10627388988314
 30
0.0
  0
VERTEX
  5
83E
330
83B
100
AcDbEntity
  8
0
100
AcDbVertex
100
AcDb2dVertex
 10
19.42488214400367
 20
26.10902988988313
 30
0.0
  0
VERTEX
  5
83F
330
83B
100
AcDbEntity
  8
0
100
AcDbVertex
100
AcDb2dVertex
 10
19.42488214400367
 20
26.11557588988314
 30
0.0
  0
VERTEX
  5
840
330
83B
100
AcDbEntity
  8
0
100
AcDbVertex
100
AcDb2dVertex
 10
19.42178214400368
 20
26.11833188988314
 30
0.0
  0
VERTEX
  5
841
330
83B
100
AcDbEntity
  8
0
100
AcDbVertex
100
AcDb2dVertex
 10
19.42178214400368
 20
26.12143288988314
 30
0.0
  0
VERTEX
  5
842
330
83B
100
AcDbEntity
  8
0
100
AcDbVertex
100
AcDb2dVertex
 10
19.41850914400368
 20
26.12453288988313
 30
0.0
  0
VERTEX
  5
843
330
83B
100
AcDbEntity
  8
0
100
AcDbVertex
100
AcDb2dVertex
 10
19.41540814400368
 20
26.12763388988313
 30
0.0
  0
VERTEX
  5
844
330
83B
100
AcDbEntity
  8
0
100
AcDbVertex
100
AcDb2dVertex
 10
19.41540814400368
 20
26.13038988988313
 30
0.0
  0
VERTEX
  5
845
330
83B
100
AcDbEntity
  8
0
100
AcDbVertex
100
AcDb2dVertex
 10
19.41850914400368
 20
26.13038988988313
 30
0.0
  0
SEQEND
  5
846
330
83B
100
AcDbEntity
  8
0
  0
POLYLINE
  5
847
330
1F
100
AcDbEntity
  8
0
100
AcDb2dPolyline
 66
     1
 10
0.0
 20
0.0
 30
0.0
  0
VERTEX
  5
848
330
847
100
AcDbEntity
  8
0
100
AcDbVertex
100
AcDb2dVertex
 10
19.37596214400368
 20
26.23408688988313
 30
0.0
  0
VERTEX
  5
849
330
847
100
AcDbEntity
  8
0
100
AcDbVertex
100
AcDb2dVertex
 10
19.37596214400368
 20
26.22478488988314
 30
0.0
  0
VERTEX
  5
84A
330
847
100
AcDbEntity
  8
0
100
AcDbVertex
100
AcDb2dVertex
 10
19.37906214400368
 20
26.22478488988314
 30
0.0
  0
SEQEND
  5
84B
330
847
100
AcDbEntity
  8
0
  0
POLYLINE
  5
84C
330
1F
100
AcDbEntity
  8
0
100
AcDb2dPolyline
 66
     1
 10
0.0
 20
0.0
 30
0.0
  0
VERTEX
  5
84D
330
84C
100
AcDbEntity
  8
0
100
AcDbVertex
100
AcDb2dVertex
 10
19.4520981440037
 20
26.10351788988314
 30
0.0
  0
VERTEX
  5
84E
330
84C
100
AcDbEntity
  8
0
100
AcDbVertex
100
AcDb2dVertex
 10
19.4520981440037
 20
26.11247488988313
 30
0.0
  0
VERTEX
  5
84F
330
84C
100
AcDbEntity
  8
0
100
AcDbVertex
100
AcDb2dVertex
 10
19.44899814400369
 20
26.11557588988314
 30
0.0
  0
VERTEX
  5
850
330
84C
100
AcDbEntity
  8
0
100
AcDbVertex
100
AcDb2dVertex
 10
19.44899814400369
 20
26.11833188988314
 30
0.0
  0
VERTEX
  5
851
330
84C
100
AcDbEntity
  8
0
100
AcDbVertex
100
AcDb2dVertex
 10
19.44624214400369
 20
26.12143288988314
 30
0.0
  0
VERTEX
  5
852
330
84C
100
AcDbEntity
  8
0
100
AcDbVertex
100
AcDb2dVertex
 10
19.44624214400369
 20
26.12453288988313
 30
0.0
  0
VERTEX
  5
853
330
84C
100
AcDbEntity
  8
0
100
AcDbVertex
100
AcDb2dVertex
 10
19.44279714400369
 20
26.12763388988313
 30
0.0
  0
VERTEX
  5
854
330
84C
100
AcDbEntity
  8
0
100
AcDbVertex
100
AcDb2dVertex
 10
19.43969614400369
 20
26.13073388988313
 30
0.0
  0
VERTEX
  5
855
330
84C
100
AcDbEntity
  8
0
100
AcDbVertex
100
AcDb2dVertex
 10
19.43969614400369
 20
26.13383488988314
 30
0.0
  0
VERTEX
  5
856
330
84C
100
AcDbEntity
  8
0
100
AcDbVertex
100
AcDb2dVertex
 10
19.44279714400369
 20
26.13383488988314
 30
0.0
  0
SEQEND
  5
857
330
84C
100
AcDbEntity
  8
0
  0
POLYLINE
  5
858
330
1F
100
AcDbEntity
  8
0
100
AcDb2dPolyline
 66
     1
 10
0.0
 20
0.0
 30
0.0
  0
VERTEX
  5
859
330
858
100
AcDbEntity
  8
0
100
AcDbVertex
100
AcDb2dVertex
 10
19.37596214400368
 20
26.22512988988314
 30
0.0
  0
VERTEX
  5
85A
330
858
100
AcDbEntity
  8
0
100
AcDbVertex
100
AcDb2dVertex
 10
19.37906214400368
 20
26.21617288988314
 30
0.0
  0
VERTEX
  5
85B
330
858
100
AcDbEntity
  8
0
100
AcDbVertex
100
AcDb2dVertex
 10
19.38181814400369
 20
26.21617288988314
 30
0.0
  0
SEQEND
  5
85C
330
858
100
AcDbEntity
  8
0
  0
POLYLINE
  5
85D
330
1F
100
AcDbEntity
  8
0
100
AcDb2dPolyline
 66
     1
 10
0.0
 20
0.0
 30
0.0
  0
VERTEX
  5
85E
330
85D
100
AcDbEntity
  8
0
100
AcDbVertex
100
AcDb2dVertex
 10
19.37596214400368
 20
26.21927288988313
 30
0.0
  0
VERTEX
  5
85F
330
85D
100
AcDbEntity
  8
0
100
AcDbVertex
100
AcDb2dVertex
 10
19.37906214400368
 20
26.20997188988314
 30
0.0
  0
VERTEX
  5
860
330
85D
100
AcDbEntity
  8
0
100
AcDbVertex
100
AcDb2dVertex
 10
19.38181814400369
 20
26.20101388988314
 30
0.0
  0
VERTEX
  5
861
330
85D
100
AcDbEntity
  8
0
100
AcDbVertex
100
AcDb2dVertex
 10
19.38181814400369
 20
26.19515788988314
 30
0.0
  0
VERTEX
  5
862
330
85D
100
AcDbEntity
  8
0
100
AcDbVertex
100
AcDb2dVertex
 10
19.38509114400369
 20
26.18895588988313
 30
0.0
  0
VERTEX
  5
863
330
85D
100
AcDbEntity
  8
0
100
AcDbVertex
100
AcDb2dVertex
 10
19.38509114400369
 20
26.17965488988313
 30
0.0
  0
VERTEX
  5
864
330
85D
100
AcDbEntity
  8
0
100
AcDbVertex
100
AcDb2dVertex
 10
19.3878471440037
 20
26.17345288988314
 30
0.0
  0
VERTEX
  5
865
330
85D
100
AcDbEntity
  8
0
100
AcDbVertex
100
AcDb2dVertex
 10
19.39112014400369
 20
26.17345288988314
 30
0.0
  0
SEQEND
  5
866
330
85D
100
AcDbEntity
  8
0
  0
POLYLINE
  5
867
330
1F
100
AcDbEntity
  8
0
100
AcDb2dPolyline
 66
     1
 10
0.0
 20
0.0
 30
0.0
  0
VERTEX
  5
868
330
867
100
AcDbEntity
  8
0
100
AcDbVertex
100
AcDb2dVertex
 10
19.37906214400368
 20
26.21341688988314
 30
0.0
  0
VERTEX
  5
869
330
867
100
AcDbEntity
  8
0
100
AcDbVertex
100
AcDb2dVertex
 10
19.37906214400368
 20
26.20411488988314
 30
0.0
  0
VERTEX
  5
86A
330
867
100
AcDbEntity
  8
0
100
AcDbVertex
100
AcDb2dVertex
 10
19.38216314400368
 20
26.19791388988314
 30
0.0
  0
VERTEX
  5
86B
330
867
100
AcDbEntity
  8
0
100
AcDbVertex
100
AcDb2dVertex
 10
19.38216314400368
 20
26.19205688988313
 30
0.0
  0
VERTEX
  5
86C
330
867
100
AcDbEntity
  8
0
100
AcDbVertex
100
AcDb2dVertex
 10
19.38509114400369
 20
26.18585588988313
 30
0.0
  0
VERTEX
  5
86D
330
867
100
AcDbEntity
  8
0
100
AcDbVertex
100
AcDb2dVertex
 10
19.38819214400369
 20
26.17965488988313
 30
0.0
  0
VERTEX
  5
86E
330
867
100
AcDbEntity
  8
0
100
AcDbVertex
100
AcDb2dVertex
 10
19.39146514400369
 20
26.17965488988313
 30
0.0
  0
SEQEND
  5
86F
330
867
100
AcDbEntity
  8
0
  0
POLYLINE
  5
870
330
1F
100
AcDbEntity
  8
0
100
AcDb2dPolyline
 66
     1
 10
0.0
 20
0.0
 30
0.0
  0
VERTEX
  5
871
330
870
100
AcDbEntity
  8
0
100
AcDbVertex
100
AcDb2dVertex
 10
19.38819214400369
 20
26.17379788988313
 30
0.0
  0
VERTEX
  5
872
330
870
100
AcDbEntity
  8
0
100
AcDbVertex
100
AcDb2dVertex
 10
19.39146514400369
 20
26.16759688988313
 30
0.0
  0
VERTEX
  5
873
330
870
100
AcDbEntity
  8
0
100
AcDbVertex
100
AcDb2dVertex
 10
19.39456514400369
 20
26.16139588988314
 30
0.0
  0
VERTEX
  5
874
330
870
100
AcDbEntity
  8
0
100
AcDbVertex
100
AcDb2dVertex
 10
19.39456514400369
 20
26.15553888988313
 30
0.0
  0
VERTEX
  5
875
330
870
100
AcDbEntity
  8
0
100
AcDbVertex
100
AcDb2dVertex
 10
19.3973211440037
 20
26.15243788988313
 30
0.0
  0
VERTEX
  5
876
330
870
100
AcDbEntity
  8
0
100
AcDbVertex
100
AcDb2dVertex
 10
19.40059414400369
 20
26.14623688988314
 30
0.0
  0
VERTEX
  5
877
330
870
100
AcDbEntity
  8
0
100
AcDbVertex
100
AcDb2dVertex
 10
19.40059414400369
 20
26.14348088988314
 30
0.0
  0
VERTEX
  5
878
330
870
100
AcDbEntity
  8
0
100
AcDbVertex
100
AcDb2dVertex
 10
19.40335014400367
 20
26.14038088988313
 30
0.0
  0
VERTEX
  5
879
330
870
100
AcDbEntity
  8
0
100
AcDbVertex
100
AcDb2dVertex
 10
19.40662314400369
 20
26.14038088988313
 30
0.0
  0
SEQEND
  5
87A
330
870
100
AcDbEntity
  8
0
  0
SPLINE
  5
87B
330
1F
100
AcDbEntity
  8
0
100
AcDbSpline
210
0.0
220
0.0
230
1.0
 70
     8
 71
     3
 72
    14
 73
    10
 74
     0
 42
0.0000000001
 43
0.0000000001
 40
0.0
 40
0.0
 40
0.0
 40
0.0
 40
1.0
 40
1.0
 40
1.0
 40
2.0
 40
2.0
 40
2.0
 40
3.0
 40
3.0
 40
3.0
 40
3.0
 10
19.39146485667727
 20
26.16794122668867
 30
0.0
 10
19.39146485667727
 20
26.16794122668867
 30
0.0
 10
19.39146485667727
 20
26.16518515029979
 30
0.0
 10
19.39146485667727
 20
26.16518515029979
 30
0.0
 10
19.39921632152104
 20
26.15484986384146
 30
0.0
 10
19.39594348080923
 20
26.14933771106368
 30
0.0
 10
19.40369494565299
 20
26.1403804627998
 30
0.0
 10
19.40369494565299
 20
26.1403804627998
 30
0.0
 10
19.40662327681616
 20
26.1403804627998
 30
0.0
 10
19.40662327681616
 20
26.1403804627998
 30
0.0
  0
POLYLINE
  5
87C
330
1F
100
AcDbEntity
  8
0
100
AcDb2dPolyline
 66
     1
 10
0.0
 20
0.0
 30
0.0
  0
VERTEX
  5
87D
330
87C
100
AcDbEntity
  8
0
100
AcDbVertex
100
AcDb2dVertex
 10
19.40369514400369
 20
26.14038088988313
 30
0.0
  0
VERTEX
  5
87E
330
87C
100
AcDbEntity
  8
0
100
AcDbVertex
100
AcDb2dVertex
 10
19.40369514400369
 20
26.13727988988313
 30
0.0
  0
VERTEX
  5
87F
330
87C
100
AcDbEntity
  8
0
100
AcDbVertex
100
AcDb2dVertex
 10
19.40662314400369
 20
26.13727988988313
 30
0.0
  0
SEQEND
  5
880
330
87C
100
AcDbEntity
  8
0
  0
POLYLINE
  5
882
330
1F
100
AcDbEntity
  8
0
100
AcDb2dPolyline
 66
     1
 10
0.0
 20
0.0
 30
0.0
  0
VERTEX
  5
883
330
882
100
AcDbEntity
  8
0
100
AcDbVertex
100
AcDb2dVertex
 10
18.7119201440037
 20
26.44458288988314
 30
0.0
  0
VERTEX
  5
884
330
882
100
AcDbEntity
  8
0
100
AcDbVertex
100
AcDb2dVertex
 10
18.70279014400368
 20
26.51176188988313
 30
0.0
  0
VERTEX
  5
885
330
882
100
AcDbEntity
  8
0
100
AcDbVertex
100
AcDb2dVertex
 10
18.69366114400368
 20
26.58204188988313
 30
0.0
  0
VERTEX
  5
886
330
882
100
AcDbEntity
  8
0
100
AcDbVertex
100
AcDb2dVertex
 10
18.68160314400367
 20
26.64887688988314
 30
0.0
  0
VERTEX
  5
887
330
882
100
AcDbEntity
  8
0
100
AcDbVertex
100
AcDb2dVertex
 10
18.66334414400369
 20
26.71605588988314
 30
0.0
  0
VERTEX
  5
888
330
882
100
AcDbEntity
  8
0
100
AcDbVertex
100
AcDb2dVertex
 10
18.64491314400368
 20
26.77703388988313
 30
0.0
  0
VERTEX
  5
889
330
882
100
AcDbEntity
  8
0
100
AcDbVertex
100
AcDb2dVertex
 10
18.63578314400368
 20
26.79529288988313
 30
0.0
  0
VERTEX
  5
88A
330
882
100
AcDbEntity
  8
0
100
AcDbVertex
100
AcDb2dVertex
 10
18.63888414400368
 20
26.79529288988313
 30
0.0
  0
SEQEND
  5
88B
330
882
100
AcDbEntity
  8
0
  0
POLYLINE
  5
88C
330
1F
100
AcDbEntity
  8
0
100
AcDb2dPolyline
 66
     1
 10
0.0
 20
0.0
 30
0.0
  0
VERTEX
  5
88D
330
88C
100
AcDbEntity
  8
0
100
AcDbVertex
100
AcDb2dVertex
 10
18.82767514400368
 20
26.76221988988313
 30
0.0
  0
VERTEX
  5
88E
330
88C
100
AcDbEntity
  8
0
100
AcDbVertex
100
AcDb2dVertex
 10
18.82164614400369
 20
26.79529288988313
 30
0.0
  0
VERTEX
  5
88F
330
88C
100
AcDbEntity
  8
0
100
AcDbVertex
100
AcDb2dVertex
 10
18.82474714400369
 20
26.79529288988313
 30
0.0
  0
SEQEND
  5
890
330
88C
100
AcDbEntity
  8
0
  0
SPLINE
  5
891
330
1F
100
AcDbEntity
  8
0
100
AcDbSpline
210
0.0
220
0.0
230
1.0
 70
     8
 71
     3
 72
    17
 73
    13
 74
     0
 42
0.0000000001
 43
0.0000000001
 40
0.0
 40
0.0
 40
0.0
 40
0.0
 40
1.0
 40
1.0
 40
1.0
 40
2.0
 40
2.0
 40
2.0
 40
3.0
 40
3.0
 40
3.0
 40
4.0
 40
4.0
 40
4.0
 40
4.0
 10
19.28173856544463
 20
26.79529311470953
 30
0.0
 10
19.28173856544463
 20
26.79529311470953
 30
0.0
 10
19.29086806848285
 20
26.76497627443175
 30
0.0
 10
19.29086806848285
 20
26.76497627443175
 30
0.0
 10
19.33100343089605
 20
26.63612970325117
 30
0.0
 10
19.34271675554883
 20
26.48110040637617
 30
0.0
 10
19.36114801639952
 20
26.34743070151507
 30
0.0
 10
19.36114801639952
 20
26.34743070151507
 30
0.0
 10
19.37027751943771
 20
26.27094958172339
 30
0.0
 10
19.37027751943771
 20
26.27094958172339
 30
0.0
 10
19.37027751943771
 20
26.27094958172339
 30
0.0
 10
19.37303359582661
 20
26.27094958172339
 30
0.0
 10
19.37303359582661
 20
26.27094958172339
 30
0.0
  0
POLYLINE
  5
892
330
1F
100
AcDbEntity
  8
0
100
AcDb2dPolyline
 66
     1
 10
0.0
 20
0.0
 30
0.0
  0
VERTEX
  5
893
330
892
100
AcDbEntity
  8
0
100
AcDbVertex
100
AcDb2dVertex
 10
19.40369514400369
 20
26.14038088988313
 30
0.0
  0
VERTEX
  5
894
330
892
100
AcDbEntity
  8
0
100
AcDbVertex
100
AcDb2dVertex
 10
18.83680414400368
 20
26.79529288988313
 30
0.0
  0
VERTEX
  5
895
330
892
100
AcDbEntity
  8
0
100
AcDbVertex
100
AcDb2dVertex
 10
18.84007714400367
 20
26.79529288988313
 30
0.0
  0
SEQEND
  5
896
330
892
100
AcDbEntity
  8
0
  0
POLYLINE
  5
897
330
1F
100
AcDbEntity
  8
0
100
AcDb2dPolyline
 66
     1
 10
0.0
 20
0.0
 30
0.0
  0
VERTEX
  5
898
330
897
100
AcDbEntity
  8
0
100
AcDbVertex
100
AcDb2dVertex
 10
18.87039414400369
 20
25.32354788988313
 30
0.0
  0
VERTEX
  5
899
330
897
100
AcDbEntity
  8
0
100
AcDbVertex
100
AcDb2dVertex
 10
18.83077514400368
 20
25.61569288988314
 30
0.0
  0
VERTEX
  5
89A
330
897
100
AcDbEntity
  8
0
100
AcDbVertex
100
AcDb2dVertex
 10
18.83370414400367
 20
25.61569288988314
 30
0.0
  0
SEQEND
  5
89B
330
897
100
AcDbEntity
  8
0
  0
SPLINE
  5
89C
330
1F
100
AcDbEntity
  8
0
100
AcDbSpline
210
0.0
220
0.0
230
1.0
 70
     8
 71
     3
 72
    14
 73
    10
 74
     0
 42
0.0000000001
 43
0.0000000001
 40
0.0
 40
0.0
 40
0.0
 40
0.0
 40
1.0
 40
1.0
 40
1.0
 40
2.0
 40
2.0
 40
2.0
 40
3.0
 40
3.0
 40
3.0
 40
3.0
 10
15.86506511709395
 20
26.79529311470953
 30
0.0
 10
15.86506511709395
 20
26.79529311470953
 30
0.0
 10
15.87746746084397
 20
26.8562713048137
 30
0.0
 10
15.87746746084397
 20
26.8562713048137
 30
0.0
 10
15.93138320520161
 20
27.11947659995258
 30
0.0
 10
16.18649252594812
 20
27.31688057130674
 30
0.0
 10
16.45348742612174
 20
27.31343547582063
 30
0.0
 10
16.45348742612174
 20
27.31343547582063
 30
0.0
 10
16.45624350251061
 20
27.31343547582063
 30
0.0
 10
16.45624350251061
 20
27.31343547582063
 30
0.0
  0
LINE
  5
89D
330
1F
100
AcDbEntity
  8
0
100
AcDbLine
 10
16.24282014400369
 20
27.31343588988314
 30
0.0
 11
16.24609314400369
 21
27.31343588988314
 31
0.0
  0
POLYLINE
  5
89F
330
1F
100
AcDbEntity
  8
0
100
AcDb2dPolyline
 66
     1
 10
0.0
 20
0.0
 30
0.0
  0
VERTEX
  5
8A0
330
89F
100
AcDbEntity
  8
0
100
AcDbVertex
100
AcDb2dVertex
 10
19.98850014400368
 20
17.34057288988313
 30
0.0
  0
VERTEX
  5
8A1
330
89F
100
AcDbEntity
  8
0
100
AcDbVertex
100
AcDb2dVertex
 10
18.92499914400369
 20
24.90875888988313
 30
0.0
  0
VERTEX
  5
8A2
330
89F
100
AcDbEntity
  8
0
100
AcDbVertex
100
AcDb2dVertex
 10
18.92792714400367
 20
24.90875888988313
 30
0.0
  0
SEQEND
  5
8A3
330
89F
100
AcDbEntity
  8
0
  0
LINE
  5
8A4
330
1F
100
AcDbEntity
  8
0
100
AcDbLine
 10
16.24282014400369
 20
27.31343588988314
 30
0.0
 11
16.24609314400369
 21
27.31343588988314
 31
0.0
  0
POLYLINE
  5
8A5
330
1F
100
AcDbEntity
  8
0
100
AcDb2dPolyline
 66
     1
 10
0.0
 20
0.0
 30
0.0
  0
VERTEX
  5
8A6
330
8A5
100
AcDbEntity
  8
0
100
AcDbVertex
100
AcDb2dVertex
 10
22.15891014400368
 20
25.03415988988313
 30
0.0
  0
VERTEX
  5
8A7
330
8A5
100
AcDbEntity
  8
0
100
AcDbVertex
100
AcDb2dVertex
 10
21.41545814400368
 20
26.79563788988314
 30
0.0
  0
VERTEX
  5
8A8
330
8A5
100
AcDbEntity
  8
0
100
AcDbVertex
100
AcDb2dVertex
 10
21.41855914400368
 20
26.79563788988314
 30
0.0
  0
SEQEND
  5
8A9
330
8A5
100
AcDbEntity
  8
0
  0
SPLINE
  5
8AA
330
1F
100
AcDbEntity
  8
0
100
AcDbSpline
210
0.0
220
0.0
230
1.0
 70
     8
 71
     3
 72
    17
 73
    13
 74
     0
 42
0.0000000001
 43
0.0000000001
 40
0.0
 40
0.0
 40
0.0
 40
0.0
 40
1.0
 40
1.0
 40
1.0
 40
2.0
 40
2.0
 40
2.0
 40
3.0
 40
3.0
 40
3.0
 40
4.0
 40
4.0
 40
4.0
 40
4.0
 10
22.50962078115646
 20
14.91763740724424
 30
0.0
 10
22.50962078115646
 20
14.91763740724424
 30
0.0
 10
22.31738445303145
 20
14.94519817113313
 30
0.0
 10
22.31738445303145
 20
14.94519817113313
 30
0.0
 10
21.15914335060089
 20
15.15121488120257
 30
0.0
 10
20.27375381067034
 20
16.00318699491785
 30
0.0
 10
20.02260634973284
 20
17.15178182998729
 30
0.0
 10
20.02260634973284
 20
17.15178182998729
 30
0.0
 10
19.98884441396895
 20
17.34126208172341
 30
0.0
 10
19.98884441396895
 20
17.34126208172341
 30
0.0
 10
19.98884441396895
 20
17.34126208172341
 30
0.0
 10
19.99194499990645
 20
17.34126208172341
 30
0.0
 10
19.99194499990645
 20
17.34126208172341
 30
0.0
  0
POLYLINE
  5
8AB
330
1F
100
AcDbEntity
  8
0
100
AcDb2dPolyline
 66
     1
 10
0.0
 20
0.0
 30
0.0
  0
VERTEX
  5
8AC
330
8AB
100
AcDbEntity
  8
0
100
AcDbVertex
100
AcDb2dVertex
 10
60.5110911440037
 20
27.31343588988314
 30
0.0
  0
VERTEX
  5
8AD
330
8AB
100
AcDbEntity
  8
0
100
AcDbVertex
100
AcDb2dVertex
 10
16.45314314400369
 20
27.31343588988314
 30
0.0
  0
VERTEX
  5
8AE
330
8AB
100
AcDbEntity
  8
0
100
AcDbVertex
100
AcDb2dVertex
 10
16.45624314400369
 20
27.31343588988314
 30
0.0
  0
SEQEND
  5
8AF
330
8AB
100
AcDbEntity
  8
0
  0
SPLINE
  5
8B0
330
1F
100
AcDbEntity
  8
0
100
AcDbSpline
210
0.0
220
0.0
230
1.0
 70
     8
 71
     3
 72
    17
 73
    13
 74
     0
 42
0.0000000001
 43
0.0000000001
 40
0.0
 40
0.0
 40
0.0
 40
0.0
 40
1.0
 40
1.0
 40
1.0
 40
2.0
 40
2.0
 40
2.0
 40
3.0
 40
3.0
 40
3.0
 40
4.0
 40
4.0
 40
4.0
 40
4.0
 10
60.64234918827449
 20
27.29862156523036
 30
0.0
 10
60.64234918827449
 20
27.29862156523036
 30
0.0
 10
60.63649252594814
 20
27.30172215116785
 30
0.0
 10
60.63649252594814
 20
27.30172215116785
 30
0.0
 10
60.6016970615384
 20
27.30688979439702
 30
0.0
 10
60.57379178810089
 20
27.30930136123729
 30
0.0
 10
60.53865181414256
 20
27.31343547582063
 30
0.0
 10
60.53865181414256
 20
27.31343547582063
 30
0.0
 10
60.51109105025364
 20
27.31343547582063
 30
0.0
 10
60.51109105025364
 20
27.31343547582063
 30
0.0
 10
60.51109105025364
 20
27.31343547582063
 30
0.0
 10
60.51419163619119
 20
27.31343547582063
 30
0.0
 10
60.51419163619119
 20
27.31343547582063
 30
0.0
  0
SPLINE
  5
8B1
330
1F
100
AcDbEntity
  8
0
100
AcDbSpline
210
0.0
220
0.0
230
1.0
 70
     8
 71
     3
 72
    14
 73
    10
 74
     0
 42
0.0000000001
 43
0.0000000001
 40
0.0
 40
0.0
 40
0.0
 40
0.0
 40
1.0
 40
1.0
 40
1.0
 40
2.0
 40
2.0
 40
2.0
 40
3.0
 40
3.0
 40
3.0
 40
3.0
 10
60.44150012143422
 20
27.49947063207063
 30
0.0
 10
60.44150012143422
 20
27.49947063207063
 30
0.0
 10
60.4535579556356
 20
27.46605320585535
 30
0.0
 10
60.4535579556356
 20
27.46605320585535
 30
0.0
 10
60.48180773862171
 20
27.38337091418868
 30
0.0
 10
60.55656631067035
 20
27.31653606175813
 30
0.0
 10
60.64234918827449
 20
27.29827705568174
 30
0.0
 10
60.64234918827449
 20
27.29827705568174
 30
0.0
 10
60.64544977421201
 20
27.29827705568174
 30
0.0
 10
60.64544977421201
 20
27.29827705568174
 30
0.0
  0
SPLINE
  5
8B2
330
1F
100
AcDbEntity
  8
0
100
AcDbSpline
210
0.0
220
0.0
230
1.0
 70
     8
 71
     3
 72
    14
 73
    10
 74
     0
 42
0.0000000001
 43
0.0000000001
 40
0.0
 40
0.0
 40
0.0
 40
0.0
 40
1.0
 40
1.0
 40
1.0
 40
2.0
 40
2.0
 40
2.0
 40
3.0
 40
3.0
 40
3.0
 40
3.0
 10
60.44150012143422
 20
27.49947063207063
 30
0.0
 10
60.44150012143422
 20
27.49947063207063
 30
0.0
 10
60.4535579556356
 20
27.46329712946645
 30
0.0
 10
60.4535579556356
 20
27.46329712946645
 30
0.0
 10
60.49214302508005
 20
27.36648994630674
 30
0.0
 10
60.54760906240642
 20
27.33031644370257
 30
0.0
 10
60.64234918827449
 20
27.29827705568174
 30
0.0
 10
60.64234918827449
 20
27.29827705568174
 30
0.0
 10
60.64544977421201
 20
27.29827705568174
 30
0.0
 10
60.64544977421201
 20
27.29827705568174
 30
0.0
  0
POLYLINE
  5
8B3
330
1F
100
AcDbEntity
  8
0
100
AcDb2dPolyline
 66
     1
 10
0.0
 20
0.0
 30
0.0
  0
VERTEX
  5
8B4
330
8B3
100
AcDbEntity
  8
0
100
AcDbVertex
100
AcDb2dVertex
 10
61.09675714400367
 20
26.79529288988313
 30
0.0
  0
VERTEX
  5
8B5
330
8B3
100
AcDbEntity
  8
0
100
AcDbVertex
100
AcDb2dVertex
 10
60.90176514400369
 20
27.16391788988313
 30
0.0
  0
VERTEX
  5
8B6
330
8B3
100
AcDbEntity
  8
0
100
AcDbVertex
100
AcDb2dVertex
 10
60.51143514400369
 20
27.31343588988314
 30
0.0
  0
VERTEX
  5
8B7
330
8B3
100
AcDbEntity
  8
0
100
AcDbVertex
100
AcDb2dVertex
 10
60.51453614400367
 20
27.31343588988314
 30
0.0
  0
SEQEND
  5
8B8
330
8B3
100
AcDbEntity
  8
0
  0
POLYLINE
  5
8B9
330
1F
100
AcDbEntity
  8
0
100
AcDb2dPolyline
 66
     1
 10
0.0
 20
0.0
 30
0.0
  0
VERTEX
  5
8BA
330
8B9
100
AcDbEntity
  8
0
100
AcDbVertex
100
AcDb2dVertex
 10
61.09675714400367
 20
26.79529288988313
 30
0.0
  0
VERTEX
  5
8BB
330
8B9
100
AcDbEntity
  8
0
100
AcDbVertex
100
AcDb2dVertex
 10
60.89866414400368
 20
27.16391788988313
 30
0.0
  0
VERTEX
  5
8BC
330
8B9
100
AcDbEntity
  8
0
100
AcDbVertex
100
AcDb2dVertex
 10
60.50557914400369
 20
27.31343588988314
 30
0.0
  0
VERTEX
  5
8BD
330
8B9
100
AcDbEntity
  8
0
100
AcDbVertex
100
AcDb2dVertex
 10
60.50867914400368
 20
27.31343588988314
 30
0.0
  0
SEQEND
  5
8BE
330
8B9
100
AcDbEntity
  8
0
  0
LINE
  5
8BF
330
1F
100
AcDbEntity
  8
0
100
AcDbLine
 10
60.71883014400367
 20
27.31343588988314
 30
0.0
 11
60.72227514400367
 21
27.31343588988314
 31
0.0
  0
LINE
  5
8C0
330
1F
100
AcDbEntity
  8
0
100
AcDbLine
 10
15.86540914400368
 20
26.79529288988313
 30
0.0
 11
61.09985814400369
 21
26.79529288988313
 31
0.0
  0
ENDSEC
  0
SECTION
  2
OBJECTS
  0
DICTIONARY
  5
C
330
0
100
AcDbDictionary
281
     1
  3
ACAD_COLOR
350
C9
  3
ACAD_GROUP
350
D
  3
ACAD_LAYOUT
350
1A
  3
ACAD_MATERIAL
350
C8
  3
ACAD_MLEADERSTYLE
350
2EC
  3
ACAD_MLINESTYLE
350
17
  3
ACAD_PLOTSETTINGS
350
19
  3
ACAD_PLOTSTYLENAME
350
E
  3
ACAD_SCALELIST
350
2CA
  3
ACAD_TABLESTYLE
350
123
  3
ACAD_VISUALSTYLE
350
296
  3
ACDB_RECOMPOSE_DATA
350
30D
  3
AcDbVariableDictionary
350
9E
  3
AcmDictionary
350
63
  3
AMG
350
49
  3
AMGSNAPSETTINGS
350
625
  3
ASE_INDEX_DICTIONARY
350
8CE
  0
DICTIONARY
  5
8C9
330
10
100
AcDbDictionary
280
     1
281
     1
  3
ADSK_XREC_LAYER_RECONCILED
360
8CA
  0
DICTIONARY
  5
8CB
330
38C
100
AcDbDictionary
280
     1
281
     1
  3
ADSK_XREC_LAYER_RECONCILED
360
8CC
  0
DICTIONARY
  5
99
330
1F
100
AcDbDictionary
280
     1
281
     1
  0
DICTIONARY
  5
C9
102
{ACAD_REACTORS
330
C
102
}
330
C
100
AcDbDictionary
281
     1
  0
DICTIONARY
  5
D
102
{ACAD_REACTORS
330
C
102
}
330
C
100
AcDbDictionary
281
     1
  0
DICTIONARY
  5
1A
102
{ACAD_REACTORS
330
C
102
}
330
C
100
AcDbDictionary
281
     1
  3
Layout1
350
1E
  3
Layout2
350
26
  3
Model
350
22
  0
DICTIONARY
  5
C8
102
{ACAD_REACTORS
330
C
102
}
330
C
100
AcDbDictionary
281
     1
  3
ByBlock
350
294
  3
ByLayer
350
293
  3
Global
350
295
  0
DICTIONARY
  5
2EC
102
{ACAD_REACTORS
330
C
102
}
330
C
100
AcDbDictionary
281
     1
  3
Standard
350
2ED
  0
DICTIONARY
  5
17
102
{ACAD_REACTORS
330
C
102
}
330
C
100
AcDbDictionary
281
     1
  3
Standard
350
18
  0
DICTIONARY
  5
19
102
{ACAD_REACTORS
330
C
102
}
330
C
100
AcDbDictionary
281
     1
  0
ACDBDICTIONARYWDFLT
  5
E
102
{ACAD_REACTORS
330
C
102
}
330
C
100
AcDbDictionary
281
     1
  3
Normal
350
F
100
AcDbDictionaryWithDefault
340
F
  0
DICTIONARY
  5
2CA
102
{ACAD_REACTORS
330
C
102
}
330
C
100
AcDbDictionary
281
     1
  3
A0
350
2CB
  3
A1
350
2CC
  3
A2
350
2CD
  3
A3
350
2CE
  3
A4
350
2CF
  3
A5
350
2D0
  3
A6
350
2D1
  3
A7
350
2D2
  3
A8
350
2D3
  3
A9
350
2D4
  3
B0
350
2D5
  3
B1
350
2D6
  3
B2
350
2D7
  3
B3
350
2D8
  3
B4
350
2D9
  3
B5
350
2DA
  3
B6
350
2DB
  3
B7
350
2DC
  3
B8
350
2DD
  3
B9
350
2DE
  3
C0
350
2DF
  3
C1
350
2E0
  3
C2
350
2E1
  3
C3
350
2E2
  3
C4
350
2E3
  3
C5
350
2E4
  3
C6
350
2E5
  3
C7
350
2E6
  3
C8
350
2E7
  3
C9
350
2E8
  3
D0
350
2E9
  3
D1
350
2EA
  3
D2
350
2EB
  0
DICTIONARY
  5
123
102
{ACAD_REACTORS
330
C
102
}
330
C
100
AcDbDictionary
281
     1
  3
Standard
350
124
  0
DICTIONARY
  5
296
102
{ACAD_REACTORS
330
C
102
}
330
C
100
AcDbDictionary
281
     1
  3
2dWireframe
350
29C
  3
3D Hidden
350
29E
  3
3dWireframe
350
29D
  3
Basic
350
29B
  3
Brighten
350
2A2
  3
ColorChange
350
2A6
  3
Conceptual
350
29F
  3
Dim
350
2A1
  3
Facepattern
350
2A5
  3
Flat
350
297
  3
FlatWithEdges
350
298
  3
Gouraud
350
299
  3
GouraudWithEdges
350
29A
  3
Linepattern
350
2A4
  3
Realistic
350
2A0
  3
Thicken
350
2A3
  0
XRECORD
  5
30D
102
{ACAD_REACTORS
330
C
102
}
330
C
100
AcDbXrecord
280
     1
 90
        1
330
124
  0
DICTIONARY
  5
9E
102
{ACAD_REACTORS
330
C
102
}
330
C
100
AcDbDictionary
281
     1
  3
CANNOSCALE
350
310
  3
CMLEADERSTYLE
350
30E
  3
CTABLESTYLE
350
144
  3
DIMASSOC
350
A0
  3
INDEXCTL
350
9F
  3
LAYEREVAL
350
36B
  3
LAYERNOTIFY
350
36C
  3
LIGHTINGUNITS
350
311
  3
MSLTSCALE
350
30F
  0
DICTIONARY
  5
63
102
{ACAD_REACTORS
330
C
102
}
330
C
100
AcDbDictionary
281
     1
  3
AcmStdDictionary
350
69
  3
AMDTSECTSYM_ARROWCOLOR
350
12C
  0
DICTIONARY
  5
49
102
{ACAD_REACTORS
330
C
102
}
330
C
100
AcDbDictionary
281
     1
  0
DICTIONARY
  5
625
102
{ACAD_REACTORS
330
C
102
}
330
C
100
AcDbDictionary
281
     1
  0
DICTIONARY
  5
8CE
102
{ACAD_REACTORS
330
C
102
}
330
C
100
AcDbDictionary
281
     1
  3
ASEBlockHierarchyIndexRecord
350
8CF
1001
DCO15
1040
1687863195.927
  0
XRECORD
  5
8CA
102
{ACAD_REACTORS
330
8C9
102
}
330
8C9
100
AcDbXrecord
280
     1
290
     1
  0
XRECORD
  5
8CC
102
{ACAD_REACTORS
330
8CB
102
}
330
8CB
100
AcDbXrecord
280
     1
290
     1
  0
LAYOUT
  5
1E
102
{ACAD_REACTORS
330
1A
102
}
330
1A
100
AcDbPlotSettings
  1

  2

  4

  6

 40
0.0
 41
0.0
 42
0.0
 43
0.0
 44
0.0
 45
0.0
 46
0.0
 47
0.0
 48
0.0
 49
0.0
140
0.0
141
0.0
142
1.0
143
1.0
 70
   688
 72
     0
 73
     0
 74
     5
  7

 75
    16
147
1.0
 76
     0
 77
     2
 78
   300
148
0.0
149
0.0
100
AcDbLayout
  1
Layout1
 70
     1
 71
     1
 10
0.0
 20
0.0
 11
12.0
 21
9.0
 12
0.0
 22
0.0
 32
0.0
 14
1.000000000000000E+20
 24
1.000000000000000E+20
 34
1.000000000000000E+20
 15
-1.000000000000000E+20
 25
-1.000000000000000E+20
 35
-1.000000000000000E+20
146
0.0
 13
0.0
 23
0.0
 33
0.0
 16
1.0
 26
0.0
 36
0.0
 17
0.0
 27
1.0
 37
0.0
 76
     0
330
1B
  0
LAYOUT
  5
26
102
{ACAD_REACTORS
330
1A
102
}
330
1A
100
AcDbPlotSettings
  1

  2

  4

  6

 40
0.0
 41
0.0
 42
0.0
 43
0.0
 44
0.0
 45
0.0
 46
0.0
 47
0.0
 48
0.0
 49
0.0
140
0.0
141
0.0
142
1.0
143
1.0
 70
   688
 72
     0
 73
     0
 74
     5
  7

 75
    16
147
1.0
 76
     0
 77
     2
 78
   300
148
0.0
149
0.0
100
AcDbLayout
  1
Layout2
 70
     1
 71
     2
 10
0.0
 20
0.0
 11
12.0
 21
9.0
 12
0.0
 22
0.0
 32
0.0
 14
0.0
 24
0.0
 34
0.0
 15
0.0
 25
0.0
 35
0.0
146
0.0
 13
0.0
 23
0.0
 33
0.0
 16
1.0
 26
0.0
 36
0.0
 17
0.0
 27
1.0
 37
0.0
 76
     0
330
23
  0
LAYOUT
  5
22
102
{ACAD_REACTORS
330
1A
102
}
330
1A
100
AcDbPlotSettings
  1

  2

  4

  6

 40
0.0
 41
0.0
 42
0.0
 43
0.0
 44
0.0
 45
0.0
 46
0.0
 47
0.0
 48
0.0
 49
0.0
140
0.0
141
0.0
142
1.0
143
1.0
 70
  1712
 72
     0
 73
     0
 74
     0
  7

 75
     0
147
1.0
 76
     0
 77
     2
 78
   300
148
0.0
149
0.0
100
AcDbLayout
  1
Model
 70
     1
 71
     0
 10
0.0
 20
0.0
 11
12.0
 21
9.0
 12
0.0
 22
0.0
 32
0.0
 14
0.0
 24
0.0
 34
0.0
 15
0.0
 25
0.0
 35
0.0
146
0.0
 13
0.0
 23
0.0
 33
0.0
 16
1.0
 26
0.0
 36
0.0
 17
0.0
 27
1.0
 37
0.0
 76
     0
330
1F
331
291
  0
MATERIAL
  5
294
102
{ACAD_REACTORS
330
C8
102
}
330
C8
100
AcDbMaterial
  1
ByBlock
 73
     1
 78
     1
172
     1
176
     1
270
     1
274
     1
 94
       63
  0
MATERIAL
  5
293
102
{ACAD_REACTORS
330
C8
102
}
330
C8
100
AcDbMaterial
  1
ByLayer
 73
     1
 78
     1
172
     1
176
     1
270
     1
274
     1
 94
       63
  0
MATERIAL
  5
295
102
{ACAD_REACTORS
330
C8
102
}
330
C8
100
AcDbMaterial
  1
Global
 73
     1
 78
     1
172
     1
176
     1
270
     1
274
     1
 94
       63
  0
MLEADERSTYLE
  5
2ED
102
{ACAD_REACTORS
330
2EC
102
}
330
2EC
100
AcDbMLeaderStyle
170
     2
171
     1
172
     0
 90
        2
 40
0.0
 41
0.0
173
     1
 91
-1056964608
340
14
 92
       -2
290
     1
 42
0.09
291
     1
 43
0.36
  3
Standard
 44
0.18
300

342
11
174
     1
178
     6
175
     1
176
     0
 93
-1056964608
 45
0.18
292
     0
297
     0
 46
0.18
 94
-1056964608
 47
1.0
 49
1.0
140
1.0
293
     1
141
0.0
294
     1
177
     0
142
1.0
295
     0
296
     0
143
0.125
1001
ACAD_MLEADERVER
1070
     2
  0
MLINESTYLE
  5
18
102
{ACAD_REACTORS
330
17
102
}
330
17
100
AcDbMlineStyle
  2
STANDARD
 70
     0
  3

 62
   256
 51
90.0
 52
90.0
 71
     2
 49
0.5
 62
   256
  6
BYLAYER
 49
-0.5
 62
   256
  6
BYLAYER
  0
ACDBPLACEHOLDER
  5
F
102
{ACAD_REACTORS
330
E
102
}
330
E
  0
SCALE
  5
2CB
102
{ACAD_REACTORS
330
2CA
102
}
330
2CA
100
AcDbScale
 70
     0
300
1:1
140
1.0
141
1.0
290
     1
  0
SCALE
  5
2CC
102
{ACAD_REACTORS
330
2CA
102
}
330
2CA
100
AcDbScale
 70
     0
300
1:2
140
1.0
141
2.0
290
     0
  0
SCALE
  5
2CD
102
{ACAD_REACTORS
330
2CA
102
}
330
2CA
100
AcDbScale
 70
     0
300
1:4
140
1.0
141
4.0
290
     0
  0
SCALE
  5
2CE
102
{ACAD_REACTORS
330
2CA
102
}
330
2CA
100
AcDbScale
 70
     0
300
1:5
140
1.0
141
5.0
290
     0
  0
SCALE
  5
2CF
102
{ACAD_REACTORS
330
2CA
102
}
330
2CA
100
AcDbScale
 70
     0
300
1:8
140
1.0
141
8.0
290
     0
  0
SCALE
  5
2D0
102
{ACAD_REACTORS
330
2CA
102
}
330
2CA
100
AcDbScale
 70
     0
300
1:10
140
1.0
141
10.0
290
     0
  0
SCALE
  5
2D1
102
{ACAD_REACTORS
330
2CA
102
}
330
2CA
100
AcDbScale
 70
     0
300
1:16
140
1.0
141
16.0
290
     0
  0
SCALE
  5
2D2
102
{ACAD_REACTORS
330
2CA
102
}
330
2CA
100
AcDbScale
 70
     0
300
1:20
140
1.0
141
20.0
290
     0
  0
SCALE
  5
2D3
102
{ACAD_REACTORS
330
2CA
102
}
330
2CA
100
AcDbScale
 70
     0
300
1:30
140
1.0
141
30.0
290
     0
  0
SCALE
  5
2D4
102
{ACAD_REACTORS
330
2CA
102
}
330
2CA
100
AcDbScale
 70
     0
300
1:40
140
1.0
141
40.0
290
     0
  0
SCALE
  5
2D5
102
{ACAD_REACTORS
330
2CA
102
}
330
2CA
100
AcDbScale
 70
     0
300
1:50
140
1.0
141
50.0
290
     0
  0
SCALE
  5
2D6
102
{ACAD_REACTORS
330
2CA
102
}
330
2CA
100
AcDbScale
 70
     0
300
1:100
140
1.0
141
100.0
290
     0
  0
SCALE
  5
2D7
102
{ACAD_REACTORS
330
2CA
102
}
330
2CA
100
AcDbScale
 70
     0
300
2:1
140
2.0
141
1.0
290
     0
  0
SCALE
  5
2D8
102
{ACAD_REACTORS
330
2CA
102
}
330
2CA
100
AcDbScale
 70
     0
300
4:1
140
4.0
141
1.0
290
     0
  0
SCALE
  5
2D9
102
{ACAD_REACTORS
330
2CA
102
}
330
2CA
100
AcDbScale
 70
     0
300
8:1
140
8.0
141
1.0
290
     0
  0
SCALE
  5
2DA
102
{ACAD_REACTORS
330
2CA
102
}
330
2CA
100
AcDbScale
 70
     0
300
10:1
140
10.0
141
1.0
290
     0
  0
SCALE
  5
2DB
102
{ACAD_REACTORS
330
2CA
102
}
330
2CA
100
AcDbScale
 70
     0
300
100:1
140
100.0
141
1.0
290
     0
  0
SCALE
  5
2DC
102
{ACAD_REACTORS
330
2CA
102
}
330
2CA
100
AcDbScale
 70
     0
300
1/128" = 1'-0"
140
0.0078125
141
12.0
290
     0
  0
SCALE
  5
2DD
102
{ACAD_REACTORS
330
2CA
102
}
330
2CA
100
AcDbScale
 70
     0
300
1/64" = 1'-0"
140
0.015625
141
12.0
290
     0
  0
SCALE
  5
2DE
102
{ACAD_REACTORS
330
2CA
102
}
330
2CA
100
AcDbScale
 70
     0
300
1/32" = 1'-0"
140
0.03125
141
12.0
290
     0
  0
SCALE
  5
2DF
102
{ACAD_REACTORS
330
2CA
102
}
330
2CA
100
AcDbScale
 70
     0
300
1/16" = 1'-0"
140
0.0625
141
12.0
290
     0
  0
SCALE
  5
2E0
102
{ACAD_REACTORS
330
2CA
102
}
330
2CA
100
AcDbScale
 70
     0
300
3/32" = 1'-0"
140
0.09375
141
12.0
290
     0
  0
SCALE
  5
2E1
102
{ACAD_REACTORS
330
2CA
102
}
330
2CA
100
AcDbScale
 70
     0
300
1/8" = 1'-0"
140
0.125
141
12.0
290
     0
  0
SCALE
  5
2E2
102
{ACAD_REACTORS
330
2CA
102
}
330
2CA
100
AcDbScale
 70
     0
300
3/16" = 1'-0"
140
0.1875
141
12.0
290
     0
  0
SCALE
  5
2E3
102
{ACAD_REACTORS
330
2CA
102
}
330
2CA
100
AcDbScale
 70
     0
300
1/4" = 1'-0"
140
0.25
141
12.0
290
     0
  0
SCALE
  5
2E4
102
{ACAD_REACTORS
330
2CA
102
}
330
2CA
100
AcDbScale
 70
     0
300
3/8" = 1'-0"
140
0.375
141
12.0
290
     0
  0
SCALE
  5
2E5
102
{ACAD_REACTORS
330
2CA
102
}
330
2CA
100
AcDbScale
 70
     0
300
1/2" = 1'-0"
140
0.5
141
12.0
290
     0
  0
SCALE
  5
2E6
102
{ACAD_REACTORS
330
2CA
102
}
330
2CA
100
AcDbScale
 70
     0
300
3/4" = 1'-0"
140
0.75
141
12.0
290
     0
  0
SCALE
  5
2E7
102
{ACAD_REACTORS
330
2CA
102
}
330
2CA
100
AcDbScale
 70
     0
300
1" = 1'-0"
140
1.0
141
12.0
290
     0
  0
SCALE
  5
2E8
102
{ACAD_REACTORS
330
2CA
102
}
330
2CA
100
AcDbScale
 70
     0
300
1-1/2" = 1'-0"
140
1.5
141
12.0
290
     0
  0
SCALE
  5
2E9
102
{ACAD_REACTORS
330
2CA
102
}
330
2CA
100
AcDbScale
 70
     0
300
3" = 1'-0"
140
3.0
141
12.0
290
     0
  0
SCALE
  5
2EA
102
{ACAD_REACTORS
330
2CA
102
}
330
2CA
100
AcDbScale
 70
     0
300
6" = 1'-0"
140
6.0
141
12.0
290
     0
  0
SCALE
  5
2EB
102
{ACAD_REACTORS
330
2CA
102
}
330
2CA
100
AcDbScale
 70
     0
300
1'-0" = 1'-0"
140
12.0
141
12.0
290
     0
  0
TABLESTYLE
  5
124
102
{ACAD_XDICTIONARY
360
30B
102
}
102
{ACAD_REACTORS
330
123
102
}
330
123
100
AcDbTableStyle
  3
Standard
 70
     0
 71
     0
 40
0.06
 41
0.06
280
     0
281
     0
  7
STANDARD
140
0.18
170
     2
 62
     0
 63
     7
283
     0
 90
      512
 91
        0
  1

274
    -2
284
     1
 64
     0
275
    -2
285
     1
 65
     0
276
    -2
286
     1
 66
     0
277
    -2
287
     1
 67
     0
278
    -2
288
     1
 68
     0
279
    -2
289
     1
 69
     0
  7
STANDARD
140
0.25
170
     5
 62
     0
 63
     7
283
     0
 90
      512
 91
        0
  1

274
    -2
284
     1
 64
     0
275
    -2
285
     1
 65
     0
276
    -2
286
     1
 66
     0
277
    -2
287
     1
 67
     0
278
    -2
288
     1
 68
     0
279
    -2
289
     1
 69
     0
  7
STANDARD
140
0.18
170
     5
 62
     0
 63
     7
283
     0
 90
      512
 91
        0
  1

274
    -2
284
     1
 64
     0
275
    -2
285
     1
 65
     0
276
    -2
286
     1
 66
     0
277
    -2
287
     1
 67
     0
278
    -2
288
     1
 68
     0
279
    -2
289
     1
 69
     0
  0
VISUALSTYLE
  5
29C
102
{ACAD_REACTORS
330
296
102
}
330
296
100
AcDbVisualStyle
  2
2dWireframe
 70
     4
 71
     0
 72
     2
 73
     0
 90
        0
 40
-0.6
 41
-30.0
 62
     5
 63
     7
421
 16777215
 74
     1
 91
        4
 64
     7
 65
   257
 75
     1
175
     1
 42
1.0
 92
        0
 66
   257
 43
1.0
 76
     1
 77
     6
 78
     2
 67
     7
 79
     5
170
     0
171
     0
290
     0
174
     0
 93
        1
 44
0.0
173
     0
291
     0
 45
0.0
  0
VISUALSTYLE
  5
29E
102
{ACAD_REACTORS
330
296
102
}
330
296
100
AcDbVisualStyle
  2
3D Hidden
 70
     6
 71
     1
 72
     2
 73
     2
 90
        0
 40
-0.6
 41
-30.0
 62
     5
 63
     7
421
 16777215
 74
     2
 91
        2
 64
     7
 65
   257
 75
     2
175
     1
 42
40.0
 92
        0
 66
   257
 43
1.0
 76
     1
 77
     6
 78
     2
 67
     7
 79
     3
170
     0
171
     0
290
     0
174
     0
 93
        1
 44
0.0
173
     0
291
     0
 45
0.0
  0
VISUALSTYLE
  5
29D
102
{ACAD_REACTORS
330
296
102
}
330
296
100
AcDbVisualStyle
  2
3dWireframe
 70
     5
 71
     0
 72
     2
 73
     0
 90
        0
 40
-0.6
 41
-30.0
 62
     5
 63
     7
421
 16777215
 74
     1
 91
        4
 64
     7
 65
   257
 75
     1
175
     1
 42
1.0
 92
        0
 66
   257
 43
1.0
 76
     1
 77
     6
 78
     2
 67
     7
 79
     5
170
     0
171
     0
290
     0
174
     0
 93
        1
 44
0.0
173
     0
291
     0
 45
0.0
  0
VISUALSTYLE
  5
29B
102
{ACAD_REACTORS
330
296
102
}
330
296
100
AcDbVisualStyle
  2
Basic
 70
     7
 71
     1
 72
     0
 73
     1
 90
        0
 40
-0.6
 41
-30.0
 62
     5
 63
     7
421
 16777215
 74
     0
 91
        4
 64
     7
 65
   257
 75
     1
175
     1
 42
1.0
 92
        8
 66
     7
 43
1.0
 76
     1
 77
     6
 78
     2
 67
     7
 79
     5
170
     0
171
     0
290
     0
174
     0
 93
        1
 44
0.0
173
     0
291
     1
 45
0.0
  0
VISUALSTYLE
  5
2A2
102
{ACAD_REACTORS
330
296
102
}
330
296
100
AcDbVisualStyle
  2
Brighten
 70
    12
 71
     2
 72
     2
 73
     0
 90
        0
 40
-0.6
 41
-30.0
 62
     5
 63
     7
421
 16777215
 74
     1
 91
        4
 64
     7
 65
   257
 75
     1
175
     1
 42
1.0
 92
        8
 66
     7
 43
1.0
 76
     1
 77
     6
 78
     2
 67
     7
 79
     5
170
     0
171
     0
290
     0
174
     0
 93
        1
 44
50.0
173
     0
291
     1
 45
0.0
  0
VISUALSTYLE
  5
2A6
102
{ACAD_REACTORS
330
296
102
}
330
296
100
AcDbVisualStyle
  2
ColorChange
 70
    16
 71
     2
 72
     2
 73
     3
 90
        0
 40
-0.6
 41
-30.0
 62
     5
 63
     8
421
  8421504
 74
     1
 91
        4
 64
     7
 65
   257
 75
     1
175
     1
 42
1.0
 92
        8
 66
     8
424
  8421504
 43
1.0
 76
     1
 77
     6
 78
     2
 67
     7
 79
     5
170
     0
171
     0
290
     0
174
     0
 93
        1
 44
0.0
173
     0
291
     1
 45
0.0
  0
VISUALSTYLE
  5
29F
102
{ACAD_REACTORS
330
296
102
}
330
296
100
AcDbVisualStyle
  2
Conceptual
 70
     9
 71
     3
 72
     2
 73
     0
 90
        0
 40
-0.6
 41
-30.0
 62
     5
 63
     7
421
 16777215
 74
     2
 91
        2
 64
     7
 65
   257
 75
     1
175
     1
 42
40.0
 92
        8
 66
     7
 43
1.0
 76
     1
 77
     6
 78
     2
 67
     7
 79
     3
170
     0
171
     0
290
     0
174
     0
 93
        1
 44
0.0
173
     0
291
     0
 45
0.0
  0
VISUALSTYLE
  5
2A1
102
{ACAD_REACTORS
330
296
102
}
330
296
100
AcDbVisualStyle
  2
Dim
 70
    11
 71
     2
 72
     2
 73
     0
 90
        0
 40
-0.6
 41
-30.0
 62
     5
 63
     7
421
 16777215
 74
     1
 91
        4
 64
     7
 65
   257
 75
     1
175
     1
 42
1.0
 92
        8
 66
     7
 43
1.0
 76
     1
 77
     6
 78
     2
 67
     7
 79
     5
170
     0
171
     0
290
     0
174
     0
 93
        1
 44
-50.0
173
     0
291
     1
 45
0.0
  0
VISUALSTYLE
  5
2A5
102
{ACAD_REACTORS
330
296
102
}
330
296
100
AcDbVisualStyle
  2
Facepattern
 70
    15
 71
     2
 72
     2
 73
     0
 90
        0
 40
-0.6
 41
-30.0
 62
     5
 63
     7
421
 16777215
 74
     1
 91
        4
 64
     7
 65
   257
 75
     1
175
     1
 42
1.0
 92
        8
 66
     7
 43
1.0
 76
     1
 77
     6
 78
     2
 67
     7
 79
     5
170
     0
171
     0
290
     0
174
     0
 93
        1
 44
0.0
173
     0
291
     1
 45
0.0
  0
VISUALSTYLE
  5
297
102
{ACAD_REACTORS
330
296
102
}
330
296
100
AcDbVisualStyle
  2
Flat
 70
     0
 71
     2
 72
     1
 73
     1
 90
        2
 40
-0.6
 41
30.0
 62
     5
 63
     7
421
 16777215
 74
     0
 91
        4
 64
     7
 65
   257
 75
     1
175
     1
 42
1.0
 92
        8
 66
     7
 43
1.0
 76
     1
 77
     6
 78
     2
 67
     7
 79
     5
170
     0
171
     0
290
     0
174
     0
 93
       13
 44
0.0
173
     0
291
     1
 45
0.0
  0
VISUALSTYLE
  5
298
102
{ACAD_REACTORS
330
296
102
}
330
296
100
AcDbVisualStyle
  2
FlatWithEdges
 70
     1
 71
     2
 72
     1
 73
     1
 90
        2
 40
-0.6
 41
30.0
 62
     5
 63
     7
421
 16777215
 74
     1
 91
        4
 64
     7
 65
   257
 75
     1
175
     1
 42
1.0
 92
        0
 66
   257
 43
1.0
 76
     1
 77
     6
 78
     2
 67
     7
 79
     5
170
     0
171
     0
290
     0
174
     0
 93
       13
 44
0.0
173
     0
291
     1
 45
0.0
  0
VISUALSTYLE
  5
299
102
{ACAD_REACTORS
330
296
102
}
330
296
100
AcDbVisualStyle
  2
Gouraud
 70
     2
 71
     2
 72
     2
 73
     1
 90
        2
 40
-0.6
 41
30.0
 62
     5
 63
     7
421
 16777215
 74
     0
 91
        4
 64
     7
 65
   257
 75
     1
175
     1
 42
1.0
 92
        0
 66
     7
 43
1.0
 76
     1
 77
     6
 78
     2
 67
     7
 79
     5
170
     0
171
     0
290
     0
174
     0
 93
       13
 44
0.0
173
     0
291
     1
 45
0.0
  0
VISUALSTYLE
  5
29A
102
{ACAD_REACTORS
330
296
102
}
330
296
100
AcDbVisualStyle
  2
GouraudWithEdges
 70
     3
 71
     2
 72
     2
 73
     1
 90
        2
 40
-0.6
 41
30.0
 62
     5
 63
     7
421
 16777215
 74
     1
 91
        4
 64
     7
 65
   257
 75
     1
175
     1
 42
1.0
 92
        0
 66
   257
 43
1.0
 76
     1
 77
     6
 78
     2
 67
     7
 79
     5
170
     0
171
     0
290
     0
174
     0
 93
       13
 44
0.0
173
     0
291
     1
 45
0.0
  0
VISUALSTYLE
  5
2A4
102
{ACAD_REACTORS
330
296
102
}
330
296
100
AcDbVisualStyle
  2
Linepattern
 70
    14
 71
     2
 72
     2
 73
     0
 90
        0
 40
-0.6
 41
-30.0
 62
     5
 63
     7
421
 16777215
 74
     1
 91
        4
 64
     7
 65
   257
 75
     7
175
     7
 42
1.0
 92
        8
 66
     7
 43
1.0
 76
     1
 77
     6
 78
     2
 67
     7
 79
     5
170
     0
171
     0
290
     0
174
     0
 93
        1
 44
0.0
173
     0
291
     1
 45
0.0
  0
VISUALSTYLE
  5
2A0
102
{ACAD_REACTORS
330
296
102
}
330
296
100
AcDbVisualStyle
  2
Realistic
 70
     8
 71
     2
 72
     2
 73
     0
 90
        0
 40
-0.6
 41
-30.0
 62
     5
 63
     7
421
 16777215
 74
     1
 91
        0
 64
     7
 65
   257
 75
     1
175
     1
 42
1.0
 92
        8
 66
     8
424
  7895160
 43
1.0
 76
     1
 77
     6
 78
     2
 67
     7
 79
     5
170
     0
171
     0
290
     0
174
     0
 93
       13
 44
0.0
173
     0
291
     0
 45
0.0
  0
VISUALSTYLE
  5
2A3
102
{ACAD_REACTORS
330
296
102
}
330
296
100
AcDbVisualStyle
  2
Thicken
 70
    13
 71
     2
 72
     2
 73
     0
 90
        0
 40
-0.6
 41
-30.0
 62
     5
 63
     7
421
 16777215
 74
     1
 91
        4
 64
     7
 65
   257
 75
     1
175
     1
 42
1.0
 92
       12
 66
     7
 43
1.0
 76
     1
 77
     6
 78
     2
 67
     7
 79
     5
170
     0
171
     0
290
     0
174
     0
 93
        1
 44
0.0
173
     0
291
     1
 45
0.0
  0
DICTIONARYVAR
  5
310
102
{ACAD_REACTORS
330
9E
102
}
330
9E
100
DictionaryVariables
280
     0
  1
1:1
  0
DICTIONARYVAR
  5
30E
102
{ACAD_REACTORS
330
9E
102
}
330
9E
100
DictionaryVariables
280
     0
  1
STANDARD
  0
DICTIONARYVAR
  5
144
102
{ACAD_REACTORS
330
9E
102
}
330
9E
100
DictionaryVariables
280
     0
  1
STANDARD
  0
DICTIONARYVAR
  5
A0
102
{ACAD_REACTORS
330
9E
102
}
330
9E
100
DictionaryVariables
280
     0
  1
2
  0
DICTIONARYVAR
  5
9F
102
{ACAD_REACTORS
330
9E
102
}
330
9E
100
DictionaryVariables
280
     0
  1
1
  0
DICTIONARYVAR
  5
36B
102
{ACAD_REACTORS
330
9E
102
}
330
9E
100
DictionaryVariables
280
     0
  1
1
  0
DICTIONARYVAR
  5
36C
102
{ACAD_REACTORS
330
9E
102
}
330
9E
100
DictionaryVariables
280
     0
  1
15
  0
DICTIONARYVAR
  5
311
102
{ACAD_REACTORS
330
9E
102
}
330
9E
100
DictionaryVariables
280
     0
  1
0
  0
DICTIONARYVAR
  5
30F
102
{ACAD_REACTORS
330
9E
102
}
330
9E
100
DictionaryVariables
280
     0
  1
0
  0
DICTIONARY
  5
69
102
{ACAD_REACTORS
330
63
102
}
330
63
100
AcDbDictionary
281
     1
  0
XRECORD
  5
12C
102
{ACAD_REACTORS
330
63
102
}
330
63
100
AcDbXrecord
280
     1
 90
-1023410169
  0
XRECORD
  5
8CF
102
{ACAD_REACTORS
330
8CE
102
}
330
8CE
100
AcDbXrecord
280
     1
  0
DICTIONARY
  5
30B
330
124
100
AcDbDictionary
280
     1
281
     1
  3
ACAD_ROUNDTRIP_2008_TABLESTYLE_CELLSTYLEMAP
360
8D0
  0
CELLSTYLEMAP
  5
8D0
102
{ACAD_REACTORS
330
30B
102
}
330
30B
100
AcDbCellStyleMap
 90
        3
300
CELLSTYLE
  1
TABLEFORMAT_BEGIN
 90
        5
170
     1
 91
        0
 92
    32768
 62
   257
 93
        1
300
CONTENTFORMAT
  1
CONTENTFORMAT_BEGIN
 90
        0
 91
        0
 92
      512
 93
        0
300

 40
0.0
140
1.0
 94
        5
 62
     0
340
11
144
0.25
309
CONTENTFORMAT_END
171
     0
 94
        6
 95
        1
302
GRIDFORMAT
  1
GRIDFORMAT_BEGIN
 90
        0
 91
        1
 62
     0
 92
       -2
340
0
 93
        0
 40
0.045
309
GRIDFORMAT_END
 95
        2
302
GRIDFORMAT
  1
GRIDFORMAT_BEGIN
 90
        0
 91
        1
 62
     0
 92
       -2
340
0
 93
        0
 40
0.045
309
GRIDFORMAT_END
 95
        4
302
GRIDFORMAT
  1
GRIDFORMAT_BEGIN
 90
        0
 91
        1
 62
     0
 92
       -2
340
0
 93
        0
 40
0.045
309
GRIDFORMAT_END
 95
        8
302
GRIDFORMAT
  1
GRIDFORMAT_BEGIN
 90
        0
 91
        1
 62
     0
 92
       -2
340
0
 93
        0
 40
0.045
309
GRIDFORMAT_END
 95
       16
302
GRIDFORMAT
  1
GRIDFORMAT_BEGIN
 90
        0
 91
        1
 62
     0
 92
       -2
340
0
 93
        0
 40
0.045
309
GRIDFORMAT_END
 95
       32
302
GRIDFORMAT
  1
GRIDFORMAT_BEGIN
 90
        0
 91
        1
 62
     0
 92
       -2
340
0
 93
        0
 40
0.045
309
GRIDFORMAT_END
309
TABLEFORMAT_END
  1
CELLSTYLE_BEGIN
 90
        1
 91
        1
300
_TITLE
309
CELLSTYLE_END
300
CELLSTYLE
  1
TABLEFORMAT_BEGIN
 90
        5
170
     1
 91
        0
 92
        0
 62
   257
 93
        1
300
CONTENTFORMAT
  1
CONTENTFORMAT_BEGIN
 90
        0
 91
        0
 92
      512
 93
        0
300

 40
0.0
140
1.0
 94
        5
 62
     0
340
11
144
0.18
309
CONTENTFORMAT_END
171
     0
 94
        6
 95
        1
302
GRIDFORMAT
  1
GRIDFORMAT_BEGIN
 90
        0
 91
        1
 62
     0
 92
       -2
340
0
 93
        0
 40
0.045
309
GRIDFORMAT_END
 95
        2
302
GRIDFORMAT
  1
GRIDFORMAT_BEGIN
 90
        0
 91
        1
 62
     0
 92
       -2
340
0
 93
        0
 40
0.045
309
GRIDFORMAT_END
 95
        4
302
GRIDFORMAT
  1
GRIDFORMAT_BEGIN
 90
        0
 91
        1
 62
     0
 92
       -2
340
0
 93
        0
 40
0.045
309
GRIDFORMAT_END
 95
        8
302
GRIDFORMAT
  1
GRIDFORMAT_BEGIN
 90
        0
 91
        1
 62
     0
 92
       -2
340
0
 93
        0
 40
0.045
309
GRIDFORMAT_END
 95
       16
302
GRIDFORMAT
  1
GRIDFORMAT_BEGIN
 90
        0
 91
        1
 62
     0
 92
       -2
340
0
 93
        0
 40
0.045
309
GRIDFORMAT_END
 95
       32
302
GRIDFORMAT
  1
GRIDFORMAT_BEGIN
 90
        0
 91
        1
 62
     0
 92
       -2
340
0
 93
        0
 40
0.045
309
GRIDFORMAT_END
309
TABLEFORMAT_END
  1
CELLSTYLE_BEGIN
 90
        2
 91
        1
300
_HEADER
309
CELLSTYLE_END
300
CELLSTYLE
  1
TABLEFORMAT_BEGIN
 90
        5
170
     1
 91
        0
 92
        0
 62
   257
 93
        1
300
CONTENTFORMAT
  1
CONTENTFORMAT_BEGIN
 90
        0
 91
        0
 92
      512
 93
        0
300

 40
0.0
140
1.0
 94
        2
 62
     0
340
11
144
0.18
309
CONTENTFORMAT_END
171
     0
 94
        6
 95
        1
302
GRIDFORMAT
  1
GRIDFORMAT_BEGIN
 90
        0
 91
        1
 62
     0
 92
       -2
340
0
 93
        0
 40
0.045
309
GRIDFORMAT_END
 95
        2
302
GRIDFORMAT
  1
GRIDFORMAT_BEGIN
 90
        0
 91
        1
 62
     0
 92
       -2
340
0
 93
        0
 40
0.045
309
GRIDFORMAT_END
 95
        4
302
GRIDFORMAT
  1
GRIDFORMAT_BEGIN
 90
        0
 91
        1
 62
     0
 92
       -2
340
0
 93
        0
 40
0.045
309
GRIDFORMAT_END
 95
        8
302
GRIDFORMAT
  1
GRIDFORMAT_BEGIN
 90
        0
 91
        1
 62
     0
 92
       -2
340
0
 93
        0
 40
0.045
309
GRIDFORMAT_END
 95
       16
302
GRIDFORMAT
  1
GRIDFORMAT_BEGIN
 90
        0
 91
        1
 62
     0
 92
       -2
340
0
 93
        0
 40
0.045
309
GRIDFORMAT_END
 95
       32
302
GRIDFORMAT
  1
GRIDFORMAT_BEGIN
 90
        0
 91
        1
 62
     0
 92
       -2
340
0
 93
        0
 40
0.045
309
GRIDFORMAT_END
309
TABLEFORMAT_END
  1
CELLSTYLE_BEGIN
 90
        3
 91
        2
300
_DATA
309
CELLSTYLE_END
  0
ENDSEC
  0
EOF
