  0
SECTION
  2
HEADER
  9
$ACADVER
  1
AC1009
  9
$INSBASE
 10
0.0
 20
0.0
 30
0.0
  9
$EXTMIN
 10
-10.999999999999989
 20
-10.57273652763274
 30
0.0
  9
$EXTMAX
 10
10.999999999999989
 20
0.001
 30
0.0
  9
$LIMMIN
 10
0.0
 20
0.0
  9
$LIMMAX
 10
0.0
 20
0.0
  9
$ORTHOMODE
 70
     0
  9
$REGENMODE
 70
     1
  9
$FILLMODE
 70
     1
  9
$QTEXTMODE
 70
     0
  9
$MIRRTEXT
 70
     1
  9
$DRAGMODE
 70
     2
  9
$LTSCALE
 40
1.0
  9
$OSMODE
 70
    37
  9
$ATTMODE
 70
     1
  9
$TEXTSIZE
 40
0.0
  9
$TRACEWID
 40
0.05
  9
$TEXTSTYLE
  7
STANDARD
  9
$CLAYER
  8
0
  9
$CELTYPE
  6
CONTINUOUS
  9
$CECOLOR
 62
   256
  9
$DIMSCALE
 40
96.0
  9
$DIMASZ
 40
0.2362204724409449
  9
$DIMEXO
 40
0.0393700787401575
  9
$DIMDLI
 40
0.38
  9
$DIMRND
 40
0.0
  9
$DIMDLE
 40
0.0393700787401575
  9
$DIMEXE
 40
0.18
  9
$DIMTP
 40
0.0
  9
$DIMTM
 40
0.0
  9
$DIMTXT
 40
0.25
  9
$DIMCEN
 40
0.09
  9
$DIMTSZ
 40
0.0
  9
$DIMTOL
 70
     0
  9
$DIMLIM
 70
     0
  9
$DIMTIH
 70
     1
  9
$DIMTOH
 70
     1
  9
$DIMSE1
 70
     0
  9
$DIMSE2
 70
     0
  9
$DIMTAD
 70
     1
  9
$DIMZIN
 70
     0
  9
$DIMBLK
  1

  9
$DIMASO
 70
     1
  9
$DIMSHO
 70
     1
  9
$DIMPOST
  1

  9
$DIMAPOST
  1

  9
$DIMALT
 70
     0
  9
$DIMALTD
 70
     2
  9
$DIMALTF
 40
25.399999999999999
  9
$DIMLFAC
 40
1.0
  9
$DIMTOFL
 70
     0
  9
$DIMTVP
 40
0.0
  9
$DIMTIX
 70
     0
  9
$DIMSOXD
 70
     0
  9
$DIMSAH
 70
     0
  9
$DIMBLK1
  1

  9
$DIMBLK2
  1

  9
$DIMSTYLE
  2
STANDARD
  9
$DIMCLRD
 70
     0
  9
$DIMCLRE
 70
     0
  9
$DIMCLRT
 70
     0
  9
$DIMTFAC
 40
1.0
  9
$DIMGAP
 40
0.0393700787401575
  9
$LUNITS
 70
     2
  9
$LUPREC
 70
     3
  9
$SKETCHINC
 40
0.1
  9
$FILLETRAD
 40
0.0
  9
$AUNITS
 70
     0
  9
$AUPREC
 70
     2
  9
$MENU
  1
acad
  9
$ELEVATION
 40
0.0
  9
$PELEVATION
 40
0.0
  9
$THICKNESS
 40
0.0
  9
$LIMCHECK
 70
     0
  9
$BLIPMODE
 70
     0
  9
$CHAMFERA
 40
0.0
  9
$CHAMFERB
 40
0.0
  9
$SKPOLY
 70
     0
  9
$TDCREATE
 40
2444971.75
  9
$TDUPDATE
 40
2453417.6587693398
  9
$TDINDWG
 40
0.0064383333
  9
$TDUSRTIMER
 40
0.0064383333
  9
$USRTIMER
 70
     1
  9
$ANGBASE
 50
0.0
  9
$ANGDIR
 70
     0
  9
$PDMODE
 70
     0
  9
$PDSIZE
 40
-1.0
  9
$PLINEWID
 40
0.0
  9
$COORDS
 70
     1
  9
$SPLFRAME
 70
     0
  9
$SPLINETYPE
 70
     6
  9
$SPLINESEGS
 70
     8
  9
$ATTDIA
 70
     0
  9
$ATTREQ
 70
     1
  9
$HANDLING
 70
     1
  9
$HANDSEED
  5
26A
  9
$SURFTAB1
 70
     6
  9
$SURFTAB2
 70
     6
  9
$SURFTYPE
 70
     6
  9
$SURFU
 70
     6
  9
$SURFV
 70
     6
  9
$UCSNAME
  2

  9
$UCSORG
 10
0.0
 20
0.0
 30
0.0
  9
$UCSXDIR
 10
1.0
 20
0.0
 30
0.0
  9
$UCSYDIR
 10
0.0
 20
1.0
 30
0.0
  9
$PUCSNAME
  2

  9
$PUCSORG
 10
0.0
 20
0.0
 30
0.0
  9
$PUCSXDIR
 10
1.0
 20
0.0
 30
0.0
  9
$PUCSYDIR
 10
0.0
 20
1.0
 30
0.0
  9
$USERI1
 70
     0
  9
$USERI2
 70
     0
  9
$USERI3
 70
     0
  9
$USERI4
 70
     0
  9
$USERI5
 70
     0
  9
$USERR1
 40
0.0
  9
$USERR2
 40
0.0
  9
$USERR3
 40
0.0
  9
$USERR4
 40
0.0
  9
$USERR5
 40
0.0
  9
$WORLDVIEW
 70
     1
  9
$SHADEDGE
 70
     3
  9
$SHADEDIF
 70
    70
  9
$TILEMODE
 70
     1
  9
$MAXACTVP
 70
    16
  9
$PLIMCHECK
 70
     0
  9
$PEXTMIN
 10
1.0000000000000000E+020
 20
1.0000000000000000E+020
 30
1.0000000000000000E+020
  9
$PEXTMAX
 10
-1.0000000000000000E+020
 20
-1.0000000000000000E+020
 30
-1.0000000000000000E+020
  9
$PLIMMIN
 10
0.0
 20
0.0
  9
$PLIMMAX
 10
12.0
 20
9.0
  9
$UNITMODE
 70
     0
  9
$VISRETAIN
 70
     0
  9
$PLINEGEN
 70
     1
  9
$PSLTSCALE
 70
     1
  0
ENDSEC
  0
SECTION
  2
TABLES
  0
TABLE
  2
VPORT
 70
     2
  0
VPORT
  2
*ACTIVE
 70
     0
 10
0.0
 20
0.0
 11
1.0
 21
1.0
 12
0.0000000512227434
 22
-4.2284178709186984
 13
0.0
 23
0.0
 14
1.0
 24
1.0
 15
0.0
 25
0.0
 16
0.0
 26
0.0
 36
1.0
 17
0.0
 27
0.0
 37
0.0
 40
12.796094572208659
 41
1.9608247422680409
 42
50.0
 43
0.0
 44
0.0
 50
0.0
 51
0.0
 71
     0
 72
  2000
 73
     1
 74
     1
 75
     0
 76
     0
 77
     0
 78
     0
  0
ENDTAB
  0
TABLE
  2
LTYPE
 70
     1
  0
LTYPE
  2
CONTINUOUS
 70
     0
  3
Solid line
 72
    65
 73
     0
 40
0.0
  0
ENDTAB
  0
TABLE
  2
LAYER
 70
     1
  0
LAYER
  2
0
 70
     0
 62
     7
  6
CONTINUOUS
  0
ENDTAB
  0
TABLE
  2
STYLE
 70
     1
  0
STYLE
  2
STANDARD
 70
     0
 40
0.0
 41
1.0
 50
0.0
 71
     0
 42
0.0
  3
txt
  4

  0
ENDTAB
  0
TABLE
  2
VIEW
 70
     0
  0
ENDTAB
  0
TABLE
  2
UCS
 70
     0
  0
ENDTAB
  0
TABLE
  2
APPID
 70
     2
  0
APPID
  2
ACAD
 70
     0
  0
APPID
  2
DCO15
 70
     0
  0
ENDTAB
  0
TABLE
  2
DIMSTYLE
 70
     1
  0
DIMSTYLE
  2
STANDARD
 70
     0
  3

  4

  5

  6

  7

 40
1.0
 41
0.18
 42
0.0625
 43
0.38
 44
0.18
 45
0.0
 46
0.0
 47
0.0
 48
0.0
140
0.18
141
0.09
142
0.0
143
25.399999999999999
144
1.0
145
0.0
146
1.0
147
0.09
 71
     0
 72
     0
 73
     1
 74
     1
 75
     0
 76
     0
 77
     0
 78
     0
170
     0
171
     2
172
     0
173
     0
174
     0
175
     0
176
     0
177
     0
178
     0
  0
ENDTAB
  0
ENDSEC
  0
SECTION
  2
BLOCKS
  0
BLOCK
  8
0
  2
$MODEL_SPACE
 70
     0
 10
0.0
 20
0.0
 30
0.0
  3
$MODEL_SPACE
  1

  0
ENDBLK
  5
3E
  8
0
  0
BLOCK
 67
     1
  8
0
  2
$PAPER_SPACE
 70
     0
 10
0.0
 20
0.0
 30
0.0
  3
$PAPER_SPACE
  1

  0
ENDBLK
  5
43
 67
     1
  8
0
  0
ENDSEC
  0
SECTION
  2
ENTITIES
  0
LINE
  5
9
  8
0
 10
-10.999999999999989
 20
-0.375
 30
0.0
 11
-10.999999999999989
 21
0.0
 31
0.0
  0
LINE
  5
A
  8
0
 10
10.999999999999989
 20
-0.375
 30
0.0
 11
10.999999999999989
 21
0.0
 31
0.0
  0
LINE
  5
B
  8
0
 10
-10.999999999999989
 20
-0.375
 30
0.0
 11
10.999999999999989
 21
-0.375
 31
0.0
  0
LINE
  5
C
  8
0
 10
-10.999999999999989
 20
0.0
 30
0.0
 11
10.999999999999989
 21
0.0
 31
0.0
  0
LINE
  5
D
  8
0
 10
7.4737774455211934
 20
-0.375
 30
0.0
 11
6.9760347151571551
 21
-7.4930526686406811
 31
0.0
  0
POLYLINE
  5
E
  8
0
 66
     1
 10
0.0
 20
0.0
 30
0.0
 70
   128
  0
VERTEX
  5
1B6
  8
0
 10
5.9784706648973263
 20
-7.4930526686406811
 30
0.0
  0
VERTEX
  5
1B7
  8
0
 10
6.0983444623489831
 20
-7.5008888118639501
 30
0.0
  0
VERTEX
  5
1B8
  8
0
 10
6.2164810300806499
 20
-7.5076004708119832
 30
0.0
  0
VERTEX
  5
1B9
  8
0
 10
6.3311683145757023
 20
-7.513090379079256
 30
0.0
  0
VERTEX
  5
1BA
  8
0
 10
6.4407442498667136
 20
-7.5172789760611627
 30
0.0
  0
VERTEX
  5
1BB
  8
0
 10
6.543620844454046
 20
-7.5201055599586679
 30
0.0
  0
VERTEX
  5
1BC
  8
0
 10
6.6383071947256873
 20
-7.5215291674782332
 30
0.0
  0
VERTEX
  5
1BD
  8
0
 10
6.7234310913642901
 20
-7.5215291674782332
 30
0.0
  0
VERTEX
  5
1BE
  8
0
 10
6.7977589056180641
 20
-7.5201055599586679
 30
0.0
  0
VERTEX
  5
1BF
  8
0
 10
6.8602134672405732
 20
-7.5172789760611654
 30
0.0
  0
VERTEX
  5
1C0
  8
0
 10
6.909889675009488
 20
-7.5130903790792578
 30
0.0
  0
VERTEX
  5
1C1
  8
0
 10
6.9460676135942938
 20
-7.5076004708119832
 30
0.0
  0
VERTEX
  5
1C2
  8
0
 10
6.9682229866812539
 20
-7.5008888118639501
 30
0.0
  0
VERTEX
  5
1C3
  8
0
 10
6.9760347151571551
 20
-7.4930526686406811
 30
0.0
  0
SEQEND
  5
1C4
  8
0
  0
LINE
  5
F
  8
0
 10
5.9784706648973263
 20
-7.4930526686406811
 30
0.0
 11
6.4762133952613636
 21
-0.375
 31
0.0
  0
LINE
  5
10
  8
0
 10
-8.4762133952613503
 20
-0.375
 30
0.0
 11
-7.9774456221811603
 21
-7.5077114624231678
 31
0.0
  0
POLYLINE
  5
11
  8
0
 66
     1
 10
0.0
 20
0.0
 30
0.0
 70
   128
  0
VERTEX
  5
1C5
  8
0
 10
-8.9750096724409811
 20
-7.507711462423166
 30
0.0
  0
VERTEX
  5
1C6
  8
0
 10
-8.9671979439650862
 20
-7.515547605646435
 30
0.0
  0
VERTEX
  5
1C7
  8
0
 10
-8.9450425708781225
 20
-7.522259264594469
 30
0.0
  0
VERTEX
  5
1C8
  8
0
 10
-8.9088646322933194
 20
-7.5277491728617418
 30
0.0
  0
VERTEX
  5
1C9
  8
0
 10
-8.8591884245244046
 20
-7.5319377698436494
 30
0.0
  0
VERTEX
  5
1CA
  8
0
 10
-8.7967338629018954
 20
-7.5347643537411537
 30
0.0
  0
VERTEX
  5
1CB
  8
0
 10
-8.7224060486481179
 20
-7.5361879612607199
 30
0.0
  0
VERTEX
  5
1CC
  8
0
 10
-8.6372821520095222
 20
-7.5361879612607199
 30
0.0
  0
VERTEX
  5
1CD
  8
0
 10
-8.5425958017378836
 20
-7.5347643537411537
 30
0.0
  0
VERTEX
  5
1CE
  8
0
 10
-8.4397192071505458
 20
-7.5319377698436494
 30
0.0
  0
VERTEX
  5
1CF
  8
0
 10
-8.3301432718595354
 20
-7.5277491728617436
 30
0.0
  0
VERTEX
  5
1D0
  8
0
 10
-8.2154559873644857
 20
-7.5222592645944699
 30
0.0
  0
VERTEX
  5
1D1
  8
0
 10
-8.0973194196328144
 20
-7.515547605646435
 30
0.0
  0
VERTEX
  5
1D2
  8
0
 10
-7.9774456221811603
 20
-7.5077114624231678
 30
0.0
  0
SEQEND
  5
1D3
  8
0
  0
LINE
  5
12
  8
0
 10
-8.9750096724409811
 20
-7.507711462423166
 30
0.0
 11
-9.4737774455211721
 21
-0.375
 31
0.0
  0
LINE
  5
13
  8
0
 10
5.7024642547430844
 20
-7.507711462423166
 30
0.0
 11
5.9784706648973263
 21
-7.4930526686406811
 31
0.0
  0
LINE
  5
14
  8
0
 10
-7.9774456221811603
 20
-7.5077114624231678
 30
0.0
 11
5.7024642547430844
 21
-7.507711462423166
 31
0.0
  0
ARC
  5
15
  8
0
 10
5.9784706648973289
 20
-7.4232961948965563
 30
0.0
 40
1.0000000000000011
 50
273.04014192211321
 51
356.00000000000063
  0
POLYLINE
  5
16
  8
0
 66
     1
 10
0.0
 20
0.0
 30
0.0
 70
   128
  0
VERTEX
  5
1D4
  8
0
 10
5.9784706648973263
 20
-7.4930526686406811
 30
0.0
  0
VERTEX
  5
1D5
  8
0
 10
5.9851037182753224
 20
-7.6167918453100043
 30
0.0
  0
VERTEX
  5
1D6
  8
0
 10
5.9916331159486651
 20
-7.7375072368763593
 30
0.0
  0
VERTEX
  5
1D7
  8
0
 10
5.9979568220556976
 20
-7.8533124060894224
 30
0.0
  0
VERTEX
  5
1D8
  8
0
 10
6.0039760151072477
 20
-7.9623976484686771
 30
0.0
  0
VERTEX
  5
1D9
  8
0
 10
6.0095966322846328
 20
-8.0630582728225892
 30
0.0
  0
VERTEX
  5
1DA
  8
0
 10
6.0147308393732182
 20
-8.1537212407095971
 30
0.0
  0
VERTEX
  5
1DB
  8
0
 10
6.01929840336064
 20
-8.2329697485421161
 30
0.0
  0
VERTEX
  5
1DC
  8
0
 10
6.0232279462499667
 20
-8.2995653681854336
 30
0.0
  0
VERTEX
  5
1DD
  8
0
 10
6.0264580604941891
 20
-8.3524674000570567
 30
0.0
  0
VERTEX
  5
1DE
  8
0
 10
6.0289382686210038
 20
-8.3908491362927542
 30
0.0
  0
VERTEX
  5
1DF
  8
0
 10
6.0306298120517559
 20
-8.4141107798324573
 30
0.0
  0
VERTEX
  5
1E0
  8
0
 10
6.0315062567874733
 20
-8.4218888175374733
 30
0.0
  0
SEQEND
  5
1E1
  8
0
  0
LINE
  5
17
  8
0
 10
6.0315062567874733
 20
-8.4218888175374733
 30
0.0
 11
5.6828480204736378
 21
-8.4404061743765162
 31
0.0
  0
POLYLINE
  5
18
  8
0
 66
     1
 10
0.0
 20
0.0
 30
0.0
 70
   128
  0
VERTEX
  5
1E2
  8
0
 10
5.6828480204736351
 20
-8.4404061743765162
 30
0.0
  0
VERTEX
  5
1E3
  8
0
 10
5.7084335667513351
 20
-8.4387764709174906
 30
0.0
  0
VERTEX
  5
1E4
  8
0
 10
5.7237560078356573
 20
-8.4371502980676318
 30
0.0
  0
VERTEX
  5
1E5
  8
0
 10
5.7288070553505497
 20
-8.4355285354734661
 30
0.0
  0
SEQEND
  5
1E6
  8
0
  0
LINE
  5
19
  8
0
 10
-7.9774456221811603
 20
-7.5077114624231678
 30
0.0
 11
-7.9774456221811603
 21
-8.4355285354734661
 31
0.0
  0
LINE
  5
1A
  8
0
 10
-7.9774456221811603
 20
-8.4355285354734661
 30
0.0
 11
-7.9765664490569721
 21
-8.4481012969043228
 31
0.0
  0
LINE
  5
1B
  8
0
 10
5.6828480204736378
 20
-8.4404061743765162
 30
0.0
 11
-1.055981398192029
 21
-8.7983076837231948
 31
0.0
  0
POLYLINE
  5
1C
  8
0
 66
     1
 10
0.0
 20
0.0
 30
0.0
 70
   128
  0
VERTEX
  5
1E7
  8
0
 10
-3.7086542795872659
 20
-8.7807853220176462
 30
0.0
  0
VERTEX
  5
1E8
  8
0
 10
-3.5799705007591558
 20
-8.7734410059388814
 30
0.0
  0
VERTEX
  5
1E9
  8
0
 10
-3.442186450320829
 20
-8.7669503933660966
 30
0.0
  0
VERTEX
  5
1EA
  8
0
 10
-3.2964611308364811
 20
-8.7613680815955028
 30
0.0
  0
VERTEX
  5
1EB
  8
0
 10
-3.1440203447006239
 20
-8.7567410275400057
 30
0.0
  0
VERTEX
  5
1EC
  8
0
 10
-2.986146383016318
 20
-8.7531081527402197
 30
0.0
  0
VERTEX
  5
1ED
  8
0
 10
-2.824167239305531
 20
-8.7505000159668782
 30
0.0
  0
VERTEX
  5
1EE
  8
0
 10
-2.6594454387829858
 20
-8.7489385561686408
 30
0.0
  0
VERTEX
  5
1EF
  8
0
 10
-2.4933665771586231
 20
-8.7484369079275162
 30
0.0
  0
VERTEX
  5
1F0
  8
0
 10
-2.3273276653772541
 20
-8.7489992909742771
 30
0.0
  0
VERTEX
  5
1F1
  8
0
 10
-2.162725378336297
 20
-8.7506209746932129
 30
0.0
  0
VERTEX
  5
1F2
  8
0
 10
-2.000944306430271
 20
-8.7532883179148122
 30
0.0
  0
VERTEX
  5
1F3
  8
0
 10
-1.8433453087468761
 20
-8.7569788836616187
 30
0.0
  0
VERTEX
  5
1F4
  8
0
 10
-1.691254065884477
 20
-8.761661627882086
 30
0.0
  0
VERTEX
  5
1F5
  8
0
 10
-1.545949928681654
 20
-8.7672971605848353
 30
0.0
  0
VERTEX
  5
1F6
  8
0
 10
-1.4086551566602501
 20
-8.7738380771767162
 30
0.0
  0
VERTEX
  5
1F7
  8
0
 10
-1.2805246367053531
 20
-8.7812293572175761
 30
0.0
  0
VERTEX
  5
1F8
  8
0
 10
-1.1626361684658211
 20
-8.7894088272374518
 30
0.0
  0
VERTEX
  5
1F9
  8
0
 10
-1.055981398192029
 20
-8.7983076837231948
 30
0.0
  0
SEQEND
  5
1FA
  8
0
  0
LINE
  5
1D
  8
0
 10
-3.7086542795872659
 20
-8.7807853220176462
 30
0.0
 11
-7.9765664490569721
 21
-8.4481012969043228
 31
0.0
  0
LINE
  5
1E
  8
0
 10
-7.9765664490569721
 20
-8.4481012969043228
 30
0.0
 11
-8.0546646558802202
 21
-8.4420135367142333
 31
0.0
  0
ARC
  5
1F
  8
0
 10
-7.9769503390441967
 20
-7.4450378675232933
 30
0.0
 40
1.0
 50
184.0000000000006
 51
265.54280338526229
  0
LINE
  5
20
  8
0
 10
-8.9745143893040211
 20
-7.5147943412674252
 30
0.0
 11
-8.9750096724409811
 21
-7.507711462423166
 31
0.0
  0
LINE
  5
21
  8
0
 10
-7.9113315768669983
 20
-8.4531863593414442
 30
0.0
 11
-7.8518768932010277
 21
-9.3034279478468385
 31
0.0
  0
POLYLINE
  5
22
  8
0
 66
     1
 10
0.0
 20
0.0
 30
0.0
 70
   128
  0
VERTEX
  5
1FB
  8
0
 10
-8.8494409434608521
 20
-9.3034279478468367
 30
0.0
  0
VERTEX
  5
1FC
  8
0
 10
-8.8416292149849518
 20
-9.3112640910701057
 30
0.0
  0
VERTEX
  5
1FD
  8
0
 10
-8.8194738418979917
 20
-9.3179757500181388
 30
0.0
  0
VERTEX
  5
1FE
  8
0
 10
-8.7832959033131885
 20
-9.3234656582854125
 30
0.0
  0
VERTEX
  5
1FF
  8
0
 10
-8.7336196955442738
 20
-9.3276542552673192
 30
0.0
  0
VERTEX
  5
200
  8
0
 10
-8.6711651339217628
 20
-9.3304808391648244
 30
0.0
  0
VERTEX
  5
201
  8
0
 10
-8.596837319667987
 20
-9.3319044466843906
 30
0.0
  0
VERTEX
  5
202
  8
0
 10
-8.5117134230293914
 20
-9.3319044466843906
 30
0.0
  0
VERTEX
  5
203
  8
0
 10
-8.4170270727577527
 20
-9.3304808391648244
 30
0.0
  0
VERTEX
  5
204
  8
0
 10
-8.3141504781704132
 20
-9.3276542552673192
 30
0.0
  0
VERTEX
  5
205
  8
0
 10
-8.2045745428794028
 20
-9.3234656582854143
 30
0.0
  0
VERTEX
  5
206
  8
0
 10
-8.0898872583843549
 20
-9.3179757500181388
 30
0.0
  0
VERTEX
  5
207
  8
0
 10
-7.9717506906526827
 20
-9.3112640910701057
 30
0.0
  0
VERTEX
  5
208
  8
0
 10
-7.8518768932010277
 20
-9.3034279478468385
 30
0.0
  0
SEQEND
  5
209
  8
0
  0
LINE
  5
23
  8
0
 10
-8.8494409434608521
 20
-9.3034279478468367
 30
0.0
 11
-8.9745143893039732
 21
-7.5147943412674163
 31
0.0
  0
LINE
  5
24
  8
0
 10
8.8547160646786196
 20
-9.2279901998497564
 30
0.0
 11
9.4737774455212573
 21
-0.375
 31
0.0
  0
POLYLINE
  5
25
  8
0
 66
     1
 10
0.0
 20
0.0
 30
0.0
 70
   128
  0
VERTEX
  5
20A
  8
0
 10
5.775893824831889
 20
-9.3107322060214042
 30
0.0
  0
VERTEX
  5
20B
  8
0
 10
6.1936702668741388
 20
-9.2995097193359673
 30
0.0
  0
VERTEX
  5
20C
  8
0
 10
6.5978252082534432
 20
-9.2886516342262091
 30
0.0
  0
VERTEX
  5
20D
  8
0
 10
6.9807562427162502
 20
-9.2783623897340792
 30
0.0
  0
VERTEX
  5
20E
  8
0
 10
7.3384875548110449
 20
-9.2687490171024383
 30
0.0
  0
VERTEX
  5
20F
  8
0
 10
7.6679904059688537
 20
-9.2598932041654685
 30
0.0
  0
VERTEX
  5
210
  8
0
 10
7.9630604639324529
 20
-9.2519619805715099
 30
0.0
  0
VERTEX
  5
211
  8
0
 10
8.2203067728375139
 20
-9.2450467718126106
 30
0.0
  0
VERTEX
  5
212
  8
0
 10
8.4379125147941281
 20
-9.2391966934338843
 30
0.0
  0
VERTEX
  5
213
  8
0
 10
8.6117780961250645
 20
-9.2345222041605695
 30
0.0
  0
VERTEX
  5
214
  8
0
 10
8.7169740210700404
 20
-9.2316938192070062
 30
0.0
  0
VERTEX
  5
215
  8
0
 10
8.7930131847204898
 20
-9.2296493048673849
 30
0.0
  0
VERTEX
  5
216
  8
0
 10
8.8391692962116188
 20
-9.2284082390966518
 30
0.0
  0
VERTEX
  5
217
  8
0
 10
8.8547160646786196
 20
-9.2279901998497547
 30
0.0
  0
SEQEND
  5
218
  8
0
  0
POLYLINE
  5
26
  8
0
 66
     1
 10
0.0
 20
0.0
 30
0.0
 70
   128
  0
VERTEX
  5
219
  8
0
 10
5.000000000000024
 20
-9.3034279478468385
 30
0.0
  0
VERTEX
  5
21A
  8
0
 10
5.3879469124159547
 20
-9.3052397637024882
 30
0.0
  0
VERTEX
  5
21B
  8
0
 10
5.775893824831889
 20
-9.3107322060214042
 30
0.0
  0
SEQEND
  5
21C
  8
0
  0
LINE
  5
27
  8
0
 10
-7.8518768932010277
 20
-9.3034279478468385
 30
0.0
 11
5.000000000000024
 21
-9.3034279478468402
 31
0.0
  0
LINE
  5
28
  8
0
 10
-7.8518768932010277
 20
-9.3034279478468385
 30
0.0
 11
-7.8518768932010268
 21
-10.22610715661585
 31
0.0
  0
POLYLINE
  5
29
  8
0
 66
     1
 10
0.0
 20
0.0
 30
0.0
 70
   128
  0
VERTEX
  5
21D
  8
0
 10
-7.8518768932010268
 20
-10.22610715661585
 30
0.0
  0
VERTEX
  5
21E
  8
0
 10
-7.9766720520618639
 20
-10.2184797653046
 30
0.0
  0
VERTEX
  5
21F
  8
0
 10
-8.0995159011752644
 20
-10.19545381177732
 30
0.0
  0
VERTEX
  5
220
  8
0
 10
-8.2184876416706985
 20
-10.1573893321762
 30
0.0
  0
VERTEX
  5
221
  8
0
 10
-8.3317270193602813
 20
-10.10488150656076
 30
0.0
  0
VERTEX
  5
222
  8
0
 10
-8.4374634118617351
 20
-10.038751352612101
 30
0.0
  0
VERTEX
  5
223
  8
0
 10
-8.5340435142293352
 20
-9.9600328881172402
 30
0.0
  0
VERTEX
  5
224
  8
0
 10
-8.6199571901975531
 20
-9.8699569629623252
 30
0.0
  0
VERTEX
  5
225
  8
0
 10
-8.6938610848246967
 20
-9.7699320134390142
 30
0.0
  0
VERTEX
  5
226
  8
0
 10
-8.7545996293268828
 20
-9.6615220397919739
 30
0.0
  0
VERTEX
  5
227
  8
0
 10
-8.8012231096686104
 20
-9.5464221513525924
 30
0.0
  0
VERTEX
  5
228
  8
0
 10
-8.8330025163876513
 20
-9.4264320616377315
 30
0.0
  0
VERTEX
  5
229
  8
0
 10
-8.8494409434608521
 20
-9.3034279478468367
 30
0.0
  0
SEQEND
  5
22A
  8
0
  0
ARC
  5
2A
  8
0
 10
7.857152014418797
 20
-9.1582337261056281
 30
0.0
 40
0.999999999999998
 50
272.07623026920902
 51
356.00000000000028
  0
LINE
  5
2B
  8
0
 10
7.8933811385418622
 20
-10.15757723589857
 30
0.0
 11
5.4686385425981276
 21
-10.2454812444943
 31
0.0
  0
LINE
  5
2C
  8
0
 10
-7.8518768932010268
 20
-10.22610715661585
 30
0.0
 11
-7.8502639606509854
 21
-10.249173166708591
 31
0.0
  0
LINE
  5
2D
  8
0
 10
-3.2594306347614062
 20
-10.56189927141159
 30
0.0
 11
5.4686385425981276
 21
-10.245481244494311
 31
0.0
  0
POLYLINE
  5
2E
  8
0
 66
     1
 10
0.0
 20
0.0
 30
0.0
 70
   128
  0
VERTEX
  5
22B
  8
0
 10
-6.2387356384106498
 20
-10.46166421822813
 30
0.0
  0
VERTEX
  5
22C
  8
0
 10
-6.1168849825932332
 20
-10.448723814003211
 30
0.0
  0
VERTEX
  5
22D
  8
0
 10
-5.9862528419524104
 20
-10.43716843517803
 30
0.0
  0
VERTEX
  5
22E
  8
0
 10
-5.8478647725142556
 20
-10.42708879976678
 30
0.0
  0
VERTEX
  5
22F
  8
0
 10
-5.7028072199104001
 20
-10.41856404013906
 30
0.0
  0
VERTEX
  5
230
  8
0
 10
-5.5522189900003411
 20
-10.411661081774049
 30
0.0
  0
VERTEX
  5
231
  8
0
 10
-5.3972823084284149
 20
-10.406434117847439
 30
0.0
  0
VERTEX
  5
232
  8
0
 10
-5.2392135393043029
 20
-10.40292418377615
 30
0.0
  0
VERTEX
  5
233
  8
0
 10
-5.0792536358720879
 20
-10.401158835060819
 30
0.0
  0
VERTEX
  5
234
  8
0
 10
-4.9186583981369667
 20
-10.401151930955439
 30
0.0
  0
VERTEX
  5
235
  8
0
 10
-4.7586886139342299
 20
-10.40290352566217
 30
0.0
  0
VERTEX
  5
236
  8
0
 10
-4.6006001608402123
 20
-10.40639986790589
 30
0.0
  0
VERTEX
  5
237
  8
0
 10
-4.4456341466322806
 20
-10.411613508891531
 30
0.0
  0
VERTEX
  5
238
  8
0
 10
-4.2950071657023532
 20
-10.418503517796831
 30
0.0
  0
VERTEX
  5
239
  8
0
 10
-4.1499017479180749
 20
-10.427015803108651
 30
0.0
  0
VERTEX
  5
23A
  8
0
 10
-4.0114570749149543
 20
-10.43708353728015
 30
0.0
  0
VERTEX
  5
23B
  8
0
 10
-3.8807600367032151
 20
-10.44862768137498
 30
0.0
  0
VERTEX
  5
23C
  8
0
 10
-3.7588366988014221
 20
-10.46155760557965
 30
0.0
  0
VERTEX
  5
23D
  8
0
 10
-3.646644246886019
 20
-10.475771800712581
 30
0.0
  0
VERTEX
  5
23E
  8
0
 10
-3.545063472197028
 20
-10.491158675144
 30
0.0
  0
VERTEX
  5
23F
  8
0
 10
-3.4548918566949012
 20
-10.507597430870311
 30
0.0
  0
VERTEX
  5
240
  8
0
 10
-3.3768373122549651
 20
-10.52495901186507
 30
0.0
  0
VERTEX
  5
241
  8
0
 10
-3.311512623051315
 20
-10.5431071172614
 30
0.0
  0
VERTEX
  5
242
  8
0
 10
-3.2594306347614062
 20
-10.56189927141159
 30
0.0
  0
SEQEND
  5
243
  8
0
  0
LINE
  5
2F
  8
0
 10
-7.8502639606509854
 20
-10.249173166708591
 30
0.0
 11
-6.238735638410648
 21
-10.46166421822813
 31
0.0
  0
LINE
  5
30
  8
0
 10
-7.8502639606509854
 20
-10.249173166708591
 30
0.0
 11
-7.9821340653587614
 21
-10.23178518982564
 31
0.0
  0
ARC
  5
31
  8
0
 10
-7.8514087267042791
 20
-9.2403665669252621
 30
0.0
 40
1.0000000000000031
 50
184.00000000000281
 51
262.48849113895199
  0
LINE
  5
32
  8
0
 10
-8.8489727769641036
 20
-9.3101230406693904
 30
0.0
 11
-8.8494409434608521
 21
-9.3034279478468367
 31
0.0
  0
POLYLINE
  5
33
  8
0
 66
     1
 10
0.0
 20
0.0
 30
0.0
 70
   128
  0
VERTEX
  5
244
  8
0
 10
-3.5583653159251121
 20
-10.57273652763274
 30
0.0
  0
VERTEX
  5
245
  8
0
 10
-3.6635217359564729
 20
-10.566789091026189
 30
0.0
  0
VERTEX
  5
246
  8
0
 10
-3.7795600336276158
 20
-10.56131576336125
 30
0.0
  0
VERTEX
  5
247
  8
0
 10
-3.9055342171523768
 20
-10.55636116544947
 30
0.0
  0
VERTEX
  5
248
  8
0
 10
-4.0404172933287263
 20
-10.55196568920476
 30
0.0
  0
VERTEX
  5
249
  8
0
 10
-4.1831096400084924
 20
-10.5481651683519
 30
0.0
  0
VERTEX
  5
24A
  8
0
 10
-4.3324479706680288
 20
-10.54499058629535
 30
0.0
  0
VERTEX
  5
24B
  8
0
 10
-4.4872148179969846
 20
-10.54246782352984
 30
0.0
  0
VERTEX
  5
24C
  8
0
 10
-4.646148459191064
 20
-10.54061744665192
 30
0.0
  0
VERTEX
  5
24D
  8
0
 10
-4.8079532020337057
 20
-10.5394545406927
 30
0.0
  0
VERTEX
  5
24E
  8
0
 10
-4.9713099479103731
 20
-10.538988586138419
 30
0.0
  0
VERTEX
  5
24F
  8
0
 10
-5.1348869456413668
 20
-10.53922338164168
 30
0.0
  0
VERTEX
  5
250
  8
0
 10
-5.2973506484635511
 20
-10.54015701305325
 30
0.0
  0
VERTEX
  5
251
  8
0
 10
-5.4573765856504171
 20
-10.541781869027011
 30
0.0
  0
VERTEX
  5
252
  8
0
 10
-5.6136601601405562
 20
-10.544084703070769
 30
0.0
  0
SEQEND
  5
253
  8
0
  0
POLYLINE
  5
34
  8
0
 66
     1
 10
0.0
 20
0.0
 30
0.0
 70
   128
  0
VERTEX
  5
254
  8
0
 10
-3.558222735124887
 20
-10.542711651017759
 30
0.0
  0
VERTEX
  5
255
  8
0
 10
-3.6632963527656961
 20
-10.53676700597499
 30
0.0
  0
VERTEX
  5
256
  8
0
 10
-3.7792406141743369
 20
-10.53129580569798
 30
0.0
  0
VERTEX
  5
257
  8
0
 10
-3.905111429397587
 20
-10.52634260008641
 30
0.0
  0
VERTEX
  5
258
  8
0
 10
-4.0398838803358936
 20
-10.521947721206709
 30
0.0
  0
VERTEX
  5
259
  8
0
 10
-4.1824605662610326
 20
-10.51814695488344
 30
0.0
  0
VERTEX
  5
25A
  8
0
 10
-4.3316805395322131
 20
-10.514971249308919
 30
0.0
  0
VERTEX
  5
25B
  8
0
 10
-4.4863287587504441
 20
-10.512446463043879
 30
0.0
  0
VERTEX
  5
25C
  8
0
 10
-4.6451459823778096
 20
-10.51059315446112
 30
0.0
  0
VERTEX
  5
25D
  8
0
 10
-4.8068390222616229
 20
-10.509426414346409
 30
0.0
  0
VERTEX
  5
25E
  8
0
 10
-4.9700912735729199
 20
-10.508955743020071
 30
0.0
  0
VERTEX
  5
25F
  8
0
 10
-5.1335734354180431
 20
-10.50918497297941
 30
0.0
  0
VERTEX
  5
260
  8
0
 10
-5.295954334829438
 20
-10.51011223769218
 30
0.0
  0
VERTEX
  5
261
  8
0
 10
-5.4559117660000416
 20
-10.51172998679507
 30
0.0
  0
VERTEX
  5
262
  8
0
 10
-5.6121432565014864
 20
-10.514025047573391
 30
0.0
  0
SEQEND
  5
263
  8
0
  0
LINE
  5
35
  8
0
 10
-3.3395413115816321
 20
-10.534783810030831
 30
0.0
 11
-3.558222735124887
 21
-10.542711651017759
 31
0.0
  0
LINE
  5
36
  8
0
 10
-3.2594306347614062
 20
-10.56189927141159
 30
0.0
 11
-3.5583653159251121
 21
-10.57273652763274
 31
0.0
  0
LINE
  5
37
  8
0
 10
-5.6121432565014864
 20
-10.514025047573391
 30
0.0
 11
-6.1114037740825999
 21
-10.448194127384831
 31
0.0
  0
LINE
  5
38
  8
0
 10
-5.6136601601405562
 20
-10.544084703070769
 30
0.0
 11
-6.2387356384106543
 21
-10.46166421822813
 31
0.0
  0
ATTDEF
  5
39
  8
0
 62
     7
 10
0.0
 20
0.0
 30
0.0
 40
0.001
  1
K-5931-4U
  3

  2
MODELNUMBER
 70
     8
  0
ATTDEF
  5
3B
  8
0
 62
     7
 10
0.0
 20
-0.0017
 30
0.0
 40
0.001
  1
Executive Chef
  3

  2
TRADENAME
 70
     8
  0
ATTDEF
  5
3C
  8
0
 62
     7
 10
0.0
 20
-0.0034
 30
0.0
 40
0.001
  1
Sinks
  3

  2
PRODUCT
 70
     8
  0
ATTDEF
  5
3D
  8
0
 62
     7
 10
0.0
 20
-0.0051
 30
0.0
 40
0.001
  1
Kohler Cast Iron
  3

  2
MATERIAL
 70
     8
  0
ENDSEC
  0
EOF
