  0
SECTION
  2
HEADER
  9
$ACADVER
  1
AC1009
  9
$INSBASE
 10
81.8646935682161256
 20
-35.1527022776990776
 30
0.0
  9
$EXTMIN
 10
73.7931399900235192
 20
-38.8448957258369632
 30
-0.0015258207003583
  9
$EXTMAX
 10
89.938348252331636
 20
-31.9222790139176915
 30
0.0000000349246037
  9
$LIMMIN
 10
0.0
 20
0.0
  9
$LIMMAX
 10
11.6929133858000007
 20
8.2677165353999982
  9
$ORTHOMODE
 70
     0
  9
$REGENMODE
 70
     1
  9
$FILLMODE
 70
     1
  9
$QTEXTMODE
 70
     0
  9
$MIRRTEXT
 70
     0
  9
$DRAGMODE
 70
     2
  9
$LTSCALE
 40
0.6431102362
  9
$OSMODE
 70
  4095
  9
$ATTMODE
 70
     1
  9
$TEXTSIZE
 40
0.2
  9
$TRACEWID
 40
0.05
  9
$TEXTSTYLE
  7
STANDARD
  9
$CLAYER
  8
0
  9
$CELTYPE
  6
BYLAYER
  9
$CECOLOR
 62
   256
  9
$DIMSCALE
 40
1.0
  9
$DIMASZ
 40
0.1875
  9
$DIMEXO
 40
0.0625
  9
$DIMDLI
 40
0.4443307087
  9
$DIMRND
 40
0.0
  9
$DIMDLE
 40
0.0
  9
$DIMEXE
 40
0.125
  9
$DIMTP
 40
0.01
  9
$DIMTM
 40
0.01
  9
$DIMTXT
 40
1.0
  9
$DIMCEN
 40
0.1052362205
  9
$DIMTSZ
 40
0.0
  9
$DIMTOL
 70
     1
  9
$DIMLIM
 70
     0
  9
$DIMTIH
 70
     1
  9
$DIMTOH
 70
     1
  9
$DIMSE1
 70
     0
  9
$DIMSE2
 70
     0
  9
$DIMTAD
 70
     0
  9
$DIMZIN
 70
     0
  9
$DIMBLK
  1

  9
$DIMASO
 70
     1
  9
$DIMSHO
 70
     1
  9
$DIMPOST
  1
\X
  9
$DIMAPOST
  1

  9
$DIMALT
 70
     1
  9
$DIMALTD
 70
     2
  9
$DIMALTF
 40
25.3999999999999986
  9
$DIMLFAC
 40
1.0
  9
$DIMTOFL
 70
     0
  9
$DIMTVP
 40
0.0
  9
$DIMTIX
 70
     0
  9
$DIMSOXD
 70
     0
  9
$DIMSAH
 70
     0
  9
$DIMBLK1
  1

  9
$DIMBLK2
  1

  9
$DIMSTYLE
  2
STANDARD
  9
$DIMCLRD
 70
     0
  9
$DIMCLRE
 70
     0
  9
$DIMCLRT
 70
     0
  9
$DIMTFAC
 40
1.0
  9
$DIMGAP
 40
0.09
  9
$LUNITS
 70
     2
  9
$LUPREC
 70
     4
  9
$SKETCHINC
 40
0.1
  9
$FILLETRAD
 40
0.0
  9
$AUNITS
 70
     0
  9
$AUPREC
 70
     0
  9
$MENU
  1
.
  9
$ELEVATION
 40
0.0
  9
$PELEVATION
 40
0.0
  9
$THICKNESS
 40
0.0
  9
$LIMCHECK
 70
     0
  9
$BLIPMODE
 70
     0
  9
$CHAMFERA
 40
0.0
  9
$CHAMFERB
 40
0.0
  9
$SKPOLY
 70
     0
  9
$TDCREATE
 40
2458172.4620254631154239
  9
$TDUPDATE
 40
2459062.4810069450177252
  9
$TDINDWG
 40
0.1358855671
  9
$TDUSRTIMER
 40
0.1358855671
  9
$USRTIMER
 70
     1
  9
$ANGBASE
 50
0.0
  9
$ANGDIR
 70
     0
  9
$PDMODE
 70
     0
  9
$PDSIZE
 40
0.3125
  9
$PLINEWID
 40
0.0
  9
$COORDS
 70
     1
  9
$SPLFRAME
 70
     0
  9
$SPLINETYPE
 70
     6
  9
$SPLINESEGS
 70
     8
  9
$ATTDIA
 70
     1
  9
$ATTREQ
 70
     1
  9
$HANDLING
 70
     1
  9
$HANDSEED
  5
12B97
  9
$SURFTAB1
 70
     6
  9
$SURFTAB2
 70
     6
  9
$SURFTYPE
 70
     6
  9
$SURFU
 70
     6
  9
$SURFV
 70
     6
  9
$UCSNAME
  2

  9
$UCSORG
 10
0.0
 20
0.0
 30
0.0
  9
$UCSXDIR
 10
1.0
 20
0.0
 30
0.0
  9
$UCSYDIR
 10
0.0
 20
1.0
 30
0.0
  9
$PUCSNAME
  2

  9
$PUCSORG
 10
0.0
 20
0.0
 30
0.0
  9
$PUCSXDIR
 10
1.0
 20
0.0
 30
0.0
  9
$PUCSYDIR
 10
0.0
 20
1.0
 30
0.0
  9
$USERI1
 70
     0
  9
$USERI2
 70
     0
  9
$USERI3
 70
     0
  9
$USERI4
 70
     0
  9
$USERI5
 70
     0
  9
$USERR1
 40
0.0
  9
$USERR2
 40
0.0
  9
$USERR3
 40
0.0
  9
$USERR4
 40
0.0
  9
$USERR5
 40
0.0
  9
$WORLDVIEW
 70
     1
  9
$SHADEDGE
 70
     3
  9
$SHADEDIF
 70
    70
  9
$TILEMODE
 70
     1
  9
$MAXACTVP
 70
    64
  9
$PLIMCHECK
 70
     0
  9
$PEXTMIN
 10
1.0000000000000000E+20
 20
1.0000000000000000E+20
 30
1.0000000000000000E+20
  9
$PEXTMAX
 10
-1.0000000000000000E+20
 20
-1.0000000000000000E+20
 30
-1.0000000000000000E+20
  9
$PLIMMIN
 10
0.0
 20
0.0
  9
$PLIMMAX
 10
12.0
 20
9.0
  9
$UNITMODE
 70
     0
  9
$VISRETAIN
 70
     1
  9
$PLINEGEN
 70
     0
  9
$PSLTSCALE
 70
     1
  0
ENDSEC
  0
SECTION
  2
TABLES
  0
TABLE
  2
VPORT
 70
     1
  0
VPORT
  2
*ACTIVE
 70
     0
 10
0.0
 20
0.0
 11
1.0
 21
1.0
 12
-42.7454144788950572
 22
-40.6958615402551516
 13
0.0
 23
0.0
 14
1.0
 24
1.0
 15
0.0
 25
0.0
 16
0.0
 26
0.0
 36
30.6214257250603907
 17
124.6111586000725993
 27
5.3122741703778242
 37
0.0
 40
6.9802251727674181
 41
2.6486111111111108
 42
50.0
 43
0.0
 44
0.0
 50
0.0
 51
0.0
 71
     0
 72
   100
 73
     1
 74
     1
 75
     0
 76
     0
 77
     0
 78
     1
  0
ENDTAB
  0
TABLE
  2
LTYPE
 70
     2
  0
LTYPE
  2
CONTINUOUS
 70
     0
  3
Solid line
 72
    65
 73
     0
 40
0.0
  0
LTYPE
  2
PHANTOM2
 70
     0
  3
___ _ _ ___ _ _ ___ _ _ ___ _ _
 72
    65
 73
     6
 40
1.25
 49
0.625
 49
-0.125
 49
0.125
 49
-0.125
 49
0.125
 49
-0.125
  0
ENDTAB
  0
TABLE
  2
LAYER
 70
     2
  0
LAYER
  2
0
 70
     0
 62
   255
  6
CONTINUOUS
  0
LAYER
  2
DEFPOINTS
 70
     0
 62
     7
  6
CONTINUOUS
  0
ENDTAB
  0
TABLE
  2
STYLE
 70
     1
  0
STYLE
  2
STANDARD
 70
     0
 40
0.0
 41
0.8
 50
0.0
 71
     0
 42
0.2
  3
txt
  4

  0
ENDTAB
  0
TABLE
  2
VIEW
 70
     0
  0
ENDTAB
  0
TABLE
  2
UCS
 70
     0
  0
ENDTAB
  0
TABLE
  2
APPID
 70
     9
  0
APPID
  2
ACAD
 70
     0
  0
APPID
  2
ACAD_MLEADERVER
 70
     0
  0
APPID
  2
ACAD_EXEMPT_FROM_CAD_STANDARDS
 70
     0
  0
APPID
  2
ACAD_DSTYLE_DIMJAG
 70
     0
  0
APPID
  2
ACAD_DSTYLE_DIMTALN
 70
     0
  0
APPID
  2
ACAD_NAV_VCDISPLAY
 70
     0
  0
APPID
  2
ACAECLAYERSTANDARD
 70
     0
  0
APPID
  2
ACCMTRANSPARENCY
 70
     0
  0
APPID
  2
ACDBATTR
 70
     0
  0
ENDTAB
  0
TABLE
  2
DIMSTYLE
 70
     1
  0
DIMSTYLE
  2
STANDARD
 70
     0
  3

  4

  5

  6

  7

 40
1.0
 41
0.1875
 42
0.0625
 43
0.38
 44
0.125
 45
0.0
 46
0.0
 47
0.01
 48
0.01
140
0.15625
141
0.09
142
0.0
143
25.3999999999999986
144
1.0
145
0.0
146
1.0
147
0.09
 71
     1
 72
     0
 73
     1
 74
     1
 75
     0
 76
     0
 77
     0
 78
     4
170
     0
171
     2
172
     0
173
     0
174
     0
175
     0
176
     0
177
     0
178
     0
  0
ENDTAB
  0
ENDSEC
  0
SECTION
  2
BLOCKS
  0
BLOCK
  8
0
  2
$MODEL_SPACE
 70
     0
 10
0.0
 20
0.0
 30
0.0
  3
$MODEL_SPACE
  1

  0
ENDBLK
  5
21
  8
0
  0
BLOCK
 67
     1
  8
0
  2
$PAPER_SPACE
 70
     0
 10
0.0
 20
0.0
 30
0.0
  3
$PAPER_SPACE
  1

  0
ENDBLK
  5
1D
 67
     1
  8
0
  0
BLOCK
  8
0
  2
_FILLED
 70
     0
 10
0.0
 20
0.0
 30
0.0
  3
_FILLED
  1

  0
SOLID
  5
FF1B
  8
0
  6
BYBLOCK
 62
     0
 10
0.0
 20
0.0
 30
0.0
 11
-1.0
 21
0.1666666667
 31
0.0
 12
-1.0
 22
-0.1666666667
 32
0.0
 13
-1.0
 23
-0.1666666667
 33
0.0
  0
ENDBLK
  5
FF1C
  8
0
  6
BYBLOCK
 62
     0
  0
ENDSEC
  0
SECTION
  2
ENTITIES
  0
ATTDEF
  5
10E7D
  8
DEFPOINTS
 10
81.8648263953327842
 20
-35.1491671631263216
 30
0.0
 40
0.001
  1
K-5373T
  3

  2
MODELNUMBER
 70
     0
1001
ACDBATTR
1070
     0
1070
     1
  0
ATTDEF
  5
10E7E
  8
DEFPOINTS
 10
81.8648263953327842
 20
-35.1508338297929868
 30
0.0
 40
0.001
  1
FOREFRONT
  3

  2
TRADENAME
 70
     0
1001
ACDBATTR
1070
     0
1070
     1
  0
ATTDEF
  5
10E7F
  8
DEFPOINTS
 10
81.8648263953327842
 20
-35.1525004964596519
 30
0.0
 40
0.001
  1
BATHROOM SINK
  3

  2
PRODUCT
 70
     0
1001
ACDBATTR
1070
     0
1070
     1
  0
LINE
  5
126AC
  8
0
 10
80.7199050045192337
 20
-38.84345810819908
 30
0.0
 11
83.009406807866128
 21
-38.84345810819908
 31
0.0
  0
LINE
  5
126AD
  8
0
 10
73.928815592266119
 20
-35.1527022776990776
 30
0.0
 11
89.8005715441661323
 21
-35.1527022776990776
 31
0.0
  0
LINE
  5
126AE
  8
0
 10
73.8503391102661055
 20
-35.0739621201990772
 30
0.0
 11
89.8790480261661031
 21
-35.0739621201990772
 31
0.0
  0
LINE
  5
126AF
  8
0
 10
73.9832307251200234
 20
-31.9243558209990788
 30
0.0
 11
89.7461564113119721
 21
-31.9243558209990788
 31
0.0
  0
LINE
  5
126B0
  8
0
 10
89.8005715441661323
 20
-35.1527022776990776
 30
0.0
 11
89.8005715441661323
 21
-35.0739621201990772
 31
0.0
  0
LINE
  5
126B1
  8
0
 10
89.8790480261661315
 20
-35.0739621201990772
 30
0.0
 11
89.9355603495661313
 21
-32.2708451080990812
 31
0.0
  0
ARC
  5
126B2
  8
0
 10
88.5248439626385846
 20
-35.4155255843323502
 30
0.0
 40
0.2638517126050106
 50
95.0603566737028558
 51
136.4699274807163079
  0
ARC
  5
126B3
  8
0
 10
84.2925819647203269
 20
-31.72432936579699
 30
0.0
 40
5.352177350095352
 50
307.6513087511518734
 51
319.0265482129045722
  0
ARC
  5
126B4
  8
0
 10
87.752839781881562
 20
-36.1643631529380727
 30
0.0
 40
0.2782561732950724
 50
133.3066313971065995
 51
147.4272304298700078
  0
ARC
  5
126B5
  8
0
 10
82.6024854501727361
 20
-32.7761790512355091
 30
0.0
 40
5.8866657745303881
 50
316.4356668679757831
 51
326.6246765714897151
  0
ARC
  5
126B6
  8
0
 10
82.1754035188002234
 20
-31.9702996655666496
 30
0.0
 40
6.7577251665170408
 50
290.9842175200334964
 51
313.9794425457274087
  0
ARC
  5
126B7
  8
0
 10
82.7617743580849634
 20
-33.2540153089641422
 30
0.0
 40
5.3498809978162543
 50
276.4566420293081137
 51
290.0441845506463778
  0
ARC
  5
126B8
  8
0
 10
83.3967983702027738
 20
-38.8179144017007829
 30
0.0
 40
0.2501936266535246
 50
97.6769874866327541
 51
142.6867276889981895
  0
ARC
  5
126B9
  8
0
 10
83.3101305272473098
 20
-38.7744594320257292
 30
0.0
 40
0.1559618467332748
 50
136.0687204413742961
 51
164.7185204635952971
  0
ARC
  5
126BA
  8
0
 10
83.0094444698837037
 20
-38.6859047425760281
 30
0.0
 40
0.1575533701244691
 50
269.9863038494578973
 51
342.472552133660713
  0
ARC
  5
126BB
  8
0
 10
81.8646935682169214
 20
-100.3164976568425999
 30
0.0
 40
62.8234129493107574
 50
89.6154264544488939
 51
90.3845735455527546
  0
ARC
  5
126BC
  8
0
 10
72.4462036149041637
 20
-39.6340700462876612
 30
0.0
 40
10.0700820804022797
 50
8.086215643685648
 51
12.26702260382792
  0
ARC
  5
126BD
  8
0
 10
83.2802361744176238
 20
-37.9638627493400378
 30
0.0
 40
0.9005518763922109
 50
196.3639081944164957
 51
234.795618111761712
  0
ARC
  5
126BE
  8
0
 10
83.0422312945285199
 20
-37.7417405334741787
 30
0.0
 40
0.9983711552552851
 50
253.6432452941124041
 51
276.7589792767356016
  0
LINE
  5
126BF
  8
0
 10
82.2863658354663556
 20
-37.4944998606990794
 30
0.0
 11
82.3573676006661231
 21
-37.4740684674990803
 31
0.0
  0
LINE
  5
126C0
  8
0
 10
82.3573676006661231
 20
-37.4740684674990803
 30
0.0
 11
82.5679612209661542
 21
-37.473535522899077
 31
0.0
  0
ARC
  5
126C1
  8
0
 10
82.579886269333457
 20
-17.9806861409195697
 30
0.0
 40
19.4928530296444116
 50
269.9649484360484166
 51
273.0240230623772959
  0
ARC
  5
126C2
  8
0
 10
82.8179547636462274
 20
-24.8989938083268889
 30
0.0
 40
12.5722637136001492
 50
273.6038875107141166
 51
277.6912434684887216
  0
ARC
  5
126C3
  8
0
 10
85.5852103305390131
 20
-48.6168121407278093
 30
0.0
 40
11.3107853909824403
 50
95.430243808001805
 51
95.502846242706056
  0
ARC
  5
126C4
  8
0
 10
84.5226663071785111
 20
-37.5139279905842002
 30
0.0
 40
0.1573355277088009
 50
82.4882892429035763
 51
92.8557505285400566
  0
ARC
  5
126C5
  8
0
 10
84.8891624819894162
 20
-34.8403815699344221
 30
0.0
 40
2.5412163045309271
 50
262.176044044641003
 51
280.3477743604454986
  0
LINE
  5
126C6
  8
0
 10
85.3456221985661472
 20
-37.3402665339990705
 30
0.0
 11
85.7558375270661344
 21
-37.2242832108990669
 31
0.0
  0
LINE
  5
126C7
  8
0
 10
85.7558375270661344
 20
-37.2242832108990669
 30
0.0
 11
85.7558375270661344
 21
-37.2242832108990669
 31
0.0
  0
LINE
  5
126C8
  8
0
 10
85.7558375270661344
 20
-37.2242832108990669
 30
0.0
 11
86.0729085122161308
 21
-37.0470124395490785
 31
0.0
  0
LINE
  5
126C9
  8
0
 10
86.0729085122161308
 20
-37.0470124395490785
 30
0.0
 11
86.3729933253661244
 21
-36.8371047857990774
 31
0.0
  0
LINE
  5
126CA
  8
0
 10
86.3729933253661244
 20
-36.8371047857990774
 30
0.0
 11
86.8617000997161313
 21
-36.5363908948990783
 31
0.0
  0
LINE
  5
126CB
  8
0
 10
86.8617000997161313
 20
-36.5363908948990783
 30
0.0
 11
87.3076178710161344
 21
-36.1988907890490808
 31
0.0
  0
LINE
  5
126CC
  8
0
 10
87.3076178710161344
 20
-36.1988907890490808
 30
0.0
 11
87.518350978866124
 21
-36.0145582823990793
 31
0.0
  0
LINE
  5
1270D
  8
0
 10
73.928815592266119
 20
-35.1527022776990776
 30
0.0
 11
73.928815592266119
 21
-35.0739621201990772
 31
0.0
  0
LINE
  5
1270E
  8
0
 10
73.8503391102661197
 20
-35.0739621201990772
 30
0.0
 11
73.79382678686612
 21
-32.2708451080990812
 31
0.0
  0
ARC
  5
1270F
  8
0
 10
75.2045431737936667
 20
-35.4155255843323502
 30
0.0
 40
0.2638517126050106
 50
43.5300725192836566
 51
84.9396433262971442
  0
ARC
  5
12710
  8
0
 10
79.4368051717119386
 20
-31.72432936579699
 30
0.0
 40
5.352177350095352
 50
220.9734517870953994
 51
232.348691248847814
  0
ARC
  5
12711
  8
0
 10
75.9765473545506893
 20
-36.1643631529380727
 30
0.0
 40
0.2782561732950724
 50
32.5727695701299567
 51
46.6933686028931092
  0
ARC
  5
12712
  8
0
 10
81.1269016862595151
 20
-32.7761790512355091
 30
0.0
 40
5.8866657745303881
 50
213.3753234285103133
 51
223.5643331320245011
  0
ARC
  5
12713
  8
0
 10
81.5539836176320136
 20
-31.9702996655666496
 30
0.0
 40
6.7577251665170408
 50
226.020557454272307
 51
249.0157824799663899
  0
ARC
  5
12714
  8
0
 10
80.9676127783472737
 20
-33.2540153089641422
 30
0.0
 40
5.3498809978162543
 50
249.9558154493527979
 51
263.5433579706912042
  0
ARC
  5
12715
  8
0
 10
80.3325887662294775
 20
-38.8179144017007829
 30
0.0
 40
0.2501936266535246
 50
37.3132723110017466
 51
82.3230125133672743
  0
ARC
  5
12716
  8
0
 10
80.4192566091849415
 20
-38.7744594320257292
 30
0.0
 40
0.1559618467332748
 50
15.2814795364046798
 51
43.9312795586253486
  0
ARC
  5
12717
  8
0
 10
80.7199426665485191
 20
-38.6859047425760565
 30
0.0
 40
0.1575533701244374
 50
197.5274478663324089
 51
269.9863038452019168
  0
ARC
  5
12718
  8
0
 10
91.2831835215280734
 20
-39.6340700462876612
 30
0.0
 40
10.0700820804022797
 50
167.7329773961720889
 51
171.9137843563142951
  0
ARC
  5
12719
  8
0
 10
80.4491509620146132
 20
-37.9638627493400378
 30
0.0
 40
0.9005518763922109
 50
305.204381888238288
 51
343.636091805583419
  0
ARC
  5
1271A
  8
0
 10
80.6871558419037314
 20
-37.7417405334741787
 30
0.0
 40
0.9983711552552851
 50
263.2410207232643984
 51
286.3567547058876812
  0
LINE
  5
1271B
  8
0
 10
81.4430213009658956
 20
-37.4944998606990794
 30
0.0
 11
81.372019535766114
 21
-37.4740684674990803
 31
0.0
  0
LINE
  5
1271C
  8
0
 10
81.372019535766114
 20
-37.4740684674990803
 30
0.0
 11
81.1614259154660971
 21
-37.473535522899077
 31
0.0
  0
ARC
  5
1271D
  8
0
 10
81.1495008670987943
 20
-17.9806861409195697
 30
0.0
 40
19.4928530296444116
 50
266.9759769376234999
 51
270.0350515639507876
  0
ARC
  5
1271E
  8
0
 10
80.9114323727860238
 20
-24.8989938083268889
 30
0.0
 40
12.5722637136001492
 50
262.3087565315112784
 51
266.3961124892858834
  0
ARC
  5
1271F
  8
0
 10
78.1441768058932382
 20
-48.6168121407278093
 30
0.0
 40
11.3107853909824403
 50
84.497153757293944
 51
84.569756191998195
  0
ARC
  5
12720
  8
0
 10
79.2067208292537401
 20
-37.5139279905842002
 30
0.0
 40
0.1573355277088009
 50
87.1442494714599576
 51
97.5117107570964521
  0
ARC
  5
12721
  8
0
 10
78.8402246544428351
 20
-34.8403815699344221
 30
0.0
 40
2.5412163045309271
 50
259.6522256395545014
 51
277.8239559553588833
  0
LINE
  5
12722
  8
0
 10
78.3837649378660899
 20
-37.3402665339990705
 30
0.0
 11
77.9735496093661169
 21
-37.2242832108990669
 31
0.0
  0
LINE
  5
12723
  8
0
 10
77.9735496093661169
 20
-37.2242832108990669
 30
0.0
 11
77.9735496093661169
 21
-37.2242832108990669
 31
0.0
  0
LINE
  5
12724
  8
0
 10
77.9735496093661169
 20
-37.2242832108990669
 30
0.0
 11
77.6564786242161205
 21
-37.0470124395490785
 31
0.0
  0
LINE
  5
12725
  8
0
 10
77.6564786242161205
 20
-37.0470124395490785
 30
0.0
 11
77.3563938110661127
 21
-36.8371047857990774
 31
0.0
  0
LINE
  5
12726
  8
0
 10
77.3563938110661127
 20
-36.8371047857990774
 30
0.0
 11
76.86768703671612
 21
-36.5363908948990783
 31
0.0
  0
LINE
  5
12727
  8
0
 10
76.86768703671612
 20
-36.5363908948990783
 30
0.0
 11
76.4217692654161169
 21
-36.1988907890490808
 31
0.0
  0
LINE
  5
12728
  8
0
 10
76.4217692654161169
 20
-36.1988907890490808
 30
0.0
 11
76.2110361575661273
 21
-36.0145582823990793
 31
0.0
  0
ARC
  5
12729
  8
0
 10
73.9823423673389158
 20
-32.1875171074181878
 30
0.0
 40
0.2631627858366552
 50
89.8065864515644989
 51
101.8946677902310967
  0
ARC
  5
1272A
  8
0
 10
73.9674261974092531
 20
-32.0604120771874435
 30
0.0
 40
0.1362075471018753
 50
106.781027817358293
 51
128.695703413737192
  0
ARC
  5
1272B
  8
0
 10
73.9878962110237524
 20
-32.0862017419377565
 30
0.0
 40
0.1691333862667211
 50
128.6459366042874137
 51
146.1010386362682993
  0
ARC
  5
1272C
  8
0
 10
74.0579727445221749
 20
-32.1324258791198503
 30
0.0
 40
0.2530800842782422
 50
146.2632999460163035
 51
162.7008631725742021
  0
ARC
  5
1272D
  8
0
 10
74.3068659635367794
 20
-32.2034652986240033
 30
0.0
 40
0.5118763731859297
 50
163.3931889790054015
 51
178.4434830308271955
  0
ARC
  5
1272E
  8
0
 10
75.5077801882405311
 20
-32.2586933884039695
 30
0.0
 40
1.7139964779352479
 50
177.6884097911280946
 51
180.4062132531103941
  0
ARC
  5
1272F
  8
0
 10
89.7470447690933355
 20
-32.1875171074181878
 30
0.0
 40
0.2631627858366552
 50
78.1053322097680365
 51
90.1934135484354869
  0
ARC
  5
12730
  8
0
 10
89.7619609390229982
 20
-32.0604120771874435
 30
0.0
 40
0.1362075471018753
 50
51.3042965862628293
 51
73.2189721826425455
  0
ARC
  5
12731
  8
0
 10
89.7414909254084989
 20
-32.0862017419377565
 30
0.0
 40
0.1691333862667211
 50
33.8989613637316509
 51
51.3540633957122594
  0
ARC
  5
12732
  8
0
 10
89.6714143919100763
 20
-32.1324258791198503
 30
0.0
 40
0.2530800842782422
 50
17.2991368274258086
 51
33.7367000539837107
  0
ARC
  5
12733
  8
0
 10
89.4225211728954577
 20
-32.2034652986240033
 30
0.0
 40
0.5118763731859297
 50
1.5565169691727381
 51
16.6068110209945488
  0
ARC
  5
12734
  8
0
 10
88.2216069481917344
 20
-32.2586933884039695
 30
0.0
 40
1.7139964779352479
 50
359.5937867468895774
 51
2.3115902088718832
  0
ENDSEC
  0
EOF
