  0
SECTION
  2
HEADER
  9
$ACADVER
  1
AC1009
  9
$INSBASE
 10
41.414878774000002
 20
19.412124858399999
 30
0.0
  9
$EXTMIN
 10
32.486335802437551
 20
10.073137986698869
 30
-0.0015258207003583
  9
$EXTMAX
 10
50.341415142391732
 20
19.42371764084281
 30
0.0000000349246037
  9
$LIMMIN
 10
0.0
 20
0.0
  9
$LIMMAX
 10
22.0
 20
17.0
  9
$ORTHOMODE
 70
     1
  9
$REGENMODE
 70
     1
  9
$FILLMODE
 70
     1
  9
$QTEXTMODE
 70
     0
  9
$MIRRTEXT
 70
     0
  9
$DRAGMODE
 70
     2
  9
$LTSCALE
 40
1.2099999999999991
  9
$OSMODE
 70
    39
  9
$ATTMODE
 70
     1
  9
$TEXTSIZE
 40
0.2
  9
$TRACEWID
 40
0.05
  9
$TEXTSTYLE
  7
STANDARD
  9
$CLAYER
  8
0
  9
$CELTYPE
  6
BYLAYER
  9
$CECOLOR
 62
   256
  9
$DIMSCALE
 40
1.0
  9
$DIMASZ
 40
0.1875
  9
$DIMEXO
 40
0.0625
  9
$DIMDLI
 40
0.8359999999999999
  9
$DIMRND
 40
0.0
  9
$DIMDLE
 40
0.0
  9
$DIMEXE
 40
0.125
  9
$DIMTP
 40
0.0
  9
$DIMTM
 40
0.0
  9
$DIMTXT
 40
0.15625
  9
$DIMCEN
 40
0.198
  9
$DIMTSZ
 40
0.0
  9
$DIMTOL
 70
     0
  9
$DIMLIM
 70
     0
  9
$DIMTIH
 70
     1
  9
$DIMTOH
 70
     1
  9
$DIMSE1
 70
     0
  9
$DIMSE2
 70
     0
  9
$DIMTAD
 70
     0
  9
$DIMZIN
 70
     0
  9
$DIMBLK
  1

  9
$DIMASO
 70
     1
  9
$DIMSHO
 70
     1
  9
$DIMPOST
  1

  9
$DIMAPOST
  1

  9
$DIMALT
 70
     0
  9
$DIMALTD
 70
     2
  9
$DIMALTF
 40
25.399999999999999
  9
$DIMLFAC
 40
1.0
  9
$DIMTOFL
 70
     0
  9
$DIMTVP
 40
0.0
  9
$DIMTIX
 70
     0
  9
$DIMSOXD
 70
     0
  9
$DIMSAH
 70
     0
  9
$DIMBLK1
  1

  9
$DIMBLK2
  1

  9
$DIMSTYLE
  2
STANDARD
  9
$DIMCLRD
 70
     0
  9
$DIMCLRE
 70
     0
  9
$DIMCLRT
 70
     0
  9
$DIMTFAC
 40
1.0
  9
$DIMGAP
 40
0.09
  9
$LUNITS
 70
     2
  9
$LUPREC
 70
     4
  9
$SKETCHINC
 40
0.1
  9
$FILLETRAD
 40
0.0
  9
$AUNITS
 70
     0
  9
$AUPREC
 70
     0
  9
$MENU
  1
.
  9
$ELEVATION
 40
0.0
  9
$PELEVATION
 40
0.0
  9
$THICKNESS
 40
0.0
  9
$LIMCHECK
 70
     0
  9
$BLIPMODE
 70
     0
  9
$CHAMFERA
 40
0.0
  9
$CHAMFERB
 40
0.0
  9
$SKPOLY
 70
     0
  9
$TDCREATE
 40
2457557.7043885989
  9
$TDUPDATE
 40
2457560.6816521408
  9
$TDINDWG
 40
0.1715401852
  9
$TDUSRTIMER
 40
0.1715401852
  9
$USRTIMER
 70
     1
  9
$ANGBASE
 50
0.0
  9
$ANGDIR
 70
     0
  9
$PDMODE
 70
     0
  9
$PDSIZE
 40
0.3125
  9
$PLINEWID
 40
0.0
  9
$COORDS
 70
     1
  9
$SPLFRAME
 70
     0
  9
$SPLINETYPE
 70
     6
  9
$SPLINESEGS
 70
     8
  9
$ATTDIA
 70
     1
  9
$ATTREQ
 70
     1
  9
$HANDLING
 70
     1
  9
$HANDSEED
  5
10F2
  9
$SURFTAB1
 70
     6
  9
$SURFTAB2
 70
     6
  9
$SURFTYPE
 70
     6
  9
$SURFU
 70
     6
  9
$SURFV
 70
     6
  9
$UCSNAME
  2

  9
$UCSORG
 10
0.0
 20
0.0
 30
0.0
  9
$UCSXDIR
 10
1.0
 20
0.0
 30
0.0
  9
$UCSYDIR
 10
0.0
 20
1.0
 30
0.0
  9
$PUCSNAME
  2

  9
$PUCSORG
 10
0.0
 20
0.0
 30
0.0
  9
$PUCSXDIR
 10
1.0
 20
0.0
 30
0.0
  9
$PUCSYDIR
 10
0.0
 20
1.0
 30
0.0
  9
$USERI1
 70
     0
  9
$USERI2
 70
     0
  9
$USERI3
 70
     0
  9
$USERI4
 70
     0
  9
$USERI5
 70
     0
  9
$USERR1
 40
0.0
  9
$USERR2
 40
0.0
  9
$USERR3
 40
0.0
  9
$USERR4
 40
0.0
  9
$USERR5
 40
0.0
  9
$WORLDVIEW
 70
     1
  9
$SHADEDGE
 70
     3
  9
$SHADEDIF
 70
    70
  9
$TILEMODE
 70
     1
  9
$MAXACTVP
 70
    48
  9
$PLIMCHECK
 70
     0
  9
$PEXTMIN
 10
1.0000000000000000E+020
 20
1.0000000000000000E+020
 30
1.0000000000000000E+020
  9
$PEXTMAX
 10
-1.0000000000000000E+020
 20
-1.0000000000000000E+020
 30
-1.0000000000000000E+020
  9
$PLIMMIN
 10
0.0
 20
0.0
  9
$PLIMMAX
 10
12.0
 20
9.0
  9
$UNITMODE
 70
     0
  9
$VISRETAIN
 70
     1
  9
$PLINEGEN
 70
     0
  9
$PSLTSCALE
 70
     1
  0
ENDSEC
  0
SECTION
  2
TABLES
  0
TABLE
  2
VPORT
 70
     1
  0
VPORT
  2
*ACTIVE
 70
     0
 10
0.0
 20
0.0
 11
1.0
 21
1.0
 12
-0.0010033015853566
 22
-0.0001881853737231
 13
0.0
 23
0.0
 14
1.0
 24
1.0
 15
0.0
 25
0.0
 16
-0.0000000000000142
 26
0.0
 36
55.272505957593019
 17
41.414878774000002
 27
14.74861599914456
 37
0.0
 40
9.9644454116481551
 41
1.798301486199575
 42
50.0
 43
0.0
 44
0.0
 50
0.0
 51
0.0
 71
     0
 72
   100
 73
     1
 74
     1
 75
     0
 76
     0
 77
     0
 78
     0
  0
ENDTAB
  0
TABLE
  2
LTYPE
 70
     1
  0
LTYPE
  2
CONTINUOUS
 70
     0
  3
Solid line
 72
    65
 73
     0
 40
0.0
  0
ENDTAB
  0
TABLE
  2
LAYER
 70
     2
  0
LAYER
  2
0
 70
     0
 62
     7
  6
CONTINUOUS
  0
LAYER
  2
DEFPOINTS
 70
     0
 62
     7
  6
CONTINUOUS
  0
ENDTAB
  0
TABLE
  2
STYLE
 70
     1
  0
STYLE
  2
STANDARD
 70
     0
 40
0.0
 41
0.8
 50
0.0
 71
     0
 42
0.2
  3
txt
  4

  0
ENDTAB
  0
TABLE
  2
VIEW
 70
     3
  0
ENDTAB
  0
TABLE
  2
UCS
 70
     0
  0
ENDTAB
  0
TABLE
  2
APPID
 70
     5
  0
APPID
  2
ACAD
 70
     0
  0
APPID
  2
ACAD_MLEADERVER
 70
     0
  0
APPID
  2
ACAD_NAV_VCDISPLAY
 70
     0
  0
APPID
  2
ACAD_EXEMPT_FROM_CAD_STANDARDS
 70
     0
  0
APPID
  2
ACDBATTR
 70
     0
  0
ENDTAB
  0
TABLE
  2
DIMSTYLE
 70
     1
  0
DIMSTYLE
  2
STANDARD
 70
     0
  3

  4

  5

  6

  7

 40
1.0
 41
0.1875
 42
0.0625
 43
0.38
 44
0.125
 45
0.0
 46
0.0
 47
1.5
 48
1.5
140
0.15625
141
0.09
142
0.0
143
25.399999999999999
144
1.0
145
0.0
146
1.0
147
0.09
 71
     0
 72
     0
 73
     1
 74
     1
 75
     0
 76
     0
 77
     0
 78
     4
170
     0
171
     2
172
     0
173
     0
174
     0
175
     0
176
     0
177
     0
178
     0
  0
ENDTAB
  0
ENDSEC
  0
SECTION
  2
BLOCKS
  0
BLOCK
  8
0
  2
$MODEL_SPACE
 70
     0
 10
0.0
 20
0.0
 30
0.0
  3
$MODEL_SPACE
  1

  0
ENDBLK
  5
21
  8
0
  0
BLOCK
 67
     1
  8
0
  2
$PAPER_SPACE
 70
     0
 10
0.0
 20
0.0
 30
0.0
  3
$PAPER_SPACE
  1

  0
ENDBLK
  5
1D
 67
     1
  8
0
  0
ENDSEC
  0
SECTION
  2
ENTITIES
  0
LINE
  5
6D2
  8
0
 10
32.489878773999997
 20
19.372124858399999
 30
0.0
 11
32.489878773999997
 21
19.412124858399999
 31
0.0
  0
LINE
  5
6DC
  8
0
 10
36.489878773999997
 20
10.4609674329
 30
0.0
 11
36.489878773999997
 21
10.572052424000001
 31
0.0
  0
LINE
  5
703
  8
0
 10
38.489878773999997
 20
10.3280478399
 30
0.0
 11
38.489878773999997
 21
10.5020263086
 31
0.0
  0
LINE
  5
8C0
  8
0
 10
39.414878774000002
 20
10.375405925700001
 30
0.0
 11
39.414878774000002
 21
10.648188512799999
 31
0.0
  0
LINE
  5
9B4
  8
0
 10
43.414878773999988
 20
10.6479069304
 30
0.0
 11
39.414878774000002
 21
10.6479069304
 31
0.0
  0
LINE
  5
9B7
  8
0
 10
37.146994219099277
 20
10.682439029922961
 30
0.0
 11
45.682737098999993
 21
10.6848889935
 31
0.0
  0
LINE
  5
9B8
  8
0
 10
43.414878773999988
 20
10.504957804872459
 30
0.0
 11
39.414879119699997
 21
10.509478078400001
 31
0.0
  0
LINE
  5
9B9
  8
0
 10
39.414879190599997
 20
10.5785151567
 30
0.0
 11
43.41487877399998
 21
10.57399694724122
 31
0.0
  0
LINE
  5
9C2
  8
0
 10
39.02056191070001
 20
10.3082074803
 30
0.0
 11
38.489878773999997
 21
10.336085308319539
 31
0.0
  0
LINE
  5
A68
  8
0
 10
43.414878773999988
 20
10.6479069304
 30
0.0
 11
43.414878773999988
 21
10.375405925700001
 31
0.0
  0
LINE
  5
ACC
  8
0
 10
32.489878773999997
 20
19.372124858399999
 30
0.0
 11
50.339878773999999
 21
19.372124858399999
 31
0.0
  0
LINE
  5
ACD
  8
0
 10
32.489878773999997
 20
19.412124858399999
 30
0.0
 11
50.339878773999999
 21
19.412124858399999
 31
0.0
  0
LINE
  5
D23
  8
0
 10
34.045650959424997
 20
14.91212485839999
 30
0.0
 11
33.851649661899998
 21
17.912124858399999
 31
0.0
  0
LINE
  5
D24
  8
0
 10
33.842505404100002
 20
19.1382579355
 30
0.0
 11
34.281379598057732
 21
12.351681718450241
 31
0.0
  0
LINE
  5
D28
  8
0
 10
33.851649661899998
 20
17.912124858399999
 30
0.0
 11
33.921796956819207
 21
17.912124858399999
 31
0.0
  0
ARC
  5
D29
  8
0
 10
36.067347460199997
 20
12.471759968300001
 30
0.0
 40
1.7899999973999989
 50
183.84645112749999
 51
268.04471332840012
  0
ARC
  5
D2A
  8
0
 10
33.593026499499999
 20
19.122124858399999
 30
0.0
 40
0.25
 50
3.6999999958000118
 51
90.0
  0
ARC
  5
D2B
  8
0
 10
36.078086491548177
 20
12.365458321578391
 30
0.0
 40
1.7967597101197561
 50
180.4393180375356
 51
263.74328535901731
  0
LINE
  5
D2D
  8
0
 10
34.045650959424997
 20
14.9121248584
 30
0.0
 11
34.115800905167347
 21
14.9121248584
 31
0.0
  0
ARC
  5
D2E
  8
0
 10
36.561316878974608
 20
-37.430193340961523
 30
0.0
 40
48.116196977760161
 50
89.302570224890147
 51
90.660948995826047
  0
ARC
  5
D2F
  8
0
 10
22.07006089695275
 20
-120.3823496485322
 30
0.0
 40
131.68810580155289
 50
83.713519431818781
 51
83.97941455017768
  0
ARC
  5
D30
  8
0
 10
40.05421767915324
 20
48.979321918118032
 30
0.0
 40
38.682917988172832
 50
264.71312719519608
 51
267.68232414292891
  0
LINE
  5
D40
  8
0
 10
39.046671149600002
 20
10.2966232696
 30
0.0
 11
39.1266711496
 21
10.217055097299999
 31
0.0
  0
LINE
  5
D41
  8
0
 10
43.287230241300001
 20
10.0741071494
 30
0.0
 11
39.5425273066
 21
10.0741071494
 31
0.0
  0
LINE
  5
D42
  8
0
 10
39.5425273066
 20
10.0741071494
 30
0.0
 11
39.154419424300002
 21
10.200107149400001
 31
0.0
  0
ARC
  5
D43
  8
0
 10
39.176034492100001
 20
10.2666863417
 30
0.0
 40
0.07
 50
225.1550550272998
 51
252.01387434739991
  0
ARC
  5
D44
  8
0
 10
39.018463525400001
 20
10.2682625585
 30
0.0
 40
0.04
 50
45.155055027799932
 51
86.992904216600095
  0
LINE
  5
D45
  8
0
 10
43.783086398199998
 20
10.2966232696
 30
0.0
 11
43.7030863982
 21
10.217055097299999
 31
0.0
  0
LINE
  5
D46
  8
0
 10
43.2872302412
 20
10.0741071494
 30
0.0
 11
43.675338123499998
 21
10.200107149400001
 31
0.0
  0
ARC
  5
D47
  8
0
 10
43.653723055699999
 20
10.2666863417
 30
0.0
 40
0.07
 50
287.98612565260009
 51
314.8449449727002
  0
ARC
  5
D48
  8
0
 10
43.811294022399998
 20
10.2682625585
 30
0.0
 40
0.04
 50
93.007095783399905
 51
134.84494497220001
  0
ARC
  5
D49
  8
0
 10
41.38741132660126
 20
252.0634573072758
 30
0.0
 40
241.76683559798209
 50
269.43907671126902
 51
270.57697766958609
  0
ARC
  5
D4A
  8
0
 10
38.892271823451267
 20
50.590469188602221
 30
0.0
 40
40.090462365872618
 50
266.56453211872548
 51
269.42490534627188
  0
ARC
  5
D4B
  8
0
 10
41.414879765314247
 20
1042.3195866390599
 30
0.0
 40
1031.95154670906
 50
269.83759865150239
 51
270.16240134841269
  0
ARC
  5
D4C
  8
0
 10
41.539775997183142
 20
745.14601650767065
 30
0.0
 40
734.70813508116612
 50
269.83429091539398
 51
270.14622894012888
  0
LINE
  5
D4D
  8
0
 10
50.339878774000013
 20
19.372124858399999
 30
0.0
 11
50.339878774000013
 21
19.412124858399999
 31
0.0
  0
LINE
  5
D4E
  8
0
 10
46.339878773999999
 20
10.4609674329
 30
0.0
 11
46.339878773999999
 21
10.572052424000001
 31
0.0
  0
LINE
  5
D4F
  8
0
 10
44.339878773999999
 20
10.3280478399
 30
0.0
 11
44.339878773999999
 21
10.5020263086
 31
0.0
  0
LINE
  5
D50
  8
0
 10
43.414878774000002
 20
10.375405925700001
 30
0.0
 11
43.414878774000002
 21
10.648188512799999
 31
0.0
  0
LINE
  5
D51
  8
0
 10
43.8091956373
 20
10.3082074803
 30
0.0
 11
44.339878773999999
 21
10.336085308319539
 31
0.0
  0
LINE
  5
D52
  8
0
 10
48.784106588575
 20
14.91212485839999
 30
0.0
 11
48.978107886100013
 21
17.912124858399999
 31
0.0
  0
LINE
  5
D53
  8
0
 10
48.987252143900008
 20
19.1382579355
 30
0.0
 11
48.548377949942271
 21
12.351681718450241
 31
0.0
  0
LINE
  5
D54
  8
0
 10
48.978107886100013
 20
17.912124858399999
 30
0.0
 11
48.907960591180789
 21
17.912124858399999
 31
0.0
  0
ARC
  5
D55
  8
0
 10
46.762410087799999
 20
12.471759968300001
 30
0.0
 40
1.7899999973999989
 50
271.95528667159999
 51
356.15354887249998
  0
ARC
  5
D56
  8
0
 10
49.236731048499998
 20
19.122124858399999
 30
0.0
 40
0.25
 50
90.0
 51
176.3000000042
  0
ARC
  5
D57
  8
0
 10
46.751671056451819
 20
12.365458321578391
 30
0.0
 40
1.7967597101197561
 50
276.25671464098258
 51
359.5606819624644
  0
LINE
  5
D58
  8
0
 10
48.784106588575
 20
14.9121248584
 30
0.0
 11
48.713956642832663
 21
14.9121248584
 31
0.0
  0
ARC
  5
D59
  8
0
 10
46.268440669025388
 20
-37.430193340961523
 30
0.0
 40
48.116196977760161
 50
89.339051004173683
 51
90.69742977510991
  0
ARC
  5
D5A
  8
0
 10
60.759696651047257
 20
-120.3823496485322
 30
0.0
 40
131.68810580155289
 50
96.020585449822093
 51
96.286480568181574
  0
ARC
  5
D5B
  8
0
 10
42.775539868846757
 20
48.979321918118032
 30
0.0
 40
38.682917988172832
 50
272.31767585707132
 51
275.28687280480369
  0
LINE
  5
D5C
  8
0
 10
43.783086398400002
 20
10.2966232696
 30
0.0
 11
43.703086398400004
 21
10.217055097299999
 31
0.0
  0
LINE
  5
D5D
  8
0
 10
43.287230241400003
 20
10.0741071494
 30
0.0
 11
43.675338123700008
 21
10.200107149400001
 31
0.0
  0
ARC
  5
D5E
  8
0
 10
43.653723055900002
 20
10.2666863417
 30
0.0
 40
0.07
 50
287.98612565260009
 51
314.84494497270032
  0
ARC
  5
D5F
  8
0
 10
43.811294022600002
 20
10.2682625585
 30
0.0
 40
0.04
 50
93.007095783399492
 51
134.84494497219981
  0
ARC
  5
D60
  8
0
 10
43.937485724548729
 20
50.590469188602221
 30
0.0
 40
40.090462365872618
 50
270.57509465372812
 51
273.43546788127458
  0
LINE
  5
D61
  8
0
 10
37.914878774000002
 20
17.912124858399999
 30
0.0
 11
39.914878774000002
 21
17.912124858399999
 31
0.0
  0
LINE
  5
D62
  8
0
 10
39.914878774000002
 20
17.912124858399999
 30
0.0
 11
39.914878774000002
 21
13.9121248584
 31
0.0
  0
LINE
  5
D63
  8
0
 10
39.914878774000002
 20
13.9121248584
 30
0.0
 11
37.914878774000002
 21
13.9121248584
 31
0.0
  0
LINE
  5
D64
  8
0
 10
37.914878774000002
 20
13.9121248584
 30
0.0
 11
37.914878774000002
 21
17.912124858399999
 31
0.0
  0
LINE
  5
D6E
  8
0
 10
42.914878774000002
 20
17.912124858399999
 30
0.0
 11
44.914878773999988
 21
17.912124858399999
 31
0.0
  0
LINE
  5
D6F
  8
0
 10
44.914878773999988
 20
17.912124858399999
 30
0.0
 11
44.914878773999988
 21
13.9121248584
 31
0.0
  0
LINE
  5
D70
  8
0
 10
44.914878773999988
 20
13.9121248584
 30
0.0
 11
42.914878774000002
 21
13.9121248584
 31
0.0
  0
LINE
  5
D71
  8
0
 10
42.914878774000002
 20
13.9121248584
 30
0.0
 11
42.914878774000002
 21
17.912124858399999
 31
0.0
  0
ATTDEF
  5
F91
  8
DEFPOINTS
 10
41.409878750233872
 20
19.41712484888912
 30
0.0
 40
0.001
  1
STAINLESS STEEL
  3

  2
MATERIAL
 70
     0
1001
ACDBATTR
1070
     0
1070
     1
  0
ATTDEF
  5
F92
  8
DEFPOINTS
 10
41.409878750233872
 20
19.418791515555789
 30
0.0
 40
0.001
  1
KITCHEN SINK
  3

  2
PRODUCT
 70
     0
1001
ACDBATTR
1070
     0
1070
     1
  0
ATTDEF
  5
F93
  8
DEFPOINTS
 10
41.409878750233872
 20
19.42045818222245
 30
0.0
 40
0.001
  1
UNDERTONE
  3

  2
TRADENAME
 70
     0
1001
ACDBATTR
1070
     0
1070
     1
  0
ATTDEF
  5
F94
  8
DEFPOINTS
 10
41.409878750233872
 20
19.422124848889119
 30
0.0
 40
0.001
  1
K-5290
  3

  2
MODELNUMBER
 70
     0
1001
ACDBATTR
1070
     0
1070
     1
  0
ENDSEC
  0
EOF
