  0
SECTION
  2
HEADER
  9
$ACADVER
  1
AC1009
  9
$INSBASE
 10
47.335254620000008
 20
4.9400471138999986
 30
0.0
  9
$EXTMIN
 10
29.121502891399999
 20
4.9294807833098186
 30
0.0
  9
$EXTMAX
 10
47.34211783656221
 20
12.4167036441
 30
0.0
  9
$LIMMIN
 10
0.0
 20
0.0
  9
$LIMMAX
 10
11.692913385800001
 20
8.2677165353999982
  9
$ORTHOMODE
 70
     0
  9
$REGENMODE
 70
     1
  9
$FILLMODE
 70
     1
  9
$QTEXTMODE
 70
     0
  9
$MIRRTEXT
 70
     0
  9
$DRAGMODE
 70
     2
  9
$LTSCALE
 40
0.6431102362
  9
$OSMODE
 70
    39
  9
$ATTMODE
 70
     1
  9
$TEXTSIZE
 40
0.2
  9
$TRACEWID
 40
0.05
  9
$TEXTSTYLE
  7
STANDARD
  9
$CLAYER
  8
0
  9
$CELTYPE
  6
BYLAYER
  9
$CECOLOR
 62
   256
  9
$DIMSCALE
 40
1.0
  9
$DIMASZ
 40
0.1875
  9
$DIMEXO
 40
0.0625
  9
$DIMDLI
 40
0.4443307087
  9
$DIMRND
 40
0.0
  9
$DIMDLE
 40
0.0
  9
$DIMEXE
 40
0.125
  9
$DIMTP
 40
0.0
  9
$DIMTM
 40
0.0
  9
$DIMTXT
 40
0.15625
  9
$DIMCEN
 40
0.1052362205
  9
$DIMTSZ
 40
0.0
  9
$DIMTOL
 70
     0
  9
$DIMLIM
 70
     0
  9
$DIMTIH
 70
     1
  9
$DIMTOH
 70
     1
  9
$DIMSE1
 70
     0
  9
$DIMSE2
 70
     0
  9
$DIMTAD
 70
     0
  9
$DIMZIN
 70
     0
  9
$DIMBLK
  1

  9
$DIMASO
 70
     1
  9
$DIMSHO
 70
     1
  9
$DIMPOST
  1

  9
$DIMAPOST
  1

  9
$DIMALT
 70
     0
  9
$DIMALTD
 70
     2
  9
$DIMALTF
 40
25.399999999999999
  9
$DIMLFAC
 40
1.0
  9
$DIMTOFL
 70
     0
  9
$DIMTVP
 40
0.0
  9
$DIMTIX
 70
     0
  9
$DIMSOXD
 70
     0
  9
$DIMSAH
 70
     0
  9
$DIMBLK1
  1

  9
$DIMBLK2
  1

  9
$DIMSTYLE
  2
STANDARD
  9
$DIMCLRD
 70
     0
  9
$DIMCLRE
 70
     0
  9
$DIMCLRT
 70
     0
  9
$DIMTFAC
 40
1.0
  9
$DIMGAP
 40
0.09
  9
$LUNITS
 70
     2
  9
$LUPREC
 70
     4
  9
$SKETCHINC
 40
0.1
  9
$FILLETRAD
 40
0.0
  9
$AUNITS
 70
     0
  9
$AUPREC
 70
     0
  9
$MENU
  1
.
  9
$ELEVATION
 40
0.0
  9
$PELEVATION
 40
0.0
  9
$THICKNESS
 40
0.0
  9
$LIMCHECK
 70
     0
  9
$BLIPMODE
 70
     0
  9
$CHAMFERA
 40
0.0
  9
$CHAMFERB
 40
0.0
  9
$SKPOLY
 70
     0
  9
$TDCREATE
 40
2457469.5253887149
  9
$TDUPDATE
 40
2457473.5841004751
  9
$TDINDWG
 40
0.0664381597
  9
$TDUSRTIMER
 40
0.0664381597
  9
$USRTIMER
 70
     1
  9
$ANGBASE
 50
0.0
  9
$ANGDIR
 70
     0
  9
$PDMODE
 70
     0
  9
$PDSIZE
 40
0.3125
  9
$PLINEWID
 40
0.0
  9
$COORDS
 70
     1
  9
$SPLFRAME
 70
     0
  9
$SPLINETYPE
 70
     6
  9
$SPLINESEGS
 70
     8
  9
$ATTDIA
 70
     1
  9
$ATTREQ
 70
     1
  9
$HANDLING
 70
     1
  9
$HANDSEED
  5
68E
  9
$SURFTAB1
 70
     6
  9
$SURFTAB2
 70
     6
  9
$SURFTYPE
 70
     6
  9
$SURFU
 70
     6
  9
$SURFV
 70
     6
  9
$UCSNAME
  2

  9
$UCSORG
 10
0.0
 20
0.0
 30
0.0
  9
$UCSXDIR
 10
1.0
 20
0.0
 30
0.0
  9
$UCSYDIR
 10
0.0
 20
1.0
 30
0.0
  9
$PUCSNAME
  2

  9
$PUCSORG
 10
0.0
 20
0.0
 30
0.0
  9
$PUCSXDIR
 10
1.0
 20
0.0
 30
0.0
  9
$PUCSYDIR
 10
0.0
 20
1.0
 30
0.0
  9
$USERI1
 70
     0
  9
$USERI2
 70
     0
  9
$USERI3
 70
     0
  9
$USERI4
 70
     0
  9
$USERI5
 70
     0
  9
$USERR1
 40
0.0
  9
$USERR2
 40
0.0
  9
$USERR3
 40
0.0
  9
$USERR4
 40
0.0
  9
$USERR5
 40
0.0
  9
$WORLDVIEW
 70
     1
  9
$SHADEDGE
 70
     3
  9
$SHADEDIF
 70
    70
  9
$TILEMODE
 70
     1
  9
$MAXACTVP
 70
    48
  9
$PLIMCHECK
 70
     0
  9
$PEXTMIN
 10
1.0000000000000000E+020
 20
1.0000000000000000E+020
 30
1.0000000000000000E+020
  9
$PEXTMAX
 10
-1.0000000000000000E+020
 20
-1.0000000000000000E+020
 30
-1.0000000000000000E+020
  9
$PLIMMIN
 10
0.0
 20
0.0
  9
$PLIMMAX
 10
12.0
 20
9.0
  9
$UNITMODE
 70
     0
  9
$VISRETAIN
 70
     1
  9
$PLINEGEN
 70
     0
  9
$PSLTSCALE
 70
     1
  0
ENDSEC
  0
SECTION
  2
TABLES
  0
TABLE
  2
VPORT
 70
     1
  0
VPORT
  2
*ACTIVE
 70
     0
 10
0.0
 20
0.0
 11
1.0
 21
1.0
 12
46.630860567249172
 22
6.3980024165571718
 13
0.0
 23
0.0
 14
1.0
 24
1.0
 15
0.0
 25
0.0
 16
0.0
 26
0.0
 36
1.0
 17
0.0
 27
0.0
 37
0.0
 40
32.435719154868529
 41
2.0530877573131092
 42
50.0
 43
0.0
 44
0.0
 50
0.0
 51
0.0
 71
     0
 72
   100
 73
     1
 74
     1
 75
     0
 76
     0
 77
     0
 78
     0
  0
ENDTAB
  0
TABLE
  2
LTYPE
 70
     7
  0
LTYPE
  2
CONTINUOUS
 70
     0
  3
Solid line
 72
    65
 73
     0
 40
0.0
  0
ENDTAB
  0
TABLE
  2
LAYER
 70
    34
  0
LAYER
  2
0
 70
     0
 62
     7
  6
CONTINUOUS
  0
LAYER
  2
DEFPOINTS
 70
     0
 62
     7
  6
CONTINUOUS
  0
ENDTAB
  0
TABLE
  2
STYLE
 70
     2
  0
STYLE
  2
STANDARD
 70
     0
 40
0.0
 41
0.8
 50
0.0
 71
     0
 42
0.2
  3
txt
  4

  0
ENDTAB
  0
TABLE
  2
VIEW
 70
     8
  0
ENDTAB
  0
TABLE
  2
UCS
 70
     0
  0
ENDTAB
  0
TABLE
  2
APPID
 70
     5
  0
APPID
  2
ACAD
 70
     0
  0
APPID
  2
ACAD_MLEADERVER
 70
     0
  0
APPID
  2
ACAD_NAV_VCDISPLAY
 70
     0
  0
APPID
  2
ACAD_EXEMPT_FROM_CAD_STANDARDS
 70
     0
  0
APPID
  2
AcDbAttr
 70
     0
  0
ENDTAB
  0
TABLE
  2
DIMSTYLE
 70
     2
  0
DIMSTYLE
  2
STANDARD
 70
     0
  3

  4

  5

  6

  7

 40
1.0
 41
0.1875
 42
0.0625
 43
0.38
 44
0.125
 45
0.0
 46
0.0
 47
1.5
 48
1.5
140
0.15625
141
0.09
142
0.0
143
25.399999999999999
144
1.0
145
0.0
146
1.0
147
0.09
 71
     0
 72
     0
 73
     1
 74
     1
 75
     0
 76
     0
 77
     0
 78
     4
170
     0
171
     2
172
     0
173
     0
174
     0
175
     0
176
     0
177
     0
178
     0
  0
ENDTAB
  0
ENDSEC
  0
SECTION
  2
BLOCKS
  0
BLOCK
  8
0
  2
$MODEL_SPACE
 70
     0
 10
0.0
 20
0.0
 30
0.0
  3
$MODEL_SPACE
  1

  0
ENDBLK
  5
21
  8
0
  0
BLOCK
 67
     1
  8
0
  2
$PAPER_SPACE
 70
     0
 10
0.0
 20
0.0
 30
0.0
  3
$PAPER_SPACE
  1

  0
ENDBLK
  5
1D
 67
     1
  8
0
  0
ENDSEC
  0
SECTION
  2
ENTITIES
  0
LINE
  5
392
  8
0
 10
29.121502891399999
 20
11.7213766324
 30
0.0
 11
30.197762235100001
 21
8.2010909399000003
 31
0.0
  0
LINE
  5
396
  8
0
 10
32.242977419699997
 20
8.0896534130999989
 30
0.0
 11
32.897036137999997
 21
5.9503237419000001
 31
0.0
  0
LINE
  5
399
  8
0
 10
35.626620068000001
 20
5.1197408652999989
 30
0.0
 11
35.573452522800011
 21
5.7274486887
 31
0.0
  0
LINE
  5
3AD
  8
0
 10
35.822721386600001
 20
4.9400471138999986
 30
0.0
 11
38.174672806399997
 21
4.9400471138999986
 31
0.0
  0
LINE
  5
3C5
  8
0
 10
33.198234486200001
 20
5.7274486887
 30
0.0
 11
47.109234849300002
 21
5.7274486887
 31
0.0
  0
LINE
  5
3CF
  8
0
 10
47.150467285999987
 20
8.0896534130999989
 30
0.0
 11
30.348361409199999
 21
8.0896534130999989
 31
0.0
  0
LINE
  5
3D9
  8
0
 10
41.466548842600012
 20
12.236965018999999
 30
0.0
 11
47.218184847099991
 21
12.4167036441
 31
0.0
  0
LINE
  5
3DC
  8
0
 10
47.215410214199999
 20
12.0266612871
 30
0.0
 11
29.346680705299999
 21
12.026660186899999
 31
0.0
  0
LINE
  5
3E2
  8
0
 10
47.335254620000001
 20
12.0266612871
 30
0.0
 11
47.335254620000001
 21
12.3317391852
 31
0.0
  0
LINE
  5
3EA
  8
0
 10
47.227327097600003
 20
5.8434976706999997
 30
0.0
 11
47.336253863299987
 21
12.0835855619
 31
0.0
  0
ARC
  5
3F9
  8
0
 10
33.198234486200001
 20
6.042409318599999
 30
0.0
 40
0.3149606299
 50
197.00000007680001
 51
270.0
  0
ARC
  5
3FA
  8
0
 10
35.822721386600001
 20
5.1368975075999987
 30
0.0
 40
0.1968503937
 50
185.0
 51
270.0
  0
ARC
  5
3FB
  8
0
 10
47.150467286099989
 20
8.2077636493000004
 30
0.0
 40
0.1181102362
 50
269.99999994659998
 51
359.0
  0
ARC
  5
3FC
  8
0
 10
47.109222201400001
 20
5.8455596361999991
 30
0.0
 40
0.1181078757
 50
270.00613707970001
 51
358.99976093840002
  0
ARC
  5
3FD
  8
0
 10
47.215064800199997
 20
11.9085510951
 30
0.0
 40
0.1181102279
 50
358.99997830950002
 51
90.000021418399996
  0
ARC
  5
522
  8
0
 10
29.34740163237225
 20
11.79044081637625
 30
0.0
 40
0.236220453562255
 50
90.173500578059446
 51
197.00000886170011
  0
ARC
  5
523
  8
0
 10
30.3483614073266
 20
8.247133718576352
 30
0.0
 40
0.1574803054763497
 50
196.99999745249451
 51
270.00000068159551
  0
ARC
  5
524
  8
0
 10
38.174648477601707
 20
5.1369185609745891
 30
0.0
 40
0.1968818142316001
 50
270.58798544084368
 51
330.5089993599679
  0
ARC
  5
525
  8
0
 10
38.518613445617291
 20
4.9412804934156043
 30
0.0
 40
0.1988290221772188
 50
90.342421523484788
 51
150.23224194529959
  0
ARC
  5
526
  8
0
 10
38.426054245965332
 20
8.5099153293486562
 30
0.0
 40
3.3710482453506909
 50
271.55316986871622
 51
304.37083090478671
  0
ARC
  5
544
  8
0
 10
41.476670321910937
 20
11.675626392171379
 30
0.0
 40
0.5614298694523519
 50
91.032986480248198
 51
141.2993472152221
  0
ARC
  5
545
  8
0
 10
47.221873141081701
 20
12.2986500733182
 30
0.0
 40
0.1181111725740971
 50
16.269292244622861
 51
91.789483877143695
  0
LINE
  5
546
  8
0
 10
38.509798972200002
 20
5.1397994584999998
 30
0.0
 11
38.124818361800003
 21
5.1368975075999987
 31
0.0
  0
ARC
  5
547
  8
0
 10
38.33987300709898
 20
7.3459227437277859
 30
0.0
 40
2.2194698404128692
 50
240.00580168142841
 51
264.43930003260368
  0
LINE
  5
548
  8
0
 10
37.229668619934202
 20
5.4244075566083874
 30
0.0
 11
37.229668619934202
 21
5.7274486887
 31
0.0
  0
ATTDEF
  5
5C1
  8
DEFPOINTS
 10
47.331451169895587
 20
4.9344807833098141
 30
0.0
 40
0.001
  1
K-5026-1
  3

  2
MODELNUMBER
 70
     0
1001
AcDbAttr
1070
     0
1070
     1
  0
ATTDEF
  5
5C2
  8
DEFPOINTS
 10
47.331451169895587
 20
4.9328141166431489
 30
0.0
 40
0.001
  1
REVE
  3

  2
TRADENAME
 70
     0
1001
AcDbAttr
1070
     0
1070
     1
  0
ATTDEF
  5
5C3
  8
DEFPOINTS
 10
47.331451169895587
 20
4.9311474499764838
 30
0.0
 40
0.001
  1
BATHROOM SINK
  3

  2
PRODUCT
 70
     0
1001
AcDbAttr
1070
     0
1070
     1
  0
ATTDEF
  5
5C4
  8
DEFPOINTS
 10
47.331451169895587
 20
4.9294807833098186
 30
0.0
 40
0.001
  1
FIRECLAY
  3

  2
MATERIAL
 70
     0
1001
AcDbAttr
1070
     0
1070
     1
  0
ENDSEC
  0
EOF
