  0
SECTION
  2
HEADER
  9
$ACADVER
  1
AC1009
  9
$INSBASE
 10
4.31573448880882
 20
4.9400471138999986
 30
0.0
  9
$EXTMIN
 10
-15.3314853353
 20
4.9292184654034497
 30
0.0
  9
$EXTMAX
 10
23.962954312899999
 20
12.416703644100149
 30
0.0
  9
$LIMMIN
 10
0.0
 20
0.0
  9
$LIMMAX
 10
11.692913385800001
 20
8.2677165353999982
  9
$ORTHOMODE
 70
     0
  9
$REGENMODE
 70
     1
  9
$FILLMODE
 70
     1
  9
$QTEXTMODE
 70
     0
  9
$MIRRTEXT
 70
     0
  9
$DRAGMODE
 70
     2
  9
$LTSCALE
 40
0.6431102362
  9
$OSMODE
 70
    39
  9
$ATTMODE
 70
     1
  9
$TEXTSIZE
 40
0.2
  9
$TRACEWID
 40
0.05
  9
$TEXTSTYLE
  7
STANDARD
  9
$CLAYER
  8
0
  9
$CELTYPE
  6
BYLAYER
  9
$CECOLOR
 62
   256
  9
$DIMSCALE
 40
1.0
  9
$DIMASZ
 40
0.1875
  9
$DIMEXO
 40
0.0625
  9
$DIMDLI
 40
0.4443307087
  9
$DIMRND
 40
0.0
  9
$DIMDLE
 40
0.0
  9
$DIMEXE
 40
0.125
  9
$DIMTP
 40
0.0
  9
$DIMTM
 40
0.0
  9
$DIMTXT
 40
0.15625
  9
$DIMCEN
 40
0.1052362205
  9
$DIMTSZ
 40
0.0
  9
$DIMTOL
 70
     0
  9
$DIMLIM
 70
     0
  9
$DIMTIH
 70
     1
  9
$DIMTOH
 70
     1
  9
$DIMSE1
 70
     0
  9
$DIMSE2
 70
     0
  9
$DIMTAD
 70
     0
  9
$DIMZIN
 70
     0
  9
$DIMBLK
  1

  9
$DIMASO
 70
     1
  9
$DIMSHO
 70
     1
  9
$DIMPOST
  1

  9
$DIMAPOST
  1

  9
$DIMALT
 70
     0
  9
$DIMALTD
 70
     2
  9
$DIMALTF
 40
25.399999999999999
  9
$DIMLFAC
 40
1.0
  9
$DIMTOFL
 70
     0
  9
$DIMTVP
 40
0.0
  9
$DIMTIX
 70
     0
  9
$DIMSOXD
 70
     0
  9
$DIMSAH
 70
     0
  9
$DIMBLK1
  1

  9
$DIMBLK2
  1

  9
$DIMSTYLE
  2
STANDARD
  9
$DIMCLRD
 70
     0
  9
$DIMCLRE
 70
     0
  9
$DIMCLRT
 70
     0
  9
$DIMTFAC
 40
1.0
  9
$DIMGAP
 40
0.09
  9
$LUNITS
 70
     2
  9
$LUPREC
 70
     4
  9
$SKETCHINC
 40
0.1
  9
$FILLETRAD
 40
0.0
  9
$AUNITS
 70
     0
  9
$AUPREC
 70
     0
  9
$MENU
  1
.
  9
$ELEVATION
 40
0.0
  9
$PELEVATION
 40
0.0
  9
$THICKNESS
 40
0.0
  9
$LIMCHECK
 70
     0
  9
$BLIPMODE
 70
     0
  9
$CHAMFERA
 40
0.0
  9
$CHAMFERB
 40
0.0
  9
$SKPOLY
 70
     0
  9
$TDCREATE
 40
2457469.5253887149
  9
$TDUPDATE
 40
2457473.5842012609
  9
$TDINDWG
 40
0.0661625347
  9
$TDUSRTIMER
 40
0.0661625347
  9
$USRTIMER
 70
     1
  9
$ANGBASE
 50
0.0
  9
$ANGDIR
 70
     0
  9
$PDMODE
 70
     0
  9
$PDSIZE
 40
0.3125
  9
$PLINEWID
 40
0.0
  9
$COORDS
 70
     1
  9
$SPLFRAME
 70
     0
  9
$SPLINETYPE
 70
     6
  9
$SPLINESEGS
 70
     8
  9
$ATTDIA
 70
     1
  9
$ATTREQ
 70
     1
  9
$HANDLING
 70
     1
  9
$HANDSEED
  5
689
  9
$SURFTAB1
 70
     6
  9
$SURFTAB2
 70
     6
  9
$SURFTYPE
 70
     6
  9
$SURFU
 70
     6
  9
$SURFV
 70
     6
  9
$UCSNAME
  2

  9
$UCSORG
 10
0.0
 20
0.0
 30
0.0
  9
$UCSXDIR
 10
1.0
 20
0.0
 30
0.0
  9
$UCSYDIR
 10
0.0
 20
1.0
 30
0.0
  9
$PUCSNAME
  2

  9
$PUCSORG
 10
0.0
 20
0.0
 30
0.0
  9
$PUCSXDIR
 10
1.0
 20
0.0
 30
0.0
  9
$PUCSYDIR
 10
0.0
 20
1.0
 30
0.0
  9
$USERI1
 70
     0
  9
$USERI2
 70
     0
  9
$USERI3
 70
     0
  9
$USERI4
 70
     0
  9
$USERI5
 70
     0
  9
$USERR1
 40
0.0
  9
$USERR2
 40
0.0
  9
$USERR3
 40
0.0
  9
$USERR4
 40
0.0
  9
$USERR5
 40
0.0
  9
$WORLDVIEW
 70
     1
  9
$SHADEDGE
 70
     3
  9
$SHADEDIF
 70
    70
  9
$TILEMODE
 70
     1
  9
$MAXACTVP
 70
    48
  9
$PLIMCHECK
 70
     0
  9
$PEXTMIN
 10
1.0000000000000000E+020
 20
1.0000000000000000E+020
 30
1.0000000000000000E+020
  9
$PEXTMAX
 10
-1.0000000000000000E+020
 20
-1.0000000000000000E+020
 30
-1.0000000000000000E+020
  9
$PLIMMIN
 10
0.0
 20
0.0
  9
$PLIMMAX
 10
12.0
 20
9.0
  9
$UNITMODE
 70
     0
  9
$VISRETAIN
 70
     1
  9
$PLINEGEN
 70
     0
  9
$PSLTSCALE
 70
     1
  0
ENDSEC
  0
SECTION
  2
TABLES
  0
TABLE
  2
VPORT
 70
     1
  0
VPORT
  2
*ACTIVE
 70
     0
 10
0.0
 20
0.0
 11
1.0
 21
1.0
 12
12.50032195128518
 22
7.4268510444499931
 13
0.0
 23
0.0
 14
1.0
 24
1.0
 15
0.0
 25
0.0
 16
0.0
 26
0.0
 36
1.0
 17
0.0
 27
0.0
 37
0.0
 40
43.286601196379372
 41
2.0530877573131092
 42
50.0
 43
0.0
 44
0.0
 50
0.0
 51
0.0
 71
     0
 72
   100
 73
     1
 74
     1
 75
     0
 76
     0
 77
     0
 78
     0
  0
ENDTAB
  0
TABLE
  2
LTYPE
 70
     2
  0
LTYPE
  2
CONTINUOUS
 70
     0
  3
Solid line
 72
    65
 73
     0
 40
0.0
  0
ENDTAB
  0
TABLE
  2
LAYER
 70
     3
  0
LAYER
  2
0
 70
     0
 62
     7
  6
CONTINUOUS
  0
LAYER
  2
DEFPOINTS
 70
     0
 62
     7
  6
CONTINUOUS
  0
ENDTAB
  0
TABLE
  2
STYLE
 70
     1
  0
STYLE
  2
STANDARD
 70
     0
 40
0.0
 41
0.8
 50
0.0
 71
     0
 42
0.2
  3
txt
  4

  0
ENDTAB
  0
TABLE
  2
VIEW
 70
     5
  0
ENDTAB
  0
TABLE
  2
UCS
 70
     0
  0
ENDTAB
  0
TABLE
  2
APPID
 70
     5
  0
APPID
  2
ACAD
 70
     0
  0
APPID
  2
ACAD_MLEADERVER
 70
     0
  0
APPID
  2
ACAD_NAV_VCDISPLAY
 70
     0
  0
APPID
  2
ACAD_EXEMPT_FROM_CAD_STANDARDS
 70
     0
  0
APPID
  2
AcDbAttr
 70
     0
  0
ENDTAB
  0
TABLE
  2
DIMSTYLE
 70
     2
  0
DIMSTYLE
  2
STANDARD
 70
     0
  3

  4

  5

  6

  7

 40
1.0
 41
0.1875
 42
0.0625
 43
0.38
 44
0.125
 45
0.0
 46
0.0
 47
1.5
 48
1.5
140
0.15625
141
0.09
142
0.0
143
25.399999999999999
144
1.0
145
0.0
146
1.0
147
0.09
 71
     0
 72
     0
 73
     1
 74
     1
 75
     0
 76
     0
 77
     0
 78
     4
170
     0
171
     2
172
     0
173
     0
174
     0
175
     0
176
     0
177
     0
178
     0
  0
ENDTAB
  0
ENDSEC
  0
SECTION
  2
BLOCKS
  0
BLOCK
  8
0
  2
$MODEL_SPACE
 70
     0
 10
0.0
 20
0.0
 30
0.0
  3
$MODEL_SPACE
  1

  0
ENDBLK
  5
21
  8
0
  0
BLOCK
 67
     1
  8
0
  2
$PAPER_SPACE
 70
     0
 10
0.0
 20
0.0
 30
0.0
  3
$PAPER_SPACE
  1

  0
ENDBLK
  5
1D
 67
     1
  8
0
  0
ENDSEC
  0
SECTION
  2
ENTITIES
  0
LINE
  5
223
  8
0
 10
-15.3314853353
 20
11.757561234800001
 30
0.0
 11
-14.8350465327
 21
8.2252156098999993
 31
0.0
  0
LINE
  5
229
  8
0
 10
-12.748535199499999
 20
8.0896534130999989
 30
0.0
 11
-12.4546513044
 21
5.9985608438999991
 31
0.0
  0
LINE
  5
22E
  8
0
 10
2.9614306455000001
 20
5.1197408652999989
 30
0.0
 11
2.9082631001999988
 21
5.7274486887
 31
0.0
  0
LINE
  5
231
  8
0
 10
3.157621865899999
 20
4.9400471138999986
 30
0.0
 11
5.4734373277000001
 21
4.9400471138999986
 31
0.0
  0
LINE
  5
235
  8
0
 10
5.6700383320999999
 20
5.1197408652999989
 30
0.0
 11
5.723205877399999
 21
5.7274486887
 31
0.0
  0
LINE
  5
23A
  8
0
 10
-12.142757878199999
 20
5.7274486887
 30
0.0
 11
20.774226855799999
 21
5.7274486887
 31
0.0
  0
LINE
  5
23F
  8
0
 10
-14.679098959199999
 20
8.0896534130999989
 30
0.0
 11
23.3105679367
 21
8.0896534130999989
 31
0.0
  0
LINE
  5
255
  8
0
 10
23.729072928699999
 20
12.0266612871
 30
0.0
 11
-15.097564312699999
 21
12.0266612871
 31
0.0
  0
LINE
  5
271
  8
0
 10
21.086120281900001
 20
5.9985608438999991
 30
0.0
 11
21.380004177099998
 21
8.0896534130999989
 31
0.0
  0
LINE
  5
278
  8
0
 10
23.466515510299999
 20
8.2252156098999993
 30
0.0
 11
23.962954312899999
 21
11.757561234800001
 31
0.0
  0
ARC
  5
3ED
  8
0
 10
20.774226854799998
 20
6.042409318599999
 30
0.0
 40
0.3149606299
 50
270.0
 51
351.9973496912001
  0
ARC
  5
3EE
  8
0
 10
-12.142757877299999
 20
6.042409318599999
 30
0.0
 40
0.3149606299
 50
188.00265030880001
 51
270.0
  0
ARC
  5
3EF
  8
0
 10
23.7290332902
 20
11.7904408147
 30
0.0
 40
0.2362204724
 50
351.99900941620001
 51
90.0
  0
ARC
  5
3F0
  8
0
 10
-15.097564312699999
 20
11.7904408147
 30
0.0
 40
0.2362204724
 50
90.0
 51
188.00099058379999
  0
ARC
  5
3F1
  8
0
 10
3.157531963999999
 20
5.1368975075999987
 30
0.0
 40
0.1968503937
 50
185.0
 51
270.0
  0
ARC
  5
3F2
  8
0
 10
5.4739370135999996
 20
5.1368975075999987
 30
0.0
 40
0.1968503937
 50
270.0
 51
355.0
  0
ARC
  5
3F3
  8
0
 10
23.310567936799998
 20
8.2471337279999997
 30
0.0
 40
0.157480315
 50
269.99999999070002
 51
352.0
  0
ARC
  5
3F4
  8
0
 10
-14.679098959199999
 20
8.2471337279999997
 30
0.0
 40
0.157480315
 50
188.0
 51
270.00000000929998
  0
ARC
  5
510
  8
0
 10
-12.44668838416476
 20
11.664121674853989
 30
0.0
 40
0.5626184130934322
 50
90.421530988115279
 51
139.88090044605471
  0
ARC
  5
511
  8
0
 10
7.7969715145981091
 20
-1034.6542170309419
 30
0.0
 40
1047.076707760473
 50
90.190492783438344
 51
91.10801875359401
  0
ARC
  5
512
  8
0
 10
8.2309196061959451
 20
-381.93771033535359
 30
0.0
 40
394.37384865072357
 50
88.132582634315071
 51
90.568818822483948
  0
ARC
  5
513
  8
0
 10
21.078075525268321
 20
11.66401667581356
 30
0.0
 40
0.5627502638367462
 50
40.1218150264963
 51
89.799268649516335
  0
POLYLINE
  5
51A
  8
0
 10
3.508633431776722
 20
12.308738604462473
 30
0.0
 66
     1
 70
     8
  0
VERTEX
  8
0
  5
607
 10
3.50863
 20
12.3087
 30
0.000000
  70
    32
  0
VERTEX
  8
0
  5
608
 10
3.50961
 20
12.3075
 30
0.000000
  70
    32
  0
VERTEX
  8
0
  5
609
 10
3.51252
 20
12.3062
 30
0.000000
  70
    32
  0
VERTEX
  8
0
  5
60A
 10
3.51737
 20
12.3049
 30
0.000000
  70
    32
  0
VERTEX
  8
0
  5
60B
 10
3.52414
 20
12.3037
 30
0.000000
  70
    32
  0
VERTEX
  8
0
  5
60C
 10
3.53282
 20
12.3024
 30
0.000000
  70
    32
  0
VERTEX
  8
0
  5
60D
 10
3.54339
 20
12.3012
 30
0.000000
  70
    32
  0
VERTEX
  8
0
  5
60E
 10
3.55581
 20
12.3000
 30
0.000000
  70
    32
  0
VERTEX
  8
0
  5
60F
 10
3.57007
 20
12.2988
 30
0.000000
  70
    32
  0
VERTEX
  8
0
  5
610
 10
3.58612
 20
12.2976
 30
0.000000
  70
    32
  0
VERTEX
  8
0
  5
611
 10
3.60393
 20
12.2965
 30
0.000000
  70
    32
  0
VERTEX
  8
0
  5
612
 10
3.62346
 20
12.2954
 30
0.000000
  70
    32
  0
VERTEX
  8
0
  5
613
 10
3.64465
 20
12.2943
 30
0.000000
  70
    32
  0
VERTEX
  8
0
  5
614
 10
3.66746
 20
12.2932
 30
0.000000
  70
    32
  0
VERTEX
  8
0
  5
615
 10
3.69184
 20
12.2922
 30
0.000000
  70
    32
  0
VERTEX
  8
0
  5
616
 10
3.71771
 20
12.2913
 30
0.000000
  70
    32
  0
VERTEX
  8
0
  5
617
 10
3.74503
 20
12.2904
 30
0.000000
  70
    32
  0
VERTEX
  8
0
  5
618
 10
3.77372
 20
12.2895
 30
0.000000
  70
    32
  0
VERTEX
  8
0
  5
619
 10
3.80371
 20
12.2886
 30
0.000000
  70
    32
  0
VERTEX
  8
0
  5
61A
 10
3.83494
 20
12.2879
 30
0.000000
  70
    32
  0
VERTEX
  8
0
  5
61B
 10
3.86733
 20
12.2871
 30
0.000000
  70
    32
  0
VERTEX
  8
0
  5
61C
 10
3.90080
 20
12.2864
 30
0.000000
  70
    32
  0
VERTEX
  8
0
  5
61D
 10
3.93527
 20
12.2858
 30
0.000000
  70
    32
  0
VERTEX
  8
0
  5
61E
 10
3.97065
 20
12.2852
 30
0.000000
  70
    32
  0
VERTEX
  8
0
  5
61F
 10
4.00687
 20
12.2847
 30
0.000000
  70
    32
  0
VERTEX
  8
0
  5
620
 10
4.04383
 20
12.2843
 30
0.000000
  70
    32
  0
VERTEX
  8
0
  5
621
 10
4.08144
 20
12.2839
 30
0.000000
  70
    32
  0
VERTEX
  8
0
  5
622
 10
4.11962
 20
12.2835
 30
0.000000
  70
    32
  0
VERTEX
  8
0
  5
623
 10
4.15827
 20
12.2832
 30
0.000000
  70
    32
  0
VERTEX
  8
0
  5
624
 10
4.19730
 20
12.2830
 30
0.000000
  70
    32
  0
VERTEX
  8
0
  5
625
 10
4.23662
 20
12.2829
 30
0.000000
  70
    32
  0
VERTEX
  8
0
  5
626
 10
4.27613
 20
12.2828
 30
0.000000
  70
    32
  0
VERTEX
  8
0
  5
627
 10
4.31573
 20
12.2827
 30
0.000000
  70
    32
  0
VERTEX
  8
0
  5
628
 10
4.35533
 20
12.2828
 30
0.000000
  70
    32
  0
VERTEX
  8
0
  5
629
 10
4.39484
 20
12.2829
 30
0.000000
  70
    32
  0
VERTEX
  8
0
  5
62A
 10
4.43415
 20
12.2830
 30
0.000000
  70
    32
  0
VERTEX
  8
0
  5
62B
 10
4.47318
 20
12.2832
 30
0.000000
  70
    32
  0
VERTEX
  8
0
  5
62C
 10
4.51184
 20
12.2835
 30
0.000000
  70
    32
  0
VERTEX
  8
0
  5
62D
 10
4.55002
 20
12.2839
 30
0.000000
  70
    32
  0
VERTEX
  8
0
  5
62E
 10
4.58763
 20
12.2843
 30
0.000000
  70
    32
  0
VERTEX
  8
0
  5
62F
 10
4.62459
 20
12.2847
 30
0.000000
  70
    32
  0
VERTEX
  8
0
  5
630
 10
4.66081
 20
12.2852
 30
0.000000
  70
    32
  0
VERTEX
  8
0
  5
631
 10
4.69619
 20
12.2858
 30
0.000000
  70
    32
  0
VERTEX
  8
0
  5
632
 10
4.73066
 20
12.2864
 30
0.000000
  70
    32
  0
VERTEX
  8
0
  5
633
 10
4.76413
 20
12.2871
 30
0.000000
  70
    32
  0
VERTEX
  8
0
  5
634
 10
4.79651
 20
12.2879
 30
0.000000
  70
    32
  0
VERTEX
  8
0
  5
635
 10
4.82774
 20
12.2886
 30
0.000000
  70
    32
  0
VERTEX
  8
0
  5
636
 10
4.85774
 20
12.2895
 30
0.000000
  70
    32
  0
VERTEX
  8
0
  5
637
 10
4.88643
 20
12.2903
 30
0.000000
  70
    32
  0
VERTEX
  8
0
  5
638
 10
4.91375
 20
12.2913
 30
0.000000
  70
    32
  0
VERTEX
  8
0
  5
639
 10
4.93962
 20
12.2922
 30
0.000000
  70
    32
  0
VERTEX
  8
0
  5
63A
 10
4.96399
 20
12.2932
 30
0.000000
  70
    32
  0
VERTEX
  8
0
  5
63B
 10
4.98680
 20
12.2943
 30
0.000000
  70
    32
  0
VERTEX
  8
0
  5
63C
 10
5.00800
 20
12.2954
 30
0.000000
  70
    32
  0
VERTEX
  8
0
  5
63D
 10
5.02752
 20
12.2965
 30
0.000000
  70
    32
  0
VERTEX
  8
0
  5
63E
 10
5.04533
 20
12.2976
 30
0.000000
  70
    32
  0
VERTEX
  8
0
  5
63F
 10
5.06139
 20
12.2988
 30
0.000000
  70
    32
  0
VERTEX
  8
0
  5
640
 10
5.07564
 20
12.3000
 30
0.000000
  70
    32
  0
VERTEX
  8
0
  5
641
 10
5.08807
 20
12.3012
 30
0.000000
  70
    32
  0
VERTEX
  8
0
  5
642
 10
5.09864
 20
12.3024
 30
0.000000
  70
    32
  0
VERTEX
  8
0
  5
643
 10
5.10731
 20
12.3037
 30
0.000000
  70
    32
  0
VERTEX
  8
0
  5
644
 10
5.11409
 20
12.3049
 30
0.000000
  70
    32
  0
VERTEX
  8
0
  5
645
 10
5.11894
 20
12.3062
 30
0.000000
  70
    32
  0
VERTEX
  8
0
  5
646
 10
5.12185
 20
12.3075
 30
0.000000
  70
    32
  0
VERTEX
  8
0
  5
647
 10
5.12282
 20
12.3087
 30
0.000000
  70
    32
  0
VERTEX
  8
0
  5
648
 10
5.12185
 20
12.3100
 30
0.000000
  70
    32
  0
VERTEX
  8
0
  5
649
 10
5.11894
 20
12.3113
 30
0.000000
  70
    32
  0
VERTEX
  8
0
  5
64A
 10
5.11409
 20
12.3126
 30
0.000000
  70
    32
  0
VERTEX
  8
0
  5
64B
 10
5.10731
 20
12.3138
 30
0.000000
  70
    32
  0
VERTEX
  8
0
  5
64C
 10
5.09864
 20
12.3151
 30
0.000000
  70
    32
  0
VERTEX
  8
0
  5
64D
 10
5.08807
 20
12.3163
 30
0.000000
  70
    32
  0
VERTEX
  8
0
  5
64E
 10
5.07564
 20
12.3175
 30
0.000000
  70
    32
  0
VERTEX
  8
0
  5
64F
 10
5.06139
 20
12.3187
 30
0.000000
  70
    32
  0
VERTEX
  8
0
  5
650
 10
5.04533
 20
12.3199
 30
0.000000
  70
    32
  0
VERTEX
  8
0
  5
651
 10
5.02752
 20
12.3210
 30
0.000000
  70
    32
  0
VERTEX
  8
0
  5
652
 10
5.00800
 20
12.3221
 30
0.000000
  70
    32
  0
VERTEX
  8
0
  5
653
 10
4.98680
 20
12.3232
 30
0.000000
  70
    32
  0
VERTEX
  8
0
  5
654
 10
4.96399
 20
12.3242
 30
0.000000
  70
    32
  0
VERTEX
  8
0
  5
655
 10
4.93962
 20
12.3252
 30
0.000000
  70
    32
  0
VERTEX
  8
0
  5
656
 10
4.91375
 20
12.3262
 30
0.000000
  70
    32
  0
VERTEX
  8
0
  5
657
 10
4.88643
 20
12.3271
 30
0.000000
  70
    32
  0
VERTEX
  8
0
  5
658
 10
4.85774
 20
12.3280
 30
0.000000
  70
    32
  0
VERTEX
  8
0
  5
659
 10
4.82774
 20
12.3288
 30
0.000000
  70
    32
  0
VERTEX
  8
0
  5
65A
 10
4.79651
 20
12.3296
 30
0.000000
  70
    32
  0
VERTEX
  8
0
  5
65B
 10
4.76413
 20
12.3304
 30
0.000000
  70
    32
  0
VERTEX
  8
0
  5
65C
 10
4.73066
 20
12.3310
 30
0.000000
  70
    32
  0
VERTEX
  8
0
  5
65D
 10
4.69619
 20
12.3317
 30
0.000000
  70
    32
  0
VERTEX
  8
0
  5
65E
 10
4.66081
 20
12.3322
 30
0.000000
  70
    32
  0
VERTEX
  8
0
  5
65F
 10
4.62459
 20
12.3328
 30
0.000000
  70
    32
  0
VERTEX
  8
0
  5
660
 10
4.58763
 20
12.3332
 30
0.000000
  70
    32
  0
VERTEX
  8
0
  5
661
 10
4.55002
 20
12.3336
 30
0.000000
  70
    32
  0
VERTEX
  8
0
  5
662
 10
4.51184
 20
12.3340
 30
0.000000
  70
    32
  0
VERTEX
  8
0
  5
663
 10
4.47318
 20
12.3342
 30
0.000000
  70
    32
  0
VERTEX
  8
0
  5
664
 10
4.43415
 20
12.3345
 30
0.000000
  70
    32
  0
VERTEX
  8
0
  5
665
 10
4.39484
 20
12.3346
 30
0.000000
  70
    32
  0
VERTEX
  8
0
  5
666
 10
4.35533
 20
12.3347
 30
0.000000
  70
    32
  0
VERTEX
  8
0
  5
667
 10
4.31573
 20
12.3347
 30
0.000000
  70
    32
  0
VERTEX
  8
0
  5
668
 10
4.27613
 20
12.3347
 30
0.000000
  70
    32
  0
VERTEX
  8
0
  5
669
 10
4.23662
 20
12.3346
 30
0.000000
  70
    32
  0
VERTEX
  8
0
  5
66A
 10
4.19730
 20
12.3345
 30
0.000000
  70
    32
  0
VERTEX
  8
0
  5
66B
 10
4.15827
 20
12.3342
 30
0.000000
  70
    32
  0
VERTEX
  8
0
  5
66C
 10
4.11962
 20
12.3340
 30
0.000000
  70
    32
  0
VERTEX
  8
0
  5
66D
 10
4.08144
 20
12.3336
 30
0.000000
  70
    32
  0
VERTEX
  8
0
  5
66E
 10
4.04383
 20
12.3332
 30
0.000000
  70
    32
  0
VERTEX
  8
0
  5
66F
 10
4.00687
 20
12.3328
 30
0.000000
  70
    32
  0
VERTEX
  8
0
  5
670
 10
3.97065
 20
12.3322
 30
0.000000
  70
    32
  0
VERTEX
  8
0
  5
671
 10
3.93527
 20
12.3317
 30
0.000000
  70
    32
  0
VERTEX
  8
0
  5
672
 10
3.90080
 20
12.3310
 30
0.000000
  70
    32
  0
VERTEX
  8
0
  5
673
 10
3.86733
 20
12.3304
 30
0.000000
  70
    32
  0
VERTEX
  8
0
  5
674
 10
3.83494
 20
12.3296
 30
0.000000
  70
    32
  0
VERTEX
  8
0
  5
675
 10
3.80371
 20
12.3288
 30
0.000000
  70
    32
  0
VERTEX
  8
0
  5
676
 10
3.77372
 20
12.3280
 30
0.000000
  70
    32
  0
VERTEX
  8
0
  5
677
 10
3.74503
 20
12.3271
 30
0.000000
  70
    32
  0
VERTEX
  8
0
  5
678
 10
3.71771
 20
12.3262
 30
0.000000
  70
    32
  0
VERTEX
  8
0
  5
679
 10
3.69184
 20
12.3252
 30
0.000000
  70
    32
  0
VERTEX
  8
0
  5
67A
 10
3.66746
 20
12.3242
 30
0.000000
  70
    32
  0
VERTEX
  8
0
  5
67B
 10
3.64465
 20
12.3232
 30
0.000000
  70
    32
  0
VERTEX
  8
0
  5
67C
 10
3.62346
 20
12.3221
 30
0.000000
  70
    32
  0
VERTEX
  8
0
  5
67D
 10
3.60393
 20
12.3210
 30
0.000000
  70
    32
  0
VERTEX
  8
0
  5
67E
 10
3.58612
 20
12.3199
 30
0.000000
  70
    32
  0
VERTEX
  8
0
  5
67F
 10
3.57007
 20
12.3187
 30
0.000000
  70
    32
  0
VERTEX
  8
0
  5
680
 10
3.55581
 20
12.3175
 30
0.000000
  70
    32
  0
VERTEX
  8
0
  5
681
 10
3.54339
 20
12.3163
 30
0.000000
  70
    32
  0
VERTEX
  8
0
  5
682
 10
3.53282
 20
12.3151
 30
0.000000
  70
    32
  0
VERTEX
  8
0
  5
683
 10
3.52414
 20
12.3138
 30
0.000000
  70
    32
  0
VERTEX
  8
0
  5
684
 10
3.51737
 20
12.3126
 30
0.000000
  70
    32
  0
VERTEX
  8
0
  5
685
 10
3.51252
 20
12.3113
 30
0.000000
  70
    32
  0
VERTEX
  8
0
  5
686
 10
3.50961
 20
12.3100
 30
0.000000
  70
    32
  0
VERTEX
  8
0
  5
687
 10
3.50863
 20
12.3087
 30
0.000000
  70
    32
  0
SEQEND
  8
0
  5
688
  0
ATTDEF
  5
548
  8
DEFPOINTS
 10
4.3106430453616618
 20
4.9342184654034451
 30
0.0
 40
0.001
  1
K-5026-1
  3

  2
MODELNUMBER
 70
     0
1001
AcDbAttr
1070
     0
1070
     1
  0
ATTDEF
  5
549
  8
DEFPOINTS
 10
4.3106430453616618
 20
4.93255179873678
 30
0.0
 40
0.001
  1
REVE
  3

  2
TRADENAME
 70
     0
1001
AcDbAttr
1070
     0
1070
     1
  0
ATTDEF
  5
54A
  8
DEFPOINTS
 10
4.3106430453616618
 20
4.9308851320701148
 30
0.0
 40
0.001
  1
BATHROOM SINK
  3

  2
PRODUCT
 70
     0
1001
AcDbAttr
1070
     0
1070
     1
  0
ATTDEF
  5
54B
  8
DEFPOINTS
 10
4.3106430453616618
 20
4.9292184654034497
 30
0.0
 40
0.001
  1
FIRECLAY
  3

  2
MATERIAL
 70
     0
1001
AcDbAttr
1070
     0
1070
     1
  0
ENDSEC
  0
EOF
