  0
SECTION
  2
HEADER
  9
$ACADVER
  1
AC1021
  9
$ACADMAINTVER
 70
    50
  9
$DWGCODEPAGE
  3
ANSI_936
  9
$LASTSAVEDBY
  1
ko81367
  9
$INSBASE
 10
0.0
 20
0.0
 30
0.0
  9
$EXTMIN
 10
2406.504833328232
 20
-332.2447221011307
 30
-0.0015258207003583
  9
$EXTMAX
 10
2856.787304636217
 20
-120.2004136881987
 30
0.0000000349246037
  9
$LIMMIN
 10
0.0
 20
0.0
  9
$LIMMAX
 10
863.6000000000001
 20
558.8
  9
$ORTHOMODE
 70
     0
  9
$REGENMODE
 70
     1
  9
$FILLMODE
 70
     1
  9
$QTEXTMODE
 70
     0
  9
$MIRRTEXT
 70
     0
  9
$LTSCALE
 40
47.498
  9
$ATTMODE
 70
     1
  9
$TEXTSIZE
 40
0.2
  9
$TRACEWID
 40
0.05
  9
$TEXTSTYLE
  7
STANDARD
  9
$CLAYER
  8
0
  9
$CELTYPE
  6
BYLAYER
  9
$CECOLOR
 62
   256
  9
$CELTSCALE
 40
1.0
  9
$DISPSILH
 70
     0
  9
$DIMSCALE
 40
1.0
  9
$DIMASZ
 40
3.5
  9
$DIMEXO
 40
1.0
  9
$DIMDLI
 40
10.0
  9
$DIMRND
 40
0.0
  9
$DIMDLE
 40
0.0
  9
$DIMEXE
 40
1.0
  9
$DIMTP
 40
0.1
  9
$DIMTM
 40
0.1
  9
$DIMTXT
 40
3.5
  9
$DIMCEN
 40
0.0
  9
$DIMTSZ
 40
0.0
  9
$DIMTOL
 70
     0
  9
$DIMLIM
 70
     0
  9
$DIMTIH
 70
     0
  9
$DIMTOH
 70
     0
  9
$DIMSE1
 70
     0
  9
$DIMSE2
 70
     0
  9
$DIMTAD
 70
     1
  9
$DIMZIN
 70
     8
  9
$DIMBLK
  1

  9
$DIMASO
 70
     1
  9
$DIMSHO
 70
     1
  9
$DIMPOST
  1

  9
$DIMAPOST
  1
"
  9
$DIMALT
 70
     0
  9
$DIMALTD
 70
     2
  9
$DIMALTF
 40
0.0393701
  9
$DIMLFAC
 40
1.0
  9
$DIMTOFL
 70
     1
  9
$DIMTVP
 40
0.0
  9
$DIMTIX
 70
     0
  9
$DIMSOXD
 70
     0
  9
$DIMSAH
 70
     0
  9
$DIMBLK1
  1

  9
$DIMBLK2
  1

  9
$DIMSTYLE
  2
AM_ISO
  9
$DIMCLRD
 70
   256
  9
$DIMCLRE
 70
   256
  9
$DIMCLRT
 70
     2
  9
$DIMTFAC
 40
0.71
  9
$DIMGAP
 40
1.5
  9
$DIMJUST
 70
     0
  9
$DIMSD1
 70
     0
  9
$DIMSD2
 70
     0
  9
$DIMTOLJ
 70
     0
  9
$DIMTZIN
 70
     8
  9
$DIMALTZ
 70
     0
  9
$DIMALTTZ
 70
     0
  9
$DIMUPT
 70
     0
  9
$DIMDEC
 70
     2
  9
$DIMTDEC
 70
     3
  9
$DIMALTU
 70
     2
  9
$DIMALTTD
 70
     4
  9
$DIMTXSTY
  7
STANDARD
  9
$DIMAUNIT
 70
     0
  9
$DIMADEC
 70
     0
  9
$DIMALTRND
 40
0.0
  9
$DIMAZIN
 70
     2
  9
$DIMDSEP
 70
    46
  9
$DIMATFIT
 70
     3
  9
$DIMFRAC
 70
     0
  9
$DIMLDRBLK
  1

  9
$DIMLUNIT
 70
     2
  9
$DIMLWD
 70
    -1
  9
$DIMLWE
 70
    -1
  9
$DIMTMOVE
 70
     0
  9
$DIMFXL
 40
1.0
  9
$DIMFXLON
 70
     0
  9
$DIMJOGANG
 40
0.7853981633974483
  9
$DIMTFILL
 70
     0
  9
$DIMTFILLCLR
 70
     0
  9
$DIMARCSYM
 70
     1
  9
$DIMLTYPE
  6
BYBLOCK
  9
$DIMLTEX1
  6
BYBLOCK
  9
$DIMLTEX2
  6
BYBLOCK
  9
$LUNITS
 70
     2
  9
$LUPREC
 70
     2
  9
$SKETCHINC
 40
0.1
  9
$FILLETRAD
 40
0.0
  9
$AUNITS
 70
     0
  9
$AUPREC
 70
     0
  9
$MENU
  1
.
  9
$ELEVATION
 40
0.0
  9
$PELEVATION
 40
0.0
  9
$THICKNESS
 40
0.0
  9
$LIMCHECK
 70
     0
  9
$CHAMFERA
 40
0.0
  9
$CHAMFERB
 40
0.0
  9
$CHAMFERC
 40
0.0
  9
$CHAMFERD
 40
0.0
  9
$SKPOLY
 70
     0
  9
$TDCREATE
 40
2456126.414523021
  9
$TDUCREATE
 40
2456126.081189688
  9
$TDUPDATE
 40
2456126.416050104
  9
$TDUUPDATE
 40
2456126.082716771
  9
$TDINDWG
 40
0.0008332176
  9
$TDUSRTIMER
 40
0.0008330440
  9
$USRTIMER
 70
     1
  9
$ANGBASE
 50
0.0
  9
$ANGDIR
 70
     0
  9
$PDMODE
 70
     3
  9
$PDSIZE
 40
7.9375
  9
$PLINEWID
 40
0.0
  9
$SPLFRAME
 70
     0
  9
$SPLINETYPE
 70
     6
  9
$SPLINESEGS
 70
     8
  9
$HANDSEED
  5
F9D
  9
$SURFTAB1
 70
     6
  9
$SURFTAB2
 70
     6
  9
$SURFTYPE
 70
     6
  9
$SURFU
 70
     6
  9
$SURFV
 70
     6
  9
$UCSBASE
  2

  9
$UCSNAME
  2

  9
$UCSORG
 10
0.0
 20
0.0
 30
0.0
  9
$UCSXDIR
 10
1.0
 20
0.0
 30
0.0
  9
$UCSYDIR
 10
0.0
 20
1.0
 30
0.0
  9
$UCSORTHOREF
  2

  9
$UCSORTHOVIEW
 70
     0
  9
$UCSORGTOP
 10
0.0
 20
0.0
 30
0.0
  9
$UCSORGBOTTOM
 10
0.0
 20
0.0
 30
0.0
  9
$UCSORGLEFT
 10
0.0
 20
0.0
 30
0.0
  9
$UCSORGRIGHT
 10
0.0
 20
0.0
 30
0.0
  9
$UCSORGFRONT
 10
0.0
 20
0.0
 30
0.0
  9
$UCSORGBACK
 10
0.0
 20
0.0
 30
0.0
  9
$PUCSBASE
  2

  9
$PUCSNAME
  2

  9
$PUCSORG
 10
0.0
 20
0.0
 30
0.0
  9
$PUCSXDIR
 10
1.0
 20
0.0
 30
0.0
  9
$PUCSYDIR
 10
0.0
 20
1.0
 30
0.0
  9
$PUCSORTHOREF
  2

  9
$PUCSORTHOVIEW
 70
     0
  9
$PUCSORGTOP
 10
0.0
 20
0.0
 30
0.0
  9
$PUCSORGBOTTOM
 10
0.0
 20
0.0
 30
0.0
  9
$PUCSORGLEFT
 10
0.0
 20
0.0
 30
0.0
  9
$PUCSORGRIGHT
 10
0.0
 20
0.0
 30
0.0
  9
$PUCSORGFRONT
 10
0.0
 20
0.0
 30
0.0
  9
$PUCSORGBACK
 10
0.0
 20
0.0
 30
0.0
  9
$USERI1
 70
     0
  9
$USERI2
 70
     0
  9
$USERI3
 70
     0
  9
$USERI4
 70
     0
  9
$USERI5
 70
     0
  9
$USERR1
 40
0.0
  9
$USERR2
 40
0.0
  9
$USERR3
 40
0.0
  9
$USERR4
 40
0.0
  9
$USERR5
 40
0.0
  9
$WORLDVIEW
 70
     1
  9
$SHADEDGE
 70
     3
  9
$SHADEDIF
 70
    70
  9
$TILEMODE
 70
     1
  9
$MAXACTVP
 70
    64
  9
$PINSBASE
 10
0.0
 20
0.0
 30
0.0
  9
$PLIMCHECK
 70
     0
  9
$PEXTMIN
 10
1.000000000000000E+20
 20
1.000000000000000E+20
 30
1.000000000000000E+20
  9
$PEXTMAX
 10
-1.000000000000000E+20
 20
-1.000000000000000E+20
 30
-1.000000000000000E+20
  9
$PLIMMIN
 10
0.0
 20
0.0
  9
$PLIMMAX
 10
12.0
 20
9.0
  9
$UNITMODE
 70
     0
  9
$VISRETAIN
 70
     1
  9
$PLINEGEN
 70
     0
  9
$PSLTSCALE
 70
     1
  9
$TREEDEPTH
 70
  3020
  9
$CMLSTYLE
  2
Standard
  9
$CMLJUST
 70
     0
  9
$CMLSCALE
 40
1.0
  9
$PROXYGRAPHICS
 70
     1
  9
$MEASUREMENT
 70
     1
  9
$CELWEIGHT
370
    -1
  9
$ENDCAPS
280
     0
  9
$JOINSTYLE
280
     0
  9
$LWDISPLAY
290
     0
  9
$INSUNITS
 70
     4
  9
$HYPERLINKBASE
  1

  9
$STYLESHEET
  1

  9
$XEDIT
290
     1
  9
$CEPSNTYPE
380
     0
  9
$PSTYLEMODE
290
     1
  9
$FINGERPRINTGUID
  2
{3CE55DD3-80D0-4305-A8C4-DAE883629818}
  9
$VERSIONGUID
  2
{0820E43C-ADC0-4730-88F8-5E4069678F08}
  9
$EXTNAMES
290
     1
  9
$PSVPSCALE
 40
0.0
  9
$OLESTARTUP
290
     0
  9
$SORTENTS
280
   127
  9
$INDEXCTL
280
     0
  9
$HIDETEXT
280
     1
  9
$XCLIPFRAME
290
     0
  9
$HALOGAP
280
     0
  9
$OBSCOLOR
 70
   257
  9
$OBSLTYPE
280
     0
  9
$INTERSECTIONDISPLAY
280
     0
  9
$INTERSECTIONCOLOR
 70
   257
  9
$DIMASSOC
280
     2
  9
$PROJECTNAME
  1

  9
$CAMERADISPLAY
290
     0
  9
$LENSLENGTH
 40
50.0
  9
$CAMERAHEIGHT
 40
0.0
  9
$STEPSPERSEC
 40
2.0
  9
$STEPSIZE
 40
6.0
  9
$3DDWFPREC
 40
2.0
  9
$PSOLWIDTH
 40
0.25
  9
$PSOLHEIGHT
 40
4.0
  9
$LOFTANG1
 40
1.570796326794896
  9
$LOFTANG2
 40
1.570796326794896
  9
$LOFTMAG1
 40
0.0
  9
$LOFTMAG2
 40
0.0
  9
$LOFTPARAM
 70
     7
  9
$LOFTNORMALS
280
     1
  9
$LATITUDE
 40
37.795
  9
$LONGITUDE
 40
-122.394
  9
$NORTHDIRECTION
 40
0.0
  9
$TIMEZONE
 70
 -8000
  9
$LIGHTGLYPHDISPLAY
280
     1
  9
$TILEMODELIGHTSYNCH
280
     1
  9
$CMATERIAL
347
E27
  9
$SOLIDHIST
280
     1
  9
$SHOWHIST
280
     1
  9
$DWFFRAME
280
     2
  9
$DGNFRAME
280
     0
  9
$REALWORLDSCALE
290
     1
  9
$INTERFERECOLOR
 62
     1
  9
$INTERFEREOBJVS
345
E49
  9
$INTERFEREVPVS
346
E46
  9
$CSHADOW
280
     0
  9
$SHADOWPLANELOCATION
 40
0.0
  0
ENDSEC
  0
SECTION
  2
CLASSES
  0
CLASS
  1
ACDBDICTIONARYWDFLT
  2
AcDbDictionaryWithDefault
  3
ObjectDBX Classes
 90
        0
 91
        1
280
     0
281
     0
  0
CLASS
  1
TABLESTYLE
  2
AcDbTableStyle
  3
ObjectDBX Classes
 90
     4095
 91
        2
280
     0
281
     0
  0
CLASS
  1
ACAD_TABLE
  2
AcDbTable
  3
ObjectDBX Classes
 90
     1025
 91
        0
280
     0
281
     1
  0
CLASS
  1
MATERIAL
  2
AcDbMaterial
  3
ObjectDBX Classes
 90
     1153
 91
        3
280
     0
281
     0
  0
CLASS
  1
VISUALSTYLE
  2
AcDbVisualStyle
  3
ObjectDBX Classes
 90
     4095
 91
       16
280
     0
281
     0
  0
CLASS
  1
SCALE
  2
AcDbScale
  3
ObjectDBX Classes
 90
     1153
 91
       17
280
     0
281
     0
  0
CLASS
  1
MLEADERSTYLE
  2
AcDbMLeaderStyle
  3
ACDB_MLEADERSTYLE_CLASS
 90
     4095
 91
        1
280
     0
281
     0
  0
CLASS
  1
AMGSETTINGSOBJ
  2
AmgSettingsObj
  3
"AcadM|Product Description: AutoCAD Mechanical|Company: Autodesk, Inc."
 90
     1024
 91
        2
280
     0
281
     0
  0
CLASS
  1
ACME_DOCUMENT
  2
AcMeDbDoc
  3
AcMeServices
 90
     1024
 91
        1
280
     0
281
     0
  0
CLASS
  1
ACMESCOPE
  2
AcMeScope
  3
AcMeServices
 90
     1024
 91
        1
280
     0
281
     0
  0
CLASS
  1
ACMECOMMANDHISTORY
  2
AcMeCommandHistory
  3
AcMeServices
 90
     1024
 91
        1
280
     0
281
     0
  0
CLASS
  1
ACIMSYSVARMAN
  2
AcImSysVarManager
  3
AcMeServices
 90
     1024
 91
        5
280
     0
281
     0
  0
CLASS
  1
ACIMINTSYSVAR
  2
AcImIntSysVar
  3
AcMeServices
 90
     1024
 91
       27
280
     0
281
     0
  0
CLASS
  1
ACMEDRAWINGMAN
  2
AcMeDrawingMan
  3
AcMeServices
 90
     1024
 91
        1
280
     0
281
     0
  0
CLASS
  1
ACMEVIEW
  2
AcMeView
  3
AcMeServices
 90
     1024
 91
        1
280
     0
281
     0
  0
CLASS
  1
ACDBENTITYCACHE
  2
AcMeEntityCache
  3
AcMeServices
 90
     1024
 91
        1
280
     0
281
     0
  0
CLASS
  1
GSMANAGER
  2
AcMeGSManager
  3
AcMeServices
 90
     1024
 91
        1
280
     0
281
     0
  0
CLASS
  1
AMDTINTERNALREACTOR
  2
AmdtInternalReactor
  3
AcMeServices
 90
     1024
 91
        2
280
     0
281
     0
  0
CLASS
  1
ACMESTATEMGR
  2
AcMeStateMgr
  3
AcMeServices
 90
     1024
 91
        1
280
     0
281
     0
  0
CLASS
  1
ACGREFMASTER
  2
AcGrefMaster
  3
AcAttribServices
 90
     1024
 91
        1
280
     0
281
     0
  0
CLASS
  1
AM_DRAWING_MGR
  2
AcDmDwgMgr
  3
AcMechDwgViewMgmt
 90
     1024
 91
        1
280
     0
281
     0
  0
CLASS
  1
AM_DWG_DOCUMENT
  2
AcDmDwgDocument
  3
AcMechDwgViewMgmt
 90
     1024
 91
        1
280
     0
281
     0
  0
CLASS
  1
AM_DWG_SHEET
  2
AcDmSheet
  3
AcMechDwgViewMgmt
 90
     1024
 91
        1
280
     0
281
     0
  0
CLASS
  1
AM_VIEWDIMPARMAP
  2
AcDmViewDimParMap
  3
AcMechDwgViewMgmt
 90
     1024
 91
        1
280
     0
281
     0
  0
CLASS
  1
ACIMREALSYSVAR
  2
AcImRealSysVar
  3
AcMeServices
 90
     1024
 91
        1
280
     0
281
     0
  0
CLASS
  1
AM_DWGMGR_NAME
  2
AcDmDwgMgrName
  3
AcMechDwgViewMgmt
 90
     1024
 91
        1
280
     0
281
     0
  0
CLASS
  1
ACME_DATABASE
  2
AcMeDbDatabase
  3
AcMeServices
 90
     1024
 91
        1
280
     0
281
     0
  0
CLASS
  1
ACRFINSADJUSTERMGR
  2
AcRfInsAdjusterMgr
  3
AcMeServices
 90
     1024
 91
        1
280
     0
281
     0
  0
CLASS
  1
ACGREFACADMASTER
  2
AcGrefacadMaster
  3
AcGrefServices
 90
     1024
 91
        1
280
     0
281
     0
  0
CLASS
  1
AMDTMENUSTATEMGR
  2
AmdtMenuStateMgr
  3
McadcomServices
 90
     1024
 91
        1
280
     0
281
     0
  0
CLASS
  1
AMDTMCOMMENUSTATE
  2
AmdtMcomMenuState
  3
McadcomServices
 90
     1024
 91
        1
280
     0
281
     0
  0
CLASS
  1
AMIMASTER
  2
AmiMaster
  3
AmiServices
 90
     1024
 91
        1
280
     0
281
     0
  0
CLASS
  1
MAPIAMMOUDLE
  2
MApiAmModule
  3
MApiAmServices
 90
     1024
 91
        1
280
     0
281
     0
  0
CLASS
  1
ACIMSTRSYSVAR
  2
AcImStrSysVar
  3
AcMeServices
 90
     1024
 91
        5
280
     0
281
     0
  0
CLASS
  1
AMDTADMENUSTATE
  2
AmdtAdMenuState
  3
DesignerServices
 90
     1024
 91
        1
280
     0
281
     0
  0
CLASS
  1
ADAPPL
  2
AcAdAppl
  3
DesignerServices
 90
     1024
 91
        1
280
     0
281
     0
  0
CLASS
  1
DEPMGR
  2
AcAdDepMgr
  3
DesignerServices
 90
     1024
 91
        1
280
     0
281
     0
  0
CLASS
  1
PARAMMGR
  2
AcAdParamMgr
  3
DesignerServices
 90
     1024
 91
        1
280
     0
281
     0
  0
CLASS
  1
PARAMSCOPE
  2
AcAdParamScope
  3
DesignerServices
 90
     1024
 91
        1
280
     0
281
     0
  0
CLASS
  1
NAMEDAPPL
  2
AcAdNamedAppl
  3
DesignerServices
 90
     1024
 91
        1
280
     0
281
     0
  0
CLASS
  1
AMDTDMMENUSTATE
  2
AmdtDmMenuState
  3
AcMechDwgViewMgmt
 90
     1024
 91
        1
280
     0
281
     0
  0
CLASS
  1
AMDTAMMENUSTATE
  2
AmdtAmMenuState
  3
DesignerAssemblies
 90
     1024
 91
        1
280
     0
281
     0
  0
CLASS
  1
ACAMPROJECT
  2
AcAmProject
  3
DesignerAssemblies
 90
     1024
 91
        1
280
     0
281
     0
  0
CLASS
  1
ACAMGRCOMPDEF
  2
AcAmGrCompDef
  3
DesignerAssemblies
 90
     1024
 91
        1
280
     0
281
     0
  0
CLASS
  1
ACCMCONTEXT
  2
AcCmContext
  3
DesignerAssemblies
 90
     1024
 91
        1
280
     0
281
     0
  0
CLASS
  1
ACAMCOMPDEF
  2
AcAmCompDef
  3
DesignerAssemblies
 90
     1024
 91
        1
280
     0
281
     0
  0
CLASS
  1
ACAMCOMPDEFMGR
  2
AcAmCompDefMgr
  3
DesignerAssemblies
 90
     1024
 91
        1
280
     0
281
     0
  0
CLASS
  1
AMCONTEXTMGR
  2
AcAmContextMgr
  3
DesignerAssemblies
 90
     1024
 91
        1
280
     0
281
     0
  0
CLASS
  1
ACAMCONTEXTMODELER
  2
AcAmContextModeler
  3
DesignerAssemblies
 90
     1024
 91
        1
280
     0
281
     0
  0
CLASS
  1
ACMDATADICTIONARY
  2
AcmDataDictionary
  3
"AcmSymBB|Product Description: AutoCAD Mechanical|Company: Autodesk, Inc."
 90
     1024
 91
        1
280
     0
281
     0
  0
CLASS
  1
CATALOGSTATE
  2
AcAmCatalogState
  3
DesignerAssemblies
 90
     1024
 91
        1
280
     0
281
     0
  0
CLASS
  1
ACAMGRCOMPDEFSET
  2
AcAmGrCompDefSet
  3
DesignerAssemblies
 90
     1024
 91
        1
280
     0
281
     0
  0
CLASS
  1
AMDTBROWSERDBTAB
  2
AmdtBrowserDbTab
  3
McadcomServices
 90
     1024
 91
        1
280
     0
281
     0
  0
CLASS
  1
CBROWSERAPPOBJECT
  2
CBrowserAppObject
  3
McadcomServices
 90
     1024
 91
        3
280
     0
281
     0
  0
CLASS
  1
DM_PLACEHOLDER
  2
AcDmSelsetPlaceholder
  3
AcMechDwgViewMgmt
 90
     1024
 91
        1
280
     0
281
     0
  0
CLASS
  1
EXACXREFPANELOBJECT
  2
ExAcXREFPanelObject
  3
EXAC_ESW
 90
     1025
 91
        1
280
     0
281
     0
  0
CLASS
  1
NPOCOLLECTION
  2
AcDbImpNonPersistentObjectsCollection
  3
ObjectDBX Classes
 90
     1153
 91
        1
280
     0
281
     0
  0
CLASS
  1
ACMSTANDARDISO
  2
AcmStandardISO
  3
"Amdt_StdImp|Product Description: AutoCAD Mechanical|Company: Autodesk, Inc."
 90
     1024
 91
        1
280
     0
281
     0
  0
CLASS
  1
AMDTEDGESTANDARDISO13715
  2
AmdtEdgeStdISO13715
  3
"Amdt_StdImp|Product Description: AutoCAD Mechanical|Company: Autodesk, Inc."
 90
     1024
 91
        1
280
     0
281
     0
  0
CLASS
  1
ACMSURFSTANDARDISO2002
  2
AcmSurfTextStdISO2002
  3
"Amdt_StdImp|Product Description: AutoCAD Mechanical|Company: Autodesk, Inc."
 90
     1024
 91
        1
280
     0
281
     0
  0
CLASS
  1
ACMFCFSTANDARDISO
  2
AcmFCFStdISO
  3
"Amdt_StdImp|Product Description: AutoCAD Mechanical|Company: Autodesk, Inc."
 90
     1024
 91
        1
280
     0
281
     0
  0
CLASS
  1
ACMWELDSTANDARDISO
  2
AcmWeldingStdISO
  3
"Amdt_StdImp|Product Description: AutoCAD Mechanical|Company: Autodesk, Inc."
 90
     1024
 91
        1
280
     0
281
     0
  0
CLASS
  1
ACMIDSTANDARDISO
  2
AcmIdStdISO
  3
"Amdt_StdImp|Product Description: AutoCAD Mechanical|Company: Autodesk, Inc."
 90
     1024
 91
        1
280
     0
281
     0
  0
CLASS
  1
ACMDATUMSTANDARDISO
  2
AcmDatumStdISO
  3
"Amdt_StdImp|Product Description: AutoCAD Mechanical|Company: Autodesk, Inc."
 90
     1024
 91
        1
280
     0
281
     0
  0
CLASS
  1
ACMBOMSTANDARDISO
  2
AcmBOMStdISO
  3
"Amdt_StdImp|Product Description: AutoCAD Mechanical|Company: Autodesk, Inc."
 90
     1024
 91
        1
280
     0
281
     0
  0
CLASS
  1
ACMDETAILSTANDARDISO
  2
AmdtDetailSymStdISO
  3
"Amdt_StdImp|Product Description: AutoCAD Mechanical|Company: Autodesk, Inc."
 90
     1024
 91
        1
280
     0
281
     0
  0
CLASS
  1
ACMSECTIONSTANDARDISO2001
  2
AmdtSectionSymStdISO2001
  3
"Amdt_StdImp|Product Description: AutoCAD Mechanical|Company: Autodesk, Inc."
 90
     1024
 91
        1
280
     0
281
     0
  0
CLASS
  1
ACMCENTERLINESTANDARDISO
  2
AmdtCenterLineStdISO
  3
"Amdt_StdImp|Product Description: AutoCAD Mechanical|Company: Autodesk, Inc."
 90
     1024
 91
        1
280
     0
281
     0
  0
CLASS
  1
ACMTHREADLINESTANDARDISO
  2
AmdtThreadLineStdISO
  3
"Amdt_StdImp|Product Description: AutoCAD Mechanical|Company: Autodesk, Inc."
 90
     1024
 91
        1
280
     0
281
     0
  0
CLASS
  1
ACMNOTESTANDARDISO
  2
AmdtNoteStdISO
  3
"Amdt_StdImp|Product Description: AutoCAD Mechanical|Company: Autodesk, Inc."
 90
     1024
 91
        1
280
     0
281
     0
  0
CLASS
  1
ACMTAPERSTANDARDISO
  2
AcmTaperStdISO
  3
"Amdt_StdImp|Product Description: AutoCAD Mechanical|Company: Autodesk, Inc."
 90
     1024
 91
        1
280
     0
281
     0
  0
CLASS
  1
ACMANOOTATIONVIEWSTANDARDISO
  2
AmdtAnViewStdISO
  3
"Amdt_StdImp|Product Description: AutoCAD Mechanical|Company: Autodesk, Inc."
 90
     1024
 91
        1
280
     0
281
     0
  0
CLASS
  1
ACAMGLAYSTD
  2
AcAmgLayStd
  3
"AmgLay|Product Description: AutoCAD Mechanical|Company: Autodesk, Inc."
 90
     1024
 91
        1
280
     0
281
     0
  0
CLASS
  1
ACAMGDIMSTD
  2
AcAmgDimStd
  3
"AmgDim|Product Description: AutoCAD Mechanical|Company: Autodesk, Inc."
 90
     1024
 91
        1
280
     0
281
     0
  0
CLASS
  1
AMGOBJPROPCFG
  2
AmgObjPropCfg
  3
"AmgLay|Product Description: AutoCAD Mechanical|Company: Autodesk, Inc."
 90
     1025
 91
        1
280
     0
281
     0
  0
CLASS
  1
ACAMGHOLECHARTSTDISO
  2
AcAmgHoleChartStdISO
  3
AmgDim|Product Description: AutoCAD Mechanical|Company: Autodesk, Inc.
 90
     1024
 91
        1
280
     0
281
     0
  0
CLASS
  1
ACAMGTITLESTD
  2
AcAmgTitleStd
  3
"AmgTitle|Product Description: AutoCAD Mechanical|Company: Autodesk, Inc."
 90
     4095
 91
        1
280
     0
281
     0
  0
CLASS
  1
AMDTNOTETEMPLATEDB
  2
AmdtNoteTemplateDB
  3
AcmSymBB|Product Description: AutoCAD Mechanical|Company: Autodesk, Inc.
 90
     1024
 91
        6
280
     0
281
     0
  0
CLASS
  1
ACAMGFILTERDAT
  2
AcAmgFilterDat
  3
"AcadM|Product Description: AutoCAD Mechanical|Company: Autodesk, Inc."
 90
     1024
 91
        0
280
     0
281
     0
  0
CLASS
  1
DICTIONARYVAR
  2
AcDbDictionaryVar
  3
ObjectDBX Classes
 90
        0
 91
        3
280
     0
281
     0
  0
CLASS
  1
CELLSTYLEMAP
  2
AcDbCellStyleMap
  3
ObjectDBX Classes
 90
     1152
 91
        4
280
     0
281
     0
  0
ENDSEC
  0
SECTION
  2
TABLES
  0
TABLE
  2
VPORT
  5
8
330
0
100
AcDbSymbolTable
 70
     1
  0
VPORT
  5
1F4
330
8
100
AcDbSymbolTableRecord
100
AcDbViewportTableRecord
  2
*ACTIVE
 70
     0
 10
0.0
 20
0.0
 11
1.0
 21
1.0
 12
2680.775367839345
 22
-250.3173540063517
 13
0.0
 23
0.0
 14
1.0
 24
1.0
 15
0.0
 25
0.0
 16
0.0
 26
0.0
 36
1.0
 17
0.0
 27
0.0
 37
0.0
 40
659.5029386449113
 41
1.753048780487804
 42
50.0
 43
0.0
 44
0.0
 50
0.0
 51
0.0
 71
     0
 72
   100
 73
     1
 74
     1
 75
     0
 76
     0
 77
     0
 78
     0
281
     0
 65
     0
110
0.0
120
0.0
130
0.0
111
1.0
121
0.0
131
0.0
112
0.0
122
1.0
132
0.0
 79
     0
146
0.0
348
E45
 60
     3
 61
     5
292
     1
282
     1
141
0.0
142
0.0
 63
   250
421
  3355443
  0
ENDTAB
  0
TABLE
  2
LTYPE
  5
5
330
0
100
AcDbSymbolTable
 70
    17
  0
LTYPE
  5
14
330
5
100
AcDbSymbolTableRecord
100
AcDbLinetypeTableRecord
  2
BYBLOCK
 70
     0
  3

 72
    65
 73
     0
 40
0.0
  0
LTYPE
  5
15
330
5
100
AcDbSymbolTableRecord
100
AcDbLinetypeTableRecord
  2
BYLAYER
 70
     0
  3

 72
    65
 73
     0
 40
0.0
  0
LTYPE
  5
16
330
5
100
AcDbSymbolTableRecord
100
AcDbLinetypeTableRecord
  2
CONTINUOUS
 70
     0
  3
Solid line
 72
    65
 73
     0
 40
0.0
  0
LTYPE
  5
1F5
330
5
100
AcDbSymbolTableRecord
100
AcDbLinetypeTableRecord
  2
CENTER
 70
     0
  3
____ _ ____ _ ____ _ ____ _ ____ _ ____ _ ____
 72
    65
 73
     4
 40
0.6
 49
0.375
 74
     0
 49
-0.075
 74
     0
 49
0.075
 74
     0
 49
-0.075
 74
     0
  0
LTYPE
  5
1F6
330
5
100
AcDbSymbolTableRecord
100
AcDbLinetypeTableRecord
  2
HIDDEN
 70
     0
  3
- - - - - - - - - - - - - - - - - - - -
 72
    65
 73
     2
 40
0.2
 49
0.1
 74
     0
 49
-0.1
 74
     0
  0
LTYPE
  5
1F7
330
5
100
AcDbSymbolTableRecord
100
AcDbLinetypeTableRecord
  2
PHANTOM
 70
     0
  3
_____ _ _ _____ _ _ _____ _ _ _____
 72
    65
 73
     6
 40
0.8
 49
0.45
 74
     0
 49
-0.05
 74
     0
 49
0.1
 74
     0
 49
-0.05
 74
     0
 49
0.1
 74
     0
 49
-0.05
 74
     0
  0
LTYPE
  5
1F8
330
5
100
AcDbSymbolTableRecord
100
AcDbLinetypeTableRecord
  2
DOT
 70
     0
  3
. . . . . . . . . . . . . . . . . . . .
 72
    65
 73
     2
 40
0.2
 49
0.1
 74
     0
 49
-0.1
 74
     0
  0
LTYPE
  5
1F9
330
5
100
AcDbSymbolTableRecord
100
AcDbLinetypeTableRecord
  2
DASHED
 70
     0
  3
- - - - - - - - - - - - - - - - - - - -
 72
    65
 73
     2
 40
0.2
 49
0.1
 74
     0
 49
-0.1
 74
     0
  0
LTYPE
  5
E9B
330
5
100
AcDbSymbolTableRecord
100
AcDbLinetypeTableRecord
  2
PHANTOM2
 70
     0
  3
Phantom (.5x) ___ _ _ ___ _ _ ___ _ _ ___ _ _
 72
    65
 73
     6
 40
31.75
 49
15.875
 74
     0
 49
-3.174999999999998
 74
     0
 49
3.174999999999998
 74
     0
 49
-3.174999999999998
 74
     0
 49
3.174999999999998
 74
     0
 49
-3.174999999999998
 74
     0
  0
LTYPE
  5
EE3
330
5
100
AcDbSymbolTableRecord
100
AcDbLinetypeTableRecord
  2
AM_ISO02W050
 70
     0
  3
__ __ __ __ __ __ __ __ __ __ __ __ __ __ __
 72
    65
 73
     2
 40
7.5
 49
6.0
 74
     0
 49
-1.5
 74
     0
  0
LTYPE
  5
EE4
330
5
100
AcDbSymbolTableRecord
100
AcDbLinetypeTableRecord
  2
AM_ISO08W050
 70
     0
  3
____ . ____ . ____ . ____ . ____ . ____ . ____
 72
    65
 73
     4
 40
18.0
 49
12.0
 74
     0
 49
-1.5
 74
     0
 49
3.0
 74
     0
 49
-1.5
 74
     0
  0
LTYPE
  5
EE5
330
5
100
AcDbSymbolTableRecord
100
AcDbLinetypeTableRecord
  2
AM_ISO09W050
 70
     0
  3
_____ . . _____ . . _____ . . ____ .. ____
 72
    65
 73
     6
 40
22.5
 49
12.0
 74
     0
 49
-1.5
 74
     0
 49
3.0
 74
     0
 49
-1.5
 74
     0
 49
3.0
 74
     0
 49
-1.5
 74
     0
  0
LTYPE
  5
EE6
330
5
100
AcDbSymbolTableRecord
100
AcDbLinetypeTableRecord
  2
Amconstr
 70
     0
  3
_______________________
 72
    65
 73
     2
 40
9999.0
 49
9999.0
 74
     0
 49
0.0
 74
     0
  0
LTYPE
  5
EE7
330
5
100
AcDbSymbolTableRecord
100
AcDbLinetypeTableRecord
  2
AM_ISO08W050x2
 70
     0
  3
__ . __ . __ . __ . __ . __
 72
    65
 73
     4
 40
9.0
 49
6.0
 74
     0
 49
-0.75
 74
     0
 49
1.5
 74
     0
 49
-0.75
 74
     0
  0
LTYPE
  5
EE8
330
5
100
AcDbSymbolTableRecord
100
AcDbLinetypeTableRecord
  2
AM_ISO02W050x2
 70
     0
  3
 _ _ _ _ _ _ _ _ _ _ _ _
 72
    65
 73
     2
 40
3.75
 49
3.0
 74
     0
 49
-0.75
 74
     0
  0
LTYPE
  5
EEB
330
5
100
AcDbSymbolTableRecord
100
AcDbLinetypeTableRecord
  2
Amzigzag
 70
     0
  3
/\/-/\/-/\/-/\/-/\/-/\/
 72
    65
 73
     2
 40
11.0001
 49
0.0001
 74
     4
 75
   136
340
EEA
 46
0.04
 50
0.0
 44
0.0
 45
0.0
 49
-11.0
 74
     0
  0
LTYPE
  5
EFA
330
5
100
AcDbSymbolTableRecord
100
AcDbLinetypeTableRecord
  2
ACISOWELD
 70
     0
  3
_ _ _ _ _
 72
    65
 73
     2
 40
2.0
 49
2.0
 74
     0
 49
-1.0
 74
     0
  0
LTYPE
  5
EFB
330
5
100
AcDbSymbolTableRecord
100
AcDbLinetypeTableRecord
  2
ACISOTGB
 70
     0
  3
__ . . __ . .
 72
    65
 73
     6
 40
9.0
 49
4.0
 74
     0
 49
-1.0
 74
     0
 49
1.0
 74
     0
 49
-1.0
 74
     0
 49
1.0
 74
     0
 49
-1.0
 74
     0
  0
LTYPE
  5
EFC
330
5
100
AcDbSymbolTableRecord
100
AcDbLinetypeTableRecord
  2
ACISOTGL
 70
     0
  3
_ _ _ _ _
 72
    65
 73
     2
 40
3.0
 49
2.0
 74
     0
 49
-1.0
 74
     0
  0
ENDTAB
  0
TABLE
  2
LAYER
  5
2
330
0
100
AcDbSymbolTable
 70
    13
  0
LAYER
  5
10
330
2
100
AcDbSymbolTableRecord
100
AcDbLayerTableRecord
  2
0
 70
     0
 62
     7
  6
CONTINUOUS
370
    -3
390
F
347
E37
  0
LAYER
  5
1FA
330
2
100
AcDbSymbolTableRecord
100
AcDbLayerTableRecord
  2
DEFAULT_1
 70
     0
 62
     7
  6
CENTER
370
    -3
390
F
347
E37
  0
LAYER
  5
1FB
330
2
100
AcDbSymbolTableRecord
100
AcDbLayerTableRecord
  2
DEFAULT_2
 70
     0
 62
     8
  6
HIDDEN
370
    -3
390
F
347
E37
  0
LAYER
  5
1FC
330
2
100
AcDbSymbolTableRecord
100
AcDbLayerTableRecord
  2
DEFAULT_3
 70
     0
 62
     7
  6
PHANTOM
370
    -3
390
F
347
E37
  0
LAYER
  5
1FD
330
2
100
AcDbSymbolTableRecord
100
AcDbLayerTableRecord
  2
11
 70
     0
 62
     7
  6
CONTINUOUS
370
    -3
390
F
347
E37
  0
LAYER
  5
1FE
330
2
100
AcDbSymbolTableRecord
100
AcDbLayerTableRecord
  2
DATUM_AXIS
 70
     0
 62
     7
  6
CONTINUOUS
370
    -3
390
F
347
E37
  0
LAYER
  5
1FF
330
2
100
AcDbSymbolTableRecord
100
AcDbLayerTableRecord
  2
DATUM_CSYS
 70
     0
 62
     7
  6
CONTINUOUS
370
    -3
390
F
347
E37
  0
LAYER
  5
200
330
2
100
AcDbSymbolTableRecord
100
AcDbLayerTableRecord
  2
DATUM_PLANE
 70
     0
 62
     7
  6
CONTINUOUS
370
    -3
390
F
347
E37
  0
LAYER
  5
201
330
2
100
AcDbSymbolTableRecord
100
AcDbLayerTableRecord
  2
DATUM_POINT
 70
     0
 62
     7
  6
CONTINUOUS
370
    -3
390
F
347
E37
  0
LAYER
  5
202
330
2
100
AcDbSymbolTableRecord
100
AcDbLayerTableRecord
  2
_CURVE
 70
     0
 62
     7
  6
CONTINUOUS
370
    -3
390
F
347
E37
  0
LAYER
  5
203
330
2
100
AcDbSymbolTableRecord
100
AcDbLayerTableRecord
  2
___GDT
 70
     0
 62
     7
  6
CONTINUOUS
370
    -3
390
F
347
E37
  0
LAYER
  5
204
330
2
100
AcDbSymbolTableRecord
100
AcDbLayerTableRecord
  2
___NOTE
 70
     0
 62
     7
  6
CONTINUOUS
370
    -3
390
F
347
E37
  0
LAYER
  5
205
330
2
100
AcDbSymbolTableRecord
100
AcDbLayerTableRecord
  2
___SYMBOL
 70
     0
 62
     7
  6
CONTINUOUS
370
    -3
390
F
347
E37
  0
ENDTAB
  0
TABLE
  2
STYLE
  5
3
330
0
100
AcDbSymbolTable
 70
    19
  0
STYLE
  5
11
330
3
100
AcDbSymbolTableRecord
100
AcDbTextStyleTableRecord
  2
STANDARD
 70
     0
 40
0.0
 41
0.8
 50
0.0
 71
     0
 42
0.2
  3
txt
  4

  0
STYLE
  5
206
330
3
100
AcDbSymbolTableRecord
100
AcDbTextStyleTableRecord
  2
TEXTSTYLE_1
 70
     0
 40
0.0
 41
0.8
 50
0.0
 71
     0
 42
0.2
  3
gdt
  4

  0
STYLE
  5
207
330
3
100
AcDbSymbolTableRecord
100
AcDbTextStyleTableRecord
  2
TEXTSTYLE_2
 70
     0
 40
0.0
 41
1.04
 50
0.0
 71
     0
 42
0.2
  3
txt
  4

  0
STYLE
  5
208
330
3
100
AcDbSymbolTableRecord
100
AcDbTextStyleTableRecord
  2
TEXTSTYLE_3
 70
     0
 40
0.0
 41
0.9399999999999998
 50
0.0
 71
     0
 42
0.2
  3
txt
  4

  0
STYLE
  5
209
330
3
100
AcDbSymbolTableRecord
100
AcDbTextStyleTableRecord
  2
TEXTSTYLE_4
 70
     0
 40
0.0
 41
1.0
 50
0.0
 71
     0
 42
0.2
  3
txt
  4

  0
STYLE
  5
20A
330
3
100
AcDbSymbolTableRecord
100
AcDbTextStyleTableRecord
  2
TEXTSTYLE_5
 70
     0
 40
0.0
 41
1.199999999999999
 50
0.0
 71
     0
 42
0.2
  3
txt
  4

  0
STYLE
  5
20B
330
3
100
AcDbSymbolTableRecord
100
AcDbTextStyleTableRecord
  2
TEXTSTYLE_6
 70
     0
 40
0.0
 41
1.02
 50
0.0
 71
     0
 42
0.2
  3
txt
  4

  0
STYLE
  5
20C
330
3
100
AcDbSymbolTableRecord
100
AcDbTextStyleTableRecord
  2
TEXTSTYLE_7
 70
     0
 40
0.0
 41
0.925
 50
0.0
 71
     0
 42
0.2
  3
txt
  4

  0
STYLE
  5
20D
330
3
100
AcDbSymbolTableRecord
100
AcDbTextStyleTableRecord
  2
TEXTSTYLE_8
 70
     0
 40
0.0
 41
1.0500002909
 50
0.0
 71
     0
 42
0.2
  3
txt
  4

  0
STYLE
  5
20E
330
3
100
AcDbSymbolTableRecord
100
AcDbTextStyleTableRecord
  2
TEXTSTYLE_9
 70
     0
 40
0.0
 41
1.09
 50
0.0
 71
     0
 42
0.2
  3
txt
  4

  0
STYLE
  5
20F
330
3
100
AcDbSymbolTableRecord
100
AcDbTextStyleTableRecord
  2
TEXTSTYLE_10
 70
     0
 40
0.0
 41
0.9899995429
 50
0.0
 71
     0
 42
0.2
  3
txt
  4

  0
STYLE
  5
210
330
3
100
AcDbSymbolTableRecord
100
AcDbTextStyleTableRecord
  2
TEXTSTYLE_11
 70
     0
 40
0.0
 41
1.07
 50
0.0
 71
     0
 42
0.2
  3
txt
  4

  0
STYLE
  5
211
330
3
100
AcDbSymbolTableRecord
100
AcDbTextStyleTableRecord
  2
TEXTSTYLE_12
 70
     0
 40
0.0
 41
1.229999999999998
 50
0.0
 71
     0
 42
0.2
  3
txt
  4

  0
STYLE
  5
212
330
3
100
AcDbSymbolTableRecord
100
AcDbTextStyleTableRecord
  2
TEXTSTYLE_13
 70
     0
 40
0.0
 41
0.9700032
 50
0.0
 71
     0
 42
0.2
  3
txt
  4

  0
STYLE
  5
213
330
3
100
AcDbSymbolTableRecord
100
AcDbTextStyleTableRecord
  2
TEXTSTYLE_14
 70
     0
 40
0.0
 41
1.379999999999999
 50
0.0
 71
     0
 42
0.2
  3
txt
  4

  0
STYLE
  5
214
330
3
100
AcDbSymbolTableRecord
100
AcDbTextStyleTableRecord
  2
TEXTSTYLE_15
 70
     0
 40
0.0
 41
0.95
 50
0.0
 71
     0
 42
0.2
  3
txt
  4

  0
STYLE
  5
EEA
330
3
100
AcDbSymbolTableRecord
100
AcDbTextStyleTableRecord
  2

 70
     1
 40
0.0
 41
1.0
 50
0.0
 71
     0
 42
0.2
  3
genltshp.shx
  4

  0
STYLE
  5
EF8
330
3
100
AcDbSymbolTableRecord
100
AcDbTextStyleTableRecord
  2
ACISOTS
 70
     0
 40
1.0
 41
1.0
 50
0.0
 71
     0
 42
0.2
  3
isocp.shx
  4
gbcbig.shx
  0
STYLE
  5
EF9
330
3
100
AcDbSymbolTableRecord
100
AcDbTextStyleTableRecord
  2
ACISOGDT
 70
     0
 40
0.0
 41
1.0
 50
0.0
 71
     0
 42
0.2
  3
amgdt.shx
  4

  0
ENDTAB
  0
TABLE
  2
VIEW
  5
6
330
0
100
AcDbSymbolTable
 70
     0
  0
ENDTAB
  0
TABLE
  2
UCS
  5
7
330
0
100
AcDbSymbolTable
 70
     0
  0
ENDTAB
  0
TABLE
  2
APPID
  5
9
330
0
100
AcDbSymbolTable
 70
     9
  0
APPID
  5
215
330
9
100
AcDbSymbolTableRecord
100
AcDbRegAppTableRecord
  2
ACAD
 70
     0
  0
APPID
  5
E65
330
9
100
AcDbSymbolTableRecord
100
AcDbRegAppTableRecord
  2
ACAD_MLEADERVER
 70
     0
  0
APPID
  5
E6E
330
9
100
AcDbSymbolTableRecord
100
AcDbRegAppTableRecord
  2
MCAD_NO_VIS
 70
     0
  0
APPID
  5
E6F
330
9
100
AcDbSymbolTableRecord
100
AcDbRegAppTableRecord
  2
ACAD_TEMP_GRAPHIC
 70
     0
  0
APPID
  5
E9D
330
9
100
AcDbSymbolTableRecord
100
AcDbRegAppTableRecord
  2
AD_DRAW
 70
     0
  0
APPID
  5
EA0
330
9
100
AcDbSymbolTableRecord
100
AcDbRegAppTableRecord
  2
ACATTRIBSERVICES
 70
     0
  0
APPID
  5
EC1
330
9
100
AcDbSymbolTableRecord
100
AcDbRegAppTableRecord
  2
DESIGNERASSEMBLIES
 70
     0
  0
APPID
  5
EC7
330
9
100
AcDbSymbolTableRecord
100
AcDbRegAppTableRecord
  2
ACADM_DIM_EDIT
 70
     0
  0
APPID
  5
EC8
330
9
100
AcDbSymbolTableRecord
100
AcDbRegAppTableRecord
  2
AMDT_DM_ADJ
 70
     0
  0
ENDTAB
  0
TABLE
  2
DIMSTYLE
  5
A
330
0
100
AcDbSymbolTable
 70
     8
100
AcDbDimStyleTable
 71
     1
340
EE1
  0
DIMSTYLE
105
223
330
A
100
AcDbSymbolTableRecord
100
AcDbDimStyleTableRecord
  2
STANDARD
 70
     0
 41
4.7625
 47
0.01
 48
0.01
 71
     1
 78
     8
140
3.96875
271
     3
272
     3
284
     8
340
11
341
218
342
218
343
218
344
218
  0
DIMSTYLE
105
EE1
102
{ACAD_REACTORS
330
F81
102
}
330
A
100
AcDbSymbolTableRecord
100
AcDbDimStyleTableRecord
  2
AM_ISO
 70
     0
  4
"
 41
3.5
 42
1.0
 43
10.0
 44
1.0
 47
0.1
 48
0.1
 73
     0
 74
     0
 77
     1
 78
     8
 79
     2
 90
     1
140
3.5
141
0.0
143
0.0393701
146
0.71
147
1.5
172
     1
176
   256
177
   256
178
     2
271
     2
272
     3
274
     4
283
     0
284
     8
340
11
345
14
346
14
347
14
371
    -1
372
    -1
  0
DIMSTYLE
105
EEC
330
A
100
AcDbSymbolTableRecord
100
AcDbDimStyleTableRecord
  2
AM_ISO$3
 70
     0
  4
"
 41
3.5
 42
1.0
 43
10.0
 44
1.0
 47
0.1
 48
0.1
 73
     0
 77
     1
 78
     8
 79
     2
 90
     1
140
3.5
141
0.0
143
0.0393701
146
0.71
147
1.5
176
   256
177
   256
178
     2
271
     2
272
     3
274
     4
283
     0
284
     8
288
     1
289
     0
340
11
345
14
346
14
347
14
371
    -1
372
    -1
  0
DIMSTYLE
105
EED
330
A
100
AcDbSymbolTableRecord
100
AcDbDimStyleTableRecord
  2
AM_ISO$4
 70
     0
  4
"
 41
3.5
 42
1.0
 43
10.0
 44
1.0
 47
0.1
 48
0.1
 73
     0
 74
     0
 77
     1
 78
     8
 79
     2
 90
     1
140
3.5
141
0.0
143
0.0393701
146
0.71
147
1.5
172
     1
176
   256
177
   256
178
     2
271
     2
272
     3
274
     4
283
     0
284
     8
340
11
345
14
346
14
347
14
371
    -1
372
    -1
  0
DIMSTYLE
105
EEE
330
A
100
AcDbSymbolTableRecord
100
AcDbDimStyleTableRecord
  2
AM_ISO$6
 70
     0
  4
"
 41
3.5
 42
1.0
 43
10.0
 44
1.0
 47
0.1
 48
0.1
 73
     0
 74
     0
 78
     8
 79
     2
 90
     1
140
3.5
141
0.0
143
0.0393701
146
0.71
147
1.5
172
     1
176
   256
177
   256
178
     2
271
     2
272
     3
274
     4
283
     0
284
     8
340
11
345
14
346
14
347
14
371
    -1
372
    -1
  0
DIMSTYLE
105
EEF
330
A
100
AcDbSymbolTableRecord
100
AcDbDimStyleTableRecord
  2
AM_ISO$7
 70
     0
  4
"
 41
3.5
 42
1.0
 43
10.0
 44
1.0
 47
0.1
 48
0.1
 73
     0
 74
     0
 77
     1
 78
     8
 79
     2
 90
     1
140
3.5
141
0.0
143
0.0393701
146
0.71
147
1.5
172
     1
176
   256
177
   256
178
     2
271
     2
272
     3
274
     4
283
     0
284
     8
340
11
345
14
346
14
347
14
371
    -1
372
    -1
  0
DIMSTYLE
105
EF0
330
A
100
AcDbSymbolTableRecord
100
AcDbDimStyleTableRecord
  2
AM_ISO$SF
 70
     0
  4
"
 41
3.5
 42
1.0
 43
10.0
 44
1.0
 47
0.1
 48
0.1
 73
     0
 74
     0
 75
     1
 76
     1
 77
     1
 78
     8
 79
     2
 90
     1
140
3.5
141
0.0
143
0.0393701
146
0.71
147
1.5
172
     1
176
   256
177
   256
178
     2
271
     2
272
     3
274
     4
283
     0
284
     8
340
11
345
14
346
14
347
14
371
    -1
372
    -1
  0
DIMSTYLE
105
EF5
330
A
100
AcDbSymbolTableRecord
100
AcDbDimStyleTableRecord
  2
AM_ISO$SH
 70
     0
  4
"
 41
3.5
 42
1.0
 43
10.0
 44
1.0
 47
0.1
 48
0.1
 73
     0
 74
     0
 75
     1
 76
     1
 77
     1
 78
     8
 79
     2
 90
     1
140
3.5
141
0.0
143
0.0393701
144
2.0
146
0.71
147
1.5
172
     1
173
     1
176
   256
177
   256
178
     2
271
     2
272
     3
274
     4
283
     0
284
     8
340
11
343
EF1
345
14
346
14
347
14
371
    -1
372
    -1
  0
ENDTAB
  0
TABLE
  2
BLOCK_RECORD
  5
1
330
0
100
AcDbSymbolTable
 70
    11
  0
BLOCK_RECORD
  5
216
330
1
100
AcDbSymbolTableRecord
100
AcDbBlockTableRecord
  2
*Model_Space
340
E20
 70
     0
280
     1
281
     0
  0
BLOCK_RECORD
  5
217
330
1
100
AcDbSymbolTableRecord
100
AcDbBlockTableRecord
  2
*Paper_Space
340
E21
 70
     0
280
     1
281
     0
  0
BLOCK_RECORD
  5
218
330
1
100
AcDbSymbolTableRecord
100
AcDbBlockTableRecord
  2
_FILLED
340
0
 70
     0
280
     1
281
     0
  0
BLOCK_RECORD
  5
219
330
1
100
AcDbSymbolTableRecord
100
AcDbBlockTableRecord
  2
SYMBOL_31_BL7
340
0
 70
     0
280
     1
281
     0
  0
BLOCK_RECORD
  5
21A
330
1
100
AcDbSymbolTableRecord
100
AcDbBlockTableRecord
  2
SYMBOL_29_BL6
340
0
 70
     0
280
     1
281
     0
  0
BLOCK_RECORD
  5
21B
330
1
100
AcDbSymbolTableRecord
100
AcDbBlockTableRecord
  2
SYMBOL_27_BL5
340
0
 70
     0
280
     1
281
     0
  0
BLOCK_RECORD
  5
21C
330
1
100
AcDbSymbolTableRecord
100
AcDbBlockTableRecord
  2
SYMBOL_11_BL4
340
0
 70
     0
280
     1
281
     0
  0
BLOCK_RECORD
  5
21D
330
1
100
AcDbSymbolTableRecord
100
AcDbBlockTableRecord
  2
SYMBOL_10_BL3
340
0
 70
     0
280
     1
281
     0
  0
BLOCK_RECORD
  5
21E
330
1
100
AcDbSymbolTableRecord
100
AcDbBlockTableRecord
  2
SYMBOL_8_BL2
340
0
 70
     0
280
     1
281
     0
  0
BLOCK_RECORD
  5
21F
330
1
100
AcDbSymbolTableRecord
100
AcDbBlockTableRecord
  2
SYMBOL_6_BL1
340
0
 70
     0
280
     1
281
     0
  0
BLOCK_RECORD
  5
220
330
1
100
AcDbSymbolTableRecord
100
AcDbBlockTableRecord
  2
SYMBOL_0_BL0
340
0
 70
     0
280
     1
281
     0
  0
BLOCK_RECORD
  5
EF1
330
1
100
AcDbSymbolTableRecord
100
AcDbBlockTableRecord
  2
GENAXEH
340
0
 70
     0
280
     1
281
     0
  0
ENDTAB
  0
ENDSEC
  0
SECTION
  2
BLOCKS
  0
BLOCK
  5
20
330
216
100
AcDbEntity
  8
0
100
AcDbBlockBegin
  2
*Model_Space
 70
     0
 10
0.0
 20
0.0
 30
0.0
  3
*Model_Space
  1

  0
ENDBLK
  5
21
330
216
100
AcDbEntity
  8
0
100
AcDbBlockEnd
  0
BLOCK
  5
1C
330
217
100
AcDbEntity
 67
     1
  8
0
100
AcDbBlockBegin
  2
*Paper_Space
 70
     0
 10
0.0
 20
0.0
 30
0.0
  3
*Paper_Space
  1

  0
ENDBLK
  5
1D
330
217
100
AcDbEntity
 67
     1
  8
0
100
AcDbBlockEnd
  0
BLOCK
  5
2B5
330
218
100
AcDbEntity
  8
0
100
AcDbBlockBegin
  2
_FILLED
 70
     0
 10
0.0
 20
0.0
 30
0.0
  3
_FILLED
  1

  0
SOLID
  5
2B6
330
218
100
AcDbEntity
  8
0
  6
ByBlock
 62
     0
100
AcDbTrace
 10
0.0
 20
0.0
 30
0.0
 11
-1.0
 21
0.1666666667
 31
0.0
 12
-1.0
 22
-0.1666666667
 32
0.0
 13
-1.0
 23
-0.1666666667
 33
0.0
  0
ENDBLK
  5
2B7
330
218
100
AcDbEntity
  8
0
  6
ByBlock
 62
     0
100
AcDbBlockEnd
  0
BLOCK
  5
224
330
219
100
AcDbEntity
  8
___SYMBOL
  6
Continuous
 62
     2
100
AcDbBlockBegin
  2
SYMBOL_31_BL7
 70
     0
 10
823.0052024722999
 20
433.7556329295
 30
0.0
  3
SYMBOL_31_BL7
  1

  0
LWPOLYLINE
  5
225
330
219
100
AcDbEntity
  8
___SYMBOL
  6
Continuous
 62
     2
100
AcDbPolyline
 90
        2
 70
     0
 43
0.381
 10
822.8540932860999
 20
434.3429331542998
 10
822.8540932860999
 20
430.3741893555
  0
LINE
  5
226
330
219
100
AcDbEntity
  8
___SYMBOL
  6
Continuous
 62
     7
100
AcDbLine
 10
828.7143988659
 20
429.2917853242998
 30
0.0
 11
817.2960060787
 21
429.2917853242998
 31
0.0
  0
LINE
  5
227
330
219
100
AcDbEntity
  8
___SYMBOL
  6
Continuous
 62
     7
100
AcDbLine
 10
817.2960060787
 20
429.2917853242998
 30
0.0
 11
822.7626020589999
 21
438.2194805347
 31
0.0
  0
LINE
  5
228
330
219
100
AcDbEntity
  8
___SYMBOL
  6
Continuous
 62
     7
100
AcDbLine
 10
822.7626020589999
 20
438.2194805347
 30
0.0
 11
828.7143988659
 21
429.2917853242998
 31
0.0
  0
ENDBLK
  5
229
330
219
100
AcDbEntity
  8
0
  6
ByBlock
 62
     0
100
AcDbBlockEnd
  0
BLOCK
  5
22A
330
21A
100
AcDbEntity
  8
___SYMBOL
  6
Continuous
 62
     2
100
AcDbBlockBegin
  2
SYMBOL_29_BL6
 70
     0
 10
810.5860892603001
 20
432.2889430541001
 30
0.0
  3
SYMBOL_29_BL6
  1

  0
LWPOLYLINE
  5
22B
330
21A
100
AcDbEntity
  8
___SYMBOL
  6
Continuous
 62
     2
100
AcDbPolyline
 90
        3
 70
     0
 43
0.381
 10
809.7552990233998
 20
430.2804710449
 10
810.7474586182
 20
434.2492148437
 10
811.7396709228998
 20
430.2804710449
  0
LWPOLYLINE
  5
22C
330
21A
100
AcDbEntity
  8
___SYMBOL
  6
Continuous
 62
     2
100
AcDbPolyline
 90
        2
 70
     0
 43
0.381
 10
810.1521523193
 20
431.6033856444999
 10
811.3427649169999
 20
431.6033856444999
  0
LINE
  5
22D
330
21A
100
AcDbEntity
  8
___SYMBOL
  6
Continuous
 62
     7
100
AcDbLine
 10
807.0568536558997
 20
429.3679430541
 30
0.0
 11
805.5695892602997
 21
430.8552074497
 31
0.0
  0
LINE
  5
22E
330
21A
100
AcDbEntity
  8
___SYMBOL
  6
Continuous
 62
     7
100
AcDbLine
 10
805.5695892602997
 20
433.7226786585
 30
0.0
 11
805.5695892602997
 21
430.8552074497
 31
0.0
  0
LINE
  5
22F
330
21A
100
AcDbEntity
  8
___SYMBOL
  6
Continuous
 62
     7
100
AcDbLine
 10
807.0568536558997
 20
435.2099430541001
 30
0.0
 11
805.5695892602997
 21
433.7226786585
 31
0.0
  0
LINE
  5
230
330
21A
100
AcDbEntity
  8
___SYMBOL
  6
Continuous
 62
     7
100
AcDbLine
 10
814.1153248646
 20
429.3679430541
 30
0.0
 11
815.6025892602999
 21
430.8552074497
 31
0.0
  0
LINE
  5
231
330
21A
100
AcDbEntity
  8
___SYMBOL
  6
Continuous
 62
     7
100
AcDbLine
 10
815.6025892602999
 20
433.7226786585
 30
0.0
 11
815.6025892602999
 21
430.8552074497
 31
0.0
  0
LINE
  5
232
330
21A
100
AcDbEntity
  8
___SYMBOL
  6
Continuous
 62
     7
100
AcDbLine
 10
814.1153248646
 20
435.2099430541001
 30
0.0
 11
815.6025892602999
 21
433.7226786585
 31
0.0
  0
LINE
  5
233
330
21A
100
AcDbEntity
  8
___SYMBOL
  6
Continuous
 62
     7
100
AcDbLine
 10
807.0568536558997
 20
435.2099430541001
 30
0.0
 11
814.1153248646
 21
435.2099430541001
 31
0.0
  0
LINE
  5
234
330
21A
100
AcDbEntity
  8
___SYMBOL
  6
Continuous
 62
     7
100
AcDbLine
 10
814.1153248646
 20
429.3679430541
 30
0.0
 11
807.0568536558997
 21
429.3679430541
 31
0.0
  0
ENDBLK
  5
235
330
21A
100
AcDbEntity
  8
0
  6
ByBlock
 62
     0
100
AcDbBlockEnd
  0
BLOCK
  5
236
330
21B
100
AcDbEntity
  8
___SYMBOL
  6
Continuous
 62
     2
100
AcDbBlockBegin
  2
SYMBOL_27_BL5
 70
     0
 10
799.7161499478999
 20
432.2174312197
 30
0.0
  3
SYMBOL_27_BL5
  1

  0
LWPOLYLINE
  5
237
330
21B
100
AcDbEntity
  8
___SYMBOL
  6
Continuous
 62
     2
100
AcDbPolyline
 90
        2
 70
     0
 43
0.381
 10
798.0573773925999
 20
437.7394576172
 10
798.0573773925999
 20
433.7707138183999
  0
LWPOLYLINE
  5
238
330
21B
100
AcDbEntity
  8
___SYMBOL
  6
Continuous
 62
     2
100
AcDbPolyline
 90
       17
 70
     0
 43
0.381
 10
800.4386552978999
 20
435.093628418
 10
800.6370555908
 20
435.7550857178
 10
801.2324145996
 20
436.0858407227
 10
801.8277208983997
 20
435.7550857178
 10
802.0261211914
 20
435.093628418
 10
801.8277208983997
 20
434.4321711182
 10
801.6292678955
 20
434.1014688231998
 10
801.2324145996
 20
433.7707138183999
 10
800.8355085936999
 20
434.1014688231998
 10
800.6370555908
 20
434.4321711182
 10
800.4386552978999
 20
435.093628418
 10
800.4386552978999
 20
436.4165430176
 10
800.6370555908
 20
437.0780003173999
 10
800.8355085936999
 20
437.4087553223
 10
801.2324145996
 20
437.7394576172
 10
801.6292678955
 20
437.4087553223
 10
801.8277208983997
 20
437.0780003173999
  0
LINE
  5
239
330
21B
100
AcDbEntity
  8
___SYMBOL
  6
Continuous
 62
     7
100
AcDbLine
 10
796.2871477729
 20
439.0754355696
 30
0.0
 11
796.2871477729
 21
425.3594268698
 31
0.0
  0
LINE
  5
23A
330
21B
100
AcDbEntity
  8
___SYMBOL
  6
Continuous
 62
     7
100
AcDbLine
 10
796.2871477729
 20
425.3594268698
 30
0.0
 11
803.1451521227998
 21
425.3594268698
 31
0.0
  0
LINE
  5
23B
330
21B
100
AcDbEntity
  8
___SYMBOL
  6
Continuous
 62
     7
100
AcDbLine
 10
796.2871477729
 20
432.2174312197
 30
0.0
 11
803.1451521227998
 21
432.2174312197
 31
0.0
  0
LINE
  5
23C
330
21B
100
AcDbEntity
  8
___SYMBOL
  6
Continuous
 62
     7
100
AcDbLine
 10
796.2871477729
 20
439.0754355696
 30
0.0
 11
803.1451521227998
 21
439.0754355696
 31
0.0
  0
LINE
  5
23D
330
21B
100
AcDbEntity
  8
___SYMBOL
  6
Continuous
 62
     7
100
AcDbLine
 10
803.1451521227998
 20
425.3594268698
 30
0.0
 11
803.1451521227998
 21
439.0754355696
 31
0.0
  0
ENDBLK
  5
23E
330
21B
100
AcDbEntity
  8
0
  6
ByBlock
 62
     0
100
AcDbBlockEnd
  0
BLOCK
  5
23F
330
21C
100
AcDbEntity
  8
0
  6
Continuous
 62
     2
100
AcDbBlockBegin
  2
SYMBOL_11_BL4
 70
     0
 10
855.6625
 20
279.4
 30
0.0
  3
SYMBOL_11_BL4
  1

  0
LINE
  5
240
330
21C
100
AcDbEntity
  8
0
  6
Continuous
 62
    30
420
 16744192
100
AcDbLine
 10
850.9
 20
279.4
 30
0.0
 11
855.6625
 21
277.01875
 31
0.0
  0
LINE
  5
241
330
21C
100
AcDbEntity
  8
0
  6
Continuous
 62
    30
420
 16744192
100
AcDbLine
 10
850.9
 20
279.4
 30
0.0
 11
855.6625
 21
281.78125
 31
0.0
  0
LINE
  5
242
330
21C
100
AcDbEntity
  8
0
  6
Continuous
 62
    30
420
 16744192
100
AcDbLine
 10
855.6625
 20
279.9953125
 30
0.0
 11
855.6625
 21
281.78125
 31
0.0
  0
LINE
  5
243
330
21C
100
AcDbEntity
  8
0
  6
Continuous
 62
    30
420
 16744192
100
AcDbLine
 10
860.425
 20
279.9953125
 30
0.0
 11
855.6625
 21
279.9953125
 31
0.0
  0
LINE
  5
244
330
21C
100
AcDbEntity
  8
0
  6
Continuous
 62
    30
420
 16744192
100
AcDbLine
 10
860.425
 20
279.9953125
 30
0.0
 11
860.425
 21
278.8046875
 31
0.0
  0
LINE
  5
245
330
21C
100
AcDbEntity
  8
0
  6
Continuous
 62
    30
420
 16744192
100
AcDbLine
 10
855.6625
 20
278.8046875
 30
0.0
 11
860.425
 21
278.8046875
 31
0.0
  0
LINE
  5
246
330
21C
100
AcDbEntity
  8
0
  6
Continuous
 62
    30
420
 16744192
100
AcDbLine
 10
855.6625
 20
277.01875
 30
0.0
 11
855.6625
 21
278.8046875
 31
0.0
  0
LWPOLYLINE
  5
247
330
21C
100
AcDbEntity
  8
0
  6
Continuous
 62
     7
100
AcDbPolyline
 90
        8
 70
     0
 43
0.0
 10
850.9
 20
279.4
 10
855.6625
 20
281.78125
 10
855.6625
 20
279.9953125
 10
860.425
 20
279.9953125
 10
860.425
 20
278.8046875
 10
855.6625
 20
278.8046875
 10
855.6625
 20
277.01875
 10
850.9
 20
279.4
  0
HATCH
  5
248
330
21C
100
AcDbEntity
  8
0
  6
Continuous
 62
     7
100
AcDbHatch
 10
0.0
 20
0.0
 30
0.0
210
0.0
220
0.0
230
1.0
  2
SOLID
 70
     1
 71
     1
 91
        1
 92
        1
 93
        7
 72
     1
 10
850.9
 20
279.4
 11
855.6625
 21
281.78125
 72
     1
 10
855.6625
 20
281.78125
 11
855.6625
 21
279.9953125
 72
     1
 10
855.6625
 20
279.9953125
 11
860.425
 21
279.9953125
 72
     1
 10
860.425
 20
279.9953125
 11
860.425
 21
278.8046875
 72
     1
 10
860.425
 20
278.8046875
 11
855.6625
 21
278.8046875
 72
     1
 10
855.6625
 20
278.8046875
 11
855.6625
 21
277.01875
 72
     1
 10
855.6625
 20
277.01875
 11
850.9
 21
279.4
 97
        1
330
247
 75
     0
 76
     1
 98
        1
 10
0.0
 20
0.0
450
        0
451
        0
460
0.0
461
0.0
452
        0
462
0.0
453
        0
470

  0
ENDBLK
  5
249
330
21C
100
AcDbEntity
  8
0
  6
ByBlock
 62
     0
100
AcDbBlockEnd
  0
BLOCK
  5
24A
330
21D
100
AcDbEntity
  8
0
  6
Continuous
 62
     2
100
AcDbBlockBegin
  2
SYMBOL_10_BL3
 70
     0
 10
7.9375
 20
279.4
 30
0.0
  3
SYMBOL_10_BL3
  1

  0
LINE
  5
24B
330
21D
100
AcDbEntity
  8
0
  6
Continuous
 62
    30
420
 16744192
100
AcDbLine
 10
12.7
 20
279.4
 30
0.0
 11
7.9375
 21
281.78125
 31
0.0
  0
LINE
  5
24C
330
21D
100
AcDbEntity
  8
0
  6
Continuous
 62
    30
420
 16744192
100
AcDbLine
 10
12.7
 20
279.4
 30
0.0
 11
7.9375
 21
277.01875
 31
0.0
  0
LINE
  5
24D
330
21D
100
AcDbEntity
  8
0
  6
Continuous
 62
    30
420
 16744192
100
AcDbLine
 10
7.9375
 20
278.8046875
 30
0.0
 11
7.9375
 21
277.01875
 31
0.0
  0
LINE
  5
24E
330
21D
100
AcDbEntity
  8
0
  6
Continuous
 62
    30
420
 16744192
100
AcDbLine
 10
3.174999999999998
 20
278.8046875
 30
0.0
 11
7.9375
 21
278.8046875
 31
0.0
  0
LINE
  5
24F
330
21D
100
AcDbEntity
  8
0
  6
Continuous
 62
    30
420
 16744192
100
AcDbLine
 10
3.174999999999998
 20
278.8046875
 30
0.0
 11
3.174999999999998
 21
279.9953125
 31
0.0
  0
LINE
  5
250
330
21D
100
AcDbEntity
  8
0
  6
Continuous
 62
    30
420
 16744192
100
AcDbLine
 10
7.9375
 20
279.9953125
 30
0.0
 11
3.174999999999998
 21
279.9953125
 31
0.0
  0
LINE
  5
251
330
21D
100
AcDbEntity
  8
0
  6
Continuous
 62
    30
420
 16744192
100
AcDbLine
 10
7.9375
 20
281.78125
 30
0.0
 11
7.9375
 21
279.9953125
 31
0.0
  0
LWPOLYLINE
  5
252
330
21D
100
AcDbEntity
  8
0
  6
Continuous
 62
     7
100
AcDbPolyline
 90
        8
 70
     0
 43
0.0
 10
12.7
 20
279.4
 10
7.9375
 20
277.01875
 10
7.9375
 20
278.8046875
 10
3.174999999999998
 20
278.8046875
 10
3.174999999999998
 20
279.9953125
 10
7.9375
 20
279.9953125
 10
7.9375
 20
281.78125
 10
12.7
 20
279.4
  0
HATCH
  5
253
330
21D
100
AcDbEntity
  8
0
  6
Continuous
 62
     7
100
AcDbHatch
 10
0.0
 20
0.0
 30
0.0
210
0.0
220
0.0
230
1.0
  2
SOLID
 70
     1
 71
     1
 91
        1
 92
        1
 93
        7
 72
     1
 10
12.7
 20
279.4
 11
7.9375
 21
277.01875
 72
     1
 10
7.9375
 20
277.01875
 11
7.9375
 21
278.8046875
 72
     1
 10
7.9375
 20
278.8046875
 11
3.174999999999998
 21
278.8046875
 72
     1
 10
3.174999999999998
 20
278.8046875
 11
3.174999999999998
 21
279.9953125
 72
     1
 10
3.174999999999998
 20
279.9953125
 11
7.9375
 21
279.9953125
 72
     1
 10
7.9375
 20
279.9953125
 11
7.9375
 21
281.78125
 72
     1
 10
7.9375
 20
281.78125
 11
12.7
 21
279.4
 97
        1
330
252
 75
     0
 76
     1
 98
        1
 10
0.0
 20
0.0
450
        0
451
        0
460
0.0
461
0.0
452
        0
462
0.0
453
        0
470

  0
ENDBLK
  5
254
330
21D
100
AcDbEntity
  8
0
  6
ByBlock
 62
     0
100
AcDbBlockEnd
  0
BLOCK
  5
255
330
21E
100
AcDbEntity
  8
0
  6
Continuous
 62
     2
100
AcDbBlockBegin
  2
SYMBOL_8_BL2
 70
     0
 10
431.8
 20
550.8624999999998
 30
0.0
  3
SYMBOL_8_BL2
  1

  0
LINE
  5
256
330
21E
100
AcDbEntity
  8
0
  6
Continuous
 62
    30
420
 16744192
100
AcDbLine
 10
431.8
 20
546.1
 30
0.0
 11
434.1812499999998
 21
550.8624999999998
 31
0.0
  0
LINE
  5
257
330
21E
100
AcDbEntity
  8
0
  6
Continuous
 62
    30
420
 16744192
100
AcDbLine
 10
431.8
 20
546.1
 30
0.0
 11
429.4187499999998
 21
550.8624999999998
 31
0.0
  0
LINE
  5
258
330
21E
100
AcDbEntity
  8
0
  6
Continuous
 62
    30
420
 16744192
100
AcDbLine
 10
431.2046875
 20
550.8624999999998
 30
0.0
 11
429.4187499999998
 21
550.8624999999998
 31
0.0
  0
LINE
  5
259
330
21E
100
AcDbEntity
  8
0
  6
Continuous
 62
    30
420
 16744192
100
AcDbLine
 10
431.2046875
 20
555.625
 30
0.0
 11
431.2046875
 21
550.8624999999998
 31
0.0
  0
LINE
  5
25A
330
21E
100
AcDbEntity
  8
0
  6
Continuous
 62
    30
420
 16744192
100
AcDbLine
 10
431.2046875
 20
555.625
 30
0.0
 11
432.3953125
 21
555.625
 31
0.0
  0
LINE
  5
25B
330
21E
100
AcDbEntity
  8
0
  6
Continuous
 62
    30
420
 16744192
100
AcDbLine
 10
432.3953125
 20
550.8624999999998
 30
0.0
 11
432.3953125
 21
555.625
 31
0.0
  0
LINE
  5
25C
330
21E
100
AcDbEntity
  8
0
  6
Continuous
 62
    30
420
 16744192
100
AcDbLine
 10
434.1812499999998
 20
550.8624999999998
 30
0.0
 11
432.3953125
 21
550.8624999999998
 31
0.0
  0
LWPOLYLINE
  5
25D
330
21E
100
AcDbEntity
  8
0
  6
Continuous
 62
     7
100
AcDbPolyline
 90
        8
 70
     0
 43
0.0
 10
431.8
 20
546.1
 10
429.4187499999998
 20
550.8624999999998
 10
431.2046875
 20
550.8624999999998
 10
431.2046875
 20
555.625
 10
432.3953125
 20
555.625
 10
432.3953125
 20
550.8624999999998
 10
434.1812499999998
 20
550.8624999999998
 10
431.8
 20
546.1
  0
HATCH
  5
25E
330
21E
100
AcDbEntity
  8
0
  6
Continuous
 62
     7
100
AcDbHatch
 10
0.0
 20
0.0
 30
0.0
210
0.0
220
0.0
230
1.0
  2
SOLID
 70
     1
 71
     1
 91
        1
 92
        1
 93
        7
 72
     1
 10
431.8
 20
546.1
 11
429.4187499999998
 21
550.8624999999998
 72
     1
 10
429.4187499999998
 20
550.8624999999998
 11
431.2046875
 21
550.8624999999998
 72
     1
 10
431.2046875
 20
550.8624999999998
 11
431.2046875
 21
555.625
 72
     1
 10
431.2046875
 20
555.625
 11
432.3953125
 21
555.625
 72
     1
 10
432.3953125
 20
555.625
 11
432.3953125
 21
550.8624999999998
 72
     1
 10
432.3953125
 20
550.8624999999998
 11
434.1812499999998
 21
550.8624999999998
 72
     1
 10
434.1812499999998
 20
550.8624999999998
 11
431.8
 21
546.1
 97
        1
330
25D
 75
     0
 76
     1
 98
        1
 10
0.0
 20
0.0
450
        0
451
        0
460
0.0
461
0.0
452
        0
462
0.0
453
        0
470

  0
ENDBLK
  5
25F
330
21E
100
AcDbEntity
  8
0
  6
ByBlock
 62
     0
100
AcDbBlockEnd
  0
BLOCK
  5
260
330
21F
100
AcDbEntity
  8
0
  6
Continuous
 62
     2
100
AcDbBlockBegin
  2
SYMBOL_6_BL1
 70
     0
 10
431.8
 20
7.9375
 30
0.0
  3
SYMBOL_6_BL1
  1

  0
LINE
  5
261
330
21F
100
AcDbEntity
  8
0
  6
Continuous
 62
    30
420
 16744192
100
AcDbLine
 10
431.8
 20
12.7
 30
0.0
 11
429.4187499999998
 21
7.9375
 31
0.0
  0
LINE
  5
262
330
21F
100
AcDbEntity
  8
0
  6
Continuous
 62
    30
420
 16744192
100
AcDbLine
 10
431.8
 20
12.7
 30
0.0
 11
434.1812499999998
 21
7.9375
 31
0.0
  0
LINE
  5
263
330
21F
100
AcDbEntity
  8
0
  6
Continuous
 62
    30
420
 16744192
100
AcDbLine
 10
432.3953125
 20
7.9375
 30
0.0
 11
434.1812499999998
 21
7.9375
 31
0.0
  0
LINE
  5
264
330
21F
100
AcDbEntity
  8
0
  6
Continuous
 62
    30
420
 16744192
100
AcDbLine
 10
432.3953125
 20
3.174999999999998
 30
0.0
 11
432.3953125
 21
7.9375
 31
0.0
  0
LINE
  5
265
330
21F
100
AcDbEntity
  8
0
  6
Continuous
 62
    30
420
 16744192
100
AcDbLine
 10
432.3953125
 20
3.174999999999998
 30
0.0
 11
431.2046875
 21
3.174999999999998
 31
0.0
  0
LINE
  5
266
330
21F
100
AcDbEntity
  8
0
  6
Continuous
 62
    30
420
 16744192
100
AcDbLine
 10
431.2046875
 20
7.9375
 30
0.0
 11
431.2046875
 21
3.174999999999998
 31
0.0
  0
LINE
  5
267
330
21F
100
AcDbEntity
  8
0
  6
Continuous
 62
    30
420
 16744192
100
AcDbLine
 10
429.4187499999998
 20
7.9375
 30
0.0
 11
431.2046875
 21
7.9375
 31
0.0
  0
LWPOLYLINE
  5
268
330
21F
100
AcDbEntity
  8
0
  6
Continuous
 62
     7
100
AcDbPolyline
 90
        8
 70
     0
 43
0.0
 10
431.8
 20
12.7
 10
434.1812499999998
 20
7.9375
 10
432.3953125
 20
7.9375
 10
432.3953125
 20
3.174999999999998
 10
431.2046875
 20
3.174999999999998
 10
431.2046875
 20
7.9375
 10
429.4187499999998
 20
7.9375
 10
431.8
 20
12.7
  0
HATCH
  5
269
330
21F
100
AcDbEntity
  8
0
  6
Continuous
 62
     7
100
AcDbHatch
 10
0.0
 20
0.0
 30
0.0
210
0.0
220
0.0
230
1.0
  2
SOLID
 70
     1
 71
     1
 91
        1
 92
        1
 93
        7
 72
     1
 10
431.8
 20
12.7
 11
434.1812499999998
 21
7.9375
 72
     1
 10
434.1812499999998
 20
7.9375
 11
432.3953125
 21
7.9375
 72
     1
 10
432.3953125
 20
7.9375
 11
432.3953125
 21
3.174999999999998
 72
     1
 10
432.3953125
 20
3.174999999999998
 11
431.2046875
 21
3.174999999999998
 72
     1
 10
431.2046875
 20
3.174999999999998
 11
431.2046875
 21
7.9375
 72
     1
 10
431.2046875
 20
7.9375
 11
429.4187499999998
 21
7.9375
 72
     1
 10
429.4187499999998
 20
7.9375
 11
431.8
 21
12.7
 97
        1
330
268
 75
     0
 76
     1
 98
        1
 10
0.0
 20
0.0
450
        0
451
        0
460
0.0
461
0.0
452
        0
462
0.0
453
        0
470

  0
ENDBLK
  5
26A
330
21F
100
AcDbEntity
  8
0
  6
ByBlock
 62
     0
100
AcDbBlockEnd
  0
BLOCK
  5
26B
330
220
100
AcDbEntity
  8
0
  6
Continuous
 62
     2
100
AcDbBlockBegin
  2
SYMBOL_0_BL0
 70
     0
 10
766.7592361
 20
55.2233084
 30
0.0
  3
SYMBOL_0_BL0
  1

  0
ARC
  5
26C
330
220
100
AcDbEntity
  8
0
  6
Continuous
 62
     2
100
AcDbCircle
 10
781.1308736
 20
56.63221465
 30
0.0
 40
0.7786687500000001
100
AcDbArc
 50
270.0
 51
90.0
  0
LINE
  5
26D
330
220
100
AcDbEntity
  8
0
  6
Continuous
 62
     2
100
AcDbLine
 10
749.3808736
 20
51.6514334
 30
0.0
 11
749.3808736
 21
58.7951834
 31
0.0
  0
LINE
  5
26E
330
220
100
AcDbEntity
  8
0
  6
Continuous
 62
     2
100
AcDbLine
 10
749.3808736
 20
58.7951834
 30
0.0
 11
751.0826736
 21
58.7951834
 31
0.0
  0
LINE
  5
26F
330
220
100
AcDbEntity
  8
0
  6
Continuous
 62
     2
100
AcDbLine
 10
749.3808736
 20
51.6514334
 30
0.0
 11
751.0826736
 21
51.6514334
 31
0.0
  0
LINE
  5
270
330
220
100
AcDbEntity
  8
0
  6
Continuous
 62
     2
100
AcDbLine
 10
755.7308736
 20
58.7951834
 30
0.0
 11
752.5558736
 21
55.6201834
 31
0.0
  0
LINE
  5
271
330
220
100
AcDbEntity
  8
0
  6
Continuous
 62
     2
100
AcDbLine
 10
752.5558736
 20
55.6201834
 30
0.0
 11
755.7308736
 21
51.6514334
 31
0.0
  0
CIRCLE
  5
272
330
220
100
AcDbEntity
  8
0
  6
Continuous
 62
     2
100
AcDbCircle
 10
758.5089986
 20
55.2233084
 30
0.0
 40
1.870074999999999
  0
LINE
  5
273
330
220
100
AcDbEntity
  8
0
  6
Continuous
 62
     2
100
AcDbLine
 10
753.5515062341
 20
51.6514334
 30
0.0
 11
755.7308736
 21
51.6514334
 31
0.0
  0
CIRCLE
  5
274
330
220
100
AcDbEntity
  8
0
  6
Continuous
 62
     2
100
AcDbCircle
 10
758.5089986
 20
55.2233084
 30
0.0
 40
3.571874999999999
  0
LINE
  5
275
330
220
100
AcDbEntity
  8
0
  6
Continuous
 62
     2
100
AcDbLine
 10
751.0826736
 20
51.6514334
 30
0.0
 11
751.0826736
 21
54.7374741926
 31
0.0
  0
LINE
  5
276
330
220
100
AcDbEntity
  8
0
  6
Continuous
 62
     2
100
AcDbLine
 10
753.3241649589999
 20
58.7951834
 30
0.0
 11
751.0826736
 21
56.55369204100001
 31
0.0
  0
LINE
  5
277
330
220
100
AcDbEntity
  8
0
  6
Continuous
 62
     2
100
AcDbLine
 10
751.0826736
 20
54.7374741926
 30
0.0
 11
753.5515062341
 21
51.6514334
 31
0.0
  0
LINE
  5
278
330
220
100
AcDbEntity
  8
0
  6
Continuous
 62
     2
100
AcDbLine
 10
753.3241649589999
 20
58.7951834
 30
0.0
 11
755.7308736
 21
58.7951834
 31
0.0
  0
LINE
  5
279
330
220
100
AcDbEntity
  8
0
  6
Continuous
 62
     2
100
AcDbLine
 10
751.0826736
 20
58.7951834
 30
0.0
 11
751.0826736
 21
56.55369204100001
 31
0.0
  0
LINE
  5
27A
330
220
100
AcDbEntity
  8
0
  6
Continuous
 62
     2
100
AcDbLine
 10
762.8746236
 20
58.7951834
 30
0.0
 11
762.8746236
 21
51.6514334
 31
0.0
  0
LINE
  5
27B
330
220
100
AcDbEntity
  8
0
  6
Continuous
 62
     2
100
AcDbLine
 10
764.5764235999998
 20
51.6514334
 30
0.0
 11
764.5764235999998
 21
54.7692834
 31
0.0
  0
LINE
  5
27C
330
220
100
AcDbEntity
  8
0
  6
Continuous
 62
     2
100
AcDbLine
 10
764.5764235999998
 20
56.4710834
 30
0.0
 11
764.5764235999998
 21
58.7951834
 31
0.0
  0
LINE
  5
27D
330
220
100
AcDbEntity
  8
0
  6
Continuous
 62
     2
100
AcDbLine
 10
766.5607986
 20
51.6514334
 30
0.0
 11
766.5607986
 21
54.7692834
 31
0.0
  0
LINE
  5
27E
330
220
100
AcDbEntity
  8
0
  6
Continuous
 62
     2
100
AcDbLine
 10
766.5607986
 20
56.4710834
 30
0.0
 11
766.5607986
 21
58.7951834
 31
0.0
  0
LINE
  5
27F
330
220
100
AcDbEntity
  8
0
  6
Continuous
 62
     2
100
AcDbLine
 10
768.2625986
 20
58.7951834
 30
0.0
 11
768.2625986
 21
51.6514334
 31
0.0
  0
LINE
  5
280
330
220
100
AcDbEntity
  8
0
  6
Continuous
 62
     2
100
AcDbLine
 10
764.5764235999998
 20
56.4710834
 30
0.0
 11
766.5607986
 21
56.4710834
 31
0.0
  0
LINE
  5
281
330
220
100
AcDbEntity
  8
0
  6
Continuous
 62
     2
100
AcDbLine
 10
764.5764235999998
 20
54.7692834
 30
0.0
 11
766.5607986
 21
54.7692834
 31
0.0
  0
LINE
  5
282
330
220
100
AcDbEntity
  8
0
  6
Continuous
 62
     2
100
AcDbLine
 10
766.5607986
 20
51.6514334
 30
0.0
 11
768.2625986
 21
51.6514334
 31
0.0
  0
LINE
  5
283
330
220
100
AcDbEntity
  8
0
  6
Continuous
 62
     2
100
AcDbLine
 10
762.8746236
 20
51.6514334
 30
0.0
 11
764.5764235999998
 21
51.6514334
 31
0.0
  0
LINE
  5
284
330
220
100
AcDbEntity
  8
0
  6
Continuous
 62
     2
100
AcDbLine
 10
766.5607986
 20
58.7951834
 30
0.0
 11
768.2625986
 21
58.7951834
 31
0.0
  0
LINE
  5
285
330
220
100
AcDbEntity
  8
0
  6
Continuous
 62
     2
100
AcDbLine
 10
762.8746236
 20
58.7951834
 30
0.0
 11
764.5764235999998
 21
58.7951834
 31
0.0
  0
LINE
  5
286
330
220
100
AcDbEntity
  8
0
  6
Continuous
 62
     2
100
AcDbLine
 10
769.0563486000002
 20
58.7951834
 30
0.0
 11
769.0563486000002
 21
51.6514334
 31
0.0
  0
LINE
  5
287
330
220
100
AcDbEntity
  8
0
  6
Continuous
 62
     2
100
AcDbLine
 10
773.0250986000002
 20
53.3532334
 30
0.0
 11
773.0250986000002
 21
51.6514334
 31
0.0
  0
LINE
  5
288
330
220
100
AcDbEntity
  8
0
  6
Continuous
 62
     2
100
AcDbLine
 10
769.0563486000002
 20
51.6514334
 30
0.0
 11
773.0250986000002
 21
51.6514334
 31
0.0
  0
LINE
  5
289
330
220
100
AcDbEntity
  8
0
  6
Continuous
 62
     2
100
AcDbLine
 10
770.7581486
 20
53.3532334
 30
0.0
 11
770.7581486
 21
58.7951834
 31
0.0
  0
LINE
  5
28A
330
220
100
AcDbEntity
  8
0
  6
Continuous
 62
     2
100
AcDbLine
 10
770.7581486
 20
53.3532334
 30
0.0
 11
773.0250986000002
 21
53.3532334
 31
0.0
  0
LINE
  5
28B
330
220
100
AcDbEntity
  8
0
  6
Continuous
 62
     2
100
AcDbLine
 10
769.0563486000002
 20
58.7951834
 30
0.0
 11
770.7581486
 21
58.7951834
 31
0.0
  0
LINE
  5
28C
330
220
100
AcDbEntity
  8
0
  6
Continuous
 62
     2
100
AcDbLine
 10
773.8188486
 20
51.6514334
 30
0.0
 11
777.7875986
 21
51.6514334
 31
0.0
  0
LINE
  5
28D
330
220
100
AcDbEntity
  8
0
  6
Continuous
 62
     2
100
AcDbLine
 10
777.7875986
 20
53.3532334
 30
0.0
 11
777.7875986
 21
51.6514334
 31
0.0
  0
LINE
  5
28E
330
220
100
AcDbEntity
  8
0
  6
Continuous
 62
     2
100
AcDbLine
 10
775.5206486
 20
53.3532334
 30
0.0
 11
777.7875986
 21
53.3532334
 31
0.0
  0
LINE
  5
28F
330
220
100
AcDbEntity
  8
0
  6
Continuous
 62
     2
100
AcDbLine
 10
775.5206486
 20
54.5708459
 30
0.0
 11
775.5206486
 21
53.3532334
 31
0.0
  0
LINE
  5
290
330
220
100
AcDbEntity
  8
0
  6
Continuous
 62
     2
100
AcDbLine
 10
775.5206486
 20
57.0933834
 30
0.0
 11
777.7875986
 21
57.0933834
 31
0.0
  0
LINE
  5
291
330
220
100
AcDbEntity
  8
0
  6
Continuous
 62
     2
100
AcDbLine
 10
773.8188486
 20
58.7951834
 30
0.0
 11
773.8188486
 21
51.6514334
 31
0.0
  0
LINE
  5
292
330
220
100
AcDbEntity
  8
0
  6
Continuous
 62
     2
100
AcDbLine
 10
777.7875986
 20
57.0933834
 30
0.0
 11
777.7875986
 21
58.7951834
 31
0.0
  0
LINE
  5
293
330
220
100
AcDbEntity
  8
0
  6
Continuous
 62
     2
100
AcDbLine
 10
773.8188486
 20
58.7951834
 30
0.0
 11
777.7875986
 21
58.7951834
 31
0.0
  0
LINE
  5
294
330
220
100
AcDbEntity
  8
0
  6
Continuous
 62
     2
100
AcDbLine
 10
775.5206486
 20
55.8757709
 30
0.0
 11
777.7875986
 21
55.8757709
 31
0.0
  0
LINE
  5
295
330
220
100
AcDbEntity
  8
0
  6
Continuous
 62
     2
100
AcDbLine
 10
777.7875986
 20
55.8757709
 30
0.0
 11
777.7875986
 21
54.5708459
 31
0.0
  0
LINE
  5
296
330
220
100
AcDbEntity
  8
0
  6
Continuous
 62
     2
100
AcDbLine
 10
775.5206486
 20
54.5708459
 30
0.0
 11
777.7875986
 21
54.5708459
 31
0.0
  0
LINE
  5
297
330
220
100
AcDbEntity
  8
0
  6
Continuous
 62
     2
100
AcDbLine
 10
775.5206486
 20
55.8757709
 30
0.0
 11
775.5206486
 21
57.0933834
 31
0.0
  0
LINE
  5
298
330
220
100
AcDbEntity
  8
0
  6
Continuous
 62
     2
100
AcDbLine
 10
778.5813486000002
 20
51.6514334
 30
0.0
 11
778.5813486000002
 21
58.7951834
 31
0.0
  0
LINE
  5
299
330
220
100
AcDbEntity
  8
0
  6
Continuous
 62
     2
100
AcDbLine
 10
780.2831486
 20
54.4295584
 30
0.0
 11
780.2831486
 21
51.6514334
 31
0.0
  0
ARC
  5
29A
330
220
100
AcDbEntity
  8
0
  6
Continuous
 62
     2
100
AcDbCircle
 10
781.1610361
 20
56.6123709
 30
0.0
 40
2.182812499999998
100
AcDbArc
 50
304.1679402531
 51
90.0
  0
LINE
  5
29B
330
220
100
AcDbEntity
  8
0
  6
Continuous
 62
     2
100
AcDbLine
 10
781.1610361
 20
58.7951834
 30
0.0
 11
778.5813486000002
 21
58.7951834
 31
0.0
  0
LINE
  5
29C
330
220
100
AcDbEntity
  8
0
  6
Continuous
 62
     2
100
AcDbLine
 10
781.1308736
 20
57.41088340000001
 30
0.0
 11
780.2831486
 21
57.41088340000001
 31
0.0
  0
LINE
  5
29D
330
220
100
AcDbEntity
  8
0
  6
Continuous
 62
     2
100
AcDbLine
 10
782.3869483446001
 20
54.8063228433
 30
0.0
 11
784.1375986
 21
51.6514334
 31
0.0
  0
LINE
  5
29E
330
220
100
AcDbEntity
  8
0
  6
Continuous
 62
     2
100
AcDbLine
 10
782.191350336
 20
51.6514334
 30
0.0
 11
780.6497669218998
 21
54.4295584
 31
0.0
  0
LINE
  5
29F
330
220
100
AcDbEntity
  8
0
  6
Continuous
 62
     2
100
AcDbLine
 10
778.5813486000002
 20
51.6514334
 30
0.0
 11
780.2831486
 21
51.6514334
 31
0.0
  0
LINE
  5
2A0
330
220
100
AcDbEntity
  8
0
  6
Continuous
 62
     2
100
AcDbLine
 10
782.191350336
 20
51.6514334
 30
0.0
 11
784.1375986
 21
51.6514334
 31
0.0
  0
LINE
  5
2A1
330
220
100
AcDbEntity
  8
0
  6
Continuous
 62
     2
100
AcDbLine
 10
781.1308736
 20
55.8535459
 30
0.0
 11
780.2831486
 21
55.8535459
 31
0.0
  0
LINE
  5
2A2
330
220
100
AcDbEntity
  8
0
  6
Continuous
 62
     2
100
AcDbLine
 10
780.2831486
 20
57.41088340000001
 30
0.0
 11
780.2831486
 21
55.8535459
 31
0.0
  0
LINE
  5
2A3
330
220
100
AcDbEntity
  8
0
  6
Continuous
 62
     2
100
AcDbLine
 10
780.2831486
 20
54.4295584
 30
0.0
 11
780.6497669218998
 21
54.4295584
 31
0.0
  0
LWPOLYLINE
  5
2A4
330
220
100
AcDbEntity
  8
0
  6
Continuous
 62
     2
100
AcDbPolyline
 90
       14
 70
     0
 43
0.0
 10
784.1375986
 20
51.6514334
 10
782.191350336
 20
51.6514334
 10
780.6497669218998
 20
54.4295584
 10
780.2831486
 20
54.4295584
 10
780.2831486
 20
51.6514334
 10
778.5813486000002
 20
51.6514334
 10
778.5813486000002
 20
57.41088340000001
 10
780.2831486
 20
57.41088340000001
 10
780.2831486
 20
55.8535459
 10
781.1308736
 20
55.8535459
 10
783.1747134023999
 20
55.8535459
 10
782.9491152757
 20
55.36039515270001
 10
782.3869483444
 20
54.80632284439999
 10
784.1375986
 20
51.6514334
  0
HATCH
  5
2A5
330
220
100
AcDbEntity
  8
0
  6
Continuous
 62
     2
100
AcDbHatch
 10
0.0
 20
0.0
 30
0.0
210
0.0
220
0.0
230
1.0
  2
SOLID
 70
     1
 71
     1
 91
        1
 92
        1
 93
       13
 72
     1
 10
784.1375986
 20
51.6514334
 11
782.191350336
 21
51.6514334
 72
     1
 10
782.191350336
 20
51.6514334
 11
780.6497669218998
 21
54.4295584
 72
     1
 10
780.6497669218998
 20
54.4295584
 11
780.2831486
 21
54.4295584
 72
     1
 10
780.2831486
 20
54.4295584
 11
780.2831486
 21
51.6514334
 72
     1
 10
780.2831486
 20
51.6514334
 11
778.5813486000002
 21
51.6514334
 72
     1
 10
778.5813486000002
 20
51.6514334
 11
778.5813486000002
 21
57.41088340000001
 72
     1
 10
778.5813486000002
 20
57.41088340000001
 11
780.2831486
 21
57.41088340000001
 72
     1
 10
780.2831486
 20
57.41088340000001
 11
780.2831486
 21
55.8535459
 72
     1
 10
780.2831486
 20
55.8535459
 11
781.1308736
 21
55.8535459
 72
     1
 10
781.1308736
 20
55.8535459
 11
783.1747134023999
 21
55.8535459
 72
     1
 10
783.1747134023999
 20
55.8535459
 11
782.9491152757
 21
55.36039515270001
 72
     1
 10
782.9491152757
 20
55.36039515270001
 11
782.3869483444
 21
54.80632284439999
 72
     1
 10
782.3869483444
 20
54.80632284439999
 11
784.1375986
 21
51.6514334
 97
        1
330
2A4
 75
     0
 76
     1
 98
        1
 10
0.0
 20
0.0
450
        0
451
        0
460
0.0
461
0.0
452
        0
462
0.0
453
        0
470

  0
LWPOLYLINE
  5
2A6
330
220
100
AcDbEntity
  8
0
  6
Continuous
 62
     2
100
AcDbPolyline
 90
       18
 70
     0
 43
0.0
 10
778.5813486000002
 20
57.41088340000001
 10
778.5813486000002
 20
58.7951834
 10
781.1610361
 20
58.7951834
 10
781.9373485503001
 20
58.6524712382
 10
782.6121504694
 20
58.2429957793
 10
783.0972048324
 20
57.6202999896
 10
783.3290859838
 20
56.8658075024
 10
783.2774731696
 20
56.0781756728
 10
783.1747134023999
 20
55.8535459
 10
781.1308736
 20
55.8535459
 10
781.5202079749998
 20
55.9578677314
 10
781.8052205186
 20
56.242880275
 10
781.90954235
 20
56.63221465
 10
781.8052205186
 20
57.021549025
 10
781.5202079749998
 20
57.3065615686
 10
781.1308736
 20
57.41088340000001
 10
780.2831486
 20
57.41088340000001
 10
778.5813486000002
 20
57.41088340000001
  0
HATCH
  5
2A7
330
220
100
AcDbEntity
  8
0
  6
Continuous
 62
     2
100
AcDbHatch
 10
0.0
 20
0.0
 30
0.0
210
0.0
220
0.0
230
1.0
  2
SOLID
 70
     1
 71
     1
 91
        1
 92
        1
 93
       17
 72
     1
 10
778.5813486000002
 20
57.41088340000001
 11
778.5813486000002
 21
58.7951834
 72
     1
 10
778.5813486000002
 20
58.7951834
 11
781.1610361
 21
58.7951834
 72
     1
 10
781.1610361
 20
58.7951834
 11
781.9373485503001
 21
58.6524712382
 72
     1
 10
781.9373485503001
 20
58.6524712382
 11
782.6121504694
 21
58.2429957793
 72
     1
 10
782.6121504694
 20
58.2429957793
 11
783.0972048324
 21
57.6202999896
 72
     1
 10
783.0972048324
 20
57.6202999896
 11
783.3290859838
 21
56.8658075024
 72
     1
 10
783.3290859838
 20
56.8658075024
 11
783.2774731696
 21
56.0781756728
 72
     1
 10
783.2774731696
 20
56.0781756728
 11
783.1747134023999
 21
55.8535459
 72
     1
 10
783.1747134023999
 20
55.8535459
 11
781.1308736
 21
55.8535459
 72
     1
 10
781.1308736
 20
55.8535459
 11
781.5202079749998
 21
55.9578677314
 72
     1
 10
781.5202079749998
 20
55.9578677314
 11
781.8052205186
 21
56.242880275
 72
     1
 10
781.8052205186
 20
56.242880275
 11
781.90954235
 21
56.63221465
 72
     1
 10
781.90954235
 20
56.63221465
 11
781.8052205186
 21
57.021549025
 72
     1
 10
781.8052205186
 20
57.021549025
 11
781.5202079749998
 21
57.3065615686
 72
     1
 10
781.5202079749998
 20
57.3065615686
 11
781.1308736
 21
57.41088340000001
 72
     1
 10
781.1308736
 20
57.41088340000001
 11
780.2831486
 21
57.41088340000001
 72
     1
 10
780.2831486
 20
57.41088340000001
 11
778.5813486000002
 21
57.41088340000001
 97
        1
330
2A6
 75
     0
 76
     1
 98
        1
 10
0.0
 20
0.0
450
        0
451
        0
460
0.0
461
0.0
452
        0
462
0.0
453
        0
470

  0
LWPOLYLINE
  5
2A8
330
220
100
AcDbEntity
  8
0
  6
Continuous
 62
     2
100
AcDbPolyline
 90
       12
 70
     0
 43
0.0
 10
751.0826736
 20
51.6514334
 10
749.3808736
 20
51.6514334
 10
749.3808736
 20
58.7951834
 10
751.0826736
 20
58.7951834
 10
751.0826736
 20
56.55369204100001
 10
753.3241649589999
 20
58.7951834
 10
755.7308736
 20
58.7951834
 10
752.5558736
 20
55.6201834
 10
755.7308736
 20
51.6514334
 10
753.5515062341
 20
51.6514334
 10
751.0826736
 20
54.7374741926
 10
751.0826736
 20
51.6514334
  0
HATCH
  5
2A9
330
220
100
AcDbEntity
  8
0
  6
Continuous
 62
     2
100
AcDbHatch
 10
0.0
 20
0.0
 30
0.0
210
0.0
220
0.0
230
1.0
  2
SOLID
 70
     1
 71
     1
 91
        1
 92
        1
 93
       11
 72
     1
 10
751.0826736
 20
51.6514334
 11
749.3808736
 21
51.6514334
 72
     1
 10
749.3808736
 20
51.6514334
 11
749.3808736
 21
58.7951834
 72
     1
 10
749.3808736
 20
58.7951834
 11
751.0826736
 21
58.7951834
 72
     1
 10
751.0826736
 20
58.7951834
 11
751.0826736
 21
56.55369204100001
 72
     1
 10
751.0826736
 20
56.55369204100001
 11
753.3241649589999
 21
58.7951834
 72
     1
 10
753.3241649589999
 20
58.7951834
 11
755.7308736
 21
58.7951834
 72
     1
 10
755.7308736
 20
58.7951834
 11
752.5558736
 21
55.6201834
 72
     1
 10
752.5558736
 20
55.6201834
 11
755.7308736
 21
51.6514334
 72
     1
 10
755.7308736
 20
51.6514334
 11
753.5515062341
 21
51.6514334
 72
     1
 10
753.5515062341
 20
51.6514334
 11
751.0826736
 21
54.7374741926
 72
     1
 10
751.0826736
 20
54.7374741926
 11
751.0826736
 21
51.6514334
 97
        1
330
2A8
 75
     0
 76
     1
 98
        1
 10
0.0
 20
0.0
450
        0
451
        0
460
0.0
461
0.0
452
        0
462
0.0
453
        0
470

  0
LWPOLYLINE
  5
2AA
330
220
100
AcDbEntity
  8
0
  6
Continuous
 62
     2
100
AcDbPolyline
 90
       23
 70
     0
 43
0.0
 10
758.5089986
 20
51.6514334
 10
757.4052285232
 20
51.8262534059
 10
756.4095031519998
 20
52.33360082319999
 10
755.6192910232
 20
53.123812952
 10
755.1119436058997
 20
54.1195383232
 10
754.9371236
 20
55.2233084
 10
755.1119436058997
 20
56.3270784768
 10
755.4983307727998
 20
57.08540598969999
 10
758.6815473523
 20
57.08540598969999
 10
757.9972282838
 20
57.0219944897
 10
757.3820266324
 20
56.7156604663
 10
756.9190287899
 20
56.207776027
 10
756.6707651806
 20
55.5669337795
 10
756.6707651806
 20
54.8796830205
 10
756.9190287899
 20
54.238840773
 10
757.3820266324
 20
53.7309563337
 10
757.9972282838
 20
53.42462231029998
 10
758.6815473523
 20
53.36121081029999
 10
761.5196664272
 20
53.36121081029999
 10
761.3987061767999
 20
53.123812952
 10
760.608494048
 20
52.33360082319999
 10
759.6127686767998
 20
51.8262534059
 10
758.5089986
 20
51.6514334
  0
HATCH
  5
2AB
330
220
100
AcDbEntity
  8
0
  6
Continuous
 62
     2
100
AcDbHatch
 10
0.0
 20
0.0
 30
0.0
210
0.0
220
0.0
230
1.0
  2
SOLID
 70
     1
 71
     1
 91
        1
 92
        1
 93
       22
 72
     1
 10
758.5089986
 20
51.6514334
 11
757.4052285232
 21
51.8262534059
 72
     1
 10
757.4052285232
 20
51.8262534059
 11
756.4095031519998
 21
52.33360082319999
 72
     1
 10
756.4095031519998
 20
52.33360082319999
 11
755.6192910232
 21
53.123812952
 72
     1
 10
755.6192910232
 20
53.123812952
 11
755.1119436058997
 21
54.1195383232
 72
     1
 10
755.1119436058997
 20
54.1195383232
 11
754.9371236
 21
55.2233084
 72
     1
 10
754.9371236
 20
55.2233084
 11
755.1119436058997
 21
56.3270784768
 72
     1
 10
755.1119436058997
 20
56.3270784768
 11
755.4983307727998
 21
57.08540598969999
 72
     1
 10
755.4983307727998
 20
57.08540598969999
 11
758.6815473523
 21
57.08540598969999
 72
     1
 10
758.6815473523
 20
57.08540598969999
 11
757.9972282838
 21
57.0219944897
 72
     1
 10
757.9972282838
 20
57.0219944897
 11
757.3820266324
 21
56.7156604663
 72
     1
 10
757.3820266324
 20
56.7156604663
 11
756.9190287899
 21
56.207776027
 72
     1
 10
756.9190287899
 20
56.207776027
 11
756.6707651806
 21
55.5669337795
 72
     1
 10
756.6707651806
 20
55.5669337795
 11
756.6707651806
 21
54.8796830205
 72
     1
 10
756.6707651806
 20
54.8796830205
 11
756.9190287899
 21
54.238840773
 72
     1
 10
756.9190287899
 20
54.238840773
 11
757.3820266324
 21
53.7309563337
 72
     1
 10
757.3820266324
 20
53.7309563337
 11
757.9972282838
 21
53.42462231029998
 72
     1
 10
757.9972282838
 20
53.42462231029998
 11
758.6815473523
 21
53.36121081029999
 72
     1
 10
758.6815473523
 20
53.36121081029999
 11
761.5196664272
 21
53.36121081029999
 72
     1
 10
761.5196664272
 20
53.36121081029999
 11
761.3987061767999
 21
53.123812952
 72
     1
 10
761.3987061767999
 20
53.123812952
 11
760.608494048
 21
52.33360082319999
 72
     1
 10
760.608494048
 20
52.33360082319999
 11
759.6127686767998
 21
51.8262534059
 72
     1
 10
759.6127686767998
 20
51.8262534059
 11
758.5089986
 21
51.6514334
 97
        1
330
2AA
 75
     0
 76
     1
 98
        1
 10
0.0
 20
0.0
450
        0
451
        0
460
0.0
461
0.0
452
        0
462
0.0
453
        0
470

  0
LWPOLYLINE
  5
2AC
330
220
100
AcDbEntity
  8
0
  6
Continuous
 62
     2
100
AcDbPolyline
 90
       22
 70
     0
 43
0.0
 10
755.4983307727998
 20
57.08540598969999
 10
755.6192910232
 20
57.322803848
 10
756.4095031519998
 20
58.11301597679999
 10
757.4052285232
 20
58.6203633941
 10
758.5089986
 20
58.7951834
 10
759.6127686767998
 20
58.6203633941
 10
760.608494048
 20
58.11301597679999
 10
761.3987061767999
 20
57.322803848
 10
761.9060535941001
 20
56.3270784768
 10
762.0808736
 20
55.2233084
 10
761.9060535941001
 20
54.1195383232
 10
761.5196664272
 20
53.36121081029999
 10
758.6815473523
 20
53.36121081029999
 10
759.3425627557
 20
53.5492859079
 10
759.8910007009
 20
53.9634470192
 10
760.2527916044
 20
54.5477593911
 10
760.3790736
 20
55.2233084
 10
760.2527916044
 20
55.8988574089
 10
759.8910007009
 20
56.4831697808
 10
759.3425627557
 20
56.8973308921
 10
758.6815473523
 20
57.08540598969999
 10
755.4983307727998
 20
57.08540598969999
  0
HATCH
  5
2AD
330
220
100
AcDbEntity
  8
0
  6
Continuous
 62
     2
100
AcDbHatch
 10
0.0
 20
0.0
 30
0.0
210
0.0
220
0.0
230
1.0
  2
SOLID
 70
     1
 71
     1
 91
        1
 92
        1
 93
       21
 72
     1
 10
755.4983307727998
 20
57.08540598969999
 11
755.6192910232
 21
57.322803848
 72
     1
 10
755.6192910232
 20
57.322803848
 11
756.4095031519998
 21
58.11301597679999
 72
     1
 10
756.4095031519998
 20
58.11301597679999
 11
757.4052285232
 21
58.6203633941
 72
     1
 10
757.4052285232
 20
58.6203633941
 11
758.5089986
 21
58.7951834
 72
     1
 10
758.5089986
 20
58.7951834
 11
759.6127686767998
 21
58.6203633941
 72
     1
 10
759.6127686767998
 20
58.6203633941
 11
760.608494048
 21
58.11301597679999
 72
     1
 10
760.608494048
 20
58.11301597679999
 11
761.3987061767999
 21
57.322803848
 72
     1
 10
761.3987061767999
 20
57.322803848
 11
761.9060535941001
 21
56.3270784768
 72
     1
 10
761.9060535941001
 20
56.3270784768
 11
762.0808736
 21
55.2233084
 72
     1
 10
762.0808736
 20
55.2233084
 11
761.9060535941001
 21
54.1195383232
 72
     1
 10
761.9060535941001
 20
54.1195383232
 11
761.5196664272
 21
53.36121081029999
 72
     1
 10
761.5196664272
 20
53.36121081029999
 11
758.6815473523
 21
53.36121081029999
 72
     1
 10
758.6815473523
 20
53.36121081029999
 11
759.3425627557
 21
53.5492859079
 72
     1
 10
759.3425627557
 20
53.5492859079
 11
759.8910007009
 21
53.9634470192
 72
     1
 10
759.8910007009
 20
53.9634470192
 11
760.2527916044
 21
54.5477593911
 72
     1
 10
760.2527916044
 20
54.5477593911
 11
760.3790736
 21
55.2233084
 72
     1
 10
760.3790736
 20
55.2233084
 11
760.2527916044
 21
55.8988574089
 72
     1
 10
760.2527916044
 20
55.8988574089
 11
759.8910007009
 21
56.4831697808
 72
     1
 10
759.8910007009
 20
56.4831697808
 11
759.3425627557
 21
56.8973308921
 72
     1
 10
759.3425627557
 20
56.8973308921
 11
758.6815473523
 21
57.08540598969999
 72
     1
 10
758.6815473523
 20
57.08540598969999
 11
755.4983307727998
 21
57.08540598969999
 97
        1
330
2AC
 75
     0
 76
     1
 98
        1
 10
0.0
 20
0.0
450
        0
451
        0
460
0.0
461
0.0
452
        0
462
0.0
453
        0
470

  0
LWPOLYLINE
  5
2AE
330
220
100
AcDbEntity
  8
0
  6
Continuous
 62
     2
100
AcDbPolyline
 90
       13
 70
     0
 43
0.0
 10
764.5764235999998
 20
51.6514334
 10
762.8746236
 20
51.6514334
 10
762.8746236
 20
58.7951834
 10
764.5764235999998
 20
58.7951834
 10
764.5764235999998
 20
56.4710834
 10
766.5607986
 20
56.4710834
 10
766.5607986
 20
58.7951834
 10
768.2625986
 20
58.7951834
 10
768.2625986
 20
51.6514334
 10
766.5607986
 20
51.6514334
 10
766.5607986
 20
54.7692834
 10
764.5764235999998
 20
54.7692834
 10
764.5764235999998
 20
51.6514334
  0
HATCH
  5
2AF
330
220
100
AcDbEntity
  8
0
  6
Continuous
 62
     2
100
AcDbHatch
 10
0.0
 20
0.0
 30
0.0
210
0.0
220
0.0
230
1.0
  2
SOLID
 70
     1
 71
     1
 91
        1
 92
        1
 93
       12
 72
     1
 10
764.5764235999998
 20
51.6514334
 11
762.8746236
 21
51.6514334
 72
     1
 10
762.8746236
 20
51.6514334
 11
762.8746236
 21
58.7951834
 72
     1
 10
762.8746236
 20
58.7951834
 11
764.5764235999998
 21
58.7951834
 72
     1
 10
764.5764235999998
 20
58.7951834
 11
764.5764235999998
 21
56.4710834
 72
     1
 10
764.5764235999998
 20
56.4710834
 11
766.5607986
 21
56.4710834
 72
     1
 10
766.5607986
 20
56.4710834
 11
766.5607986
 21
58.7951834
 72
     1
 10
766.5607986
 20
58.7951834
 11
768.2625986
 21
58.7951834
 72
     1
 10
768.2625986
 20
58.7951834
 11
768.2625986
 21
51.6514334
 72
     1
 10
768.2625986
 20
51.6514334
 11
766.5607986
 21
51.6514334
 72
     1
 10
766.5607986
 20
51.6514334
 11
766.5607986
 21
54.7692834
 72
     1
 10
766.5607986
 20
54.7692834
 11
764.5764235999998
 21
54.7692834
 72
     1
 10
764.5764235999998
 20
54.7692834
 11
764.5764235999998
 21
51.6514334
 97
        1
330
2AE
 75
     0
 76
     1
 98
        1
 10
0.0
 20
0.0
450
        0
451
        0
460
0.0
461
0.0
452
        0
462
0.0
453
        0
470

  0
LWPOLYLINE
  5
2B0
330
220
100
AcDbEntity
  8
0
  6
Continuous
 62
     2
100
AcDbPolyline
 90
        7
 70
     0
 43
0.0
 10
773.0250986000002
 20
51.6514334
 10
769.0563486000002
 20
51.6514334
 10
769.0563486000002
 20
58.7951834
 10
770.7581486
 20
58.7951834
 10
770.7581486
 20
53.3532334
 10
773.0250986000002
 20
53.3532334
 10
773.0250986000002
 20
51.6514334
  0
HATCH
  5
2B1
330
220
100
AcDbEntity
  8
0
  6
Continuous
 62
     2
100
AcDbHatch
 10
0.0
 20
0.0
 30
0.0
210
0.0
220
0.0
230
1.0
  2
SOLID
 70
     1
 71
     1
 91
        1
 92
        1
 93
        6
 72
     1
 10
773.0250986000002
 20
51.6514334
 11
769.0563486000002
 21
51.6514334
 72
     1
 10
769.0563486000002
 20
51.6514334
 11
769.0563486000002
 21
58.7951834
 72
     1
 10
769.0563486000002
 20
58.7951834
 11
770.7581486
 21
58.7951834
 72
     1
 10
770.7581486
 20
58.7951834
 11
770.7581486
 21
53.3532334
 72
     1
 10
770.7581486
 20
53.3532334
 11
773.0250986000002
 21
53.3532334
 72
     1
 10
773.0250986000002
 20
53.3532334
 11
773.0250986000002
 21
51.6514334
 97
        1
330
2B0
 75
     0
 76
     1
 98
        1
 10
0.0
 20
0.0
450
        0
451
        0
460
0.0
461
0.0
452
        0
462
0.0
453
        0
470

  0
LWPOLYLINE
  5
2B2
330
220
100
AcDbEntity
  8
0
  6
Continuous
 62
     2
100
AcDbPolyline
 90
       13
 70
     0
 43
0.0
 10
777.7875986
 20
51.6514334
 10
773.8188486
 20
51.6514334
 10
773.8188486
 20
58.7951834
 10
777.7875986
 20
58.7951834
 10
777.7875986
 20
57.0933834
 10
775.5206486
 20
57.0933834
 10
775.5206486
 20
55.8757709
 10
777.7875986
 20
55.8757709
 10
777.7875986
 20
54.5708459
 10
775.5206486
 20
54.5708459
 10
775.5206486
 20
53.3532334
 10
777.7875986
 20
53.3532334
 10
777.7875986
 20
51.6514334
  0
HATCH
  5
2B3
330
220
100
AcDbEntity
  8
0
  6
Continuous
 62
     2
100
AcDbHatch
 10
0.0
 20
0.0
 30
0.0
210
0.0
220
0.0
230
1.0
  2
SOLID
 70
     1
 71
     1
 91
        1
 92
        1
 93
       12
 72
     1
 10
777.7875986
 20
51.6514334
 11
773.8188486
 21
51.6514334
 72
     1
 10
773.8188486
 20
51.6514334
 11
773.8188486
 21
58.7951834
 72
     1
 10
773.8188486
 20
58.7951834
 11
777.7875986
 21
58.7951834
 72
     1
 10
777.7875986
 20
58.7951834
 11
777.7875986
 21
57.0933834
 72
     1
 10
777.7875986
 20
57.0933834
 11
775.5206486
 21
57.0933834
 72
     1
 10
775.5206486
 20
57.0933834
 11
775.5206486
 21
55.8757709
 72
     1
 10
775.5206486
 20
55.8757709
 11
777.7875986
 21
55.8757709
 72
     1
 10
777.7875986
 20
55.8757709
 11
777.7875986
 21
54.5708459
 72
     1
 10
777.7875986
 20
54.5708459
 11
775.5206486
 21
54.5708459
 72
     1
 10
775.5206486
 20
54.5708459
 11
775.5206486
 21
53.3532334
 72
     1
 10
775.5206486
 20
53.3532334
 11
777.7875986
 21
53.3532334
 72
     1
 10
777.7875986
 20
53.3532334
 11
777.7875986
 21
51.6514334
 97
        1
330
2B2
 75
     0
 76
     1
 98
        1
 10
0.0
 20
0.0
450
        0
451
        0
460
0.0
461
0.0
452
        0
462
0.0
453
        0
470

  0
ENDBLK
  5
2B4
330
220
100
AcDbEntity
  8
0
  6
ByBlock
 62
     0
100
AcDbBlockEnd
  0
BLOCK
  5
EF3
330
EF1
100
AcDbEntity
  8
0
100
AcDbBlockBegin
  2
GENAXEH
 70
     0
 10
0.0
 20
0.0
 30
0.0
  3
GENAXEH
  1

  0
LINE
  5
EF2
330
EF1
100
AcDbEntity
  8
0
100
AcDbLine
 10
-1.0
 20
0.0
 30
0.0
 11
1.0
 21
0.0
 31
0.0
  0
ENDBLK
  5
EF4
330
EF1
100
AcDbEntity
  8
0
100
AcDbBlockEnd
  0
ENDSEC
  0
SECTION
  2
ENTITIES
  0
LINE
  5
B4B
330
216
100
AcDbEntity
  8
0
  6
Continuous
 62
     7
100
AcDbLine
 10
2406.7814662653
 20
-126.6894134693
 30
0.0
 11
2406.958001632001
 21
-125.8202606558
 31
0.0
  0
LINE
  5
B4C
330
216
100
AcDbEntity
  8
0
  6
Continuous
 62
     7
100
AcDbLine
 10
2406.7813834422
 20
-126.6894093016
 30
0.0
 11
2406.9721237708
 21
-125.7826268871
 31
0.0
  0
LINE
  5
B4D
330
216
100
AcDbEntity
  8
0
  6
Continuous
 62
     7
100
AcDbLine
 10
2408.6295267243
 20
-121.2286441986
 30
0.0
 11
2406.9582787012
 21
-125.8203604042
 31
0.0
  0
LINE
  5
B4E
330
216
100
AcDbEntity
  8
0
  6
Continuous
 62
     7
100
AcDbLine
 10
2413.1912093599
 20
-128.2416744136
 30
0.0
 11
2413.19120936
 21
-120.2416744136
 31
0.0
  0
LINE
  5
B4F
330
216
100
AcDbEntity
  8
0
  6
Continuous
 62
     7
100
AcDbLine
 10
2406.7814679593
 20
-126.6894129654
 30
0.0
 11
2406.700117384
 21
-128.2416744136
 31
0.0
  0
LINE
  5
B50
330
216
100
AcDbEntity
  8
0
  6
Continuous
 62
     7
100
AcDbLine
 10
2451.8849439232
 20
-304.356519352
 30
0.0
 11
2451.8848577187
 21
-304.3557047688
 31
0.0
  0
LINE
  5
B51
330
216
100
AcDbEntity
  8
0
  6
Continuous
 62
     7
100
AcDbLine
 10
2449.4180629713
 20
-304.1897637681
 30
0.0
 11
2449.4181302733
 21
-304.1904302207
 31
0.0
  0
LINE
  5
B52
330
216
100
AcDbEntity
  8
0
  6
Continuous
 62
     7
100
AcDbLine
 10
2435.264102222
 20
-136.5646695622
 30
0.0
 11
2451.8848577187
 21
-304.3557047688
 31
0.0
  0
LINE
  5
B53
330
216
100
AcDbEntity
  8
0
  6
Continuous
 62
     7
100
AcDbLine
 10
2435.1735891113
 20
-134.6638219409
 30
0.0
 11
2452.0202777876
 21
-304.2177947104
 31
0.0
  0
LINE
  5
B54
330
216
100
AcDbEntity
  8
0
  6
Continuous
 62
     7
100
AcDbLine
 10
2433.8599452246
 20
-140.7494999302
 30
0.0
 11
2449.4180629713
 21
-304.1897637681
 31
0.0
  0
LINE
  5
B55
330
216
100
AcDbEntity
  8
0
  6
Continuous
 62
     7
100
AcDbLine
 10
2431.5994063835
 20
-130.4597593684
 30
0.0
 11
2431.9817146008
 21
-134.6532192949
 31
0.0
  0
LINE
  5
B56
330
216
100
AcDbEntity
  8
0
  6
Continuous
 62
     7
100
AcDbLine
 10
2435.238038049301
 20
-136.2783805074
 30
0.0
 11
2435.264102222
 21
-136.5646695622
 31
0.0
  0
LINE
  5
B57
330
216
100
AcDbEntity
  8
0
  6
Continuous
 62
     7
100
AcDbLine
 10
2435.1744610644
 20
-134.6637473035
 30
0.0
 11
2435.238038049301
 21
-136.2783805074
 31
0.0
  0
LWPOLYLINE
  5
B58
330
216
100
AcDbEntity
  8
0
  6
Continuous
 62
     7
100
AcDbPolyline
 90
       51
 70
     0
 43
0.0
 10
2449.4815162447
 20
-304.767827579
 10
2449.5864300901
 20
-305.4716967782
 10
2449.7172995178
 20
-306.162695322
 10
2449.8732956276
 20
-306.8419681317
 10
2450.0531925163
 20
-307.507840693
 10
2450.2556680702
 20
-308.1585643523
 10
2450.480450429501
 20
-308.7955198629
 10
2450.7266187058
 20
-309.4176141576
 10
2450.9931009556
 20
-310.0235492789
 10
2451.279931054501
 20
-310.6145387104
 10
2451.5858936669
 20
-311.1898752806
 10
2451.9091966002
 20
-311.7483402809
 10
2452.2490730432
 20
-312.2903835684
 10
2452.6041733263
 20
-312.8152723376
 10
2452.9731412663
 20
-313.3222681578
 10
2453.3555510483
 20
-313.811814491
 10
2453.7503319077
 20
-314.2833545291
 10
2454.1563725034
 20
-314.7362987207
 10
2454.5734554325
 20
-315.1709963643
 10
2455.0007069041
 20
-315.5869901859
 10
2455.437133158
 20
-315.9838946414
 10
2455.882266053
 20
-316.3623920935
 10
2456.3349367831
 20
-316.7225868501
 10
2456.7939465861
 20
-317.0645316257
 10
2457.2588878084
 20
-317.3888016841
 10
2457.7288625513
 20
-317.6955238067
 10
2458.2027630878
 20
-317.9846685789
 10
2458.6799855886
 20
-318.2564948421
 10
2459.1599674441
 20
-318.5112221449
 10
2459.6415186388
 20
-318.748717183
 10
2460.123138862901
 20
-318.9687551792
 10
2460.6041025674
 20
-319.1715149369
 10
2461.0835653726
 20
-319.3571850434
 10
2461.5599178696
 20
-319.5259886467
 10
2462.0339760967
 20
-319.6790661124
 10
2462.503714648
 20
-319.8165678718
 10
2462.9632950769
 20
-319.9378377847001
 10
2463.4149857409
 20
-320.0445729885
 10
2463.8555756985
 20
-320.1370465107
 10
2464.2711752784
 20
-320.2139255975
 10
2464.6632979961
 20
-320.2773781646
 10
2465.0302948613
 20
-320.3288612928
 10
2465.3540961249
 20
-320.3679932253
 10
2465.6283072917
 20
-320.396554421
 10
2465.860719778201
 20
-320.41750297
 10
2466.0548153625
 20
-320.4327346833
 10
2466.204830321601
 20
-320.4431223408
 10
2466.3177604135
 20
-320.450167927
 10
2466.4157697475
 20
-320.4557639086
 10
2466.503435394
 20
-320.4603813024001
 10
2466.6448757621
 20
-320.4671244297
  0
LWPOLYLINE
  5
B59
330
216
100
AcDbEntity
  8
0
  6
Continuous
 62
     7
100
AcDbPolyline
 90
       52
 70
     0
 43
0.0
 10
2451.9375845431
 20
-304.8409958529
 10
2452.0375038304
 20
-305.5180544204
 10
2452.1615073409
 20
-306.1833457026
 10
2452.3088386383
 20
-306.8378581994
 10
2452.4783896853
 20
-307.480070157
 10
2452.668971531
 20
-308.1084005095001
 10
2452.8803068483
 20
-308.7240558058
 10
2453.111540603901
 20
-309.3260073308
 10
2453.3617056879
 20
-309.913094368
 10
2453.6308656462
 20
-310.4864614156
 10
2453.9181457836
 20
-311.0454747646
 10
2454.22195175
 20
-311.5890277697
 10
2454.5415912817
 20
-312.1175942682
 10
2454.8758401045
 20
-312.630519691
 10
2455.2234349899
 20
-313.1270883177
 10
2455.58394556
 20
-313.6076900847001
 10
2455.9563716337
 20
-314.0717982246
 10
2456.33969039
 20
-314.518870235
 10
2456.7336792611
 20
-314.9492400758
 10
2457.1375241536
 20
-315.3624820798
 10
2457.5503762306
 20
-315.7581534276
 10
2457.9720280883
 20
-316.1366352539
 10
2458.4014240182
 20
-316.4979830646
 10
2458.8374469825
 20
-316.8422476955
 10
2459.279703988
 20
-317.1699872182
 10
2459.7272803774
 20
-317.4812769472
 10
2460.1792144562
 20
-317.7761431942
 10
2460.6351673272
 20
-318.0549773538
 10
2461.0946076609
 20
-318.317971704
 10
2461.5564456793
 20
-318.5649802133
 10
2462.019561855401
 20
-318.7958813176
 10
2462.483370647901
 20
-319.0108361394
 10
2462.9469856748
 20
-319.2098558937
 10
2463.408855941001
 20
-319.392743933
 10
2463.8686186603
 20
-319.5600557588
 10
2464.3254484937
 20
-319.7122790523
 10
2464.777149949501
 20
-319.8495145855
 10
2465.2256934448
 20
-319.9731155198
 10
2465.6681350284
 20
-320.0829847537
 10
2466.0949633847
 20
-320.1778895369
 10
2466.5083775596
 20
-320.2596261039
 10
2466.9056073576
 20
-320.3288650914
 10
2467.270011012
 20
-320.3844658752
 10
2467.6000963661
 20
-320.4283539562
 10
2467.897911252
 20
-320.4627104829
 10
2468.1526209221
 20
-320.4881810914
 10
2468.3557849515
 20
-320.5059356353
 10
2468.517250467601
 20
-320.5184469902
 10
2468.6534438337
 20
-320.5279207427
 10
2468.7648284243
 20
-320.5349547547001
 10
2468.8515163583
 20
-320.5400010047
 10
2469.0004445359
 20
-320.5478484853
  0
LWPOLYLINE
  5
B5A
330
216
100
AcDbEntity
  8
0
  6
Continuous
 62
     7
100
AcDbPolyline
 90
        9
 70
     0
 43
0.0
 10
2431.9757135396
 20
-134.6522090392
 10
2432.132082798
 20
-135.8481508019
 10
2432.420924918901
 20
-137.1835125478
 10
2432.823944921
 20
-138.4818560475
 10
2433.3360630931
 20
-139.7331215385
 10
2433.9580883793
 20
-140.9399064659
 10
2434.6841418664
 20
-142.0887858582
 10
2435.5045497709
 20
-143.1654470731
 10
2435.9686213277
 20
-143.6750584738
  0
LINE
  5
B5B
330
216
100
AcDbEntity
  8
0
  6
Continuous
 62
     7
100
AcDbLine
 10
2451.8821563285
 20
-304.35536449
 30
0.0
 11
2451.9375845431
 21
-304.8409958529
 31
0.0
  0
LINE
  5
B5C
330
216
100
AcDbEntity
  8
0
  6
Continuous
 62
     7
100
AcDbLine
 10
2449.4171221443
 20
-304.1946227881
 30
0.0
 11
2449.4815162447
 21
-304.767827579
 31
0.0
  0
LINE
  5
B5D
330
216
100
AcDbEntity
  8
0
  6
Continuous
 62
     7
100
AcDbLine
 10
2460.5172389993
 20
-303.249329818
 30
0.0
 11
2445.3981673329
 21
-130.457740078
 31
0.0
  0
LINE
  5
B5E
330
216
100
AcDbEntity
  8
0
  6
Continuous
 62
     7
100
AcDbLine
 10
2472.6821525664
 20
-130.4792160529
 30
0.0
 11
2487.7989995828
 21
-303.2378666827
 31
0.0
  0
LINE
  5
B5F
330
216
100
AcDbEntity
  8
0
  6
Continuous
 62
     7
100
AcDbLine
 10
2472.6821525664
 20
-130.4792160529
 30
0.0
 11
2472.6821525664
 21
-128.2416744136
 31
0.0
  0
LWPOLYLINE
  5
B60
330
216
100
AcDbEntity
  8
0
  6
Continuous
 62
     7
100
AcDbPolyline
 90
       43
 70
     0
 43
0.0
 10
2793.702564347
 20
-325.6018017887
 10
2793.8506042979
 20
-325.5944217631
 10
2794.0122193688
 20
-325.5853435754
 10
2794.1900029571
 20
-325.5740197595
 10
2794.4011361893
 20
-325.5586254324
 10
2794.648610111301
 20
-325.5377459012
 10
2794.9316896824
 20
-325.5099602782
 10
2795.2628443985
 20
-325.4720178832
 10
2795.6517184247
 20
-325.4198141897
 10
2796.091032353201
 20
-325.3507207039
 10
2796.5676559418
 20
-325.263402981
 10
2797.0826882118
 20
-325.1543060935
 10
2797.6349907219
 20
-325.0198916711
 10
2798.2072094798
 20
-324.8610526922
 10
2798.796174953301
 20
-324.6760127868
 10
2799.402959626501
 20
-324.4615305597
 10
2800.0162330885
 20
-324.2189342558
 10
2800.6341795371
 20
-323.9470516353
 10
2801.2553925351
 20
-323.6450115504
 10
2801.8693734555
 20
-323.3169630852
 10
2802.4707904019
 20
-322.965620813
 10
2803.0619005171
 20
-322.5894590852
 10
2803.6437154879
 20
-322.1870336242
 10
2804.2145518992
 20
-321.7583564497
 10
2804.7723207072
 20
-321.3037069058
 10
2805.3169675533
 20
-320.8214932531
 10
2805.8462403503
 20
-320.3118216082
 10
2806.3584989086
 20
-319.775386514
 10
2806.8540835243
 20
-319.2111398587
 10
2807.3311078804
 20
-318.6201760813
 10
2807.787734628401
 20
-318.0035741753
 10
2808.2236626286
 20
-317.360022776
 10
2808.636286410001
 20
-316.691081568
 10
2809.0232330732
 20
-315.9979603235
 10
2809.3835212123
 20
-315.2787312358
 10
2809.7139243385
 20
-314.5357265205
 10
2810.0128960296
 20
-313.7702555564
 10
2810.2805606294
 20
-312.9789763798
 10
2810.5144386558
 20
-312.1647358533
 10
2810.712355442399
 20
-311.3299953135
 10
2810.8731284659
 20
-310.4714165681
 10
2810.9937712738
 20
-309.5908509257
 10
2811.0148388085
 20
-309.3920328965
  0
LWPOLYLINE
  5
B61
330
216
100
AcDbEntity
  8
0
  6
Continuous
 62
     7
100
AcDbPolyline
 90
       41
 70
     0
 43
0.0
 10
2796.0462707653
 20
-325.5214624155
 10
2796.1797463128
 20
-325.515651049
 10
2796.3204117348
 20
-325.5088056975
 10
2796.4807330044
 20
-325.5000087238
 10
2796.6573976726
 20
-325.4889818057
 10
2796.855363077
 20
-325.4748519591
 10
2797.1002912028
 20
-325.4546419993
 10
2797.399303898
 20
-325.4257195376
 10
2797.7477601751
 20
-325.3859535687
 10
2798.154345222199
 20
-325.331133135
 10
2798.632616247801
 20
-325.2548320006
 10
2799.1709956145
 20
-325.1533794051
 10
2799.7398037396
 20
-325.0278965763
 10
2800.3326048944
 20
-324.8765735628
 10
2800.9543965817
 20
-324.694558095
 10
2801.5917342314
 20
-324.4822233786
 10
2802.2440830609
 20
-324.2365330019
 10
2802.90864278
 20
-323.9551707056
 10
2803.5684811755
 20
-323.6435757187
 10
2804.2168198902
 20
-323.3047935154
 10
2804.8567503082
 20
-322.936964001
 10
2805.4864423516
 20
-322.5404025746
 10
2806.102798081
 20
-322.1162920875
 10
2806.7049203936
 20
-321.6643565149
 10
2807.2939186707
 20
-321.1822953167
 10
2807.867522995801
 20
-320.6699343856
 10
2808.4230314264
 20
-320.1276821545
 10
2808.9608219151
 20
-319.554155476
 10
2809.4788356304
 20
-318.9505956623
 10
2809.9750722191
 20
-318.3182353472
 10
2810.4493920311
 20
-317.6555745214
 10
2810.8989430821
 20
-316.9642825763
 10
2811.3210638987
 20
-316.2457743561
 10
2811.7147225096
 20
-315.4980107501
 10
2812.0759355716
 20
-314.7236987882
 10
2812.402511022801
 20
-313.9243018327
 10
2812.694707268
 20
-313.0959798118
 10
2812.949675361301
 20
-312.2420050249
 10
2813.164974502
 20
-311.3650930488
 10
2813.3393354304
 20
-310.4612222909
 10
2813.469283449001
 20
-309.5324720808
  0
LINE
  5
B62
330
216
100
AcDbEntity
  8
0
  6
Continuous
 62
     7
100
AcDbLine
 10
2793.4413201827
 20
-325.6129102227
 30
0.0
 11
2793.702564347
 21
-325.6018017887
 31
0.0
  0
LINE
  5
B63
330
216
100
AcDbEntity
  8
0
  6
Continuous
 62
     7
100
AcDbLine
 10
2772.6376871409
 20
-326.339503467
 30
0.0
 11
2793.4413201827
 21
-325.6129102227
 31
0.0
  0
LINE
  5
B64
330
216
100
AcDbEntity
  8
0
  6
Continuous
 62
     7
100
AcDbLine
 10
2793.3121916412
 20
-325.6175338609
 30
0.0
 11
2796.0462707653
 21
-325.5214624155
 31
0.0
  0
LINE
  5
B65
330
216
100
AcDbEntity
  8
0
  6
Continuous
 62
     7
100
AcDbLine
 10
2763.6978285397
 20
-332.216906013
 30
0.0
 11
2643.7024583228
 21
-332.216906013
 31
0.0
  0
LINE
  5
B66
330
216
100
AcDbEntity
  8
0
  6
Continuous
 62
     7
100
AcDbLine
 10
2639.1441228347
 20
-329.2766818075
 30
0.0
 11
2768.256164027801
 21
-329.2766818075
 31
0.0
  0
LINE
  5
B67
330
216
100
AcDbEntity
  8
0
  6
Continuous
 62
     7
100
AcDbLine
 10
2772.6376871409
 20
-326.339503467
 30
0.0
 11
2634.7625997217
 21
-326.339503467
 31
0.0
  0
LINE
  5
B68
330
216
100
AcDbEntity
  8
0
  6
Continuous
 62
     7
100
AcDbLine
 10
2634.7625997217
 20
-326.339503467
 30
0.0
 11
2469.6943359142
 21
-320.5751926761
 31
0.0
  0
LINE
  5
B69
330
216
100
AcDbEntity
  8
0
  6
Continuous
 62
     7
100
AcDbLine
 10
2469.5224998567
 20
-320.5691919838
 30
0.0
 11
2467.236885535
 21
-320.4893766179
 31
0.0
  0
LINE
  5
B6A
330
216
100
AcDbEntity
  8
0
  6
Continuous
 62
     7
100
AcDbLine
 10
2466.7695725178
 20
-320.4724441944
 30
0.0
 11
2466.9973297902
 21
-320.4810391674
 31
0.0
  0
LINE
  5
B6B
330
216
100
AcDbEntity
  8
0
  6
Continuous
 62
     7
100
AcDbLine
 10
2466.6448757621
 20
-320.4671244297
 30
0.0
 11
2466.7695725178
 21
-320.4724441944
 31
0.0
  0
LINE
  5
B6C
330
216
100
AcDbEntity
  8
0
  6
Continuous
 62
     7
100
AcDbLine
 10
2469.122285410402
 20
-320.5535718659
 30
0.0
 11
2469.2871497218
 21
-320.560494957
 31
0.0
  0
LINE
  5
B6D
330
216
100
AcDbEntity
  8
0
  6
Continuous
 62
     7
100
AcDbLine
 10
2469.0004445359
 20
-320.5478484853
 30
0.0
 11
2469.122285410402
 21
-320.5535718659
 31
0.0
  0
LWPOLYLINE
  5
B6E
330
216
100
AcDbEntity
  8
0
  6
Continuous
 62
     7
100
AcDbPolyline
 90
       11
 70
     0
 43
0.0
 10
2430.2579494945
 20
-128.2416744136
 10
2430.4213312423
 20
-128.3501737144
 10
2430.6540702511
 20
-128.5437146074
 10
2430.8598011635
 20
-128.7572864426
 10
2431.0396518501
 20
-128.9870276926
 10
2431.1936517518
 20
-129.2274388451
 10
2431.322642468201
 20
-129.4745077689
 10
2431.4282814963
 20
-129.7273534299
 10
2431.5101608854
 20
-129.9822095901
 10
2431.5679102282
 20
-130.2354552216
 10
2431.599870985901
 20
-130.4689726283
  0
LINE
  5
B6F
330
216
100
AcDbEntity
  8
0
  6
Continuous
 62
     7
100
AcDbLine
 10
2810.8746821978
 20
-309.2382212228
 30
0.0
 11
2811.0116580368
 21
-309.3885367541
 31
0.0
  0
LWPOLYLINE
  5
B70
330
216
100
AcDbEntity
  8
0
  6
Continuous
 62
     7
100
AcDbPolyline
 90
        9
 70
     0
 43
0.0
 10
2827.4312222143
 20
-143.675840684
 10
2827.8522119314
 20
-143.2173751673
 10
2828.6734462284
 20
-142.1498223838
 10
2829.401589907801
 20
-141.0103533272
 10
2830.0270644436
 20
-139.8129849931
 10
2830.543989184501
 20
-138.570921118
 10
2830.9531599526
 20
-137.281657987
 10
2831.2495318119
 20
-135.9550612049
 10
2831.4245207901
 20
-134.6522090111
  0
LINE
  5
B71
330
216
100
AcDbEntity
  8
0
  6
Continuous
 62
     7
100
AcDbLine
 10
2831.4245207901
 20
-134.6522090111
 30
0.0
 11
2828.2268583274
 21
-134.6671505326
 31
0.0
  0
LINE
  5
B72
330
216
100
AcDbEntity
  8
0
  6
Continuous
 62
     7
100
AcDbLine
 10
2431.599870985901
 20
-130.4689726283
 30
0.0
 11
2445.398141550001
 21
-130.4574177001
 31
0.0
  0
LINE
  5
B73
330
216
100
AcDbEntity
  8
0
  6
Continuous
 62
     7
100
AcDbLine
 10
2790.7168451667
 20
-130.4792160529
 30
0.0
 11
2472.6821525664
 21
-130.4792160529
 31
0.0
  0
LINE
  5
B74
330
216
100
AcDbEntity
  8
0
  6
Continuous
 62
     7
100
AcDbLine
 10
2856.7000848313
 20
-128.2416744136
 30
0.0
 11
2406.7001498601
 21
-128.2416744136
 31
0.0
  0
LINE
  5
B75
330
216
100
AcDbEntity
  8
0
  6
Continuous
 62
     7
100
AcDbLine
 10
2856.441956832199
 20
-125.8203599265
 30
0.0
 11
2406.9582777391
 21
-125.820360385
 31
0.0
  0
LINE
  5
B76
330
216
100
AcDbEntity
  8
0
  6
Continuous
 62
     7
100
AcDbLine
 10
2406.7814669245
 20
-126.6894126083
 30
0.0
 11
2856.5832428904
 21
-126.6893798752
 31
0.0
  0
LINE
  5
B77
330
216
100
AcDbEntity
  8
0
  6
Continuous
 62
     7
100
AcDbLine
 10
2818.0020787476
 20
-130.4576407456
 30
0.0
 11
2831.79931593
 21
-130.4688154321
 31
0.0
  0
LINE
  5
B78
330
216
100
AcDbEntity
  8
0
  6
Continuous
 62
     7
100
AcDbLine
 10
2435.1733757601
 20
-134.6671505588
 30
0.0
 11
2431.9757135396
 21
-134.6522090392
 31
0.0
  0
LINE
  5
B79
330
216
100
AcDbEntity
  8
0
  6
Continuous
 62
     7
100
AcDbLine
 10
2853.361169112501
 20
-120.2416744136
 30
0.0
 11
2410.0390784891
 21
-120.2416744136
 31
0.0
  0
LINE
  5
B7A
330
216
100
AcDbEntity
  8
0
  6
Continuous
 62
     7
100
AcDbLine
 10
2408.6295255426
 20
-121.2286433648
 30
0.0
 11
2854.7707092228
 21
-121.2286433579
 31
0.0
  0
LINE
  5
B7B
330
216
100
AcDbEntity
  8
0
  6
Continuous
 62
     7
100
AcDbLine
 10
2775.2993592466
 20
-306.6877488004
 30
0.0
 11
2775.5786936229
 21
-323.1020321006
 31
0.0
  0
LINE
  5
B7C
330
216
100
AcDbEntity
  8
0
  6
Continuous
 62
     7
100
AcDbLine
 10
2790.7168451667
 20
-130.4792160529
 30
0.0
 11
2775.300596917001
 21
-306.6877398591
 31
0.0
  0
LINE
  5
B7D
330
216
100
AcDbEntity
  8
0
  6
Continuous
 62
     7
100
AcDbLine
 10
2790.718082201501
 20
-128.2416744136
 30
0.0
 11
2790.718082201501
 21
-130.4792160529
 31
0.0
  0
LINE
  5
B7E
330
216
100
AcDbEntity
  8
0
  6
Continuous
 62
     7
100
AcDbLine
 10
2818.0020610426
 20
-130.457745198
 30
0.0
 11
2802.561565820801
 21
-306.9228465243
 31
0.0
  0
LINE
  5
B7F
330
216
100
AcDbEntity
  8
0
  6
Continuous
 62
     7
100
AcDbLine
 10
2828.1404459829
 20
-136.5196031132
 30
0.0
 11
2828.2257134018
 21
-134.6637408929
 31
0.0
  0
LINE
  5
B80
330
216
100
AcDbEntity
  8
0
  6
Continuous
 62
     7
100
AcDbLine
 10
2831.418500319
 20
-134.6534370055
 30
0.0
 11
2831.8008300612
 21
-130.4597409766
 31
0.0
  0
LINE
  5
B81
330
216
100
AcDbEntity
  8
0
  6
Continuous
 62
     7
100
AcDbLine
 10
2813.500124827
 20
-309.2263362854
 30
0.0
 11
2829.5406895043
 21
-140.7440699814
 31
0.0
  0
LINE
  5
B82
330
216
100
AcDbEntity
  8
0
  6
Continuous
 62
     7
100
AcDbLine
 10
2811.0250730887
 20
-309.2531111277
 30
0.0
 11
2828.1404459829
 21
-136.5196031132
 31
0.0
  0
LINE
  5
B83
330
216
100
AcDbEntity
  8
0
  6
Continuous
 62
     7
100
AcDbLine
 10
2810.8757014504
 20
-309.2383146056
 30
0.0
 11
2828.2269414377
 21
-134.6605503669
 31
0.0
  0
LINE
  5
B84
330
216
100
AcDbEntity
  8
0
  6
Continuous
 62
     7
100
AcDbLine
 10
2813.469283449001
 20
-309.5324720808
 30
0.0
 11
2813.5008660566
 21
-309.2303534441
 31
0.0
  0
LWPOLYLINE
  5
B85
330
216
100
AcDbEntity
  8
0
  6
Continuous
 62
     7
100
AcDbPolyline
 90
       11
 70
     0
 43
0.0
 10
2831.799317032701
 20
-130.4688107407
 10
2831.8293788851
 20
-130.2467436221
 10
2831.884861489001
 20
-129.9981601993
 10
2831.9638408504
 20
-129.7470423713
 10
2832.0664326415
 20
-129.4963606094
 10
2832.1923435575
 20
-129.2503114632
 10
2832.3433101708
 20
-129.0099429083
 10
2832.520245530301
 20
-128.7793874089
 10
2832.7234463897
 20
-128.5640493822
 10
2832.9545026685
 20
-128.367826607
 10
2833.1405913366
 20
-128.2416744136
  0
LINE
  5
B86
330
216
100
AcDbEntity
  8
0
  6
Continuous
 62
     7
100
AcDbLine
 10
2856.7001184158
 20
-128.2416742687
 30
0.0
 11
2856.6187689067
 21
-126.689432896
 31
0.0
  0
LINE
  5
B87
330
216
100
AcDbEntity
  8
0
  6
Continuous
 62
     7
100
AcDbLine
 10
2850.2090254052
 20
-120.2416744136
 30
0.0
 11
2850.209025408
 21
-128.2416744136
 31
0.0
  0
LINE
  5
B88
330
216
100
AcDbEntity
  8
0
  6
Continuous
 62
     7
100
AcDbLine
 10
2856.4419570053
 20
-125.8203602755
 30
0.0
 11
2854.7707093887
 21
-121.228643813
 31
0.0
  0
LINE
  5
B89
330
216
100
AcDbEntity
  8
0
  6
Continuous
 62
     7
100
AcDbLine
 10
2856.6187687407
 20
-126.6894134864
 30
0.0
 11
2856.4422019292
 21
-125.8202716074
 31
0.0
  0
ARC
  5
C7D
330
216
100
AcDbEntity
  8
0
  6
Continuous
 62
     7
100
AcDbCircle
 10
2701.8925689152
 20
4288.4376332596
 30
0.0
 40
4612.1283522719
100
AcDbArc
 50
270.0224552281
 51
270.9154262643
  0
ARC
  5
C7E
330
216
100
AcDbEntity
  8
0
  6
Continuous
 62
     7
100
AcDbCircle
 10
2807.5807680141
 20
-274.9977200603
 30
0.0
 40
34.9359776985
100
AcDbArc
 50
275.6263206397
 51
276.7711396918
  0
ARC
  5
C7F
330
216
100
AcDbEntity
  8
0
  6
Continuous
 62
     7
100
AcDbCircle
 10
2792.9597253356
 20
-307.5884920905
 30
0.0
 40
17.9912204593
100
AcDbArc
 50
272.0257413742
 51
354.7179674905
  0
ARC
  5
C80
330
216
100
AcDbEntity
  8
0
  6
Continuous
 62
     7
100
AcDbCircle
 10
2469.932752089
 20
-302.5722328929
 30
0.0
 40
17.9873245592
100
AcDbArc
 50
185.2488526204
 51
267.9642037561
  0
ARC
  5
C81
330
216
100
AcDbEntity
  8
0
  6
Continuous
 62
     7
100
AcDbCircle
 10
2452.8817774552
 20
-134.8140457396
 30
0.0
 40
17.7041195011
100
AcDbArc
 50
185.6692654859999
 51
187.7469248494
  0
ARC
  5
C82
330
216
100
AcDbEntity
  8
0
  6
Continuous
 62
     7
100
AcDbCircle
 10
2813.7490126241
 20
-135.0535321788
 30
0.0
 40
14.4875695487
100
AcDbArc
 50
350.4086069936
 51
351.720155349
  0
ARC
  5
C83
330
216
100
AcDbEntity
  8
0
  6
Continuous
 62
     7
100
AcDbCircle
 10
2449.6301087047
 20
-135.0847977094
 30
0.0
 40
14.4655841746
100
AcDbArc
 50
186.500070846
 51
187.9870701477999
  0
ARC
  5
C84
330
216
100
AcDbEntity
  8
0
  6
Continuous
 62
     7
100
AcDbCircle
 10
2813.8292324399
 20
-135.064754169
 30
0.0
 40
14.4065671366
100
AcDbArc
 50
352.2189653844
 51
353.4268784614
  0
ARC
  5
C85
330
216
100
AcDbEntity
  8
0
  6
Continuous
 62
     7
100
AcDbCircle
 10
2449.2066605264
 20
-135.1220466262
 30
0.0
 40
14.0406455504
100
AcDbArc
 50
178.1298224621
 51
186.5446597086999
  0
ARC
  5
C86
330
216
100
AcDbEntity
  8
0
  6
Continuous
 62
     7
100
AcDbCircle
 10
2814.3328116445
 20
-135.1101507462
 30
0.0
 40
13.9011072371
100
AcDbArc
 50
353.3751633886
 51
1.826209977199999
  0
ARC
  5
C87
330
216
100
AcDbEntity
  8
0
  6
Continuous
 62
     7
100
AcDbCircle
 10
2634.5881022382
 20
-331.3364576021
 30
0.0
 40
5.0
100
AcDbArc
 50
24.327714138
 51
88.0
  0
ARC
  5
C88
330
216
100
AcDbEntity
  8
0
  6
Continuous
 62
     7
100
AcDbCircle
 10
2772.8121846244
 20
-331.3364576021
 30
0.0
 40
5.0
100
AcDbArc
 50
92.0
 51
155.672285862
  0
ARC
  5
C89
330
216
100
AcDbEntity
  8
0
  6
Continuous
 62
     7
100
AcDbCircle
 10
2763.700143431301
 20
-327.216906013
 30
0.0
 40
5.0
100
AcDbArc
 50
270.0
 51
335.672285862
  0
ARC
  5
C8A
330
216
100
AcDbEntity
  8
0
  6
Continuous
 62
     7
100
AcDbCircle
 10
2643.7001434313
 20
-327.216906013
 30
0.0
 40
5.0
100
AcDbArc
 50
204.327714138
 51
270.0
  0
ARC
  5
C8B
330
216
100
AcDbEntity
  8
0
  6
Continuous
 62
     7
100
AcDbCircle
 10
2409.7773565636
 20
-126.8464208342
 30
0.0
 40
3.0
100
AcDbArc
 50
160.0
 51
177.0
  0
ARC
  5
C8C
330
216
100
AcDbEntity
  8
0
  6
Continuous
 62
     7
100
AcDbCircle
 10
2853.6228782043
 20
-126.8464208342
 30
0.0
 40
3.0
100
AcDbArc
 50
3.0
 51
20.0
  0
ARC
  5
C8D
330
216
100
AcDbEntity
  8
0
  6
Continuous
 62
     7
100
AcDbCircle
 10
2410.0381308265
 20
-121.741929934
 30
0.0
 40
1.499999959
100
AcDbArc
 50
89.96429825259999
 51
159.9786043667
  0
ARC
  5
C8E
330
216
100
AcDbEntity
  8
0
  6
Continuous
 62
     7
100
AcDbCircle
 10
2853.3621039272
 20
-121.7419299895
 30
0.0
 40
1.499999959
100
AcDbArc
 50
20.0213974382
 51
90.03570120290001
  0
LINE
  5
E03
330
216
100
AcDbEntity
  8
0
  6
Continuous
 62
     7
100
AcDbLine
 10
2469.1681235721
 20
-320.5515447585
 30
0.0
 11
2469.5169346202
 21
-320.5690074488
 31
0.0
  0
LINE
  5
E04
330
216
100
AcDbEntity
  8
0
  6
Continuous
 62
     7
100
AcDbLine
 10
2468.6482941187
 20
-320.5284689818
 30
0.0
 11
2467.1023012603
 21
-320.4846409906001
 31
0.0
  0
LINE
  5
E05
330
216
100
AcDbEntity
  8
0
  6
Continuous
 62
     7
100
AcDbLine
 10
2467.1023012603
 20
-320.4846409906001
 30
0.0
 11
2467.024201193
 21
-320.4819816124
 31
0.0
  0
LINE
  5
E06
330
216
100
AcDbEntity
  8
0
  6
Continuous
 62
     7
100
AcDbLine
 10
2467.022144324201
 20
-320.4819098405
 30
0.0
 11
2466.7526335274
 21
-320.4706581193
 31
0.0
  0
SPLINE
  5
E07
330
216
100
AcDbEntity
  8
0
  6
Continuous
 62
     7
100
AcDbSpline
210
0.0
220
0.0
230
1.0
 70
     8
 71
     3
 72
     9
 73
     5
 74
     0
 42
0.0000000001
 43
0.0000000001
 40
0.0
 40
0.0
 40
0.0
 40
0.0
 40
0.5729879781000001
 40
1.0
 40
1.0
 40
1.0
 40
1.0
 10
2477.8259499891
 20
-319.5351467715
 30
0.0
 10
2476.2076117051
 20
-319.811767147
 30
0.0
 10
2473.3799149232
 20
-320.2685359695
 30
0.0
 10
2470.5194402998
 20
-320.5413313691
 30
0.0
 10
2469.2959190812
 20
-320.547647351
 30
0.0
  0
SPLINE
  5
E08
330
216
100
AcDbEntity
  8
0
  6
Continuous
 62
     7
100
AcDbSpline
210
0.0
220
0.0
230
1.0
 70
     8
 71
     3
 72
    10
 73
     6
 74
     0
 42
0.0000000001
 43
0.0000000001
 40
0.0
 40
0.0
 40
0.0
 40
0.0
 40
0.6767578533
 40
0.8810987284999999
 40
1.0
 40
1.0
 40
1.0
 40
1.0
 10
2811.699852165201
 20
-309.6900201211
 30
0.0
 10
2812.1086902555
 20
-309.640959902
 30
0.0
 10
2812.6460170494
 20
-309.5728566225
 30
0.0
 10
2813.2286664404
 20
-309.4197499638
 30
0.0
 10
2813.4180363141
 20
-309.3418164426
 30
0.0
 10
2813.468776757801
 20
-309.2902488085
 30
0.0
  0
SPLINE
  5
E09
330
216
100
AcDbEntity
  8
0
  6
Continuous
 62
     7
100
AcDbSpline
210
0.0
220
0.0
230
1.0
 70
     8
 71
     3
 72
     9
 73
     5
 74
     0
 42
0.0000000001
 43
0.0000000001
 40
0.0
 40
0.0
 40
0.0
 40
0.0
 40
0.5428860570000002
 40
1.0
 40
1.0
 40
1.0
 40
1.0
 10
2813.468776757801
 20
-309.2902488085
 30
0.0
 10
2813.4775888255
 20
-309.2812930831
 30
0.0
 10
2813.4923829729
 20
-309.2630658894
 30
0.0
 10
2813.4999813982
 20
-309.2404178806
 30
0.0
 10
2813.5009094118
 20
-309.2298795688
 30
0.0
  0
LINE
  5
E0A
330
216
100
AcDbEntity
  8
0
  6
Continuous
 62
     7
100
AcDbLine
 10
2828.1031541233
 20
-137.0152249937
 30
0.0
 11
2828.0855711229
 21
-137.1398595353
 31
0.0
  0
SPLINE
  5
E0B
330
216
100
AcDbEntity
  8
0
  6
Continuous
 62
     7
100
AcDbSpline
210
0.0
220
0.0
230
1.0
 70
     8
 71
     3
 72
    13
 73
     9
 74
     0
 42
0.0000000001
 43
0.0000000001
 40
0.0
 40
0.0
 40
0.0
 40
0.0
 40
0.0338896902
 40
0.1004267813
 40
0.1981881494
 40
0.3227371919
 40
0.6369813627000001
 40
1.0
 40
1.0
 40
1.0
 40
1.0
 10
2477.8259245095
 20
-319.5351459685
 30
0.0
 10
2477.9311909637
 20
-319.5171574717
 30
0.0
 10
2478.2491657337
 20
-319.5116089919
 30
0.0
 10
2478.8724275255
 20
-319.4975115542
 30
0.0
 10
2479.783238751001
 20
-319.5014109971
 30
0.0
 10
2481.4736494698
 20
-319.5163899848
 30
0.0
 10
2484.0000967964
 20
-319.5644286158
 30
0.0
 10
2486.133522012
 20
-319.6189375675
 30
0.0
 10
2487.276975367
 20
-319.6521514165
 30
0.0
  0
SPLINE
  5
E0C
330
216
100
AcDbEntity
  8
0
  6
Continuous
 62
     7
100
AcDbSpline
210
0.0
220
0.0
230
1.0
 70
     8
 71
     3
 72
    11
 73
     7
 74
     0
 42
0.0000000001
 43
0.0000000001
 40
0.0
 40
0.0
 40
0.0
 40
0.0
 40
0.2420522526
 40
0.5006015804999999
 40
0.7587842486000002
 40
1.0
 40
1.0
 40
1.0
 40
1.0
 10
2460.5172440499
 20
-303.2493292893
 30
0.0
 10
2460.7164348758
 20
-305.3230485293
 30
0.0
 10
2461.8869862086
 20
-309.574921646
 30
0.0
 10
2465.8212808219
 20
-314.9734973993
 30
0.0
 10
2471.44281951
 20
-318.5701188024
 30
0.0
 10
2475.7508724246
 20
-319.4697937278
 30
0.0
 10
2477.8259078839
 20
-319.5351486929
 30
0.0
  0
SPLINE
  5
E0D
330
216
100
AcDbEntity
  8
0
  6
Continuous
 62
     7
100
AcDbSpline
210
0.0
220
0.0
230
1.0
 70
     8
 71
     3
 72
    14
 73
    10
 74
     0
 42
0.0000000001
 43
0.0000000001
 40
0.0
 40
0.0
 40
0.0
 40
0.0
 40
0.3718368137
 40
0.5484340411000001
 40
0.7051169944
 40
0.8323540837999999
 40
0.9249431809
 40
0.9800516287999998
 40
1.0
 40
1.0
 40
1.0
 40
1.0
 10
2487.798956109
 20
-303.2393507866
 30
0.0
 10
2487.7393605361
 20
-305.2738130334
 30
0.0
 10
2487.6505147369
 20
-308.2745057852
 30
0.0
 10
2487.531915807301
 20
-312.1322392363
 30
0.0
 10
2487.4549663414
 20
-314.6519719836
 30
0.0
 10
2487.3836670077
 20
-316.7112239928
 30
0.0
 10
2487.3441562572
 20
-318.2166488626
 30
0.0
 10
2487.2907245564
 20
-319.1312770828
 30
0.0
 10
2487.2943139219
 20
-319.5443300661001
 30
0.0
 10
2487.2769776724
 20
-319.6521370881
 30
0.0
  0
SPLINE
  5
E0E
330
216
100
AcDbEntity
  8
0
  6
Continuous
 62
     7
100
AcDbSpline
210
0.0
220
0.0
230
1.0
 70
     8
 71
     3
 72
     9
 73
     5
 74
     0
 42
0.0000000001
 43
0.0000000001
 40
0.0
 40
0.0
 40
0.0
 40
0.0
 40
0.1804152358
 40
1.0
 40
1.0
 40
1.0
 40
1.0
 10
2795.8351584312
 20
-325.5294698011
 30
0.0
 10
2795.7497817552
 20
-325.5324445071
 30
0.0
 10
2795.2764581845
 20
-325.5459803709
 30
0.0
 10
2794.8029852922
 20
-325.5532488337
 30
0.0
 10
2794.4149419275
 20
-325.5587158927
 30
0.0
  0
SPLINE
  5
E0F
330
216
100
AcDbEntity
  8
0
  6
Continuous
 62
     7
100
AcDbSpline
210
0.0
220
0.0
230
1.0
 70
     8
 71
     3
 72
    11
 73
     7
 74
     0
 42
0.0000000001
 43
0.0000000001
 40
0.0
 40
0.0
 40
0.0
 40
0.0
 40
0.250005768
 40
0.499992363
 40
0.7499713833000002
 40
1.0
 40
1.0
 40
1.0
 40
1.0
 10
2487.7989561091
 20
-303.2393507866
 30
0.0
 10
2511.7517724532
 20
-303.9356246359
 30
0.0
 10
2559.6568994507
 20
-305.2873850904
 30
0.0
 10
2631.5257145842
 20
-306.823726194
 30
0.0
 10
2703.412224505101
 20
-307.499370627
 30
0.0
 10
2751.3384004854
 20
-307.0623175995
 30
0.0
 10
2775.3006198725
 20
-306.6892028244
 30
0.0
  0
SPLINE
  5
E10
330
216
100
AcDbEntity
  8
0
  6
Continuous
 62
     7
100
AcDbSpline
210
0.0
220
0.0
230
1.0
 70
     8
 71
     3
 72
    15
 73
    11
 74
     0
 42
0.0000000001
 43
0.0000000001
 40
0.0
 40
0.0
 40
0.0
 40
0.0
 40
0.0137205295
 40
0.0354362592
 40
0.1026658563
 40
0.2007074077
 40
0.3252162127
 40
0.4734328594
 40
0.6386084456000001
 40
1.0
 40
1.0
 40
1.0
 40
1.0
 10
2460.5173911109
 20
-303.2510183993
 30
0.0
 10
2460.629629442
 20
-303.3059548446
 30
0.0
 10
2460.946671953
 20
-303.3846416387
 30
0.0
 10
2461.8684800342
 20
-303.5282723493
 30
0.0
 10
2463.5721473031
 20
-303.6403888145
 30
0.0
 10
2466.2084272402
 20
-303.7251011922
 30
0.0
 10
2469.5861663634
 20
-303.7468375966
 30
0.0
 10
2473.5740997052
 20
-303.7096824318
 30
0.0
 10
2479.7185188894
 20
-303.5740428024
 30
0.0
 10
2484.5112296605
 20
-303.3925388354
 30
0.0
 10
2487.799101909101
 20
-303.2395697291
 30
0.0
  0
SPLINE
  5
E11
330
216
100
AcDbEntity
  8
0
  6
Continuous
 62
     7
100
AcDbSpline
210
0.0
220
0.0
230
1.0
 70
     8
 71
     3
 72
    15
 73
    11
 74
     0
 42
0.0000000001
 43
0.0000000001
 40
0.0
 40
0.0
 40
0.0
 40
0.0
 40
0.3624802715
 40
0.5280852951
 40
0.6757308276
 40
0.8003791723999999
 40
0.8978588779
 40
0.9650162542
 40
0.9865673784
 40
1.0
 40
1.0
 40
1.0
 40
1.0
 10
2775.2993359028
 20
-306.6877453531
 30
0.0
 10
2778.593487575701
 20
-306.855520897
 30
0.0
 10
2783.394524475
 20
-307.0661754031001
 30
0.0
 10
2789.5411081351
 20
-307.2412218894
 30
0.0
 10
2793.5251069356
 20
-307.3083134242
 30
0.0
 10
2796.8907701414
 20
-307.3153060587
 30
0.0
 10
2799.521107904601
 20
-307.2585277783
 30
0.0
 10
2801.2168499386
 20
-307.1688344656
 30
0.0
 10
2802.135694945
 20
-307.0418245831
 30
0.0
 10
2802.4497665305
 20
-306.9722572262
 30
0.0
 10
2802.561565820801
 20
-306.9228465243
 30
0.0
  0
SPLINE
  5
E12
330
216
100
AcDbEntity
  8
0
  6
Continuous
 62
     7
100
AcDbSpline
210
0.0
220
0.0
230
1.0
 70
     8
 71
     3
 72
     9
 73
     5
 74
     0
 42
0.0000000001
 43
0.0000000001
 40
0.0
 40
0.0
 40
0.0
 40
0.0
 40
0.4284142309
 40
1.0
 40
1.0
 40
1.0
 40
1.0
 10
2452.0202777876
 20
-304.2177947104
 30
0.0
 10
2453.2423398022
 20
-304.205422375
 30
0.0
 10
2456.0907318475
 20
-303.9608046581
 30
0.0
 10
2458.910355411402
 20
-303.5260776995
 30
0.0
 10
2460.517244737
 20
-303.2493350014
 30
0.0
  0
SPLINE
  5
E13
330
216
100
AcDbEntity
  8
0
  6
Continuous
 62
     7
100
AcDbSpline
210
0.0
220
0.0
230
1.0
 70
     8
 71
     3
 72
     9
 73
     5
 74
     0
 42
0.0000000001
 43
0.0000000001
 40
0.0
 40
0.0
 40
0.0
 40
0.0
 40
0.4838096152000002
 40
1.0
 40
1.0
 40
1.0
 40
1.0
 10
2818.0020626886
 20
-130.4577447249
 30
0.0
 10
2818.0424427029
 20
-130.0316396786
 30
0.0
 10
2818.3190081267
 20
-129.1591696826
 30
0.0
 10
2818.951419420301
 20
-128.4889936294
 30
0.0
 10
2819.3324819586
 20
-128.2373387459
 30
0.0
  0
SPLINE
  5
E14
330
216
100
AcDbEntity
  8
0
  6
Continuous
 62
     7
100
AcDbSpline
210
0.0
220
0.0
230
1.0
 70
     8
 71
     3
 72
    14
 73
    10
 74
     0
 42
0.0000000001
 43
0.0000000001
 40
0.0
 40
0.0
 40
0.0
 40
0.0
 40
0.3634480558
 40
0.529627454
 40
0.6777605655
 40
0.8026027298999999
 40
0.8999011805
 40
0.9664276704
 40
1.0
 40
1.0
 40
1.0
 40
1.0
 10
2790.7180588835
 20
-130.4792140282
 30
0.0
 10
2794.0235305226
 20
-130.4532184796
 30
0.0
 10
2798.840445192701
 20
-130.4240714971
 30
0.0
 10
2805.0045704773
 20
-130.3900838058
 30
0.0
 10
2808.9987279814
 20
-130.3674412245
 30
0.0
 10
2812.3662098279
 20
-130.3799590665
 30
0.0
 10
2814.992053332801
 20
-130.3955204366
 30
0.0
 10
2816.7862741997
 20
-130.4245405006
 30
0.0
 10
2817.6978975424
 20
-130.4309484625
 30
0.0
 10
2818.0020610426
 20
-130.457745198
 30
0.0
  0
SPLINE
  5
E15
330
216
100
AcDbEntity
  8
0
  6
Continuous
 62
     7
100
AcDbSpline
210
0.0
220
0.0
230
1.0
 70
     8
 71
     3
 72
    14
 73
    10
 74
     0
 42
0.0000000001
 43
0.0000000001
 40
0.0
 40
0.0
 40
0.0
 40
0.0
 40
0.033588992
 40
0.1001388881
 40
0.1974632381
 40
0.3223284181
 40
0.4704682028000002
 40
0.6366457927
 40
1.0
 40
1.0
 40
1.0
 40
1.0
 10
2445.3981673329
 20
-130.457740078
 30
0.0
 10
2445.7026608462
 20
-130.433049823
 30
0.0
 10
2446.6143252375
 20
-130.4233145601
 30
0.0
 10
2448.4093646761
 20
-130.3954534171
 30
0.0
 10
2451.0357682229
 20
-130.3806118303
 30
0.0
 10
2454.4037877716
 20
-130.3669602826
 30
0.0
 10
2458.3981833081
 20
-130.3901784677
 30
0.0
 10
2464.561488546701
 20
-130.4254172919
 30
0.0
 10
2469.3775639714
 20
-130.4500316139
 30
0.0
 10
2472.6821525664
 20
-130.4792160529
 30
0.0
  0
SPLINE
  5
E16
330
216
100
AcDbEntity
  8
0
  6
Continuous
 62
     7
100
AcDbSpline
210
0.0
220
0.0
230
1.0
 70
     8
 71
     3
 72
     9
 73
     5
 74
     0
 42
0.0000000001
 43
0.0000000001
 40
0.0
 40
0.0
 40
0.0
 40
0.0
 40
0.2403274598
 40
1.0
 40
1.0
 40
1.0
 40
1.0
 10
2445.398141550001
 20
-130.4574177001
 30
0.0
 10
2445.3782069675
 20
-130.2471661356
 30
0.0
 10
2445.1921876821
 20
-129.3862630993
 30
0.0
 10
2444.6238184916
 20
-128.598891612
 30
0.0
 10
2444.0627250554
 20
-128.2371708869
 30
0.0
  0
SPLINE
  5
E17
330
216
100
AcDbEntity
  8
0
  6
Continuous
 62
     7
100
AcDbSpline
210
0.0
220
0.0
230
1.0
 70
     8
 71
     3
 72
    11
 73
     7
 74
     0
 42
0.0000000001
 43
0.0000000001
 40
0.0
 40
0.0
 40
0.0
 40
0.0
 40
0.2418769343
 40
0.5005763172
 40
0.7589246079000001
 40
1.0
 40
1.0
 40
1.0
 40
1.0
 10
2802.5609257084
 20
-306.9293613392
 30
0.0
 10
2802.3571752362
 20
-309.0168164286
 30
0.0
 10
2801.1657424839
 20
-313.2984034689
 30
0.0
 10
2797.1718297167
 20
-318.719584805
 30
0.0
 10
2791.4776781129
 20
-322.3019271365
 30
0.0
 10
2787.1271491497
 20
-323.1657891955
 30
0.0
 10
2785.0371641803
 20
-323.2086734531
 30
0.0
  0
SPLINE
  5
E18
330
216
100
AcDbEntity
  8
0
  6
Continuous
 62
     7
100
AcDbSpline
210
0.0
220
0.0
230
1.0
 70
     8
 71
     3
 72
    13
 73
     9
 74
     0
 42
0.0000000001
 43
0.0000000001
 40
0.0
 40
0.0
 40
0.0
 40
0.0
 40
0.3639162398
 40
0.6779155152
 40
0.8029116454
 40
0.8997867386999999
 40
0.9662673505
 40
1.0
 40
1.0
 40
1.0
 40
1.0
 10
2775.5783416814
 20
-323.1020375946
 30
0.0
 10
2776.7262579203
 20
-323.084218094
 30
0.0
 10
2778.8646459652
 20
-323.0626472262
 30
0.0
 10
2781.3982601678
 20
-323.0633259794
 30
0.0
 10
2783.0877786942
 20
-323.091423994
 30
0.0
 10
2783.9987246645
 20
-323.114054945
 30
0.0
 10
2784.6162425863
 20
-323.1558316379
 30
0.0
 10
2784.9357200966
 20
-323.1765191027
 30
0.0
 10
2785.0371631926
 20
-323.2086734734
 30
0.0
  0
SPLINE
  5
E19
330
216
100
AcDbEntity
  8
0
  6
Continuous
 62
     7
100
AcDbSpline
210
0.0
220
0.0
230
1.0
 70
     8
 71
     3
 72
    11
 73
     7
 74
     0
 42
0.0000000001
 43
0.0000000001
 40
0.0
 40
0.0
 40
0.0
 40
0.0
 40
0.0824531248
 40
0.2718541255
 40
0.5771126522
 40
1.0
 40
1.0
 40
1.0
 40
1.0
 10
2449.4170895814
 20
-304.1942710299
 30
0.0
 10
2449.4233602444
 20
-304.2642489931
 30
0.0
 10
2449.6912356471
 20
-304.379274261
 30
0.0
 10
2450.1231098669
 20
-304.48680675
 30
0.0
 10
2450.920409923
 20
-304.6193223138
 30
0.0
 10
2451.5282342861
 20
-304.6919665974
 30
0.0
 10
2451.8864053252
 20
-304.7314667763
 30
0.0
  0
SPLINE
  5
E1A
330
216
100
AcDbEntity
  8
0
  6
Continuous
 62
     7
100
AcDbSpline
210
0.0
220
0.0
230
1.0
 70
     8
 71
     3
 72
    14
 73
    10
 74
     0
 42
0.0000000001
 43
0.0000000001
 40
0.0
 40
0.0
 40
0.0
 40
0.0
 40
0.4731499548000002
 40
0.6230496589
 40
0.7153957484000001
 40
0.7511542592
 40
0.7777548998000002
 40
0.8602148328
 40
1.0
 40
1.0
 40
1.0
 40
1.0
 10
2793.3219509098
 20
-325.6172867688
 30
0.0
 10
2793.407890878
 20
-325.6142674444
 30
0.0
 10
2793.5157859671
 20
-325.6108806773
 30
0.0
 10
2793.6554164388
 20
-325.600257815
 30
0.0
 10
2793.693293982101
 20
-325.5972112946
 30
0.0
 10
2793.7379779083
 20
-325.5886800547
 30
0.0
 10
2793.7021568005
 20
-325.575203319
 30
0.0
 10
2793.6649612025
 20
-325.575273726
 30
0.0
 10
2793.6215383073
 20
-325.5696719378
 30
0.0
 10
2793.5962013719
 20
-325.5678086122
 30
0.0
  0
SPLINE
  5
E1B
330
216
100
AcDbEntity
  8
0
  6
Continuous
 62
     7
100
AcDbSpline
210
0.0
220
0.0
230
1.0
 70
     8
 71
     3
 72
     9
 73
     5
 74
     0
 42
0.0000000001
 43
0.0000000001
 40
0.0
 40
0.0
 40
0.0
 40
0.0
 40
0.1718681044
 40
1.0
 40
1.0
 40
1.0
 40
1.0
 10
2451.8820951058
 20
-304.3546817054
 30
0.0
 10
2451.8811197834
 20
-304.3431976969
 30
0.0
 10
2451.8980002795
 20
-304.2746688218
 30
0.0
 10
2451.9700756121
 20
-304.2424372209
 30
0.0
 10
2452.020298775
 20
-304.2187380495
 30
0.0
  0
SPLINE
  5
E1C
330
216
100
AcDbEntity
  8
0
  6
Continuous
 62
     7
100
AcDbSpline
210
0.0
220
0.0
230
1.0
 70
     8
 71
     3
 72
    10
 73
     6
 74
     0
 42
0.0000000001
 43
0.0000000001
 40
0.0
 40
0.0
 40
0.0
 40
0.0
 40
0.574097619
 40
0.8052740795
 40
1.0
 40
1.0
 40
1.0
 40
1.0
 10
2802.5609260779
 20
-306.9293614562
 30
0.0
 10
2804.1380460753
 20
-307.4287160157
 30
0.0
 10
2806.3357449151
 20
-308.1765919563
 30
0.0
 10
2809.1025879276
 20
-308.9801493276
 30
0.0
 10
2810.315412799699
 20
-309.2058434321
 30
0.0
 10
2810.8751702508
 20
-309.2447913426
 30
0.0
  0
SPLINE
  5
E1D
330
216
100
AcDbEntity
  8
0
  6
Continuous
 62
     7
100
AcDbSpline
210
0.0
220
0.0
230
1.0
 70
     8
 71
     3
 72
    10
 73
     6
 74
     0
 42
0.0000000001
 43
0.0000000001
 40
0.0
 40
0.0
 40
0.0
 40
0.0
 40
0.1950314335
 40
0.42825352
 40
1.0
 40
1.0
 40
1.0
 40
1.0
 10
2793.607742468401
 20
-325.5674032447
 30
0.0
 10
2793.0312581404
 20
-325.5250131892
 30
0.0
 10
2791.777498879
 20
-325.2917167283
 30
0.0
 10
2788.926244069001
 20
-324.4839377059
 30
0.0
 10
2786.6646567373
 20
-323.7204201008
 30
0.0
 10
2785.0492947957
 20
-323.208419638
 30
0.0
  0
SPLINE
  5
E1E
330
216
100
AcDbEntity
  8
0
  6
Continuous
 62
     7
100
AcDbSpline
210
0.0
220
0.0
230
1.0
 70
     8
 71
     3
 72
     9
 73
     5
 74
     0
 42
0.0000000001
 43
0.0000000001
 40
0.0
 40
0.0
 40
0.0
 40
0.0
 40
0.5005147707000001
 40
1.0
 40
1.0
 40
1.0
 40
1.0
 10
2703.7001434518
 20
-323.6903906565
 30
0.0
 10
2667.585269919201
 20
-323.6880607577
 30
0.0
 10
2595.4301280562
 20
-322.6963673838
 30
0.0
 10
2523.3023643127
 20
-320.6986115203
 30
0.0
 10
2487.2769724106
 20
-319.6521799883
 30
0.0
  0
ENDSEC
  0
SECTION
  2
OBJECTS
  0
DICTIONARY
  5
C
330
0
100
AcDbDictionary
281
     1
  3
ACAD_COLOR
350
E50
  3
ACAD_GROUP
350
D
  3
ACAD_LAYOUT
350
1A
  3
ACAD_MATERIAL
350
E26
  3
ACAD_MLEADERSTYLE
350
E63
  3
ACAD_MLINESTYLE
350
17
  3
ACAD_PLOTSETTINGS
350
19
  3
ACAD_PLOTSTYLENAME
350
E
  3
ACAD_SCALELIST
350
E51
  3
ACAD_TABLESTYLE
350
E1F
  3
ACAD_VISUALSTYLE
350
E3F
  3
ACDB_RECOMPOSE_DATA
350
F1B
  3
AcDbVariableDictionary
350
F13
  3
AcmDictionary
350
EC2
  3
AMG
350
E69
  3
AMGSNAPSETTINGS
350
F03
  0
DICTIONARY
  5
E50
102
{ACAD_REACTORS
330
C
102
}
330
C
100
AcDbDictionary
281
     1
  0
DICTIONARY
  5
D
102
{ACAD_REACTORS
330
C
102
}
330
C
100
AcDbDictionary
281
     1
  0
DICTIONARY
  5
1A
102
{ACAD_REACTORS
330
C
102
}
330
C
100
AcDbDictionary
281
     1
  3
Layout1
350
E21
  3
Model
350
E20
  0
DICTIONARY
  5
E26
102
{ACAD_REACTORS
330
C
102
}
330
C
100
AcDbDictionary
281
     1
  3
ByBlock
350
E2F
  3
ByLayer
350
E27
  3
Global
350
E37
  0
DICTIONARY
  5
E63
102
{ACAD_REACTORS
330
C
102
}
330
C
100
AcDbDictionary
281
     1
  3
Standard
350
E64
  0
DICTIONARY
  5
17
102
{ACAD_REACTORS
330
C
102
}
330
C
100
AcDbDictionary
281
     1
  3
Standard
350
18
  0
DICTIONARY
  5
19
102
{ACAD_REACTORS
330
C
102
}
330
C
100
AcDbDictionary
281
     1
  0
ACDBDICTIONARYWDFLT
  5
E
102
{ACAD_REACTORS
330
C
102
}
330
C
100
AcDbDictionary
281
     1
  3
Normal
350
F
100
AcDbDictionaryWithDefault
340
F
  0
DICTIONARY
  5
E51
102
{ACAD_REACTORS
330
C
102
}
330
C
100
AcDbDictionary
281
     1
  3
A0
350
E52
  3
A1
350
E53
  3
A2
350
E54
  3
A3
350
E55
  3
A4
350
E56
  3
A5
350
E57
  3
A6
350
E58
  3
A7
350
E59
  3
A8
350
E5A
  3
A9
350
E5B
  3
B0
350
E5C
  3
B1
350
E5D
  3
B2
350
E5E
  3
B3
350
E5F
  3
B4
350
E60
  3
B5
350
E61
  3
B6
350
E62
  0
DICTIONARY
  5
E1F
330
C
100
AcDbDictionary
281
     1
  3
Standard
350
E22
  3
Standard1
350
E23
  0
DICTIONARY
  5
E3F
102
{ACAD_REACTORS
330
C
102
}
330
C
100
AcDbDictionary
281
     1
  3
2dWireframe
350
E45
  3
3D Hidden
350
E47
  3
3dWireframe
350
E46
  3
Basic
350
E44
  3
Brighten
350
E4B
  3
ColorChange
350
E4F
  3
Conceptual
350
E48
  3
Dim
350
E4A
  3
Facepattern
350
E4E
  3
Flat
350
E40
  3
FlatWithEdges
350
E41
  3
Gouraud
350
E42
  3
GouraudWithEdges
350
E43
  3
Linepattern
350
E4D
  3
Realistic
350
E49
  3
Thicken
350
E4C
  0
XRECORD
  5
F1B
102
{ACAD_REACTORS
330
C
102
}
330
C
100
AcDbXrecord
280
     1
 90
        1
330
E22
330
E23
  0
DICTIONARY
  5
F13
102
{ACAD_REACTORS
330
C
102
}
330
C
100
AcDbDictionary
281
     1
  3
CANNOSCALE
350
F16
  3
CMLEADERSTYLE
350
F15
  3
CTABLESTYLE
350
F14
  0
DICTIONARY
  5
EC2
102
{ACAD_REACTORS
330
C
102
}
330
C
100
AcDbDictionary
281
     1
  3
AcmStdDictionary
350
ECF
  0
DICTIONARY
  5
E69
102
{ACAD_REACTORS
330
C
102
}
330
C
100
AcDbDictionary
281
     1
  0
DICTIONARY
  5
F03
102
{ACAD_REACTORS
330
C
102
}
330
C
100
AcDbDictionary
281
     1
  0
LAYOUT
  5
E21
102
{ACAD_REACTORS
330
1A
102
}
330
1A
100
AcDbPlotSettings
  1

  2
none_device
  4
ANSI_D_(34.00_x_22.00_Inches)
  6

 40
0.0
 41
0.0
 42
0.0
 43
0.0
 44
863.6000000000001
 45
558.8
 46
0.0
 47
0.0
 48
0.0
 49
0.0
140
0.0
141
0.0
142
1.0
143
1.0
 70
     0
 72
     1
 73
     0
 74
     0
  7

 75
     0
147
1.0
 76
     0
 77
     2
 78
   300
148
0.0
149
0.0
100
AcDbLayout
  1
Layout1
 70
     1
 71
     1
 10
0.0
 20
0.0
 11
12.0
 21
9.0
 12
0.0
 22
0.0
 32
0.0
 14
1.000000000000000E+20
 24
1.000000000000000E+20
 34
1.000000000000000E+20
 15
-1.000000000000000E+20
 25
-1.000000000000000E+20
 35
-1.000000000000000E+20
146
0.0
 13
0.0
 23
0.0
 33
0.0
 16
1.0
 26
0.0
 36
0.0
 17
0.0
 27
1.0
 37
0.0
 76
     0
330
217
  0
LAYOUT
  5
E20
102
{ACAD_REACTORS
330
1A
102
}
330
1A
100
AcDbPlotSettings
  1

  2
none_device
  4
ANSI_D_(34.00_x_22.00_Inches)
  6

 40
0.0
 41
0.0
 42
0.0
 43
0.0
 44
863.6000000000001
 45
558.8
 46
0.0
 47
0.0
 48
0.0
 49
0.0
140
0.0
141
0.0
142
1.0
143
1.0
 70
  1024
 72
     1
 73
     0
 74
     0
  7

 75
     0
147
1.0
 76
     0
 77
     2
 78
   300
148
0.0
149
0.0
100
AcDbLayout
  1
Model
 70
     0
 71
     0
 10
0.0
 20
0.0
 11
863.6000000000001
 21
558.8
 12
0.0
 22
0.0
 32
0.0
 14
0.0
 24
0.0
 34
0.0
 15
0.0
 25
0.0
 35
0.0
146
0.0
 13
0.0
 23
0.0
 33
0.0
 16
1.0
 26
0.0
 36
0.0
 17
0.0
 27
1.0
 37
0.0
 76
     0
330
216
331
1F4
  0
MATERIAL
  5
E2F
102
{ACAD_XDICTIONARY
360
E30
102
}
102
{ACAD_REACTORS
330
E26
102
}
330
E26
100
AcDbMaterial
  1
ByBlock
 72
     0
 43
0.0008202099737533
 43
0.0
 43
0.0
 43
0.0
 43
0.0
 43
0.0008202099737533
 43
0.0
 43
0.0
 43
0.0
 43
0.0
 43
1.0
 43
0.0
 43
0.0
 43
0.0
 43
0.0
 43
1.0
 77
     0
 47
0.0008202099737533
 47
0.0
 47
0.0
 47
0.0
 47
0.0
 47
0.0008202099737533
 47
0.0
 47
0.0
 47
0.0
 47
0.0
 47
1.0
 47
0.0
 47
0.0
 47
0.0
 47
0.0
 47
1.0
171
     0
 49
0.0008202099737533
 49
0.0
 49
0.0
 49
0.0
 49
0.0
 49
0.0008202099737533
 49
0.0
 49
0.0
 49
0.0
 49
0.0
 49
1.0
 49
0.0
 49
0.0
 49
0.0
 49
0.0
 49
1.0
175
     0
142
0.0008202099737533
142
0.0
142
0.0
142
0.0
142
0.0
142
0.0008202099737533
142
0.0
142
0.0
142
0.0
142
0.0
142
1.0
142
0.0
142
0.0
142
0.0
142
0.0
142
1.0
179
     0
144
0.0008202099737533
144
0.0
144
0.0
144
0.0
144
0.0
144
0.0008202099737533
144
0.0
144
0.0
144
0.0
144
0.0
144
1.0
144
0.0
144
0.0
144
0.0
144
0.0
144
1.0
147
0.0008202099737533
147
0.0
147
0.0
147
0.0
147
0.0
147
0.0008202099737533
147
0.0
147
0.0
147
0.0
147
0.0
147
1.0
147
0.0
147
0.0
147
0.0
147
0.0
147
1.0
  0
MATERIAL
  5
E27
102
{ACAD_XDICTIONARY
360
E28
102
}
102
{ACAD_REACTORS
330
E26
102
}
330
E26
100
AcDbMaterial
  1
ByLayer
 72
     0
 43
0.0008202099737533
 43
0.0
 43
0.0
 43
0.0
 43
0.0
 43
0.0008202099737533
 43
0.0
 43
0.0
 43
0.0
 43
0.0
 43
1.0
 43
0.0
 43
0.0
 43
0.0
 43
0.0
 43
1.0
 77
     0
 47
0.0008202099737533
 47
0.0
 47
0.0
 47
0.0
 47
0.0
 47
0.0008202099737533
 47
0.0
 47
0.0
 47
0.0
 47
0.0
 47
1.0
 47
0.0
 47
0.0
 47
0.0
 47
0.0
 47
1.0
171
     0
 49
0.0008202099737533
 49
0.0
 49
0.0
 49
0.0
 49
0.0
 49
0.0008202099737533
 49
0.0
 49
0.0
 49
0.0
 49
0.0
 49
1.0
 49
0.0
 49
0.0
 49
0.0
 49
0.0
 49
1.0
175
     0
142
0.0008202099737533
142
0.0
142
0.0
142
0.0
142
0.0
142
0.0008202099737533
142
0.0
142
0.0
142
0.0
142
0.0
142
1.0
142
0.0
142
0.0
142
0.0
142
0.0
142
1.0
179
     0
144
0.0008202099737533
144
0.0
144
0.0
144
0.0
144
0.0
144
0.0008202099737533
144
0.0
144
0.0
144
0.0
144
0.0
144
1.0
144
0.0
144
0.0
144
0.0
144
0.0
144
1.0
147
0.0008202099737533
147
0.0
147
0.0
147
0.0
147
0.0
147
0.0008202099737533
147
0.0
147
0.0
147
0.0
147
0.0
147
1.0
147
0.0
147
0.0
147
0.0
147
0.0
147
1.0
  0
MATERIAL
  5
E37
102
{ACAD_XDICTIONARY
360
E38
102
}
102
{ACAD_REACTORS
330
E26
102
}
330
E26
100
AcDbMaterial
  1
Global
 72
     0
 43
0.0008202099737533
 43
0.0
 43
0.0
 43
0.0
 43
0.0
 43
0.0008202099737533
 43
0.0
 43
0.0
 43
0.0
 43
0.0
 43
1.0
 43
0.0
 43
0.0
 43
0.0
 43
0.0
 43
1.0
 77
     0
 47
0.0008202099737533
 47
0.0
 47
0.0
 47
0.0
 47
0.0
 47
0.0008202099737533
 47
0.0
 47
0.0
 47
0.0
 47
0.0
 47
1.0
 47
0.0
 47
0.0
 47
0.0
 47
0.0
 47
1.0
171
     0
 49
0.0008202099737533
 49
0.0
 49
0.0
 49
0.0
 49
0.0
 49
0.0008202099737533
 49
0.0
 49
0.0
 49
0.0
 49
0.0
 49
1.0
 49
0.0
 49
0.0
 49
0.0
 49
0.0
 49
1.0
175
     0
142
0.0008202099737533
142
0.0
142
0.0
142
0.0
142
0.0
142
0.0008202099737533
142
0.0
142
0.0
142
0.0
142
0.0
142
1.0
142
0.0
142
0.0
142
0.0
142
0.0
142
1.0
179
     0
144
0.0008202099737533
144
0.0
144
0.0
144
0.0
144
0.0
144
0.0008202099737533
144
0.0
144
0.0
144
0.0
144
0.0
144
1.0
144
0.0
144
0.0
144
0.0
144
0.0
144
1.0
147
0.0008202099737533
147
0.0
147
0.0
147
0.0
147
0.0
147
0.0008202099737533
147
0.0
147
0.0
147
0.0
147
0.0
147
1.0
147
0.0
147
0.0
147
0.0
147
0.0
147
1.0
  0
MLEADERSTYLE
  5
E64
102
{ACAD_REACTORS
330
E63
102
}
330
E63
100
AcDbMLeaderStyle
170
     2
171
     1
172
     0
 90
        2
 40
0.0
 41
0.0
173
     1
 91
-1056964608
340
14
 92
       -2
290
     1
 42
2.0
291
     1
 43
0.36
  3
Standard
 44
4.0
300

342
11
174
     1
178
     6
175
     1
176
     0
 93
-1056964608
 45
4.0
292
     0
297
     0
 46
4.0
 94
-1056964608
 47
1.0
 49
1.0
140
1.0
293
     1
141
0.0
294
     1
177
     0
142
1.0
295
     0
296
     0
143
0.125
1001
ACAD_MLEADERVER
1070
     2
  0
MLINESTYLE
  5
18
102
{ACAD_REACTORS
330
17
102
}
330
17
100
AcDbMlineStyle
  2
STANDARD
 70
     0
  3

 62
   256
 51
90.0
 52
90.0
 71
     2
 49
0.5
 62
   256
  6
BYLAYER
 49
-0.5
 62
   256
  6
BYLAYER
  0
ACDBPLACEHOLDER
  5
F
102
{ACAD_REACTORS
330
E
102
}
330
E
  0
SCALE
  5
E52
102
{ACAD_REACTORS
330
E51
102
}
330
E51
100
AcDbScale
 70
     0
300
1:1
140
1.0
141
1.0
290
     1
  0
SCALE
  5
E53
102
{ACAD_REACTORS
330
E51
102
}
330
E51
100
AcDbScale
 70
     0
300
1:2
140
1.0
141
2.0
290
     0
  0
SCALE
  5
E54
102
{ACAD_REACTORS
330
E51
102
}
330
E51
100
AcDbScale
 70
     0
300
1:4
140
1.0
141
4.0
290
     0
  0
SCALE
  5
E55
102
{ACAD_REACTORS
330
E51
102
}
330
E51
100
AcDbScale
 70
     0
300
1:5
140
1.0
141
5.0
290
     0
  0
SCALE
  5
E56
102
{ACAD_REACTORS
330
E51
102
}
330
E51
100
AcDbScale
 70
     0
300
1:8
140
1.0
141
8.0
290
     0
  0
SCALE
  5
E57
102
{ACAD_REACTORS
330
E51
102
}
330
E51
100
AcDbScale
 70
     0
300
1:10
140
1.0
141
10.0
290
     0
  0
SCALE
  5
E58
102
{ACAD_REACTORS
330
E51
102
}
330
E51
100
AcDbScale
 70
     0
300
1:16
140
1.0
141
16.0
290
     0
  0
SCALE
  5
E59
102
{ACAD_REACTORS
330
E51
102
}
330
E51
100
AcDbScale
 70
     0
300
1:20
140
1.0
141
20.0
290
     0
  0
SCALE
  5
E5A
102
{ACAD_REACTORS
330
E51
102
}
330
E51
100
AcDbScale
 70
     0
300
1:30
140
1.0
141
30.0
290
     0
  0
SCALE
  5
E5B
102
{ACAD_REACTORS
330
E51
102
}
330
E51
100
AcDbScale
 70
     0
300
1:40
140
1.0
141
40.0
290
     0
  0
SCALE
  5
E5C
102
{ACAD_REACTORS
330
E51
102
}
330
E51
100
AcDbScale
 70
     0
300
1:50
140
1.0
141
50.0
290
     0
  0
SCALE
  5
E5D
102
{ACAD_REACTORS
330
E51
102
}
330
E51
100
AcDbScale
 70
     0
300
1:100
140
1.0
141
100.0
290
     0
  0
SCALE
  5
E5E
102
{ACAD_REACTORS
330
E51
102
}
330
E51
100
AcDbScale
 70
     0
300
2:1
140
2.0
141
1.0
290
     0
  0
SCALE
  5
E5F
102
{ACAD_REACTORS
330
E51
102
}
330
E51
100
AcDbScale
 70
     0
300
4:1
140
4.0
141
1.0
290
     0
  0
SCALE
  5
E60
102
{ACAD_REACTORS
330
E51
102
}
330
E51
100
AcDbScale
 70
     0
300
8:1
140
8.0
141
1.0
290
     0
  0
SCALE
  5
E61
102
{ACAD_REACTORS
330
E51
102
}
330
E51
100
AcDbScale
 70
     0
300
10:1
140
10.0
141
1.0
290
     0
  0
SCALE
  5
E62
102
{ACAD_REACTORS
330
E51
102
}
330
E51
100
AcDbScale
 70
     0
300
100:1
140
100.0
141
1.0
290
     0
  0
TABLESTYLE
  5
E22
102
{ACAD_XDICTIONARY
360
F17
102
}
102
{ACAD_REACTORS
330
E1F
102
}
330
E1F
100
AcDbTableStyle
  3
Standard
 70
     0
 71
     0
 40
0.06
 41
0.06
280
     1
281
     1
  7
STANDARD
140
0.18
170
     1
 62
     0
 63
     7
283
     0
 90
      512
 91
        0
  1

274
    -2
284
     1
 64
     0
275
    -2
285
     1
 65
     0
276
    -2
286
     1
 66
     0
277
    -2
287
     1
 67
     0
278
    -2
288
     1
 68
     0
279
    -2
289
     1
 69
     0
  7
STANDARD
140
0.18
170
     1
 62
     0
 63
     7
283
     0
 90
      512
 91
        0
  1

274
    -2
284
     1
 64
     0
275
    -2
285
     1
 65
     0
276
    -2
286
     1
 66
     0
277
    -2
287
     1
 67
     0
278
    -2
288
     1
 68
     0
279
    -2
289
     1
 69
     0
  7
STANDARD
140
0.18
170
     1
 62
     0
 63
     7
283
     0
 90
      512
 91
        0
  1

274
    -2
284
     1
 64
     0
275
    -2
285
     1
 65
     0
276
    -2
286
     1
 66
     0
277
    -2
287
     1
 67
     0
278
    -2
288
     1
 68
     0
279
    -2
289
     1
 69
     0
  0
TABLESTYLE
  5
E23
102
{ACAD_XDICTIONARY
360
F19
102
}
102
{ACAD_REACTORS
330
E1F
102
}
330
E1F
100
AcDbTableStyle
  3
Standard1
 70
     1
 71
     0
 40
0.06
 41
0.06
280
     1
281
     1
  7
STANDARD
140
0.18
170
     1
 62
     0
 63
     7
283
     0
 90
      512
 91
        0
  1

274
    -2
284
     1
 64
     0
275
    -2
285
     1
 65
     0
276
    -2
286
     1
 66
     0
277
    -2
287
     1
 67
     0
278
    -2
288
     1
 68
     0
279
    -2
289
     1
 69
     0
  7
STANDARD
140
0.18
170
     1
 62
     0
 63
     7
283
     0
 90
      512
 91
        0
  1

274
    -2
284
     1
 64
     0
275
    -2
285
     1
 65
     0
276
    -2
286
     1
 66
     0
277
    -2
287
     1
 67
     0
278
    -2
288
     1
 68
     0
279
    -2
289
     1
 69
     0
  7
STANDARD
140
0.18
170
     1
 62
     0
 63
     7
283
     0
 90
      512
 91
        0
  1

274
    -2
284
     1
 64
     0
275
    -2
285
     1
 65
     0
276
    -2
286
     1
 66
     0
277
    -2
287
     1
 67
     0
278
    -2
288
     1
 68
     0
279
    -2
289
     1
 69
     0
  0
VISUALSTYLE
  5
E45
102
{ACAD_REACTORS
330
E3F
102
}
330
E3F
100
AcDbVisualStyle
  2
2dWireframe
 70
     4
 71
     0
 72
     2
 73
     0
 90
        0
 40
-0.6
 41
-30.0
 62
     5
 63
     7
421
 16777215
 74
     1
 91
        4
 64
     7
 65
   257
 75
     1
175
     1
 42
1.0
 92
        0
 66
   257
 43
1.0
 76
     1
 77
     6
 78
     2
 67
     7
 79
     5
170
     0
171
     0
290
     0
174
     0
 93
        1
 44
0.0
173
     0
291
     0
 45
0.0
  0
VISUALSTYLE
  5
E47
102
{ACAD_REACTORS
330
E3F
102
}
330
E3F
100
AcDbVisualStyle
  2
3D Hidden
 70
     6
 71
     1
 72
     2
 73
     2
 90
        0
 40
-0.6
 41
-30.0
 62
     5
 63
     7
421
 16777215
 74
     2
 91
        2
 64
     7
 65
   257
 75
     2
175
     1
 42
40.0
 92
        0
 66
   257
 43
1.0
 76
     1
 77
     6
 78
     2
 67
     7
 79
     3
170
     0
171
     0
290
     0
174
     0
 93
        1
 44
0.0
173
     0
291
     0
 45
0.0
  0
VISUALSTYLE
  5
E46
102
{ACAD_REACTORS
330
E3F
102
}
330
E3F
100
AcDbVisualStyle
  2
3dWireframe
 70
     5
 71
     0
 72
     2
 73
     0
 90
        0
 40
-0.6
 41
-30.0
 62
     5
 63
     7
421
 16777215
 74
     1
 91
        4
 64
     7
 65
   257
 75
     1
175
     1
 42
1.0
 92
        0
 66
   257
 43
1.0
 76
     1
 77
     6
 78
     2
 67
     7
 79
     5
170
     0
171
     0
290
     0
174
     0
 93
        1
 44
0.0
173
     0
291
     0
 45
0.0
  0
VISUALSTYLE
  5
E44
102
{ACAD_REACTORS
330
E3F
102
}
330
E3F
100
AcDbVisualStyle
  2
Basic
 70
     7
 71
     1
 72
     0
 73
     1
 90
        0
 40
-0.6
 41
-30.0
 62
     5
 63
     7
421
 16777215
 74
     0
 91
        4
 64
     7
 65
   257
 75
     1
175
     1
 42
1.0
 92
        8
 66
     7
 43
1.0
 76
     1
 77
     6
 78
     2
 67
     7
 79
     5
170
     0
171
     0
290
     0
174
     0
 93
        1
 44
0.0
173
     0
291
     1
 45
0.0
  0
VISUALSTYLE
  5
E4B
102
{ACAD_REACTORS
330
E3F
102
}
330
E3F
100
AcDbVisualStyle
  2
Brighten
 70
    12
 71
     2
 72
     2
 73
     0
 90
        0
 40
-0.6
 41
-30.0
 62
     5
 63
     7
421
 16777215
 74
     1
 91
        4
 64
     7
 65
   257
 75
     1
175
     1
 42
1.0
 92
        8
 66
     7
 43
1.0
 76
     1
 77
     6
 78
     2
 67
     7
 79
     5
170
     0
171
     0
290
     0
174
     0
 93
        1
 44
50.0
173
     0
291
     1
 45
0.0
  0
VISUALSTYLE
  5
E4F
102
{ACAD_REACTORS
330
E3F
102
}
330
E3F
100
AcDbVisualStyle
  2
ColorChange
 70
    16
 71
     2
 72
     2
 73
     3
 90
        0
 40
-0.6
 41
-30.0
 62
     5
 63
     8
421
  8421504
 74
     1
 91
        4
 64
     7
 65
   257
 75
     1
175
     1
 42
1.0
 92
        8
 66
     8
424
  8421504
 43
1.0
 76
     1
 77
     6
 78
     2
 67
     7
 79
     5
170
     0
171
     0
290
     0
174
     0
 93
        1
 44
0.0
173
     0
291
     1
 45
0.0
  0
VISUALSTYLE
  5
E48
102
{ACAD_REACTORS
330
E3F
102
}
330
E3F
100
AcDbVisualStyle
  2
Conceptual
 70
     9
 71
     3
 72
     2
 73
     0
 90
        0
 40
-0.6
 41
-30.0
 62
     5
 63
     7
421
 16777215
 74
     2
 91
        2
 64
     7
 65
   257
 75
     1
175
     1
 42
40.0
 92
        8
 66
     7
 43
1.0
 76
     1
 77
     6
 78
     2
 67
     7
 79
     3
170
     0
171
     0
290
     0
174
     0
 93
        1
 44
0.0
173
     0
291
     0
 45
0.0
  0
VISUALSTYLE
  5
E4A
102
{ACAD_REACTORS
330
E3F
102
}
330
E3F
100
AcDbVisualStyle
  2
Dim
 70
    11
 71
     2
 72
     2
 73
     0
 90
        0
 40
-0.6
 41
-30.0
 62
     5
 63
     7
421
 16777215
 74
     1
 91
        4
 64
     7
 65
   257
 75
     1
175
     1
 42
1.0
 92
        8
 66
     7
 43
1.0
 76
     1
 77
     6
 78
     2
 67
     7
 79
     5
170
     0
171
     0
290
     0
174
     0
 93
        1
 44
-50.0
173
     0
291
     1
 45
0.0
  0
VISUALSTYLE
  5
E4E
102
{ACAD_REACTORS
330
E3F
102
}
330
E3F
100
AcDbVisualStyle
  2
Facepattern
 70
    15
 71
     2
 72
     2
 73
     0
 90
        0
 40
-0.6
 41
-30.0
 62
     5
 63
     7
421
 16777215
 74
     1
 91
        4
 64
     7
 65
   257
 75
     1
175
     1
 42
1.0
 92
        8
 66
     7
 43
1.0
 76
     1
 77
     6
 78
     2
 67
     7
 79
     5
170
     0
171
     0
290
     0
174
     0
 93
        1
 44
0.0
173
     0
291
     1
 45
0.0
  0
VISUALSTYLE
  5
E40
102
{ACAD_REACTORS
330
E3F
102
}
330
E3F
100
AcDbVisualStyle
  2
Flat
 70
     0
 71
     2
 72
     1
 73
     1
 90
        2
 40
-0.6
 41
30.0
 62
     5
 63
     7
421
 16777215
 74
     0
 91
        4
 64
     7
 65
   257
 75
     1
175
     1
 42
1.0
 92
        8
 66
     7
 43
1.0
 76
     1
 77
     6
 78
     2
 67
     7
 79
     5
170
     0
171
     0
290
     0
174
     0
 93
       13
 44
0.0
173
     0
291
     1
 45
0.0
  0
VISUALSTYLE
  5
E41
102
{ACAD_REACTORS
330
E3F
102
}
330
E3F
100
AcDbVisualStyle
  2
FlatWithEdges
 70
     1
 71
     2
 72
     1
 73
     1
 90
        2
 40
-0.6
 41
30.0
 62
     5
 63
     7
421
 16777215
 74
     1
 91
        4
 64
     7
 65
   257
 75
     1
175
     1
 42
1.0
 92
        0
 66
   257
 43
1.0
 76
     1
 77
     6
 78
     2
 67
     7
 79
     5
170
     0
171
     0
290
     0
174
     0
 93
       13
 44
0.0
173
     0
291
     1
 45
0.0
  0
VISUALSTYLE
  5
E42
102
{ACAD_REACTORS
330
E3F
102
}
330
E3F
100
AcDbVisualStyle
  2
Gouraud
 70
     2
 71
     2
 72
     2
 73
     1
 90
        2
 40
-0.6
 41
30.0
 62
     5
 63
     7
421
 16777215
 74
     0
 91
        4
 64
     7
 65
   257
 75
     1
175
     1
 42
1.0
 92
        0
 66
     7
 43
1.0
 76
     1
 77
     6
 78
     2
 67
     7
 79
     5
170
     0
171
     0
290
     0
174
     0
 93
       13
 44
0.0
173
     0
291
     1
 45
0.0
  0
VISUALSTYLE
  5
E43
102
{ACAD_REACTORS
330
E3F
102
}
330
E3F
100
AcDbVisualStyle
  2
GouraudWithEdges
 70
     3
 71
     2
 72
     2
 73
     1
 90
        2
 40
-0.6
 41
30.0
 62
     5
 63
     7
421
 16777215
 74
     1
 91
        4
 64
     7
 65
   257
 75
     1
175
     1
 42
1.0
 92
        0
 66
   257
 43
1.0
 76
     1
 77
     6
 78
     2
 67
     7
 79
     5
170
     0
171
     0
290
     0
174
     0
 93
       13
 44
0.0
173
     0
291
     1
 45
0.0
  0
VISUALSTYLE
  5
E4D
102
{ACAD_REACTORS
330
E3F
102
}
330
E3F
100
AcDbVisualStyle
  2
Linepattern
 70
    14
 71
     2
 72
     2
 73
     0
 90
        0
 40
-0.6
 41
-30.0
 62
     5
 63
     7
421
 16777215
 74
     1
 91
        4
 64
     7
 65
   257
 75
     7
175
     7
 42
1.0
 92
        8
 66
     7
 43
1.0
 76
     1
 77
     6
 78
     2
 67
     7
 79
     5
170
     0
171
     0
290
     0
174
     0
 93
        1
 44
0.0
173
     0
291
     1
 45
0.0
  0
VISUALSTYLE
  5
E49
102
{ACAD_REACTORS
330
E3F
102
}
330
E3F
100
AcDbVisualStyle
  2
Realistic
 70
     8
 71
     2
 72
     2
 73
     0
 90
        0
 40
-0.6
 41
-30.0
 62
     5
 63
     7
421
 16777215
 74
     1
 91
        0
 64
     7
 65
   257
 75
     1
175
     1
 42
1.0
 92
        8
 66
     8
424
  7895160
 43
1.0
 76
     1
 77
     6
 78
     2
 67
     7
 79
     5
170
     0
171
     0
290
     0
174
     0
 93
       13
 44
0.0
173
     0
291
     0
 45
0.0
  0
VISUALSTYLE
  5
E4C
102
{ACAD_REACTORS
330
E3F
102
}
330
E3F
100
AcDbVisualStyle
  2
Thicken
 70
    13
 71
     2
 72
     2
 73
     0
 90
        0
 40
-0.6
 41
-30.0
 62
     5
 63
     7
421
 16777215
 74
     1
 91
        4
 64
     7
 65
   257
 75
     1
175
     1
 42
1.0
 92
       12
 66
     7
 43
1.0
 76
     1
 77
     6
 78
     2
 67
     7
 79
     5
170
     0
171
     0
290
     0
174
     0
 93
        1
 44
0.0
173
     0
291
     1
 45
0.0
  0
DICTIONARYVAR
  5
F16
102
{ACAD_REACTORS
330
F13
102
}
330
F13
100
DictionaryVariables
280
     0
  1
1:1
  0
DICTIONARYVAR
  5
F15
102
{ACAD_REACTORS
330
F13
102
}
330
F13
100
DictionaryVariables
280
     0
  1
STANDARD
  0
DICTIONARYVAR
  5
F14
102
{ACAD_REACTORS
330
F13
102
}
330
F13
100
DictionaryVariables
280
     0
  1
STANDARD
  0
DICTIONARY
  5
ECF
102
{ACAD_REACTORS
330
EC2
102
}
330
EC2
100
AcDbDictionary
281
     1
  0
DICTIONARY
  5
E30
330
E2F
100
AcDbDictionary
280
     1
281
     1
  3
BUMPTILE
360
E32
  3
DIFFUSETILE
360
E31
  3
OPACITYTILE
360
E35
  3
REFLECTIONTILE
360
E34
  3
REFRACTIONTILE
360
E36
  3
SPECULARTILE
360
E33
  0
DICTIONARY
  5
E28
330
E27
100
AcDbDictionary
280
     1
281
     1
  3
BUMPTILE
360
E2A
  3
DIFFUSETILE
360
E29
  3
OPACITYTILE
360
E2D
  3
REFLECTIONTILE
360
E2C
  3
REFRACTIONTILE
360
E2E
  3
SPECULARTILE
360
E2B
  0
DICTIONARY
  5
E38
330
E37
100
AcDbDictionary
280
     1
281
     1
  3
BUMPTILE
360
E3A
  3
DIFFUSETILE
360
E39
  3
OPACITYTILE
360
E3D
  3
REFLECTIONTILE
360
E3C
  3
REFRACTIONTILE
360
E3E
  3
SPECULARTILE
360
E3B
  0
DICTIONARY
  5
F17
330
E22
100
AcDbDictionary
280
     1
281
     1
  3
ACAD_ROUNDTRIP_2008_TABLESTYLE_CELLSTYLEMAP
360
F9B
  0
DICTIONARY
  5
F19
330
E23
100
AcDbDictionary
280
     1
281
     1
  3
ACAD_ROUNDTRIP_2008_TABLESTYLE_CELLSTYLEMAP
360
F9C
  0
XRECORD
  5
E32
102
{ACAD_REACTORS
330
E30
102
}
330
E30
100
AcDbXrecord
280
     1
270
     1
271
     1
  0
XRECORD
  5
E31
102
{ACAD_REACTORS
330
E30
102
}
330
E30
100
AcDbXrecord
280
     1
270
     1
271
     1
  0
XRECORD
  5
E35
102
{ACAD_REACTORS
330
E30
102
}
330
E30
100
AcDbXrecord
280
     1
270
     1
271
     1
  0
XRECORD
  5
E34
102
{ACAD_REACTORS
330
E30
102
}
330
E30
100
AcDbXrecord
280
     1
270
     1
271
     1
  0
XRECORD
  5
E36
102
{ACAD_REACTORS
330
E30
102
}
330
E30
100
AcDbXrecord
280
     1
270
     1
271
     1
  0
XRECORD
  5
E33
102
{ACAD_REACTORS
330
E30
102
}
330
E30
100
AcDbXrecord
280
     1
270
     1
271
     1
  0
XRECORD
  5
E2A
102
{ACAD_REACTORS
330
E28
102
}
330
E28
100
AcDbXrecord
280
     1
270
     1
271
     1
  0
XRECORD
  5
E29
102
{ACAD_REACTORS
330
E28
102
}
330
E28
100
AcDbXrecord
280
     1
270
     1
271
     1
  0
XRECORD
  5
E2D
102
{ACAD_REACTORS
330
E28
102
}
330
E28
100
AcDbXrecord
280
     1
270
     1
271
     1
  0
XRECORD
  5
E2C
102
{ACAD_REACTORS
330
E28
102
}
330
E28
100
AcDbXrecord
280
     1
270
     1
271
     1
  0
XRECORD
  5
E2E
102
{ACAD_REACTORS
330
E28
102
}
330
E28
100
AcDbXrecord
280
     1
270
     1
271
     1
  0
XRECORD
  5
E2B
102
{ACAD_REACTORS
330
E28
102
}
330
E28
100
AcDbXrecord
280
     1
270
     1
271
     1
  0
XRECORD
  5
E3A
102
{ACAD_REACTORS
330
E38
102
}
330
E38
100
AcDbXrecord
280
     1
270
     1
271
     1
  0
XRECORD
  5
E39
102
{ACAD_REACTORS
330
E38
102
}
330
E38
100
AcDbXrecord
280
     1
270
     1
271
     1
  0
XRECORD
  5
E3D
102
{ACAD_REACTORS
330
E38
102
}
330
E38
100
AcDbXrecord
280
     1
270
     1
271
     1
  0
XRECORD
  5
E3C
102
{ACAD_REACTORS
330
E38
102
}
330
E38
100
AcDbXrecord
280
     1
270
     1
271
     1
  0
XRECORD
  5
E3E
102
{ACAD_REACTORS
330
E38
102
}
330
E38
100
AcDbXrecord
280
     1
270
     1
271
     1
  0
XRECORD
  5
E3B
102
{ACAD_REACTORS
330
E38
102
}
330
E38
100
AcDbXrecord
280
     1
270
     1
271
     1
  0
CELLSTYLEMAP
  5
F9B
102
{ACAD_REACTORS
330
F17
102
}
330
F17
100
AcDbCellStyleMap
 90
        3
300
CELLSTYLE
  1
TABLEFORMAT_BEGIN
 90
        5
170
     1
 91
        0
 92
    32768
 62
   257
 93
        1
300
CONTENTFORMAT
  1
CONTENTFORMAT_BEGIN
 90
        0
 91
        0
 92
      512
 93
        0
300

 40
0.0
140
1.0
 94
        1
 62
     0
340
11
144
0.18
309
CONTENTFORMAT_END
171
     1
301
MARGIN
  1
CELLMARGIN_BEGIN
 40
0.06
 40
0.06
 40
0.06
 40
0.06
 40
0.18
 40
0.18
309
CELLMARGIN_END
 94
        6
 95
        1
302
GRIDFORMAT
  1
GRIDFORMAT_BEGIN
 90
        0
 91
        1
 62
     0
 92
       -2
340
0
 93
        0
 40
0.045
309
GRIDFORMAT_END
 95
        2
302
GRIDFORMAT
  1
GRIDFORMAT_BEGIN
 90
        0
 91
        1
 62
     0
 92
       -2
340
0
 93
        0
 40
0.045
309
GRIDFORMAT_END
 95
        4
302
GRIDFORMAT
  1
GRIDFORMAT_BEGIN
 90
        0
 91
        1
 62
     0
 92
       -2
340
0
 93
        0
 40
0.045
309
GRIDFORMAT_END
 95
        8
302
GRIDFORMAT
  1
GRIDFORMAT_BEGIN
 90
        0
 91
        1
 62
     0
 92
       -2
340
0
 93
        0
 40
0.045
309
GRIDFORMAT_END
 95
       16
302
GRIDFORMAT
  1
GRIDFORMAT_BEGIN
 90
        0
 91
        1
 62
     0
 92
       -2
340
0
 93
        0
 40
0.045
309
GRIDFORMAT_END
 95
       32
302
GRIDFORMAT
  1
GRIDFORMAT_BEGIN
 90
        0
 91
        1
 62
     0
 92
       -2
340
0
 93
        0
 40
0.045
309
GRIDFORMAT_END
309
TABLEFORMAT_END
  1
CELLSTYLE_BEGIN
 90
        1
 91
        1
300
_TITLE
309
CELLSTYLE_END
300
CELLSTYLE
  1
TABLEFORMAT_BEGIN
 90
        5
170
     1
 91
        0
 92
        0
 62
   257
 93
        1
300
CONTENTFORMAT
  1
CONTENTFORMAT_BEGIN
 90
        0
 91
        0
 92
      512
 93
        0
300

 40
0.0
140
1.0
 94
        1
 62
     0
340
11
144
0.18
309
CONTENTFORMAT_END
171
     1
301
MARGIN
  1
CELLMARGIN_BEGIN
 40
0.06
 40
0.06
 40
0.06
 40
0.06
 40
0.18
 40
0.18
309
CELLMARGIN_END
 94
        6
 95
        1
302
GRIDFORMAT
  1
GRIDFORMAT_BEGIN
 90
        0
 91
        1
 62
     0
 92
       -2
340
0
 93
        0
 40
0.045
309
GRIDFORMAT_END
 95
        2
302
GRIDFORMAT
  1
GRIDFORMAT_BEGIN
 90
        0
 91
        1
 62
     0
 92
       -2
340
0
 93
        0
 40
0.045
309
GRIDFORMAT_END
 95
        4
302
GRIDFORMAT
  1
GRIDFORMAT_BEGIN
 90
        0
 91
        1
 62
     0
 92
       -2
340
0
 93
        0
 40
0.045
309
GRIDFORMAT_END
 95
        8
302
GRIDFORMAT
  1
GRIDFORMAT_BEGIN
 90
        0
 91
        1
 62
     0
 92
       -2
340
0
 93
        0
 40
0.045
309
GRIDFORMAT_END
 95
       16
302
GRIDFORMAT
  1
GRIDFORMAT_BEGIN
 90
        0
 91
        1
 62
     0
 92
       -2
340
0
 93
        0
 40
0.045
309
GRIDFORMAT_END
 95
       32
302
GRIDFORMAT
  1
GRIDFORMAT_BEGIN
 90
        0
 91
        1
 62
     0
 92
       -2
340
0
 93
        0
 40
0.045
309
GRIDFORMAT_END
309
TABLEFORMAT_END
  1
CELLSTYLE_BEGIN
 90
        2
 91
        1
300
_HEADER
309
CELLSTYLE_END
300
CELLSTYLE
  1
TABLEFORMAT_BEGIN
 90
        5
170
     1
 91
        0
 92
        0
 62
   257
 93
        1
300
CONTENTFORMAT
  1
CONTENTFORMAT_BEGIN
 90
        0
 91
        0
 92
      512
 93
        0
300

 40
0.0
140
1.0
 94
        1
 62
     0
340
11
144
0.18
309
CONTENTFORMAT_END
171
     1
301
MARGIN
  1
CELLMARGIN_BEGIN
 40
0.06
 40
0.06
 40
0.06
 40
0.06
 40
0.18
 40
0.18
309
CELLMARGIN_END
 94
        6
 95
        1
302
GRIDFORMAT
  1
GRIDFORMAT_BEGIN
 90
        0
 91
        1
 62
     0
 92
       -2
340
0
 93
        0
 40
0.045
309
GRIDFORMAT_END
 95
        2
302
GRIDFORMAT
  1
GRIDFORMAT_BEGIN
 90
        0
 91
        1
 62
     0
 92
       -2
340
0
 93
        0
 40
0.045
309
GRIDFORMAT_END
 95
        4
302
GRIDFORMAT
  1
GRIDFORMAT_BEGIN
 90
        0
 91
        1
 62
     0
 92
       -2
340
0
 93
        0
 40
0.045
309
GRIDFORMAT_END
 95
        8
302
GRIDFORMAT
  1
GRIDFORMAT_BEGIN
 90
        0
 91
        1
 62
     0
 92
       -2
340
0
 93
        0
 40
0.045
309
GRIDFORMAT_END
 95
       16
302
GRIDFORMAT
  1
GRIDFORMAT_BEGIN
 90
        0
 91
        1
 62
     0
 92
       -2
340
0
 93
        0
 40
0.045
309
GRIDFORMAT_END
 95
       32
302
GRIDFORMAT
  1
GRIDFORMAT_BEGIN
 90
        0
 91
        1
 62
     0
 92
       -2
340
0
 93
        0
 40
0.045
309
GRIDFORMAT_END
309
TABLEFORMAT_END
  1
CELLSTYLE_BEGIN
 90
        3
 91
        2
300
_DATA
309
CELLSTYLE_END
  0
CELLSTYLEMAP
  5
F9C
102
{ACAD_REACTORS
330
F19
102
}
330
F19
100
AcDbCellStyleMap
 90
        3
300
CELLSTYLE
  1
TABLEFORMAT_BEGIN
 90
        5
170
     1
 91
        0
 92
    32768
 62
   257
 93
        1
300
CONTENTFORMAT
  1
CONTENTFORMAT_BEGIN
 90
        0
 91
        0
 92
      512
 93
        0
300

 40
0.0
140
1.0
 94
        1
 62
     0
340
11
144
0.18
309
CONTENTFORMAT_END
171
     1
301
MARGIN
  1
CELLMARGIN_BEGIN
 40
0.06
 40
0.06
 40
0.06
 40
0.06
 40
0.18
 40
0.18
309
CELLMARGIN_END
 94
        6
 95
        1
302
GRIDFORMAT
  1
GRIDFORMAT_BEGIN
 90
        0
 91
        1
 62
     0
 92
       -2
340
0
 93
        0
 40
0.045
309
GRIDFORMAT_END
 95
        2
302
GRIDFORMAT
  1
GRIDFORMAT_BEGIN
 90
        0
 91
        1
 62
     0
 92
       -2
340
0
 93
        0
 40
0.045
309
GRIDFORMAT_END
 95
        4
302
GRIDFORMAT
  1
GRIDFORMAT_BEGIN
 90
        0
 91
        1
 62
     0
 92
       -2
340
0
 93
        0
 40
0.045
309
GRIDFORMAT_END
 95
        8
302
GRIDFORMAT
  1
GRIDFORMAT_BEGIN
 90
        0
 91
        1
 62
     0
 92
       -2
340
0
 93
        0
 40
0.045
309
GRIDFORMAT_END
 95
       16
302
GRIDFORMAT
  1
GRIDFORMAT_BEGIN
 90
        0
 91
        1
 62
     0
 92
       -2
340
0
 93
        0
 40
0.045
309
GRIDFORMAT_END
 95
       32
302
GRIDFORMAT
  1
GRIDFORMAT_BEGIN
 90
        0
 91
        1
 62
     0
 92
       -2
340
0
 93
        0
 40
0.045
309
GRIDFORMAT_END
309
TABLEFORMAT_END
  1
CELLSTYLE_BEGIN
 90
        1
 91
        1
300
_TITLE
309
CELLSTYLE_END
300
CELLSTYLE
  1
TABLEFORMAT_BEGIN
 90
        5
170
     1
 91
        0
 92
        0
 62
   257
 93
        1
300
CONTENTFORMAT
  1
CONTENTFORMAT_BEGIN
 90
        0
 91
        0
 92
      512
 93
        0
300

 40
0.0
140
1.0
 94
        1
 62
     0
340
11
144
0.18
309
CONTENTFORMAT_END
171
     1
301
MARGIN
  1
CELLMARGIN_BEGIN
 40
0.06
 40
0.06
 40
0.06
 40
0.06
 40
0.18
 40
0.18
309
CELLMARGIN_END
 94
        6
 95
        1
302
GRIDFORMAT
  1
GRIDFORMAT_BEGIN
 90
        0
 91
        1
 62
     0
 92
       -2
340
0
 93
        0
 40
0.045
309
GRIDFORMAT_END
 95
        2
302
GRIDFORMAT
  1
GRIDFORMAT_BEGIN
 90
        0
 91
        1
 62
     0
 92
       -2
340
0
 93
        0
 40
0.045
309
GRIDFORMAT_END
 95
        4
302
GRIDFORMAT
  1
GRIDFORMAT_BEGIN
 90
        0
 91
        1
 62
     0
 92
       -2
340
0
 93
        0
 40
0.045
309
GRIDFORMAT_END
 95
        8
302
GRIDFORMAT
  1
GRIDFORMAT_BEGIN
 90
        0
 91
        1
 62
     0
 92
       -2
340
0
 93
        0
 40
0.045
309
GRIDFORMAT_END
 95
       16
302
GRIDFORMAT
  1
GRIDFORMAT_BEGIN
 90
        0
 91
        1
 62
     0
 92
       -2
340
0
 93
        0
 40
0.045
309
GRIDFORMAT_END
 95
       32
302
GRIDFORMAT
  1
GRIDFORMAT_BEGIN
 90
        0
 91
        1
 62
     0
 92
       -2
340
0
 93
        0
 40
0.045
309
GRIDFORMAT_END
309
TABLEFORMAT_END
  1
CELLSTYLE_BEGIN
 90
        2
 91
        1
300
_HEADER
309
CELLSTYLE_END
300
CELLSTYLE
  1
TABLEFORMAT_BEGIN
 90
        5
170
     1
 91
        0
 92
        0
 62
   257
 93
        1
300
CONTENTFORMAT
  1
CONTENTFORMAT_BEGIN
 90
        0
 91
        0
 92
      512
 93
        0
300

 40
0.0
140
1.0
 94
        1
 62
     0
340
11
144
0.18
309
CONTENTFORMAT_END
171
     1
301
MARGIN
  1
CELLMARGIN_BEGIN
 40
0.06
 40
0.06
 40
0.06
 40
0.06
 40
0.18
 40
0.18
309
CELLMARGIN_END
 94
        6
 95
        1
302
GRIDFORMAT
  1
GRIDFORMAT_BEGIN
 90
        0
 91
        1
 62
     0
 92
       -2
340
0
 93
        0
 40
0.045
309
GRIDFORMAT_END
 95
        2
302
GRIDFORMAT
  1
GRIDFORMAT_BEGIN
 90
        0
 91
        1
 62
     0
 92
       -2
340
0
 93
        0
 40
0.045
309
GRIDFORMAT_END
 95
        4
302
GRIDFORMAT
  1
GRIDFORMAT_BEGIN
 90
        0
 91
        1
 62
     0
 92
       -2
340
0
 93
        0
 40
0.045
309
GRIDFORMAT_END
 95
        8
302
GRIDFORMAT
  1
GRIDFORMAT_BEGIN
 90
        0
 91
        1
 62
     0
 92
       -2
340
0
 93
        0
 40
0.045
309
GRIDFORMAT_END
 95
       16
302
GRIDFORMAT
  1
GRIDFORMAT_BEGIN
 90
        0
 91
        1
 62
     0
 92
       -2
340
0
 93
        0
 40
0.045
309
GRIDFORMAT_END
 95
       32
302
GRIDFORMAT
  1
GRIDFORMAT_BEGIN
 90
        0
 91
        1
 62
     0
 92
       -2
340
0
 93
        0
 40
0.045
309
GRIDFORMAT_END
309
TABLEFORMAT_END
  1
CELLSTYLE_BEGIN
 90
        3
 91
        2
300
_DATA
309
CELLSTYLE_END
  0
ENDSEC
  0
EOF
