  0
SECTION
  2
HEADER
  9
$ACADVER
  1
AC1021
  9
$ACADMAINTVER
 70
    50
  9
$DWGCODEPAGE
  3
ANSI_936
  9
$LASTSAVEDBY
  1
ko81367
  9
$INSBASE
 10
0.0
 20
0.0
 30
0.0
  9
$EXTMIN
 10
1397.619269398399
 20
-332.2447221011307
 30
-0.0015258207003583
  9
$EXTMAX
 10
2197.927710823324
 20
-120.2004136881987
 30
0.0000000349246037
  9
$LIMMIN
 10
0.0
 20
0.0
  9
$LIMMAX
 10
863.6000000000001
 20
558.8
  9
$ORTHOMODE
 70
     0
  9
$REGENMODE
 70
     1
  9
$FILLMODE
 70
     1
  9
$QTEXTMODE
 70
     0
  9
$MIRRTEXT
 70
     0
  9
$LTSCALE
 40
47.498
  9
$ATTMODE
 70
     1
  9
$TEXTSIZE
 40
0.2
  9
$TRACEWID
 40
0.05
  9
$TEXTSTYLE
  7
STANDARD
  9
$CLAYER
  8
0
  9
$CELTYPE
  6
BYLAYER
  9
$CECOLOR
 62
   256
  9
$CELTSCALE
 40
1.0
  9
$DISPSILH
 70
     0
  9
$DIMSCALE
 40
1.0
  9
$DIMASZ
 40
3.5
  9
$DIMEXO
 40
1.0
  9
$DIMDLI
 40
10.0
  9
$DIMRND
 40
0.0
  9
$DIMDLE
 40
0.0
  9
$DIMEXE
 40
1.0
  9
$DIMTP
 40
0.1
  9
$DIMTM
 40
0.1
  9
$DIMTXT
 40
3.5
  9
$DIMCEN
 40
0.0
  9
$DIMTSZ
 40
0.0
  9
$DIMTOL
 70
     0
  9
$DIMLIM
 70
     0
  9
$DIMTIH
 70
     0
  9
$DIMTOH
 70
     0
  9
$DIMSE1
 70
     0
  9
$DIMSE2
 70
     0
  9
$DIMTAD
 70
     1
  9
$DIMZIN
 70
     8
  9
$DIMBLK
  1

  9
$DIMASO
 70
     1
  9
$DIMSHO
 70
     1
  9
$DIMPOST
  1

  9
$DIMAPOST
  1
"
  9
$DIMALT
 70
     0
  9
$DIMALTD
 70
     2
  9
$DIMALTF
 40
0.0393701
  9
$DIMLFAC
 40
1.0
  9
$DIMTOFL
 70
     1
  9
$DIMTVP
 40
0.0
  9
$DIMTIX
 70
     0
  9
$DIMSOXD
 70
     0
  9
$DIMSAH
 70
     0
  9
$DIMBLK1
  1

  9
$DIMBLK2
  1

  9
$DIMSTYLE
  2
AM_ISO
  9
$DIMCLRD
 70
   256
  9
$DIMCLRE
 70
   256
  9
$DIMCLRT
 70
     2
  9
$DIMTFAC
 40
0.71
  9
$DIMGAP
 40
1.5
  9
$DIMJUST
 70
     0
  9
$DIMSD1
 70
     0
  9
$DIMSD2
 70
     0
  9
$DIMTOLJ
 70
     0
  9
$DIMTZIN
 70
     8
  9
$DIMALTZ
 70
     0
  9
$DIMALTTZ
 70
     0
  9
$DIMUPT
 70
     0
  9
$DIMDEC
 70
     2
  9
$DIMTDEC
 70
     3
  9
$DIMALTU
 70
     2
  9
$DIMALTTD
 70
     4
  9
$DIMTXSTY
  7
STANDARD
  9
$DIMAUNIT
 70
     0
  9
$DIMADEC
 70
     0
  9
$DIMALTRND
 40
0.0
  9
$DIMAZIN
 70
     2
  9
$DIMDSEP
 70
    46
  9
$DIMATFIT
 70
     3
  9
$DIMFRAC
 70
     0
  9
$DIMLDRBLK
  1

  9
$DIMLUNIT
 70
     2
  9
$DIMLWD
 70
    -1
  9
$DIMLWE
 70
    -1
  9
$DIMTMOVE
 70
     0
  9
$DIMFXL
 40
1.0
  9
$DIMFXLON
 70
     0
  9
$DIMJOGANG
 40
0.7853981633974483
  9
$DIMTFILL
 70
     0
  9
$DIMTFILLCLR
 70
     0
  9
$DIMARCSYM
 70
     1
  9
$DIMLTYPE
  6
BYBLOCK
  9
$DIMLTEX1
  6
BYBLOCK
  9
$DIMLTEX2
  6
BYBLOCK
  9
$LUNITS
 70
     2
  9
$LUPREC
 70
     2
  9
$SKETCHINC
 40
0.1
  9
$FILLETRAD
 40
0.0
  9
$AUNITS
 70
     0
  9
$AUPREC
 70
     0
  9
$MENU
  1
.
  9
$ELEVATION
 40
0.0
  9
$PELEVATION
 40
0.0
  9
$THICKNESS
 40
0.0
  9
$LIMCHECK
 70
     0
  9
$CHAMFERA
 40
0.0
  9
$CHAMFERB
 40
0.0
  9
$CHAMFERC
 40
0.0
  9
$CHAMFERD
 40
0.0
  9
$SKPOLY
 70
     0
  9
$TDCREATE
 40
2456126.414523021
  9
$TDUCREATE
 40
2456126.081189688
  9
$TDUPDATE
 40
2456126.416626227
  9
$TDUUPDATE
 40
2456126.083292894
  9
$TDINDWG
 40
0.0015330440
  9
$TDUSRTIMER
 40
0.0015330440
  9
$USRTIMER
 70
     1
  9
$ANGBASE
 50
0.0
  9
$ANGDIR
 70
     0
  9
$PDMODE
 70
     3
  9
$PDSIZE
 40
7.9375
  9
$PLINEWID
 40
0.0
  9
$SPLFRAME
 70
     0
  9
$SPLINETYPE
 70
     6
  9
$SPLINESEGS
 70
     8
  9
$HANDSEED
  5
F94
  9
$SURFTAB1
 70
     6
  9
$SURFTAB2
 70
     6
  9
$SURFTYPE
 70
     6
  9
$SURFU
 70
     6
  9
$SURFV
 70
     6
  9
$UCSBASE
  2

  9
$UCSNAME
  2

  9
$UCSORG
 10
0.0
 20
0.0
 30
0.0
  9
$UCSXDIR
 10
1.0
 20
0.0
 30
0.0
  9
$UCSYDIR
 10
0.0
 20
1.0
 30
0.0
  9
$UCSORTHOREF
  2

  9
$UCSORTHOVIEW
 70
     0
  9
$UCSORGTOP
 10
0.0
 20
0.0
 30
0.0
  9
$UCSORGBOTTOM
 10
0.0
 20
0.0
 30
0.0
  9
$UCSORGLEFT
 10
0.0
 20
0.0
 30
0.0
  9
$UCSORGRIGHT
 10
0.0
 20
0.0
 30
0.0
  9
$UCSORGFRONT
 10
0.0
 20
0.0
 30
0.0
  9
$UCSORGBACK
 10
0.0
 20
0.0
 30
0.0
  9
$PUCSBASE
  2

  9
$PUCSNAME
  2

  9
$PUCSORG
 10
0.0
 20
0.0
 30
0.0
  9
$PUCSXDIR
 10
1.0
 20
0.0
 30
0.0
  9
$PUCSYDIR
 10
0.0
 20
1.0
 30
0.0
  9
$PUCSORTHOREF
  2

  9
$PUCSORTHOVIEW
 70
     0
  9
$PUCSORGTOP
 10
0.0
 20
0.0
 30
0.0
  9
$PUCSORGBOTTOM
 10
0.0
 20
0.0
 30
0.0
  9
$PUCSORGLEFT
 10
0.0
 20
0.0
 30
0.0
  9
$PUCSORGRIGHT
 10
0.0
 20
0.0
 30
0.0
  9
$PUCSORGFRONT
 10
0.0
 20
0.0
 30
0.0
  9
$PUCSORGBACK
 10
0.0
 20
0.0
 30
0.0
  9
$USERI1
 70
     0
  9
$USERI2
 70
     0
  9
$USERI3
 70
     0
  9
$USERI4
 70
     0
  9
$USERI5
 70
     0
  9
$USERR1
 40
0.0
  9
$USERR2
 40
0.0
  9
$USERR3
 40
0.0
  9
$USERR4
 40
0.0
  9
$USERR5
 40
0.0
  9
$WORLDVIEW
 70
     1
  9
$SHADEDGE
 70
     3
  9
$SHADEDIF
 70
    70
  9
$TILEMODE
 70
     1
  9
$MAXACTVP
 70
    64
  9
$PINSBASE
 10
0.0
 20
0.0
 30
0.0
  9
$PLIMCHECK
 70
     0
  9
$PEXTMIN
 10
1.000000000000000E+20
 20
1.000000000000000E+20
 30
1.000000000000000E+20
  9
$PEXTMAX
 10
-1.000000000000000E+20
 20
-1.000000000000000E+20
 30
-1.000000000000000E+20
  9
$PLIMMIN
 10
0.0
 20
0.0
  9
$PLIMMAX
 10
12.0
 20
9.0
  9
$UNITMODE
 70
     0
  9
$VISRETAIN
 70
     1
  9
$PLINEGEN
 70
     0
  9
$PSLTSCALE
 70
     1
  9
$TREEDEPTH
 70
  3020
  9
$CMLSTYLE
  2
Standard
  9
$CMLJUST
 70
     0
  9
$CMLSCALE
 40
1.0
  9
$PROXYGRAPHICS
 70
     1
  9
$MEASUREMENT
 70
     1
  9
$CELWEIGHT
370
    -1
  9
$ENDCAPS
280
     0
  9
$JOINSTYLE
280
     0
  9
$LWDISPLAY
290
     0
  9
$INSUNITS
 70
     4
  9
$HYPERLINKBASE
  1

  9
$STYLESHEET
  1

  9
$XEDIT
290
     1
  9
$CEPSNTYPE
380
     0
  9
$PSTYLEMODE
290
     1
  9
$FINGERPRINTGUID
  2
{3CE55DD3-80D0-4305-A8C4-DAE883629818}
  9
$VERSIONGUID
  2
{40D0EBE5-8B8D-4CD9-844A-783F353A58E7}
  9
$EXTNAMES
290
     1
  9
$PSVPSCALE
 40
0.0
  9
$OLESTARTUP
290
     0
  9
$SORTENTS
280
   127
  9
$INDEXCTL
280
     0
  9
$HIDETEXT
280
     1
  9
$XCLIPFRAME
290
     0
  9
$HALOGAP
280
     0
  9
$OBSCOLOR
 70
   257
  9
$OBSLTYPE
280
     0
  9
$INTERSECTIONDISPLAY
280
     0
  9
$INTERSECTIONCOLOR
 70
   257
  9
$DIMASSOC
280
     2
  9
$PROJECTNAME
  1

  9
$CAMERADISPLAY
290
     0
  9
$LENSLENGTH
 40
50.0
  9
$CAMERAHEIGHT
 40
0.0
  9
$STEPSPERSEC
 40
2.0
  9
$STEPSIZE
 40
6.0
  9
$3DDWFPREC
 40
2.0
  9
$PSOLWIDTH
 40
0.25
  9
$PSOLHEIGHT
 40
4.0
  9
$LOFTANG1
 40
1.570796326794896
  9
$LOFTANG2
 40
1.570796326794896
  9
$LOFTMAG1
 40
0.0
  9
$LOFTMAG2
 40
0.0
  9
$LOFTPARAM
 70
     7
  9
$LOFTNORMALS
280
     1
  9
$LATITUDE
 40
37.795
  9
$LONGITUDE
 40
-122.394
  9
$NORTHDIRECTION
 40
0.0
  9
$TIMEZONE
 70
 -8000
  9
$LIGHTGLYPHDISPLAY
280
     1
  9
$TILEMODELIGHTSYNCH
280
     1
  9
$CMATERIAL
347
E27
  9
$SOLIDHIST
280
     1
  9
$SHOWHIST
280
     1
  9
$DWFFRAME
280
     2
  9
$DGNFRAME
280
     0
  9
$REALWORLDSCALE
290
     1
  9
$INTERFERECOLOR
 62
     1
  9
$INTERFEREOBJVS
345
E49
  9
$INTERFEREVPVS
346
E46
  9
$CSHADOW
280
     0
  9
$SHADOWPLANELOCATION
 40
0.0
  0
ENDSEC
  0
SECTION
  2
CLASSES
  0
CLASS
  1
ACDBDICTIONARYWDFLT
  2
AcDbDictionaryWithDefault
  3
ObjectDBX Classes
 90
        0
 91
        1
280
     0
281
     0
  0
CLASS
  1
TABLESTYLE
  2
AcDbTableStyle
  3
ObjectDBX Classes
 90
     4095
 91
        2
280
     0
281
     0
  0
CLASS
  1
ACAD_TABLE
  2
AcDbTable
  3
ObjectDBX Classes
 90
     1025
 91
        0
280
     0
281
     1
  0
CLASS
  1
MATERIAL
  2
AcDbMaterial
  3
ObjectDBX Classes
 90
     1153
 91
        3
280
     0
281
     0
  0
CLASS
  1
VISUALSTYLE
  2
AcDbVisualStyle
  3
ObjectDBX Classes
 90
     4095
 91
       16
280
     0
281
     0
  0
CLASS
  1
SCALE
  2
AcDbScale
  3
ObjectDBX Classes
 90
     1153
 91
       17
280
     0
281
     0
  0
CLASS
  1
MLEADERSTYLE
  2
AcDbMLeaderStyle
  3
ACDB_MLEADERSTYLE_CLASS
 90
     4095
 91
        1
280
     0
281
     0
  0
CLASS
  1
AMGSETTINGSOBJ
  2
AmgSettingsObj
  3
"AcadM|Product Description: AutoCAD Mechanical|Company: Autodesk, Inc."
 90
     1024
 91
        2
280
     0
281
     0
  0
CLASS
  1
ACME_DOCUMENT
  2
AcMeDbDoc
  3
AcMeServices
 90
     1024
 91
        1
280
     0
281
     0
  0
CLASS
  1
ACMESCOPE
  2
AcMeScope
  3
AcMeServices
 90
     1024
 91
        1
280
     0
281
     0
  0
CLASS
  1
ACMECOMMANDHISTORY
  2
AcMeCommandHistory
  3
AcMeServices
 90
     1024
 91
        1
280
     0
281
     0
  0
CLASS
  1
ACIMSYSVARMAN
  2
AcImSysVarManager
  3
AcMeServices
 90
     1024
 91
        5
280
     0
281
     0
  0
CLASS
  1
ACIMINTSYSVAR
  2
AcImIntSysVar
  3
AcMeServices
 90
     1024
 91
       27
280
     0
281
     0
  0
CLASS
  1
ACMEDRAWINGMAN
  2
AcMeDrawingMan
  3
AcMeServices
 90
     1024
 91
        1
280
     0
281
     0
  0
CLASS
  1
ACMEVIEW
  2
AcMeView
  3
AcMeServices
 90
     1024
 91
        1
280
     0
281
     0
  0
CLASS
  1
ACDBENTITYCACHE
  2
AcMeEntityCache
  3
AcMeServices
 90
     1024
 91
        1
280
     0
281
     0
  0
CLASS
  1
GSMANAGER
  2
AcMeGSManager
  3
AcMeServices
 90
     1024
 91
        1
280
     0
281
     0
  0
CLASS
  1
AMDTINTERNALREACTOR
  2
AmdtInternalReactor
  3
AcMeServices
 90
     1024
 91
        2
280
     0
281
     0
  0
CLASS
  1
ACMESTATEMGR
  2
AcMeStateMgr
  3
AcMeServices
 90
     1024
 91
        1
280
     0
281
     0
  0
CLASS
  1
ACGREFMASTER
  2
AcGrefMaster
  3
AcAttribServices
 90
     1024
 91
        1
280
     0
281
     0
  0
CLASS
  1
AM_DRAWING_MGR
  2
AcDmDwgMgr
  3
AcMechDwgViewMgmt
 90
     1024
 91
        1
280
     0
281
     0
  0
CLASS
  1
AM_DWG_DOCUMENT
  2
AcDmDwgDocument
  3
AcMechDwgViewMgmt
 90
     1024
 91
        1
280
     0
281
     0
  0
CLASS
  1
AM_DWG_SHEET
  2
AcDmSheet
  3
AcMechDwgViewMgmt
 90
     1024
 91
        1
280
     0
281
     0
  0
CLASS
  1
AM_VIEWDIMPARMAP
  2
AcDmViewDimParMap
  3
AcMechDwgViewMgmt
 90
     1024
 91
        1
280
     0
281
     0
  0
CLASS
  1
ACIMREALSYSVAR
  2
AcImRealSysVar
  3
AcMeServices
 90
     1024
 91
        1
280
     0
281
     0
  0
CLASS
  1
AM_DWGMGR_NAME
  2
AcDmDwgMgrName
  3
AcMechDwgViewMgmt
 90
     1024
 91
        1
280
     0
281
     0
  0
CLASS
  1
ACME_DATABASE
  2
AcMeDbDatabase
  3
AcMeServices
 90
     1024
 91
        1
280
     0
281
     0
  0
CLASS
  1
ACRFINSADJUSTERMGR
  2
AcRfInsAdjusterMgr
  3
AcMeServices
 90
     1024
 91
        1
280
     0
281
     0
  0
CLASS
  1
ACGREFACADMASTER
  2
AcGrefacadMaster
  3
AcGrefServices
 90
     1024
 91
        1
280
     0
281
     0
  0
CLASS
  1
AMDTMENUSTATEMGR
  2
AmdtMenuStateMgr
  3
McadcomServices
 90
     1024
 91
        1
280
     0
281
     0
  0
CLASS
  1
AMDTMCOMMENUSTATE
  2
AmdtMcomMenuState
  3
McadcomServices
 90
     1024
 91
        1
280
     0
281
     0
  0
CLASS
  1
AMIMASTER
  2
AmiMaster
  3
AmiServices
 90
     1024
 91
        1
280
     0
281
     0
  0
CLASS
  1
MAPIAMMOUDLE
  2
MApiAmModule
  3
MApiAmServices
 90
     1024
 91
        1
280
     0
281
     0
  0
CLASS
  1
ACIMSTRSYSVAR
  2
AcImStrSysVar
  3
AcMeServices
 90
     1024
 91
        5
280
     0
281
     0
  0
CLASS
  1
AMDTADMENUSTATE
  2
AmdtAdMenuState
  3
DesignerServices
 90
     1024
 91
        1
280
     0
281
     0
  0
CLASS
  1
ADAPPL
  2
AcAdAppl
  3
DesignerServices
 90
     1024
 91
        1
280
     0
281
     0
  0
CLASS
  1
DEPMGR
  2
AcAdDepMgr
  3
DesignerServices
 90
     1024
 91
        1
280
     0
281
     0
  0
CLASS
  1
PARAMMGR
  2
AcAdParamMgr
  3
DesignerServices
 90
     1024
 91
        1
280
     0
281
     0
  0
CLASS
  1
PARAMSCOPE
  2
AcAdParamScope
  3
DesignerServices
 90
     1024
 91
        1
280
     0
281
     0
  0
CLASS
  1
NAMEDAPPL
  2
AcAdNamedAppl
  3
DesignerServices
 90
     1024
 91
        1
280
     0
281
     0
  0
CLASS
  1
AMDTDMMENUSTATE
  2
AmdtDmMenuState
  3
AcMechDwgViewMgmt
 90
     1024
 91
        1
280
     0
281
     0
  0
CLASS
  1
AMDTAMMENUSTATE
  2
AmdtAmMenuState
  3
DesignerAssemblies
 90
     1024
 91
        1
280
     0
281
     0
  0
CLASS
  1
ACAMPROJECT
  2
AcAmProject
  3
DesignerAssemblies
 90
     1024
 91
        1
280
     0
281
     0
  0
CLASS
  1
ACAMGRCOMPDEF
  2
AcAmGrCompDef
  3
DesignerAssemblies
 90
     1024
 91
        1
280
     0
281
     0
  0
CLASS
  1
ACCMCONTEXT
  2
AcCmContext
  3
DesignerAssemblies
 90
     1024
 91
        1
280
     0
281
     0
  0
CLASS
  1
ACAMCOMPDEF
  2
AcAmCompDef
  3
DesignerAssemblies
 90
     1024
 91
        1
280
     0
281
     0
  0
CLASS
  1
ACAMCOMPDEFMGR
  2
AcAmCompDefMgr
  3
DesignerAssemblies
 90
     1024
 91
        1
280
     0
281
     0
  0
CLASS
  1
AMCONTEXTMGR
  2
AcAmContextMgr
  3
DesignerAssemblies
 90
     1024
 91
        1
280
     0
281
     0
  0
CLASS
  1
ACAMCONTEXTMODELER
  2
AcAmContextModeler
  3
DesignerAssemblies
 90
     1024
 91
        1
280
     0
281
     0
  0
CLASS
  1
ACMDATADICTIONARY
  2
AcmDataDictionary
  3
"AcmSymBB|Product Description: AutoCAD Mechanical|Company: Autodesk, Inc."
 90
     1024
 91
        1
280
     0
281
     0
  0
CLASS
  1
CATALOGSTATE
  2
AcAmCatalogState
  3
DesignerAssemblies
 90
     1024
 91
        1
280
     0
281
     0
  0
CLASS
  1
ACAMGRCOMPDEFSET
  2
AcAmGrCompDefSet
  3
DesignerAssemblies
 90
     1024
 91
        1
280
     0
281
     0
  0
CLASS
  1
AMDTBROWSERDBTAB
  2
AmdtBrowserDbTab
  3
McadcomServices
 90
     1024
 91
        1
280
     0
281
     0
  0
CLASS
  1
CBROWSERAPPOBJECT
  2
CBrowserAppObject
  3
McadcomServices
 90
     1024
 91
        3
280
     0
281
     0
  0
CLASS
  1
DM_PLACEHOLDER
  2
AcDmSelsetPlaceholder
  3
AcMechDwgViewMgmt
 90
     1024
 91
        1
280
     0
281
     0
  0
CLASS
  1
EXACXREFPANELOBJECT
  2
ExAcXREFPanelObject
  3
EXAC_ESW
 90
     1025
 91
        1
280
     0
281
     0
  0
CLASS
  1
NPOCOLLECTION
  2
AcDbImpNonPersistentObjectsCollection
  3
ObjectDBX Classes
 90
     1153
 91
        1
280
     0
281
     0
  0
CLASS
  1
ACMSTANDARDISO
  2
AcmStandardISO
  3
"Amdt_StdImp|Product Description: AutoCAD Mechanical|Company: Autodesk, Inc."
 90
     1024
 91
        1
280
     0
281
     0
  0
CLASS
  1
AMDTEDGESTANDARDISO13715
  2
AmdtEdgeStdISO13715
  3
"Amdt_StdImp|Product Description: AutoCAD Mechanical|Company: Autodesk, Inc."
 90
     1024
 91
        1
280
     0
281
     0
  0
CLASS
  1
ACMSURFSTANDARDISO2002
  2
AcmSurfTextStdISO2002
  3
"Amdt_StdImp|Product Description: AutoCAD Mechanical|Company: Autodesk, Inc."
 90
     1024
 91
        1
280
     0
281
     0
  0
CLASS
  1
ACMFCFSTANDARDISO
  2
AcmFCFStdISO
  3
"Amdt_StdImp|Product Description: AutoCAD Mechanical|Company: Autodesk, Inc."
 90
     1024
 91
        1
280
     0
281
     0
  0
CLASS
  1
ACMWELDSTANDARDISO
  2
AcmWeldingStdISO
  3
"Amdt_StdImp|Product Description: AutoCAD Mechanical|Company: Autodesk, Inc."
 90
     1024
 91
        1
280
     0
281
     0
  0
CLASS
  1
ACMIDSTANDARDISO
  2
AcmIdStdISO
  3
"Amdt_StdImp|Product Description: AutoCAD Mechanical|Company: Autodesk, Inc."
 90
     1024
 91
        1
280
     0
281
     0
  0
CLASS
  1
ACMDATUMSTANDARDISO
  2
AcmDatumStdISO
  3
"Amdt_StdImp|Product Description: AutoCAD Mechanical|Company: Autodesk, Inc."
 90
     1024
 91
        1
280
     0
281
     0
  0
CLASS
  1
ACMBOMSTANDARDISO
  2
AcmBOMStdISO
  3
"Amdt_StdImp|Product Description: AutoCAD Mechanical|Company: Autodesk, Inc."
 90
     1024
 91
        1
280
     0
281
     0
  0
CLASS
  1
ACMDETAILSTANDARDISO
  2
AmdtDetailSymStdISO
  3
"Amdt_StdImp|Product Description: AutoCAD Mechanical|Company: Autodesk, Inc."
 90
     1024
 91
        1
280
     0
281
     0
  0
CLASS
  1
ACMSECTIONSTANDARDISO2001
  2
AmdtSectionSymStdISO2001
  3
"Amdt_StdImp|Product Description: AutoCAD Mechanical|Company: Autodesk, Inc."
 90
     1024
 91
        1
280
     0
281
     0
  0
CLASS
  1
ACMCENTERLINESTANDARDISO
  2
AmdtCenterLineStdISO
  3
"Amdt_StdImp|Product Description: AutoCAD Mechanical|Company: Autodesk, Inc."
 90
     1024
 91
        1
280
     0
281
     0
  0
CLASS
  1
ACMTHREADLINESTANDARDISO
  2
AmdtThreadLineStdISO
  3
"Amdt_StdImp|Product Description: AutoCAD Mechanical|Company: Autodesk, Inc."
 90
     1024
 91
        1
280
     0
281
     0
  0
CLASS
  1
ACMNOTESTANDARDISO
  2
AmdtNoteStdISO
  3
"Amdt_StdImp|Product Description: AutoCAD Mechanical|Company: Autodesk, Inc."
 90
     1024
 91
        1
280
     0
281
     0
  0
CLASS
  1
ACMTAPERSTANDARDISO
  2
AcmTaperStdISO
  3
"Amdt_StdImp|Product Description: AutoCAD Mechanical|Company: Autodesk, Inc."
 90
     1024
 91
        1
280
     0
281
     0
  0
CLASS
  1
ACMANOOTATIONVIEWSTANDARDISO
  2
AmdtAnViewStdISO
  3
"Amdt_StdImp|Product Description: AutoCAD Mechanical|Company: Autodesk, Inc."
 90
     1024
 91
        1
280
     0
281
     0
  0
CLASS
  1
ACAMGLAYSTD
  2
AcAmgLayStd
  3
"AmgLay|Product Description: AutoCAD Mechanical|Company: Autodesk, Inc."
 90
     1024
 91
        1
280
     0
281
     0
  0
CLASS
  1
ACAMGDIMSTD
  2
AcAmgDimStd
  3
"AmgDim|Product Description: AutoCAD Mechanical|Company: Autodesk, Inc."
 90
     1024
 91
        1
280
     0
281
     0
  0
CLASS
  1
AMGOBJPROPCFG
  2
AmgObjPropCfg
  3
"AmgLay|Product Description: AutoCAD Mechanical|Company: Autodesk, Inc."
 90
     1025
 91
        1
280
     0
281
     0
  0
CLASS
  1
ACAMGHOLECHARTSTDISO
  2
AcAmgHoleChartStdISO
  3
AmgDim|Product Description: AutoCAD Mechanical|Company: Autodesk, Inc.
 90
     1024
 91
        1
280
     0
281
     0
  0
CLASS
  1
ACAMGTITLESTD
  2
AcAmgTitleStd
  3
"AmgTitle|Product Description: AutoCAD Mechanical|Company: Autodesk, Inc."
 90
     4095
 91
        1
280
     0
281
     0
  0
CLASS
  1
AMDTNOTETEMPLATEDB
  2
AmdtNoteTemplateDB
  3
AcmSymBB|Product Description: AutoCAD Mechanical|Company: Autodesk, Inc.
 90
     1024
 91
        6
280
     0
281
     0
  0
CLASS
  1
ACAMGFILTERDAT
  2
AcAmgFilterDat
  3
"AcadM|Product Description: AutoCAD Mechanical|Company: Autodesk, Inc."
 90
     1024
 91
        0
280
     0
281
     0
  0
CLASS
  1
DICTIONARYVAR
  2
AcDbDictionaryVar
  3
ObjectDBX Classes
 90
        0
 91
        3
280
     0
281
     0
  0
CLASS
  1
CELLSTYLEMAP
  2
AcDbCellStyleMap
  3
ObjectDBX Classes
 90
     1152
 91
        4
280
     0
281
     0
  0
ENDSEC
  0
SECTION
  2
TABLES
  0
TABLE
  2
VPORT
  5
8
330
0
100
AcDbSymbolTable
 70
     1
  0
VPORT
  5
1F4
330
8
100
AcDbSymbolTableRecord
100
AcDbViewportTableRecord
  2
*ACTIVE
 70
     0
 10
0.0
 20
0.0
 11
1.0
 21
1.0
 12
1864.417986118093
 22
-249.0349577218794
 13
0.0
 23
0.0
 14
1.0
 24
1.0
 15
0.0
 25
0.0
 16
0.0
 26
0.0
 36
1.0
 17
0.0
 27
0.0
 37
0.0
 40
732.8794697605871
 41
1.753048780487804
 42
50.0
 43
0.0
 44
0.0
 50
0.0
 51
0.0
 71
     0
 72
   100
 73
     1
 74
     1
 75
     0
 76
     0
 77
     0
 78
     0
281
     0
 65
     0
110
0.0
120
0.0
130
0.0
111
1.0
121
0.0
131
0.0
112
0.0
122
1.0
132
0.0
 79
     0
146
0.0
348
E45
 60
     3
 61
     5
292
     1
282
     1
141
0.0
142
0.0
 63
   250
421
  3355443
  0
ENDTAB
  0
TABLE
  2
LTYPE
  5
5
330
0
100
AcDbSymbolTable
 70
    17
  0
LTYPE
  5
14
330
5
100
AcDbSymbolTableRecord
100
AcDbLinetypeTableRecord
  2
BYBLOCK
 70
     0
  3

 72
    65
 73
     0
 40
0.0
  0
LTYPE
  5
15
330
5
100
AcDbSymbolTableRecord
100
AcDbLinetypeTableRecord
  2
BYLAYER
 70
     0
  3

 72
    65
 73
     0
 40
0.0
  0
LTYPE
  5
16
330
5
100
AcDbSymbolTableRecord
100
AcDbLinetypeTableRecord
  2
CONTINUOUS
 70
     0
  3
Solid line
 72
    65
 73
     0
 40
0.0
  0
LTYPE
  5
1F5
330
5
100
AcDbSymbolTableRecord
100
AcDbLinetypeTableRecord
  2
CENTER
 70
     0
  3
____ _ ____ _ ____ _ ____ _ ____ _ ____ _ ____
 72
    65
 73
     4
 40
0.6
 49
0.375
 74
     0
 49
-0.075
 74
     0
 49
0.075
 74
     0
 49
-0.075
 74
     0
  0
LTYPE
  5
1F6
330
5
100
AcDbSymbolTableRecord
100
AcDbLinetypeTableRecord
  2
HIDDEN
 70
     0
  3
- - - - - - - - - - - - - - - - - - - -
 72
    65
 73
     2
 40
0.2
 49
0.1
 74
     0
 49
-0.1
 74
     0
  0
LTYPE
  5
1F7
330
5
100
AcDbSymbolTableRecord
100
AcDbLinetypeTableRecord
  2
PHANTOM
 70
     0
  3
_____ _ _ _____ _ _ _____ _ _ _____
 72
    65
 73
     6
 40
0.8
 49
0.45
 74
     0
 49
-0.05
 74
     0
 49
0.1
 74
     0
 49
-0.05
 74
     0
 49
0.1
 74
     0
 49
-0.05
 74
     0
  0
LTYPE
  5
1F8
330
5
100
AcDbSymbolTableRecord
100
AcDbLinetypeTableRecord
  2
DOT
 70
     0
  3
. . . . . . . . . . . . . . . . . . . .
 72
    65
 73
     2
 40
0.2
 49
0.1
 74
     0
 49
-0.1
 74
     0
  0
LTYPE
  5
1F9
330
5
100
AcDbSymbolTableRecord
100
AcDbLinetypeTableRecord
  2
DASHED
 70
     0
  3
- - - - - - - - - - - - - - - - - - - -
 72
    65
 73
     2
 40
0.2
 49
0.1
 74
     0
 49
-0.1
 74
     0
  0
LTYPE
  5
E9B
330
5
100
AcDbSymbolTableRecord
100
AcDbLinetypeTableRecord
  2
PHANTOM2
 70
     0
  3
Phantom (.5x) ___ _ _ ___ _ _ ___ _ _ ___ _ _
 72
    65
 73
     6
 40
31.75
 49
15.875
 74
     0
 49
-3.174999999999998
 74
     0
 49
3.174999999999998
 74
     0
 49
-3.174999999999998
 74
     0
 49
3.174999999999998
 74
     0
 49
-3.174999999999998
 74
     0
  0
LTYPE
  5
EE3
330
5
100
AcDbSymbolTableRecord
100
AcDbLinetypeTableRecord
  2
AM_ISO02W050
 70
     0
  3
__ __ __ __ __ __ __ __ __ __ __ __ __ __ __
 72
    65
 73
     2
 40
7.5
 49
6.0
 74
     0
 49
-1.5
 74
     0
  0
LTYPE
  5
EE4
330
5
100
AcDbSymbolTableRecord
100
AcDbLinetypeTableRecord
  2
AM_ISO08W050
 70
     0
  3
____ . ____ . ____ . ____ . ____ . ____ . ____
 72
    65
 73
     4
 40
18.0
 49
12.0
 74
     0
 49
-1.5
 74
     0
 49
3.0
 74
     0
 49
-1.5
 74
     0
  0
LTYPE
  5
EE5
330
5
100
AcDbSymbolTableRecord
100
AcDbLinetypeTableRecord
  2
AM_ISO09W050
 70
     0
  3
_____ . . _____ . . _____ . . ____ .. ____
 72
    65
 73
     6
 40
22.5
 49
12.0
 74
     0
 49
-1.5
 74
     0
 49
3.0
 74
     0
 49
-1.5
 74
     0
 49
3.0
 74
     0
 49
-1.5
 74
     0
  0
LTYPE
  5
EE6
330
5
100
AcDbSymbolTableRecord
100
AcDbLinetypeTableRecord
  2
Amconstr
 70
     0
  3
_______________________
 72
    65
 73
     2
 40
9999.0
 49
9999.0
 74
     0
 49
0.0
 74
     0
  0
LTYPE
  5
EE7
330
5
100
AcDbSymbolTableRecord
100
AcDbLinetypeTableRecord
  2
AM_ISO08W050x2
 70
     0
  3
__ . __ . __ . __ . __ . __
 72
    65
 73
     4
 40
9.0
 49
6.0
 74
     0
 49
-0.75
 74
     0
 49
1.5
 74
     0
 49
-0.75
 74
     0
  0
LTYPE
  5
EE8
330
5
100
AcDbSymbolTableRecord
100
AcDbLinetypeTableRecord
  2
AM_ISO02W050x2
 70
     0
  3
 _ _ _ _ _ _ _ _ _ _ _ _
 72
    65
 73
     2
 40
3.75
 49
3.0
 74
     0
 49
-0.75
 74
     0
  0
LTYPE
  5
EEB
330
5
100
AcDbSymbolTableRecord
100
AcDbLinetypeTableRecord
  2
Amzigzag
 70
     0
  3
/\/-/\/-/\/-/\/-/\/-/\/
 72
    65
 73
     2
 40
11.0001
 49
0.0001
 74
     4
 75
   136
340
EEA
 46
0.04
 50
0.0
 44
0.0
 45
0.0
 49
-11.0
 74
     0
  0
LTYPE
  5
EFA
330
5
100
AcDbSymbolTableRecord
100
AcDbLinetypeTableRecord
  2
ACISOWELD
 70
     0
  3
_ _ _ _ _
 72
    65
 73
     2
 40
2.0
 49
2.0
 74
     0
 49
-1.0
 74
     0
  0
LTYPE
  5
EFB
330
5
100
AcDbSymbolTableRecord
100
AcDbLinetypeTableRecord
  2
ACISOTGB
 70
     0
  3
__ . . __ . .
 72
    65
 73
     6
 40
9.0
 49
4.0
 74
     0
 49
-1.0
 74
     0
 49
1.0
 74
     0
 49
-1.0
 74
     0
 49
1.0
 74
     0
 49
-1.0
 74
     0
  0
LTYPE
  5
EFC
330
5
100
AcDbSymbolTableRecord
100
AcDbLinetypeTableRecord
  2
ACISOTGL
 70
     0
  3
_ _ _ _ _
 72
    65
 73
     2
 40
3.0
 49
2.0
 74
     0
 49
-1.0
 74
     0
  0
ENDTAB
  0
TABLE
  2
LAYER
  5
2
330
0
100
AcDbSymbolTable
 70
    13
  0
LAYER
  5
10
330
2
100
AcDbSymbolTableRecord
100
AcDbLayerTableRecord
  2
0
 70
     0
 62
     7
  6
CONTINUOUS
370
    -3
390
F
347
E37
  0
LAYER
  5
1FA
330
2
100
AcDbSymbolTableRecord
100
AcDbLayerTableRecord
  2
DEFAULT_1
 70
     0
 62
     7
  6
CENTER
370
    -3
390
F
347
E37
  0
LAYER
  5
1FB
330
2
100
AcDbSymbolTableRecord
100
AcDbLayerTableRecord
  2
DEFAULT_2
 70
     0
 62
     8
  6
HIDDEN
370
    -3
390
F
347
E37
  0
LAYER
  5
1FC
330
2
100
AcDbSymbolTableRecord
100
AcDbLayerTableRecord
  2
DEFAULT_3
 70
     0
 62
     7
  6
PHANTOM
370
    -3
390
F
347
E37
  0
LAYER
  5
1FD
330
2
100
AcDbSymbolTableRecord
100
AcDbLayerTableRecord
  2
11
 70
     0
 62
     7
  6
CONTINUOUS
370
    -3
390
F
347
E37
  0
LAYER
  5
1FE
330
2
100
AcDbSymbolTableRecord
100
AcDbLayerTableRecord
  2
DATUM_AXIS
 70
     0
 62
     7
  6
CONTINUOUS
370
    -3
390
F
347
E37
  0
LAYER
  5
1FF
330
2
100
AcDbSymbolTableRecord
100
AcDbLayerTableRecord
  2
DATUM_CSYS
 70
     0
 62
     7
  6
CONTINUOUS
370
    -3
390
F
347
E37
  0
LAYER
  5
200
330
2
100
AcDbSymbolTableRecord
100
AcDbLayerTableRecord
  2
DATUM_PLANE
 70
     0
 62
     7
  6
CONTINUOUS
370
    -3
390
F
347
E37
  0
LAYER
  5
201
330
2
100
AcDbSymbolTableRecord
100
AcDbLayerTableRecord
  2
DATUM_POINT
 70
     0
 62
     7
  6
CONTINUOUS
370
    -3
390
F
347
E37
  0
LAYER
  5
202
330
2
100
AcDbSymbolTableRecord
100
AcDbLayerTableRecord
  2
_CURVE
 70
     0
 62
     7
  6
CONTINUOUS
370
    -3
390
F
347
E37
  0
LAYER
  5
203
330
2
100
AcDbSymbolTableRecord
100
AcDbLayerTableRecord
  2
___GDT
 70
     0
 62
     7
  6
CONTINUOUS
370
    -3
390
F
347
E37
  0
LAYER
  5
204
330
2
100
AcDbSymbolTableRecord
100
AcDbLayerTableRecord
  2
___NOTE
 70
     0
 62
     7
  6
CONTINUOUS
370
    -3
390
F
347
E37
  0
LAYER
  5
205
330
2
100
AcDbSymbolTableRecord
100
AcDbLayerTableRecord
  2
___SYMBOL
 70
     0
 62
     7
  6
CONTINUOUS
370
    -3
390
F
347
E37
  0
ENDTAB
  0
TABLE
  2
STYLE
  5
3
330
0
100
AcDbSymbolTable
 70
    19
  0
STYLE
  5
11
330
3
100
AcDbSymbolTableRecord
100
AcDbTextStyleTableRecord
  2
STANDARD
 70
     0
 40
0.0
 41
0.8
 50
0.0
 71
     0
 42
0.2
  3
txt
  4

  0
STYLE
  5
206
330
3
100
AcDbSymbolTableRecord
100
AcDbTextStyleTableRecord
  2
TEXTSTYLE_1
 70
     0
 40
0.0
 41
0.8
 50
0.0
 71
     0
 42
0.2
  3
gdt
  4

  0
STYLE
  5
207
330
3
100
AcDbSymbolTableRecord
100
AcDbTextStyleTableRecord
  2
TEXTSTYLE_2
 70
     0
 40
0.0
 41
1.04
 50
0.0
 71
     0
 42
0.2
  3
txt
  4

  0
STYLE
  5
208
330
3
100
AcDbSymbolTableRecord
100
AcDbTextStyleTableRecord
  2
TEXTSTYLE_3
 70
     0
 40
0.0
 41
0.9399999999999998
 50
0.0
 71
     0
 42
0.2
  3
txt
  4

  0
STYLE
  5
209
330
3
100
AcDbSymbolTableRecord
100
AcDbTextStyleTableRecord
  2
TEXTSTYLE_4
 70
     0
 40
0.0
 41
1.0
 50
0.0
 71
     0
 42
0.2
  3
txt
  4

  0
STYLE
  5
20A
330
3
100
AcDbSymbolTableRecord
100
AcDbTextStyleTableRecord
  2
TEXTSTYLE_5
 70
     0
 40
0.0
 41
1.199999999999999
 50
0.0
 71
     0
 42
0.2
  3
txt
  4

  0
STYLE
  5
20B
330
3
100
AcDbSymbolTableRecord
100
AcDbTextStyleTableRecord
  2
TEXTSTYLE_6
 70
     0
 40
0.0
 41
1.02
 50
0.0
 71
     0
 42
0.2
  3
txt
  4

  0
STYLE
  5
20C
330
3
100
AcDbSymbolTableRecord
100
AcDbTextStyleTableRecord
  2
TEXTSTYLE_7
 70
     0
 40
0.0
 41
0.925
 50
0.0
 71
     0
 42
0.2
  3
txt
  4

  0
STYLE
  5
20D
330
3
100
AcDbSymbolTableRecord
100
AcDbTextStyleTableRecord
  2
TEXTSTYLE_8
 70
     0
 40
0.0
 41
1.0500002909
 50
0.0
 71
     0
 42
0.2
  3
txt
  4

  0
STYLE
  5
20E
330
3
100
AcDbSymbolTableRecord
100
AcDbTextStyleTableRecord
  2
TEXTSTYLE_9
 70
     0
 40
0.0
 41
1.09
 50
0.0
 71
     0
 42
0.2
  3
txt
  4

  0
STYLE
  5
20F
330
3
100
AcDbSymbolTableRecord
100
AcDbTextStyleTableRecord
  2
TEXTSTYLE_10
 70
     0
 40
0.0
 41
0.9899995429
 50
0.0
 71
     0
 42
0.2
  3
txt
  4

  0
STYLE
  5
210
330
3
100
AcDbSymbolTableRecord
100
AcDbTextStyleTableRecord
  2
TEXTSTYLE_11
 70
     0
 40
0.0
 41
1.07
 50
0.0
 71
     0
 42
0.2
  3
txt
  4

  0
STYLE
  5
211
330
3
100
AcDbSymbolTableRecord
100
AcDbTextStyleTableRecord
  2
TEXTSTYLE_12
 70
     0
 40
0.0
 41
1.229999999999998
 50
0.0
 71
     0
 42
0.2
  3
txt
  4

  0
STYLE
  5
212
330
3
100
AcDbSymbolTableRecord
100
AcDbTextStyleTableRecord
  2
TEXTSTYLE_13
 70
     0
 40
0.0
 41
0.9700032
 50
0.0
 71
     0
 42
0.2
  3
txt
  4

  0
STYLE
  5
213
330
3
100
AcDbSymbolTableRecord
100
AcDbTextStyleTableRecord
  2
TEXTSTYLE_14
 70
     0
 40
0.0
 41
1.379999999999999
 50
0.0
 71
     0
 42
0.2
  3
txt
  4

  0
STYLE
  5
214
330
3
100
AcDbSymbolTableRecord
100
AcDbTextStyleTableRecord
  2
TEXTSTYLE_15
 70
     0
 40
0.0
 41
0.95
 50
0.0
 71
     0
 42
0.2
  3
txt
  4

  0
STYLE
  5
EEA
330
3
100
AcDbSymbolTableRecord
100
AcDbTextStyleTableRecord
  2

 70
     1
 40
0.0
 41
1.0
 50
0.0
 71
     0
 42
0.2
  3
genltshp.shx
  4

  0
STYLE
  5
EF8
330
3
100
AcDbSymbolTableRecord
100
AcDbTextStyleTableRecord
  2
ACISOTS
 70
     0
 40
1.0
 41
1.0
 50
0.0
 71
     0
 42
0.2
  3
isocp.shx
  4
gbcbig.shx
  0
STYLE
  5
EF9
330
3
100
AcDbSymbolTableRecord
100
AcDbTextStyleTableRecord
  2
ACISOGDT
 70
     0
 40
0.0
 41
1.0
 50
0.0
 71
     0
 42
0.2
  3
amgdt.shx
  4

  0
ENDTAB
  0
TABLE
  2
VIEW
  5
6
330
0
100
AcDbSymbolTable
 70
     0
  0
ENDTAB
  0
TABLE
  2
UCS
  5
7
330
0
100
AcDbSymbolTable
 70
     0
  0
ENDTAB
  0
TABLE
  2
APPID
  5
9
330
0
100
AcDbSymbolTable
 70
     9
  0
APPID
  5
215
330
9
100
AcDbSymbolTableRecord
100
AcDbRegAppTableRecord
  2
ACAD
 70
     0
  0
APPID
  5
E65
330
9
100
AcDbSymbolTableRecord
100
AcDbRegAppTableRecord
  2
ACAD_MLEADERVER
 70
     0
  0
APPID
  5
E6E
330
9
100
AcDbSymbolTableRecord
100
AcDbRegAppTableRecord
  2
MCAD_NO_VIS
 70
     0
  0
APPID
  5
E6F
330
9
100
AcDbSymbolTableRecord
100
AcDbRegAppTableRecord
  2
ACAD_TEMP_GRAPHIC
 70
     0
  0
APPID
  5
E9D
330
9
100
AcDbSymbolTableRecord
100
AcDbRegAppTableRecord
  2
AD_DRAW
 70
     0
  0
APPID
  5
EA0
330
9
100
AcDbSymbolTableRecord
100
AcDbRegAppTableRecord
  2
ACATTRIBSERVICES
 70
     0
  0
APPID
  5
EC1
330
9
100
AcDbSymbolTableRecord
100
AcDbRegAppTableRecord
  2
DESIGNERASSEMBLIES
 70
     0
  0
APPID
  5
EC7
330
9
100
AcDbSymbolTableRecord
100
AcDbRegAppTableRecord
  2
ACADM_DIM_EDIT
 70
     0
  0
APPID
  5
EC8
330
9
100
AcDbSymbolTableRecord
100
AcDbRegAppTableRecord
  2
AMDT_DM_ADJ
 70
     0
  0
ENDTAB
  0
TABLE
  2
DIMSTYLE
  5
A
330
0
100
AcDbSymbolTable
 70
     8
100
AcDbDimStyleTable
 71
     1
340
EE1
  0
DIMSTYLE
105
223
330
A
100
AcDbSymbolTableRecord
100
AcDbDimStyleTableRecord
  2
STANDARD
 70
     0
 41
4.7625
 47
0.01
 48
0.01
 71
     1
 78
     8
140
3.96875
271
     3
272
     3
284
     8
340
11
341
218
342
218
343
218
344
218
  0
DIMSTYLE
105
EE1
102
{ACAD_REACTORS
330
F78
102
}
330
A
100
AcDbSymbolTableRecord
100
AcDbDimStyleTableRecord
  2
AM_ISO
 70
     0
  4
"
 41
3.5
 42
1.0
 43
10.0
 44
1.0
 47
0.1
 48
0.1
 73
     0
 74
     0
 77
     1
 78
     8
 79
     2
 90
     1
140
3.5
141
0.0
143
0.0393701
146
0.71
147
1.5
172
     1
176
   256
177
   256
178
     2
271
     2
272
     3
274
     4
283
     0
284
     8
340
11
345
14
346
14
347
14
371
    -1
372
    -1
  0
DIMSTYLE
105
EEC
330
A
100
AcDbSymbolTableRecord
100
AcDbDimStyleTableRecord
  2
AM_ISO$3
 70
     0
  4
"
 41
3.5
 42
1.0
 43
10.0
 44
1.0
 47
0.1
 48
0.1
 73
     0
 77
     1
 78
     8
 79
     2
 90
     1
140
3.5
141
0.0
143
0.0393701
146
0.71
147
1.5
176
   256
177
   256
178
     2
271
     2
272
     3
274
     4
283
     0
284
     8
288
     1
289
     0
340
11
345
14
346
14
347
14
371
    -1
372
    -1
  0
DIMSTYLE
105
EED
330
A
100
AcDbSymbolTableRecord
100
AcDbDimStyleTableRecord
  2
AM_ISO$4
 70
     0
  4
"
 41
3.5
 42
1.0
 43
10.0
 44
1.0
 47
0.1
 48
0.1
 73
     0
 74
     0
 77
     1
 78
     8
 79
     2
 90
     1
140
3.5
141
0.0
143
0.0393701
146
0.71
147
1.5
172
     1
176
   256
177
   256
178
     2
271
     2
272
     3
274
     4
283
     0
284
     8
340
11
345
14
346
14
347
14
371
    -1
372
    -1
  0
DIMSTYLE
105
EEE
330
A
100
AcDbSymbolTableRecord
100
AcDbDimStyleTableRecord
  2
AM_ISO$6
 70
     0
  4
"
 41
3.5
 42
1.0
 43
10.0
 44
1.0
 47
0.1
 48
0.1
 73
     0
 74
     0
 78
     8
 79
     2
 90
     1
140
3.5
141
0.0
143
0.0393701
146
0.71
147
1.5
172
     1
176
   256
177
   256
178
     2
271
     2
272
     3
274
     4
283
     0
284
     8
340
11
345
14
346
14
347
14
371
    -1
372
    -1
  0
DIMSTYLE
105
EEF
330
A
100
AcDbSymbolTableRecord
100
AcDbDimStyleTableRecord
  2
AM_ISO$7
 70
     0
  4
"
 41
3.5
 42
1.0
 43
10.0
 44
1.0
 47
0.1
 48
0.1
 73
     0
 74
     0
 77
     1
 78
     8
 79
     2
 90
     1
140
3.5
141
0.0
143
0.0393701
146
0.71
147
1.5
172
     1
176
   256
177
   256
178
     2
271
     2
272
     3
274
     4
283
     0
284
     8
340
11
345
14
346
14
347
14
371
    -1
372
    -1
  0
DIMSTYLE
105
EF0
330
A
100
AcDbSymbolTableRecord
100
AcDbDimStyleTableRecord
  2
AM_ISO$SF
 70
     0
  4
"
 41
3.5
 42
1.0
 43
10.0
 44
1.0
 47
0.1
 48
0.1
 73
     0
 74
     0
 75
     1
 76
     1
 77
     1
 78
     8
 79
     2
 90
     1
140
3.5
141
0.0
143
0.0393701
146
0.71
147
1.5
172
     1
176
   256
177
   256
178
     2
271
     2
272
     3
274
     4
283
     0
284
     8
340
11
345
14
346
14
347
14
371
    -1
372
    -1
  0
DIMSTYLE
105
EF5
330
A
100
AcDbSymbolTableRecord
100
AcDbDimStyleTableRecord
  2
AM_ISO$SH
 70
     0
  4
"
 41
3.5
 42
1.0
 43
10.0
 44
1.0
 47
0.1
 48
0.1
 73
     0
 74
     0
 75
     1
 76
     1
 77
     1
 78
     8
 79
     2
 90
     1
140
3.5
141
0.0
143
0.0393701
144
2.0
146
0.71
147
1.5
172
     1
173
     1
176
   256
177
   256
178
     2
271
     2
272
     3
274
     4
283
     0
284
     8
340
11
343
EF1
345
14
346
14
347
14
371
    -1
372
    -1
  0
ENDTAB
  0
TABLE
  2
BLOCK_RECORD
  5
1
330
0
100
AcDbSymbolTable
 70
    11
  0
BLOCK_RECORD
  5
216
330
1
100
AcDbSymbolTableRecord
100
AcDbBlockTableRecord
  2
*Model_Space
340
E20
 70
     0
280
     1
281
     0
  0
BLOCK_RECORD
  5
217
330
1
100
AcDbSymbolTableRecord
100
AcDbBlockTableRecord
  2
*Paper_Space
340
E21
 70
     0
280
     1
281
     0
  0
BLOCK_RECORD
  5
218
330
1
100
AcDbSymbolTableRecord
100
AcDbBlockTableRecord
  2
_FILLED
340
0
 70
     0
280
     1
281
     0
  0
BLOCK_RECORD
  5
219
330
1
100
AcDbSymbolTableRecord
100
AcDbBlockTableRecord
  2
SYMBOL_31_BL7
340
0
 70
     0
280
     1
281
     0
  0
BLOCK_RECORD
  5
21A
330
1
100
AcDbSymbolTableRecord
100
AcDbBlockTableRecord
  2
SYMBOL_29_BL6
340
0
 70
     0
280
     1
281
     0
  0
BLOCK_RECORD
  5
21B
330
1
100
AcDbSymbolTableRecord
100
AcDbBlockTableRecord
  2
SYMBOL_27_BL5
340
0
 70
     0
280
     1
281
     0
  0
BLOCK_RECORD
  5
21C
330
1
100
AcDbSymbolTableRecord
100
AcDbBlockTableRecord
  2
SYMBOL_11_BL4
340
0
 70
     0
280
     1
281
     0
  0
BLOCK_RECORD
  5
21D
330
1
100
AcDbSymbolTableRecord
100
AcDbBlockTableRecord
  2
SYMBOL_10_BL3
340
0
 70
     0
280
     1
281
     0
  0
BLOCK_RECORD
  5
21E
330
1
100
AcDbSymbolTableRecord
100
AcDbBlockTableRecord
  2
SYMBOL_8_BL2
340
0
 70
     0
280
     1
281
     0
  0
BLOCK_RECORD
  5
21F
330
1
100
AcDbSymbolTableRecord
100
AcDbBlockTableRecord
  2
SYMBOL_6_BL1
340
0
 70
     0
280
     1
281
     0
  0
BLOCK_RECORD
  5
220
330
1
100
AcDbSymbolTableRecord
100
AcDbBlockTableRecord
  2
SYMBOL_0_BL0
340
0
 70
     0
280
     1
281
     0
  0
BLOCK_RECORD
  5
EF1
330
1
100
AcDbSymbolTableRecord
100
AcDbBlockTableRecord
  2
GENAXEH
340
0
 70
     0
280
     1
281
     0
  0
ENDTAB
  0
ENDSEC
  0
SECTION
  2
BLOCKS
  0
BLOCK
  5
20
330
216
100
AcDbEntity
  8
0
100
AcDbBlockBegin
  2
*Model_Space
 70
     0
 10
0.0
 20
0.0
 30
0.0
  3
*Model_Space
  1

  0
ENDBLK
  5
21
330
216
100
AcDbEntity
  8
0
100
AcDbBlockEnd
  0
BLOCK
  5
1C
330
217
100
AcDbEntity
 67
     1
  8
0
100
AcDbBlockBegin
  2
*Paper_Space
 70
     0
 10
0.0
 20
0.0
 30
0.0
  3
*Paper_Space
  1

  0
ENDBLK
  5
1D
330
217
100
AcDbEntity
 67
     1
  8
0
100
AcDbBlockEnd
  0
BLOCK
  5
2B5
330
218
100
AcDbEntity
  8
0
100
AcDbBlockBegin
  2
_FILLED
 70
     0
 10
0.0
 20
0.0
 30
0.0
  3
_FILLED
  1

  0
SOLID
  5
2B6
330
218
100
AcDbEntity
  8
0
  6
ByBlock
 62
     0
100
AcDbTrace
 10
0.0
 20
0.0
 30
0.0
 11
-1.0
 21
0.1666666667
 31
0.0
 12
-1.0
 22
-0.1666666667
 32
0.0
 13
-1.0
 23
-0.1666666667
 33
0.0
  0
ENDBLK
  5
2B7
330
218
100
AcDbEntity
  8
0
  6
ByBlock
 62
     0
100
AcDbBlockEnd
  0
BLOCK
  5
224
330
219
100
AcDbEntity
  8
___SYMBOL
  6
Continuous
 62
     2
100
AcDbBlockBegin
  2
SYMBOL_31_BL7
 70
     0
 10
823.0052024722999
 20
433.7556329295
 30
0.0
  3
SYMBOL_31_BL7
  1

  0
LWPOLYLINE
  5
225
330
219
100
AcDbEntity
  8
___SYMBOL
  6
Continuous
 62
     2
100
AcDbPolyline
 90
        2
 70
     0
 43
0.381
 10
822.8540932860999
 20
434.3429331542998
 10
822.8540932860999
 20
430.3741893555
  0
LINE
  5
226
330
219
100
AcDbEntity
  8
___SYMBOL
  6
Continuous
 62
     7
100
AcDbLine
 10
828.7143988659
 20
429.2917853242998
 30
0.0
 11
817.2960060787
 21
429.2917853242998
 31
0.0
  0
LINE
  5
227
330
219
100
AcDbEntity
  8
___SYMBOL
  6
Continuous
 62
     7
100
AcDbLine
 10
817.2960060787
 20
429.2917853242998
 30
0.0
 11
822.7626020589999
 21
438.2194805347
 31
0.0
  0
LINE
  5
228
330
219
100
AcDbEntity
  8
___SYMBOL
  6
Continuous
 62
     7
100
AcDbLine
 10
822.7626020589999
 20
438.2194805347
 30
0.0
 11
828.7143988659
 21
429.2917853242998
 31
0.0
  0
ENDBLK
  5
229
330
219
100
AcDbEntity
  8
0
  6
ByBlock
 62
     0
100
AcDbBlockEnd
  0
BLOCK
  5
22A
330
21A
100
AcDbEntity
  8
___SYMBOL
  6
Continuous
 62
     2
100
AcDbBlockBegin
  2
SYMBOL_29_BL6
 70
     0
 10
810.5860892603001
 20
432.2889430541001
 30
0.0
  3
SYMBOL_29_BL6
  1

  0
LWPOLYLINE
  5
22B
330
21A
100
AcDbEntity
  8
___SYMBOL
  6
Continuous
 62
     2
100
AcDbPolyline
 90
        3
 70
     0
 43
0.381
 10
809.7552990233998
 20
430.2804710449
 10
810.7474586182
 20
434.2492148437
 10
811.7396709228998
 20
430.2804710449
  0
LWPOLYLINE
  5
22C
330
21A
100
AcDbEntity
  8
___SYMBOL
  6
Continuous
 62
     2
100
AcDbPolyline
 90
        2
 70
     0
 43
0.381
 10
810.1521523193
 20
431.6033856444999
 10
811.3427649169999
 20
431.6033856444999
  0
LINE
  5
22D
330
21A
100
AcDbEntity
  8
___SYMBOL
  6
Continuous
 62
     7
100
AcDbLine
 10
807.0568536558997
 20
429.3679430541
 30
0.0
 11
805.5695892602997
 21
430.8552074497
 31
0.0
  0
LINE
  5
22E
330
21A
100
AcDbEntity
  8
___SYMBOL
  6
Continuous
 62
     7
100
AcDbLine
 10
805.5695892602997
 20
433.7226786585
 30
0.0
 11
805.5695892602997
 21
430.8552074497
 31
0.0
  0
LINE
  5
22F
330
21A
100
AcDbEntity
  8
___SYMBOL
  6
Continuous
 62
     7
100
AcDbLine
 10
807.0568536558997
 20
435.2099430541001
 30
0.0
 11
805.5695892602997
 21
433.7226786585
 31
0.0
  0
LINE
  5
230
330
21A
100
AcDbEntity
  8
___SYMBOL
  6
Continuous
 62
     7
100
AcDbLine
 10
814.1153248646
 20
429.3679430541
 30
0.0
 11
815.6025892602999
 21
430.8552074497
 31
0.0
  0
LINE
  5
231
330
21A
100
AcDbEntity
  8
___SYMBOL
  6
Continuous
 62
     7
100
AcDbLine
 10
815.6025892602999
 20
433.7226786585
 30
0.0
 11
815.6025892602999
 21
430.8552074497
 31
0.0
  0
LINE
  5
232
330
21A
100
AcDbEntity
  8
___SYMBOL
  6
Continuous
 62
     7
100
AcDbLine
 10
814.1153248646
 20
435.2099430541001
 30
0.0
 11
815.6025892602999
 21
433.7226786585
 31
0.0
  0
LINE
  5
233
330
21A
100
AcDbEntity
  8
___SYMBOL
  6
Continuous
 62
     7
100
AcDbLine
 10
807.0568536558997
 20
435.2099430541001
 30
0.0
 11
814.1153248646
 21
435.2099430541001
 31
0.0
  0
LINE
  5
234
330
21A
100
AcDbEntity
  8
___SYMBOL
  6
Continuous
 62
     7
100
AcDbLine
 10
814.1153248646
 20
429.3679430541
 30
0.0
 11
807.0568536558997
 21
429.3679430541
 31
0.0
  0
ENDBLK
  5
235
330
21A
100
AcDbEntity
  8
0
  6
ByBlock
 62
     0
100
AcDbBlockEnd
  0
BLOCK
  5
236
330
21B
100
AcDbEntity
  8
___SYMBOL
  6
Continuous
 62
     2
100
AcDbBlockBegin
  2
SYMBOL_27_BL5
 70
     0
 10
799.7161499478999
 20
432.2174312197
 30
0.0
  3
SYMBOL_27_BL5
  1

  0
LWPOLYLINE
  5
237
330
21B
100
AcDbEntity
  8
___SYMBOL
  6
Continuous
 62
     2
100
AcDbPolyline
 90
        2
 70
     0
 43
0.381
 10
798.0573773925999
 20
437.7394576172
 10
798.0573773925999
 20
433.7707138183999
  0
LWPOLYLINE
  5
238
330
21B
100
AcDbEntity
  8
___SYMBOL
  6
Continuous
 62
     2
100
AcDbPolyline
 90
       17
 70
     0
 43
0.381
 10
800.4386552978999
 20
435.093628418
 10
800.6370555908
 20
435.7550857178
 10
801.2324145996
 20
436.0858407227
 10
801.8277208983997
 20
435.7550857178
 10
802.0261211914
 20
435.093628418
 10
801.8277208983997
 20
434.4321711182
 10
801.6292678955
 20
434.1014688231998
 10
801.2324145996
 20
433.7707138183999
 10
800.8355085936999
 20
434.1014688231998
 10
800.6370555908
 20
434.4321711182
 10
800.4386552978999
 20
435.093628418
 10
800.4386552978999
 20
436.4165430176
 10
800.6370555908
 20
437.0780003173999
 10
800.8355085936999
 20
437.4087553223
 10
801.2324145996
 20
437.7394576172
 10
801.6292678955
 20
437.4087553223
 10
801.8277208983997
 20
437.0780003173999
  0
LINE
  5
239
330
21B
100
AcDbEntity
  8
___SYMBOL
  6
Continuous
 62
     7
100
AcDbLine
 10
796.2871477729
 20
439.0754355696
 30
0.0
 11
796.2871477729
 21
425.3594268698
 31
0.0
  0
LINE
  5
23A
330
21B
100
AcDbEntity
  8
___SYMBOL
  6
Continuous
 62
     7
100
AcDbLine
 10
796.2871477729
 20
425.3594268698
 30
0.0
 11
803.1451521227998
 21
425.3594268698
 31
0.0
  0
LINE
  5
23B
330
21B
100
AcDbEntity
  8
___SYMBOL
  6
Continuous
 62
     7
100
AcDbLine
 10
796.2871477729
 20
432.2174312197
 30
0.0
 11
803.1451521227998
 21
432.2174312197
 31
0.0
  0
LINE
  5
23C
330
21B
100
AcDbEntity
  8
___SYMBOL
  6
Continuous
 62
     7
100
AcDbLine
 10
796.2871477729
 20
439.0754355696
 30
0.0
 11
803.1451521227998
 21
439.0754355696
 31
0.0
  0
LINE
  5
23D
330
21B
100
AcDbEntity
  8
___SYMBOL
  6
Continuous
 62
     7
100
AcDbLine
 10
803.1451521227998
 20
425.3594268698
 30
0.0
 11
803.1451521227998
 21
439.0754355696
 31
0.0
  0
ENDBLK
  5
23E
330
21B
100
AcDbEntity
  8
0
  6
ByBlock
 62
     0
100
AcDbBlockEnd
  0
BLOCK
  5
23F
330
21C
100
AcDbEntity
  8
0
  6
Continuous
 62
     2
100
AcDbBlockBegin
  2
SYMBOL_11_BL4
 70
     0
 10
855.6625
 20
279.4
 30
0.0
  3
SYMBOL_11_BL4
  1

  0
LINE
  5
240
330
21C
100
AcDbEntity
  8
0
  6
Continuous
 62
    30
420
 16744192
100
AcDbLine
 10
850.9
 20
279.4
 30
0.0
 11
855.6625
 21
277.01875
 31
0.0
  0
LINE
  5
241
330
21C
100
AcDbEntity
  8
0
  6
Continuous
 62
    30
420
 16744192
100
AcDbLine
 10
850.9
 20
279.4
 30
0.0
 11
855.6625
 21
281.78125
 31
0.0
  0
LINE
  5
242
330
21C
100
AcDbEntity
  8
0
  6
Continuous
 62
    30
420
 16744192
100
AcDbLine
 10
855.6625
 20
279.9953125
 30
0.0
 11
855.6625
 21
281.78125
 31
0.0
  0
LINE
  5
243
330
21C
100
AcDbEntity
  8
0
  6
Continuous
 62
    30
420
 16744192
100
AcDbLine
 10
860.425
 20
279.9953125
 30
0.0
 11
855.6625
 21
279.9953125
 31
0.0
  0
LINE
  5
244
330
21C
100
AcDbEntity
  8
0
  6
Continuous
 62
    30
420
 16744192
100
AcDbLine
 10
860.425
 20
279.9953125
 30
0.0
 11
860.425
 21
278.8046875
 31
0.0
  0
LINE
  5
245
330
21C
100
AcDbEntity
  8
0
  6
Continuous
 62
    30
420
 16744192
100
AcDbLine
 10
855.6625
 20
278.8046875
 30
0.0
 11
860.425
 21
278.8046875
 31
0.0
  0
LINE
  5
246
330
21C
100
AcDbEntity
  8
0
  6
Continuous
 62
    30
420
 16744192
100
AcDbLine
 10
855.6625
 20
277.01875
 30
0.0
 11
855.6625
 21
278.8046875
 31
0.0
  0
LWPOLYLINE
  5
247
330
21C
100
AcDbEntity
  8
0
  6
Continuous
 62
     7
100
AcDbPolyline
 90
        8
 70
     0
 43
0.0
 10
850.9
 20
279.4
 10
855.6625
 20
281.78125
 10
855.6625
 20
279.9953125
 10
860.425
 20
279.9953125
 10
860.425
 20
278.8046875
 10
855.6625
 20
278.8046875
 10
855.6625
 20
277.01875
 10
850.9
 20
279.4
  0
HATCH
  5
248
330
21C
100
AcDbEntity
  8
0
  6
Continuous
 62
     7
100
AcDbHatch
 10
0.0
 20
0.0
 30
0.0
210
0.0
220
0.0
230
1.0
  2
SOLID
 70
     1
 71
     1
 91
        1
 92
        1
 93
        7
 72
     1
 10
850.9
 20
279.4
 11
855.6625
 21
281.78125
 72
     1
 10
855.6625
 20
281.78125
 11
855.6625
 21
279.9953125
 72
     1
 10
855.6625
 20
279.9953125
 11
860.425
 21
279.9953125
 72
     1
 10
860.425
 20
279.9953125
 11
860.425
 21
278.8046875
 72
     1
 10
860.425
 20
278.8046875
 11
855.6625
 21
278.8046875
 72
     1
 10
855.6625
 20
278.8046875
 11
855.6625
 21
277.01875
 72
     1
 10
855.6625
 20
277.01875
 11
850.9
 21
279.4
 97
        1
330
247
 75
     0
 76
     1
 98
        1
 10
0.0
 20
0.0
450
        0
451
        0
460
0.0
461
0.0
452
        0
462
0.0
453
        0
470

  0
ENDBLK
  5
249
330
21C
100
AcDbEntity
  8
0
  6
ByBlock
 62
     0
100
AcDbBlockEnd
  0
BLOCK
  5
24A
330
21D
100
AcDbEntity
  8
0
  6
Continuous
 62
     2
100
AcDbBlockBegin
  2
SYMBOL_10_BL3
 70
     0
 10
7.9375
 20
279.4
 30
0.0
  3
SYMBOL_10_BL3
  1

  0
LINE
  5
24B
330
21D
100
AcDbEntity
  8
0
  6
Continuous
 62
    30
420
 16744192
100
AcDbLine
 10
12.7
 20
279.4
 30
0.0
 11
7.9375
 21
281.78125
 31
0.0
  0
LINE
  5
24C
330
21D
100
AcDbEntity
  8
0
  6
Continuous
 62
    30
420
 16744192
100
AcDbLine
 10
12.7
 20
279.4
 30
0.0
 11
7.9375
 21
277.01875
 31
0.0
  0
LINE
  5
24D
330
21D
100
AcDbEntity
  8
0
  6
Continuous
 62
    30
420
 16744192
100
AcDbLine
 10
7.9375
 20
278.8046875
 30
0.0
 11
7.9375
 21
277.01875
 31
0.0
  0
LINE
  5
24E
330
21D
100
AcDbEntity
  8
0
  6
Continuous
 62
    30
420
 16744192
100
AcDbLine
 10
3.174999999999998
 20
278.8046875
 30
0.0
 11
7.9375
 21
278.8046875
 31
0.0
  0
LINE
  5
24F
330
21D
100
AcDbEntity
  8
0
  6
Continuous
 62
    30
420
 16744192
100
AcDbLine
 10
3.174999999999998
 20
278.8046875
 30
0.0
 11
3.174999999999998
 21
279.9953125
 31
0.0
  0
LINE
  5
250
330
21D
100
AcDbEntity
  8
0
  6
Continuous
 62
    30
420
 16744192
100
AcDbLine
 10
7.9375
 20
279.9953125
 30
0.0
 11
3.174999999999998
 21
279.9953125
 31
0.0
  0
LINE
  5
251
330
21D
100
AcDbEntity
  8
0
  6
Continuous
 62
    30
420
 16744192
100
AcDbLine
 10
7.9375
 20
281.78125
 30
0.0
 11
7.9375
 21
279.9953125
 31
0.0
  0
LWPOLYLINE
  5
252
330
21D
100
AcDbEntity
  8
0
  6
Continuous
 62
     7
100
AcDbPolyline
 90
        8
 70
     0
 43
0.0
 10
12.7
 20
279.4
 10
7.9375
 20
277.01875
 10
7.9375
 20
278.8046875
 10
3.174999999999998
 20
278.8046875
 10
3.174999999999998
 20
279.9953125
 10
7.9375
 20
279.9953125
 10
7.9375
 20
281.78125
 10
12.7
 20
279.4
  0
HATCH
  5
253
330
21D
100
AcDbEntity
  8
0
  6
Continuous
 62
     7
100
AcDbHatch
 10
0.0
 20
0.0
 30
0.0
210
0.0
220
0.0
230
1.0
  2
SOLID
 70
     1
 71
     1
 91
        1
 92
        1
 93
        7
 72
     1
 10
12.7
 20
279.4
 11
7.9375
 21
277.01875
 72
     1
 10
7.9375
 20
277.01875
 11
7.9375
 21
278.8046875
 72
     1
 10
7.9375
 20
278.8046875
 11
3.174999999999998
 21
278.8046875
 72
     1
 10
3.174999999999998
 20
278.8046875
 11
3.174999999999998
 21
279.9953125
 72
     1
 10
3.174999999999998
 20
279.9953125
 11
7.9375
 21
279.9953125
 72
     1
 10
7.9375
 20
279.9953125
 11
7.9375
 21
281.78125
 72
     1
 10
7.9375
 20
281.78125
 11
12.7
 21
279.4
 97
        1
330
252
 75
     0
 76
     1
 98
        1
 10
0.0
 20
0.0
450
        0
451
        0
460
0.0
461
0.0
452
        0
462
0.0
453
        0
470

  0
ENDBLK
  5
254
330
21D
100
AcDbEntity
  8
0
  6
ByBlock
 62
     0
100
AcDbBlockEnd
  0
BLOCK
  5
255
330
21E
100
AcDbEntity
  8
0
  6
Continuous
 62
     2
100
AcDbBlockBegin
  2
SYMBOL_8_BL2
 70
     0
 10
431.8
 20
550.8624999999998
 30
0.0
  3
SYMBOL_8_BL2
  1

  0
LINE
  5
256
330
21E
100
AcDbEntity
  8
0
  6
Continuous
 62
    30
420
 16744192
100
AcDbLine
 10
431.8
 20
546.1
 30
0.0
 11
434.1812499999998
 21
550.8624999999998
 31
0.0
  0
LINE
  5
257
330
21E
100
AcDbEntity
  8
0
  6
Continuous
 62
    30
420
 16744192
100
AcDbLine
 10
431.8
 20
546.1
 30
0.0
 11
429.4187499999998
 21
550.8624999999998
 31
0.0
  0
LINE
  5
258
330
21E
100
AcDbEntity
  8
0
  6
Continuous
 62
    30
420
 16744192
100
AcDbLine
 10
431.2046875
 20
550.8624999999998
 30
0.0
 11
429.4187499999998
 21
550.8624999999998
 31
0.0
  0
LINE
  5
259
330
21E
100
AcDbEntity
  8
0
  6
Continuous
 62
    30
420
 16744192
100
AcDbLine
 10
431.2046875
 20
555.625
 30
0.0
 11
431.2046875
 21
550.8624999999998
 31
0.0
  0
LINE
  5
25A
330
21E
100
AcDbEntity
  8
0
  6
Continuous
 62
    30
420
 16744192
100
AcDbLine
 10
431.2046875
 20
555.625
 30
0.0
 11
432.3953125
 21
555.625
 31
0.0
  0
LINE
  5
25B
330
21E
100
AcDbEntity
  8
0
  6
Continuous
 62
    30
420
 16744192
100
AcDbLine
 10
432.3953125
 20
550.8624999999998
 30
0.0
 11
432.3953125
 21
555.625
 31
0.0
  0
LINE
  5
25C
330
21E
100
AcDbEntity
  8
0
  6
Continuous
 62
    30
420
 16744192
100
AcDbLine
 10
434.1812499999998
 20
550.8624999999998
 30
0.0
 11
432.3953125
 21
550.8624999999998
 31
0.0
  0
LWPOLYLINE
  5
25D
330
21E
100
AcDbEntity
  8
0
  6
Continuous
 62
     7
100
AcDbPolyline
 90
        8
 70
     0
 43
0.0
 10
431.8
 20
546.1
 10
429.4187499999998
 20
550.8624999999998
 10
431.2046875
 20
550.8624999999998
 10
431.2046875
 20
555.625
 10
432.3953125
 20
555.625
 10
432.3953125
 20
550.8624999999998
 10
434.1812499999998
 20
550.8624999999998
 10
431.8
 20
546.1
  0
HATCH
  5
25E
330
21E
100
AcDbEntity
  8
0
  6
Continuous
 62
     7
100
AcDbHatch
 10
0.0
 20
0.0
 30
0.0
210
0.0
220
0.0
230
1.0
  2
SOLID
 70
     1
 71
     1
 91
        1
 92
        1
 93
        7
 72
     1
 10
431.8
 20
546.1
 11
429.4187499999998
 21
550.8624999999998
 72
     1
 10
429.4187499999998
 20
550.8624999999998
 11
431.2046875
 21
550.8624999999998
 72
     1
 10
431.2046875
 20
550.8624999999998
 11
431.2046875
 21
555.625
 72
     1
 10
431.2046875
 20
555.625
 11
432.3953125
 21
555.625
 72
     1
 10
432.3953125
 20
555.625
 11
432.3953125
 21
550.8624999999998
 72
     1
 10
432.3953125
 20
550.8624999999998
 11
434.1812499999998
 21
550.8624999999998
 72
     1
 10
434.1812499999998
 20
550.8624999999998
 11
431.8
 21
546.1
 97
        1
330
25D
 75
     0
 76
     1
 98
        1
 10
0.0
 20
0.0
450
        0
451
        0
460
0.0
461
0.0
452
        0
462
0.0
453
        0
470

  0
ENDBLK
  5
25F
330
21E
100
AcDbEntity
  8
0
  6
ByBlock
 62
     0
100
AcDbBlockEnd
  0
BLOCK
  5
260
330
21F
100
AcDbEntity
  8
0
  6
Continuous
 62
     2
100
AcDbBlockBegin
  2
SYMBOL_6_BL1
 70
     0
 10
431.8
 20
7.9375
 30
0.0
  3
SYMBOL_6_BL1
  1

  0
LINE
  5
261
330
21F
100
AcDbEntity
  8
0
  6
Continuous
 62
    30
420
 16744192
100
AcDbLine
 10
431.8
 20
12.7
 30
0.0
 11
429.4187499999998
 21
7.9375
 31
0.0
  0
LINE
  5
262
330
21F
100
AcDbEntity
  8
0
  6
Continuous
 62
    30
420
 16744192
100
AcDbLine
 10
431.8
 20
12.7
 30
0.0
 11
434.1812499999998
 21
7.9375
 31
0.0
  0
LINE
  5
263
330
21F
100
AcDbEntity
  8
0
  6
Continuous
 62
    30
420
 16744192
100
AcDbLine
 10
432.3953125
 20
7.9375
 30
0.0
 11
434.1812499999998
 21
7.9375
 31
0.0
  0
LINE
  5
264
330
21F
100
AcDbEntity
  8
0
  6
Continuous
 62
    30
420
 16744192
100
AcDbLine
 10
432.3953125
 20
3.174999999999998
 30
0.0
 11
432.3953125
 21
7.9375
 31
0.0
  0
LINE
  5
265
330
21F
100
AcDbEntity
  8
0
  6
Continuous
 62
    30
420
 16744192
100
AcDbLine
 10
432.3953125
 20
3.174999999999998
 30
0.0
 11
431.2046875
 21
3.174999999999998
 31
0.0
  0
LINE
  5
266
330
21F
100
AcDbEntity
  8
0
  6
Continuous
 62
    30
420
 16744192
100
AcDbLine
 10
431.2046875
 20
7.9375
 30
0.0
 11
431.2046875
 21
3.174999999999998
 31
0.0
  0
LINE
  5
267
330
21F
100
AcDbEntity
  8
0
  6
Continuous
 62
    30
420
 16744192
100
AcDbLine
 10
429.4187499999998
 20
7.9375
 30
0.0
 11
431.2046875
 21
7.9375
 31
0.0
  0
LWPOLYLINE
  5
268
330
21F
100
AcDbEntity
  8
0
  6
Continuous
 62
     7
100
AcDbPolyline
 90
        8
 70
     0
 43
0.0
 10
431.8
 20
12.7
 10
434.1812499999998
 20
7.9375
 10
432.3953125
 20
7.9375
 10
432.3953125
 20
3.174999999999998
 10
431.2046875
 20
3.174999999999998
 10
431.2046875
 20
7.9375
 10
429.4187499999998
 20
7.9375
 10
431.8
 20
12.7
  0
HATCH
  5
269
330
21F
100
AcDbEntity
  8
0
  6
Continuous
 62
     7
100
AcDbHatch
 10
0.0
 20
0.0
 30
0.0
210
0.0
220
0.0
230
1.0
  2
SOLID
 70
     1
 71
     1
 91
        1
 92
        1
 93
        7
 72
     1
 10
431.8
 20
12.7
 11
434.1812499999998
 21
7.9375
 72
     1
 10
434.1812499999998
 20
7.9375
 11
432.3953125
 21
7.9375
 72
     1
 10
432.3953125
 20
7.9375
 11
432.3953125
 21
3.174999999999998
 72
     1
 10
432.3953125
 20
3.174999999999998
 11
431.2046875
 21
3.174999999999998
 72
     1
 10
431.2046875
 20
3.174999999999998
 11
431.2046875
 21
7.9375
 72
     1
 10
431.2046875
 20
7.9375
 11
429.4187499999998
 21
7.9375
 72
     1
 10
429.4187499999998
 20
7.9375
 11
431.8
 21
12.7
 97
        1
330
268
 75
     0
 76
     1
 98
        1
 10
0.0
 20
0.0
450
        0
451
        0
460
0.0
461
0.0
452
        0
462
0.0
453
        0
470

  0
ENDBLK
  5
26A
330
21F
100
AcDbEntity
  8
0
  6
ByBlock
 62
     0
100
AcDbBlockEnd
  0
BLOCK
  5
26B
330
220
100
AcDbEntity
  8
0
  6
Continuous
 62
     2
100
AcDbBlockBegin
  2
SYMBOL_0_BL0
 70
     0
 10
766.7592361
 20
55.2233084
 30
0.0
  3
SYMBOL_0_BL0
  1

  0
ARC
  5
26C
330
220
100
AcDbEntity
  8
0
  6
Continuous
 62
     2
100
AcDbCircle
 10
781.1308736
 20
56.63221465
 30
0.0
 40
0.7786687500000001
100
AcDbArc
 50
270.0
 51
90.0
  0
LINE
  5
26D
330
220
100
AcDbEntity
  8
0
  6
Continuous
 62
     2
100
AcDbLine
 10
749.3808736
 20
51.6514334
 30
0.0
 11
749.3808736
 21
58.7951834
 31
0.0
  0
LINE
  5
26E
330
220
100
AcDbEntity
  8
0
  6
Continuous
 62
     2
100
AcDbLine
 10
749.3808736
 20
58.7951834
 30
0.0
 11
751.0826736
 21
58.7951834
 31
0.0
  0
LINE
  5
26F
330
220
100
AcDbEntity
  8
0
  6
Continuous
 62
     2
100
AcDbLine
 10
749.3808736
 20
51.6514334
 30
0.0
 11
751.0826736
 21
51.6514334
 31
0.0
  0
LINE
  5
270
330
220
100
AcDbEntity
  8
0
  6
Continuous
 62
     2
100
AcDbLine
 10
755.7308736
 20
58.7951834
 30
0.0
 11
752.5558736
 21
55.6201834
 31
0.0
  0
LINE
  5
271
330
220
100
AcDbEntity
  8
0
  6
Continuous
 62
     2
100
AcDbLine
 10
752.5558736
 20
55.6201834
 30
0.0
 11
755.7308736
 21
51.6514334
 31
0.0
  0
CIRCLE
  5
272
330
220
100
AcDbEntity
  8
0
  6
Continuous
 62
     2
100
AcDbCircle
 10
758.5089986
 20
55.2233084
 30
0.0
 40
1.870074999999999
  0
LINE
  5
273
330
220
100
AcDbEntity
  8
0
  6
Continuous
 62
     2
100
AcDbLine
 10
753.5515062341
 20
51.6514334
 30
0.0
 11
755.7308736
 21
51.6514334
 31
0.0
  0
CIRCLE
  5
274
330
220
100
AcDbEntity
  8
0
  6
Continuous
 62
     2
100
AcDbCircle
 10
758.5089986
 20
55.2233084
 30
0.0
 40
3.571874999999999
  0
LINE
  5
275
330
220
100
AcDbEntity
  8
0
  6
Continuous
 62
     2
100
AcDbLine
 10
751.0826736
 20
51.6514334
 30
0.0
 11
751.0826736
 21
54.7374741926
 31
0.0
  0
LINE
  5
276
330
220
100
AcDbEntity
  8
0
  6
Continuous
 62
     2
100
AcDbLine
 10
753.3241649589999
 20
58.7951834
 30
0.0
 11
751.0826736
 21
56.55369204100001
 31
0.0
  0
LINE
  5
277
330
220
100
AcDbEntity
  8
0
  6
Continuous
 62
     2
100
AcDbLine
 10
751.0826736
 20
54.7374741926
 30
0.0
 11
753.5515062341
 21
51.6514334
 31
0.0
  0
LINE
  5
278
330
220
100
AcDbEntity
  8
0
  6
Continuous
 62
     2
100
AcDbLine
 10
753.3241649589999
 20
58.7951834
 30
0.0
 11
755.7308736
 21
58.7951834
 31
0.0
  0
LINE
  5
279
330
220
100
AcDbEntity
  8
0
  6
Continuous
 62
     2
100
AcDbLine
 10
751.0826736
 20
58.7951834
 30
0.0
 11
751.0826736
 21
56.55369204100001
 31
0.0
  0
LINE
  5
27A
330
220
100
AcDbEntity
  8
0
  6
Continuous
 62
     2
100
AcDbLine
 10
762.8746236
 20
58.7951834
 30
0.0
 11
762.8746236
 21
51.6514334
 31
0.0
  0
LINE
  5
27B
330
220
100
AcDbEntity
  8
0
  6
Continuous
 62
     2
100
AcDbLine
 10
764.5764235999998
 20
51.6514334
 30
0.0
 11
764.5764235999998
 21
54.7692834
 31
0.0
  0
LINE
  5
27C
330
220
100
AcDbEntity
  8
0
  6
Continuous
 62
     2
100
AcDbLine
 10
764.5764235999998
 20
56.4710834
 30
0.0
 11
764.5764235999998
 21
58.7951834
 31
0.0
  0
LINE
  5
27D
330
220
100
AcDbEntity
  8
0
  6
Continuous
 62
     2
100
AcDbLine
 10
766.5607986
 20
51.6514334
 30
0.0
 11
766.5607986
 21
54.7692834
 31
0.0
  0
LINE
  5
27E
330
220
100
AcDbEntity
  8
0
  6
Continuous
 62
     2
100
AcDbLine
 10
766.5607986
 20
56.4710834
 30
0.0
 11
766.5607986
 21
58.7951834
 31
0.0
  0
LINE
  5
27F
330
220
100
AcDbEntity
  8
0
  6
Continuous
 62
     2
100
AcDbLine
 10
768.2625986
 20
58.7951834
 30
0.0
 11
768.2625986
 21
51.6514334
 31
0.0
  0
LINE
  5
280
330
220
100
AcDbEntity
  8
0
  6
Continuous
 62
     2
100
AcDbLine
 10
764.5764235999998
 20
56.4710834
 30
0.0
 11
766.5607986
 21
56.4710834
 31
0.0
  0
LINE
  5
281
330
220
100
AcDbEntity
  8
0
  6
Continuous
 62
     2
100
AcDbLine
 10
764.5764235999998
 20
54.7692834
 30
0.0
 11
766.5607986
 21
54.7692834
 31
0.0
  0
LINE
  5
282
330
220
100
AcDbEntity
  8
0
  6
Continuous
 62
     2
100
AcDbLine
 10
766.5607986
 20
51.6514334
 30
0.0
 11
768.2625986
 21
51.6514334
 31
0.0
  0
LINE
  5
283
330
220
100
AcDbEntity
  8
0
  6
Continuous
 62
     2
100
AcDbLine
 10
762.8746236
 20
51.6514334
 30
0.0
 11
764.5764235999998
 21
51.6514334
 31
0.0
  0
LINE
  5
284
330
220
100
AcDbEntity
  8
0
  6
Continuous
 62
     2
100
AcDbLine
 10
766.5607986
 20
58.7951834
 30
0.0
 11
768.2625986
 21
58.7951834
 31
0.0
  0
LINE
  5
285
330
220
100
AcDbEntity
  8
0
  6
Continuous
 62
     2
100
AcDbLine
 10
762.8746236
 20
58.7951834
 30
0.0
 11
764.5764235999998
 21
58.7951834
 31
0.0
  0
LINE
  5
286
330
220
100
AcDbEntity
  8
0
  6
Continuous
 62
     2
100
AcDbLine
 10
769.0563486000002
 20
58.7951834
 30
0.0
 11
769.0563486000002
 21
51.6514334
 31
0.0
  0
LINE
  5
287
330
220
100
AcDbEntity
  8
0
  6
Continuous
 62
     2
100
AcDbLine
 10
773.0250986000002
 20
53.3532334
 30
0.0
 11
773.0250986000002
 21
51.6514334
 31
0.0
  0
LINE
  5
288
330
220
100
AcDbEntity
  8
0
  6
Continuous
 62
     2
100
AcDbLine
 10
769.0563486000002
 20
51.6514334
 30
0.0
 11
773.0250986000002
 21
51.6514334
 31
0.0
  0
LINE
  5
289
330
220
100
AcDbEntity
  8
0
  6
Continuous
 62
     2
100
AcDbLine
 10
770.7581486
 20
53.3532334
 30
0.0
 11
770.7581486
 21
58.7951834
 31
0.0
  0
LINE
  5
28A
330
220
100
AcDbEntity
  8
0
  6
Continuous
 62
     2
100
AcDbLine
 10
770.7581486
 20
53.3532334
 30
0.0
 11
773.0250986000002
 21
53.3532334
 31
0.0
  0
LINE
  5
28B
330
220
100
AcDbEntity
  8
0
  6
Continuous
 62
     2
100
AcDbLine
 10
769.0563486000002
 20
58.7951834
 30
0.0
 11
770.7581486
 21
58.7951834
 31
0.0
  0
LINE
  5
28C
330
220
100
AcDbEntity
  8
0
  6
Continuous
 62
     2
100
AcDbLine
 10
773.8188486
 20
51.6514334
 30
0.0
 11
777.7875986
 21
51.6514334
 31
0.0
  0
LINE
  5
28D
330
220
100
AcDbEntity
  8
0
  6
Continuous
 62
     2
100
AcDbLine
 10
777.7875986
 20
53.3532334
 30
0.0
 11
777.7875986
 21
51.6514334
 31
0.0
  0
LINE
  5
28E
330
220
100
AcDbEntity
  8
0
  6
Continuous
 62
     2
100
AcDbLine
 10
775.5206486
 20
53.3532334
 30
0.0
 11
777.7875986
 21
53.3532334
 31
0.0
  0
LINE
  5
28F
330
220
100
AcDbEntity
  8
0
  6
Continuous
 62
     2
100
AcDbLine
 10
775.5206486
 20
54.5708459
 30
0.0
 11
775.5206486
 21
53.3532334
 31
0.0
  0
LINE
  5
290
330
220
100
AcDbEntity
  8
0
  6
Continuous
 62
     2
100
AcDbLine
 10
775.5206486
 20
57.0933834
 30
0.0
 11
777.7875986
 21
57.0933834
 31
0.0
  0
LINE
  5
291
330
220
100
AcDbEntity
  8
0
  6
Continuous
 62
     2
100
AcDbLine
 10
773.8188486
 20
58.7951834
 30
0.0
 11
773.8188486
 21
51.6514334
 31
0.0
  0
LINE
  5
292
330
220
100
AcDbEntity
  8
0
  6
Continuous
 62
     2
100
AcDbLine
 10
777.7875986
 20
57.0933834
 30
0.0
 11
777.7875986
 21
58.7951834
 31
0.0
  0
LINE
  5
293
330
220
100
AcDbEntity
  8
0
  6
Continuous
 62
     2
100
AcDbLine
 10
773.8188486
 20
58.7951834
 30
0.0
 11
777.7875986
 21
58.7951834
 31
0.0
  0
LINE
  5
294
330
220
100
AcDbEntity
  8
0
  6
Continuous
 62
     2
100
AcDbLine
 10
775.5206486
 20
55.8757709
 30
0.0
 11
777.7875986
 21
55.8757709
 31
0.0
  0
LINE
  5
295
330
220
100
AcDbEntity
  8
0
  6
Continuous
 62
     2
100
AcDbLine
 10
777.7875986
 20
55.8757709
 30
0.0
 11
777.7875986
 21
54.5708459
 31
0.0
  0
LINE
  5
296
330
220
100
AcDbEntity
  8
0
  6
Continuous
 62
     2
100
AcDbLine
 10
775.5206486
 20
54.5708459
 30
0.0
 11
777.7875986
 21
54.5708459
 31
0.0
  0
LINE
  5
297
330
220
100
AcDbEntity
  8
0
  6
Continuous
 62
     2
100
AcDbLine
 10
775.5206486
 20
55.8757709
 30
0.0
 11
775.5206486
 21
57.0933834
 31
0.0
  0
LINE
  5
298
330
220
100
AcDbEntity
  8
0
  6
Continuous
 62
     2
100
AcDbLine
 10
778.5813486000002
 20
51.6514334
 30
0.0
 11
778.5813486000002
 21
58.7951834
 31
0.0
  0
LINE
  5
299
330
220
100
AcDbEntity
  8
0
  6
Continuous
 62
     2
100
AcDbLine
 10
780.2831486
 20
54.4295584
 30
0.0
 11
780.2831486
 21
51.6514334
 31
0.0
  0
ARC
  5
29A
330
220
100
AcDbEntity
  8
0
  6
Continuous
 62
     2
100
AcDbCircle
 10
781.1610361
 20
56.6123709
 30
0.0
 40
2.182812499999998
100
AcDbArc
 50
304.1679402531
 51
90.0
  0
LINE
  5
29B
330
220
100
AcDbEntity
  8
0
  6
Continuous
 62
     2
100
AcDbLine
 10
781.1610361
 20
58.7951834
 30
0.0
 11
778.5813486000002
 21
58.7951834
 31
0.0
  0
LINE
  5
29C
330
220
100
AcDbEntity
  8
0
  6
Continuous
 62
     2
100
AcDbLine
 10
781.1308736
 20
57.41088340000001
 30
0.0
 11
780.2831486
 21
57.41088340000001
 31
0.0
  0
LINE
  5
29D
330
220
100
AcDbEntity
  8
0
  6
Continuous
 62
     2
100
AcDbLine
 10
782.3869483446001
 20
54.8063228433
 30
0.0
 11
784.1375986
 21
51.6514334
 31
0.0
  0
LINE
  5
29E
330
220
100
AcDbEntity
  8
0
  6
Continuous
 62
     2
100
AcDbLine
 10
782.191350336
 20
51.6514334
 30
0.0
 11
780.6497669218998
 21
54.4295584
 31
0.0
  0
LINE
  5
29F
330
220
100
AcDbEntity
  8
0
  6
Continuous
 62
     2
100
AcDbLine
 10
778.5813486000002
 20
51.6514334
 30
0.0
 11
780.2831486
 21
51.6514334
 31
0.0
  0
LINE
  5
2A0
330
220
100
AcDbEntity
  8
0
  6
Continuous
 62
     2
100
AcDbLine
 10
782.191350336
 20
51.6514334
 30
0.0
 11
784.1375986
 21
51.6514334
 31
0.0
  0
LINE
  5
2A1
330
220
100
AcDbEntity
  8
0
  6
Continuous
 62
     2
100
AcDbLine
 10
781.1308736
 20
55.8535459
 30
0.0
 11
780.2831486
 21
55.8535459
 31
0.0
  0
LINE
  5
2A2
330
220
100
AcDbEntity
  8
0
  6
Continuous
 62
     2
100
AcDbLine
 10
780.2831486
 20
57.41088340000001
 30
0.0
 11
780.2831486
 21
55.8535459
 31
0.0
  0
LINE
  5
2A3
330
220
100
AcDbEntity
  8
0
  6
Continuous
 62
     2
100
AcDbLine
 10
780.2831486
 20
54.4295584
 30
0.0
 11
780.6497669218998
 21
54.4295584
 31
0.0
  0
LWPOLYLINE
  5
2A4
330
220
100
AcDbEntity
  8
0
  6
Continuous
 62
     2
100
AcDbPolyline
 90
       14
 70
     0
 43
0.0
 10
784.1375986
 20
51.6514334
 10
782.191350336
 20
51.6514334
 10
780.6497669218998
 20
54.4295584
 10
780.2831486
 20
54.4295584
 10
780.2831486
 20
51.6514334
 10
778.5813486000002
 20
51.6514334
 10
778.5813486000002
 20
57.41088340000001
 10
780.2831486
 20
57.41088340000001
 10
780.2831486
 20
55.8535459
 10
781.1308736
 20
55.8535459
 10
783.1747134023999
 20
55.8535459
 10
782.9491152757
 20
55.36039515270001
 10
782.3869483444
 20
54.80632284439999
 10
784.1375986
 20
51.6514334
  0
HATCH
  5
2A5
330
220
100
AcDbEntity
  8
0
  6
Continuous
 62
     2
100
AcDbHatch
 10
0.0
 20
0.0
 30
0.0
210
0.0
220
0.0
230
1.0
  2
SOLID
 70
     1
 71
     1
 91
        1
 92
        1
 93
       13
 72
     1
 10
784.1375986
 20
51.6514334
 11
782.191350336
 21
51.6514334
 72
     1
 10
782.191350336
 20
51.6514334
 11
780.6497669218998
 21
54.4295584
 72
     1
 10
780.6497669218998
 20
54.4295584
 11
780.2831486
 21
54.4295584
 72
     1
 10
780.2831486
 20
54.4295584
 11
780.2831486
 21
51.6514334
 72
     1
 10
780.2831486
 20
51.6514334
 11
778.5813486000002
 21
51.6514334
 72
     1
 10
778.5813486000002
 20
51.6514334
 11
778.5813486000002
 21
57.41088340000001
 72
     1
 10
778.5813486000002
 20
57.41088340000001
 11
780.2831486
 21
57.41088340000001
 72
     1
 10
780.2831486
 20
57.41088340000001
 11
780.2831486
 21
55.8535459
 72
     1
 10
780.2831486
 20
55.8535459
 11
781.1308736
 21
55.8535459
 72
     1
 10
781.1308736
 20
55.8535459
 11
783.1747134023999
 21
55.8535459
 72
     1
 10
783.1747134023999
 20
55.8535459
 11
782.9491152757
 21
55.36039515270001
 72
     1
 10
782.9491152757
 20
55.36039515270001
 11
782.3869483444
 21
54.80632284439999
 72
     1
 10
782.3869483444
 20
54.80632284439999
 11
784.1375986
 21
51.6514334
 97
        1
330
2A4
 75
     0
 76
     1
 98
        1
 10
0.0
 20
0.0
450
        0
451
        0
460
0.0
461
0.0
452
        0
462
0.0
453
        0
470

  0
LWPOLYLINE
  5
2A6
330
220
100
AcDbEntity
  8
0
  6
Continuous
 62
     2
100
AcDbPolyline
 90
       18
 70
     0
 43
0.0
 10
778.5813486000002
 20
57.41088340000001
 10
778.5813486000002
 20
58.7951834
 10
781.1610361
 20
58.7951834
 10
781.9373485503001
 20
58.6524712382
 10
782.6121504694
 20
58.2429957793
 10
783.0972048324
 20
57.6202999896
 10
783.3290859838
 20
56.8658075024
 10
783.2774731696
 20
56.0781756728
 10
783.1747134023999
 20
55.8535459
 10
781.1308736
 20
55.8535459
 10
781.5202079749998
 20
55.9578677314
 10
781.8052205186
 20
56.242880275
 10
781.90954235
 20
56.63221465
 10
781.8052205186
 20
57.021549025
 10
781.5202079749998
 20
57.3065615686
 10
781.1308736
 20
57.41088340000001
 10
780.2831486
 20
57.41088340000001
 10
778.5813486000002
 20
57.41088340000001
  0
HATCH
  5
2A7
330
220
100
AcDbEntity
  8
0
  6
Continuous
 62
     2
100
AcDbHatch
 10
0.0
 20
0.0
 30
0.0
210
0.0
220
0.0
230
1.0
  2
SOLID
 70
     1
 71
     1
 91
        1
 92
        1
 93
       17
 72
     1
 10
778.5813486000002
 20
57.41088340000001
 11
778.5813486000002
 21
58.7951834
 72
     1
 10
778.5813486000002
 20
58.7951834
 11
781.1610361
 21
58.7951834
 72
     1
 10
781.1610361
 20
58.7951834
 11
781.9373485503001
 21
58.6524712382
 72
     1
 10
781.9373485503001
 20
58.6524712382
 11
782.6121504694
 21
58.2429957793
 72
     1
 10
782.6121504694
 20
58.2429957793
 11
783.0972048324
 21
57.6202999896
 72
     1
 10
783.0972048324
 20
57.6202999896
 11
783.3290859838
 21
56.8658075024
 72
     1
 10
783.3290859838
 20
56.8658075024
 11
783.2774731696
 21
56.0781756728
 72
     1
 10
783.2774731696
 20
56.0781756728
 11
783.1747134023999
 21
55.8535459
 72
     1
 10
783.1747134023999
 20
55.8535459
 11
781.1308736
 21
55.8535459
 72
     1
 10
781.1308736
 20
55.8535459
 11
781.5202079749998
 21
55.9578677314
 72
     1
 10
781.5202079749998
 20
55.9578677314
 11
781.8052205186
 21
56.242880275
 72
     1
 10
781.8052205186
 20
56.242880275
 11
781.90954235
 21
56.63221465
 72
     1
 10
781.90954235
 20
56.63221465
 11
781.8052205186
 21
57.021549025
 72
     1
 10
781.8052205186
 20
57.021549025
 11
781.5202079749998
 21
57.3065615686
 72
     1
 10
781.5202079749998
 20
57.3065615686
 11
781.1308736
 21
57.41088340000001
 72
     1
 10
781.1308736
 20
57.41088340000001
 11
780.2831486
 21
57.41088340000001
 72
     1
 10
780.2831486
 20
57.41088340000001
 11
778.5813486000002
 21
57.41088340000001
 97
        1
330
2A6
 75
     0
 76
     1
 98
        1
 10
0.0
 20
0.0
450
        0
451
        0
460
0.0
461
0.0
452
        0
462
0.0
453
        0
470

  0
LWPOLYLINE
  5
2A8
330
220
100
AcDbEntity
  8
0
  6
Continuous
 62
     2
100
AcDbPolyline
 90
       12
 70
     0
 43
0.0
 10
751.0826736
 20
51.6514334
 10
749.3808736
 20
51.6514334
 10
749.3808736
 20
58.7951834
 10
751.0826736
 20
58.7951834
 10
751.0826736
 20
56.55369204100001
 10
753.3241649589999
 20
58.7951834
 10
755.7308736
 20
58.7951834
 10
752.5558736
 20
55.6201834
 10
755.7308736
 20
51.6514334
 10
753.5515062341
 20
51.6514334
 10
751.0826736
 20
54.7374741926
 10
751.0826736
 20
51.6514334
  0
HATCH
  5
2A9
330
220
100
AcDbEntity
  8
0
  6
Continuous
 62
     2
100
AcDbHatch
 10
0.0
 20
0.0
 30
0.0
210
0.0
220
0.0
230
1.0
  2
SOLID
 70
     1
 71
     1
 91
        1
 92
        1
 93
       11
 72
     1
 10
751.0826736
 20
51.6514334
 11
749.3808736
 21
51.6514334
 72
     1
 10
749.3808736
 20
51.6514334
 11
749.3808736
 21
58.7951834
 72
     1
 10
749.3808736
 20
58.7951834
 11
751.0826736
 21
58.7951834
 72
     1
 10
751.0826736
 20
58.7951834
 11
751.0826736
 21
56.55369204100001
 72
     1
 10
751.0826736
 20
56.55369204100001
 11
753.3241649589999
 21
58.7951834
 72
     1
 10
753.3241649589999
 20
58.7951834
 11
755.7308736
 21
58.7951834
 72
     1
 10
755.7308736
 20
58.7951834
 11
752.5558736
 21
55.6201834
 72
     1
 10
752.5558736
 20
55.6201834
 11
755.7308736
 21
51.6514334
 72
     1
 10
755.7308736
 20
51.6514334
 11
753.5515062341
 21
51.6514334
 72
     1
 10
753.5515062341
 20
51.6514334
 11
751.0826736
 21
54.7374741926
 72
     1
 10
751.0826736
 20
54.7374741926
 11
751.0826736
 21
51.6514334
 97
        1
330
2A8
 75
     0
 76
     1
 98
        1
 10
0.0
 20
0.0
450
        0
451
        0
460
0.0
461
0.0
452
        0
462
0.0
453
        0
470

  0
LWPOLYLINE
  5
2AA
330
220
100
AcDbEntity
  8
0
  6
Continuous
 62
     2
100
AcDbPolyline
 90
       23
 70
     0
 43
0.0
 10
758.5089986
 20
51.6514334
 10
757.4052285232
 20
51.8262534059
 10
756.4095031519998
 20
52.33360082319999
 10
755.6192910232
 20
53.123812952
 10
755.1119436058997
 20
54.1195383232
 10
754.9371236
 20
55.2233084
 10
755.1119436058997
 20
56.3270784768
 10
755.4983307727998
 20
57.08540598969999
 10
758.6815473523
 20
57.08540598969999
 10
757.9972282838
 20
57.0219944897
 10
757.3820266324
 20
56.7156604663
 10
756.9190287899
 20
56.207776027
 10
756.6707651806
 20
55.5669337795
 10
756.6707651806
 20
54.8796830205
 10
756.9190287899
 20
54.238840773
 10
757.3820266324
 20
53.7309563337
 10
757.9972282838
 20
53.42462231029998
 10
758.6815473523
 20
53.36121081029999
 10
761.5196664272
 20
53.36121081029999
 10
761.3987061767999
 20
53.123812952
 10
760.608494048
 20
52.33360082319999
 10
759.6127686767998
 20
51.8262534059
 10
758.5089986
 20
51.6514334
  0
HATCH
  5
2AB
330
220
100
AcDbEntity
  8
0
  6
Continuous
 62
     2
100
AcDbHatch
 10
0.0
 20
0.0
 30
0.0
210
0.0
220
0.0
230
1.0
  2
SOLID
 70
     1
 71
     1
 91
        1
 92
        1
 93
       22
 72
     1
 10
758.5089986
 20
51.6514334
 11
757.4052285232
 21
51.8262534059
 72
     1
 10
757.4052285232
 20
51.8262534059
 11
756.4095031519998
 21
52.33360082319999
 72
     1
 10
756.4095031519998
 20
52.33360082319999
 11
755.6192910232
 21
53.123812952
 72
     1
 10
755.6192910232
 20
53.123812952
 11
755.1119436058997
 21
54.1195383232
 72
     1
 10
755.1119436058997
 20
54.1195383232
 11
754.9371236
 21
55.2233084
 72
     1
 10
754.9371236
 20
55.2233084
 11
755.1119436058997
 21
56.3270784768
 72
     1
 10
755.1119436058997
 20
56.3270784768
 11
755.4983307727998
 21
57.08540598969999
 72
     1
 10
755.4983307727998
 20
57.08540598969999
 11
758.6815473523
 21
57.08540598969999
 72
     1
 10
758.6815473523
 20
57.08540598969999
 11
757.9972282838
 21
57.0219944897
 72
     1
 10
757.9972282838
 20
57.0219944897
 11
757.3820266324
 21
56.7156604663
 72
     1
 10
757.3820266324
 20
56.7156604663
 11
756.9190287899
 21
56.207776027
 72
     1
 10
756.9190287899
 20
56.207776027
 11
756.6707651806
 21
55.5669337795
 72
     1
 10
756.6707651806
 20
55.5669337795
 11
756.6707651806
 21
54.8796830205
 72
     1
 10
756.6707651806
 20
54.8796830205
 11
756.9190287899
 21
54.238840773
 72
     1
 10
756.9190287899
 20
54.238840773
 11
757.3820266324
 21
53.7309563337
 72
     1
 10
757.3820266324
 20
53.7309563337
 11
757.9972282838
 21
53.42462231029998
 72
     1
 10
757.9972282838
 20
53.42462231029998
 11
758.6815473523
 21
53.36121081029999
 72
     1
 10
758.6815473523
 20
53.36121081029999
 11
761.5196664272
 21
53.36121081029999
 72
     1
 10
761.5196664272
 20
53.36121081029999
 11
761.3987061767999
 21
53.123812952
 72
     1
 10
761.3987061767999
 20
53.123812952
 11
760.608494048
 21
52.33360082319999
 72
     1
 10
760.608494048
 20
52.33360082319999
 11
759.6127686767998
 21
51.8262534059
 72
     1
 10
759.6127686767998
 20
51.8262534059
 11
758.5089986
 21
51.6514334
 97
        1
330
2AA
 75
     0
 76
     1
 98
        1
 10
0.0
 20
0.0
450
        0
451
        0
460
0.0
461
0.0
452
        0
462
0.0
453
        0
470

  0
LWPOLYLINE
  5
2AC
330
220
100
AcDbEntity
  8
0
  6
Continuous
 62
     2
100
AcDbPolyline
 90
       22
 70
     0
 43
0.0
 10
755.4983307727998
 20
57.08540598969999
 10
755.6192910232
 20
57.322803848
 10
756.4095031519998
 20
58.11301597679999
 10
757.4052285232
 20
58.6203633941
 10
758.5089986
 20
58.7951834
 10
759.6127686767998
 20
58.6203633941
 10
760.608494048
 20
58.11301597679999
 10
761.3987061767999
 20
57.322803848
 10
761.9060535941001
 20
56.3270784768
 10
762.0808736
 20
55.2233084
 10
761.9060535941001
 20
54.1195383232
 10
761.5196664272
 20
53.36121081029999
 10
758.6815473523
 20
53.36121081029999
 10
759.3425627557
 20
53.5492859079
 10
759.8910007009
 20
53.9634470192
 10
760.2527916044
 20
54.5477593911
 10
760.3790736
 20
55.2233084
 10
760.2527916044
 20
55.8988574089
 10
759.8910007009
 20
56.4831697808
 10
759.3425627557
 20
56.8973308921
 10
758.6815473523
 20
57.08540598969999
 10
755.4983307727998
 20
57.08540598969999
  0
HATCH
  5
2AD
330
220
100
AcDbEntity
  8
0
  6
Continuous
 62
     2
100
AcDbHatch
 10
0.0
 20
0.0
 30
0.0
210
0.0
220
0.0
230
1.0
  2
SOLID
 70
     1
 71
     1
 91
        1
 92
        1
 93
       21
 72
     1
 10
755.4983307727998
 20
57.08540598969999
 11
755.6192910232
 21
57.322803848
 72
     1
 10
755.6192910232
 20
57.322803848
 11
756.4095031519998
 21
58.11301597679999
 72
     1
 10
756.4095031519998
 20
58.11301597679999
 11
757.4052285232
 21
58.6203633941
 72
     1
 10
757.4052285232
 20
58.6203633941
 11
758.5089986
 21
58.7951834
 72
     1
 10
758.5089986
 20
58.7951834
 11
759.6127686767998
 21
58.6203633941
 72
     1
 10
759.6127686767998
 20
58.6203633941
 11
760.608494048
 21
58.11301597679999
 72
     1
 10
760.608494048
 20
58.11301597679999
 11
761.3987061767999
 21
57.322803848
 72
     1
 10
761.3987061767999
 20
57.322803848
 11
761.9060535941001
 21
56.3270784768
 72
     1
 10
761.9060535941001
 20
56.3270784768
 11
762.0808736
 21
55.2233084
 72
     1
 10
762.0808736
 20
55.2233084
 11
761.9060535941001
 21
54.1195383232
 72
     1
 10
761.9060535941001
 20
54.1195383232
 11
761.5196664272
 21
53.36121081029999
 72
     1
 10
761.5196664272
 20
53.36121081029999
 11
758.6815473523
 21
53.36121081029999
 72
     1
 10
758.6815473523
 20
53.36121081029999
 11
759.3425627557
 21
53.5492859079
 72
     1
 10
759.3425627557
 20
53.5492859079
 11
759.8910007009
 21
53.9634470192
 72
     1
 10
759.8910007009
 20
53.9634470192
 11
760.2527916044
 21
54.5477593911
 72
     1
 10
760.2527916044
 20
54.5477593911
 11
760.3790736
 21
55.2233084
 72
     1
 10
760.3790736
 20
55.2233084
 11
760.2527916044
 21
55.8988574089
 72
     1
 10
760.2527916044
 20
55.8988574089
 11
759.8910007009
 21
56.4831697808
 72
     1
 10
759.8910007009
 20
56.4831697808
 11
759.3425627557
 21
56.8973308921
 72
     1
 10
759.3425627557
 20
56.8973308921
 11
758.6815473523
 21
57.08540598969999
 72
     1
 10
758.6815473523
 20
57.08540598969999
 11
755.4983307727998
 21
57.08540598969999
 97
        1
330
2AC
 75
     0
 76
     1
 98
        1
 10
0.0
 20
0.0
450
        0
451
        0
460
0.0
461
0.0
452
        0
462
0.0
453
        0
470

  0
LWPOLYLINE
  5
2AE
330
220
100
AcDbEntity
  8
0
  6
Continuous
 62
     2
100
AcDbPolyline
 90
       13
 70
     0
 43
0.0
 10
764.5764235999998
 20
51.6514334
 10
762.8746236
 20
51.6514334
 10
762.8746236
 20
58.7951834
 10
764.5764235999998
 20
58.7951834
 10
764.5764235999998
 20
56.4710834
 10
766.5607986
 20
56.4710834
 10
766.5607986
 20
58.7951834
 10
768.2625986
 20
58.7951834
 10
768.2625986
 20
51.6514334
 10
766.5607986
 20
51.6514334
 10
766.5607986
 20
54.7692834
 10
764.5764235999998
 20
54.7692834
 10
764.5764235999998
 20
51.6514334
  0
HATCH
  5
2AF
330
220
100
AcDbEntity
  8
0
  6
Continuous
 62
     2
100
AcDbHatch
 10
0.0
 20
0.0
 30
0.0
210
0.0
220
0.0
230
1.0
  2
SOLID
 70
     1
 71
     1
 91
        1
 92
        1
 93
       12
 72
     1
 10
764.5764235999998
 20
51.6514334
 11
762.8746236
 21
51.6514334
 72
     1
 10
762.8746236
 20
51.6514334
 11
762.8746236
 21
58.7951834
 72
     1
 10
762.8746236
 20
58.7951834
 11
764.5764235999998
 21
58.7951834
 72
     1
 10
764.5764235999998
 20
58.7951834
 11
764.5764235999998
 21
56.4710834
 72
     1
 10
764.5764235999998
 20
56.4710834
 11
766.5607986
 21
56.4710834
 72
     1
 10
766.5607986
 20
56.4710834
 11
766.5607986
 21
58.7951834
 72
     1
 10
766.5607986
 20
58.7951834
 11
768.2625986
 21
58.7951834
 72
     1
 10
768.2625986
 20
58.7951834
 11
768.2625986
 21
51.6514334
 72
     1
 10
768.2625986
 20
51.6514334
 11
766.5607986
 21
51.6514334
 72
     1
 10
766.5607986
 20
51.6514334
 11
766.5607986
 21
54.7692834
 72
     1
 10
766.5607986
 20
54.7692834
 11
764.5764235999998
 21
54.7692834
 72
     1
 10
764.5764235999998
 20
54.7692834
 11
764.5764235999998
 21
51.6514334
 97
        1
330
2AE
 75
     0
 76
     1
 98
        1
 10
0.0
 20
0.0
450
        0
451
        0
460
0.0
461
0.0
452
        0
462
0.0
453
        0
470

  0
LWPOLYLINE
  5
2B0
330
220
100
AcDbEntity
  8
0
  6
Continuous
 62
     2
100
AcDbPolyline
 90
        7
 70
     0
 43
0.0
 10
773.0250986000002
 20
51.6514334
 10
769.0563486000002
 20
51.6514334
 10
769.0563486000002
 20
58.7951834
 10
770.7581486
 20
58.7951834
 10
770.7581486
 20
53.3532334
 10
773.0250986000002
 20
53.3532334
 10
773.0250986000002
 20
51.6514334
  0
HATCH
  5
2B1
330
220
100
AcDbEntity
  8
0
  6
Continuous
 62
     2
100
AcDbHatch
 10
0.0
 20
0.0
 30
0.0
210
0.0
220
0.0
230
1.0
  2
SOLID
 70
     1
 71
     1
 91
        1
 92
        1
 93
        6
 72
     1
 10
773.0250986000002
 20
51.6514334
 11
769.0563486000002
 21
51.6514334
 72
     1
 10
769.0563486000002
 20
51.6514334
 11
769.0563486000002
 21
58.7951834
 72
     1
 10
769.0563486000002
 20
58.7951834
 11
770.7581486
 21
58.7951834
 72
     1
 10
770.7581486
 20
58.7951834
 11
770.7581486
 21
53.3532334
 72
     1
 10
770.7581486
 20
53.3532334
 11
773.0250986000002
 21
53.3532334
 72
     1
 10
773.0250986000002
 20
53.3532334
 11
773.0250986000002
 21
51.6514334
 97
        1
330
2B0
 75
     0
 76
     1
 98
        1
 10
0.0
 20
0.0
450
        0
451
        0
460
0.0
461
0.0
452
        0
462
0.0
453
        0
470

  0
LWPOLYLINE
  5
2B2
330
220
100
AcDbEntity
  8
0
  6
Continuous
 62
     2
100
AcDbPolyline
 90
       13
 70
     0
 43
0.0
 10
777.7875986
 20
51.6514334
 10
773.8188486
 20
51.6514334
 10
773.8188486
 20
58.7951834
 10
777.7875986
 20
58.7951834
 10
777.7875986
 20
57.0933834
 10
775.5206486
 20
57.0933834
 10
775.5206486
 20
55.8757709
 10
777.7875986
 20
55.8757709
 10
777.7875986
 20
54.5708459
 10
775.5206486
 20
54.5708459
 10
775.5206486
 20
53.3532334
 10
777.7875986
 20
53.3532334
 10
777.7875986
 20
51.6514334
  0
HATCH
  5
2B3
330
220
100
AcDbEntity
  8
0
  6
Continuous
 62
     2
100
AcDbHatch
 10
0.0
 20
0.0
 30
0.0
210
0.0
220
0.0
230
1.0
  2
SOLID
 70
     1
 71
     1
 91
        1
 92
        1
 93
       12
 72
     1
 10
777.7875986
 20
51.6514334
 11
773.8188486
 21
51.6514334
 72
     1
 10
773.8188486
 20
51.6514334
 11
773.8188486
 21
58.7951834
 72
     1
 10
773.8188486
 20
58.7951834
 11
777.7875986
 21
58.7951834
 72
     1
 10
777.7875986
 20
58.7951834
 11
777.7875986
 21
57.0933834
 72
     1
 10
777.7875986
 20
57.0933834
 11
775.5206486
 21
57.0933834
 72
     1
 10
775.5206486
 20
57.0933834
 11
775.5206486
 21
55.8757709
 72
     1
 10
775.5206486
 20
55.8757709
 11
777.7875986
 21
55.8757709
 72
     1
 10
777.7875986
 20
55.8757709
 11
777.7875986
 21
54.5708459
 72
     1
 10
777.7875986
 20
54.5708459
 11
775.5206486
 21
54.5708459
 72
     1
 10
775.5206486
 20
54.5708459
 11
775.5206486
 21
53.3532334
 72
     1
 10
775.5206486
 20
53.3532334
 11
777.7875986
 21
53.3532334
 72
     1
 10
777.7875986
 20
53.3532334
 11
777.7875986
 21
51.6514334
 97
        1
330
2B2
 75
     0
 76
     1
 98
        1
 10
0.0
 20
0.0
450
        0
451
        0
460
0.0
461
0.0
452
        0
462
0.0
453
        0
470

  0
ENDBLK
  5
2B4
330
220
100
AcDbEntity
  8
0
  6
ByBlock
 62
     0
100
AcDbBlockEnd
  0
BLOCK
  5
EF3
330
EF1
100
AcDbEntity
  8
0
100
AcDbBlockBegin
  2
GENAXEH
 70
     0
 10
0.0
 20
0.0
 30
0.0
  3
GENAXEH
  1

  0
LINE
  5
EF2
330
EF1
100
AcDbEntity
  8
0
100
AcDbLine
 10
-1.0
 20
0.0
 30
0.0
 11
1.0
 21
0.0
 31
0.0
  0
ENDBLK
  5
EF4
330
EF1
100
AcDbEntity
  8
0
100
AcDbBlockEnd
  0
ENDSEC
  0
SECTION
  2
ENTITIES
  0
LINE
  5
B17
330
216
100
AcDbEntity
  8
0
  6
Continuous
 62
     7
100
AcDbLine
 10
1397.8332454769
 20
-126.6894092549
 30
0.0
 11
1398.009986223
 21
-125.8203049612
 31
0.0
  0
LINE
  5
B18
330
216
100
AcDbEntity
  8
0
  6
Continuous
 62
     7
100
AcDbLine
 10
1404.2430725192
 20
-128.2416744136
 30
0.0
 11
1404.2430725192
 21
-120.2416744136
 31
0.0
  0
LINE
  5
B19
330
216
100
AcDbEntity
  8
0
  6
Continuous
 62
     7
100
AcDbLine
 10
1397.8333311187
 20
-126.6894129654
 30
0.0
 11
1397.7519805433
 21
-128.2416744136
 31
0.0
  0
LINE
  5
B1A
330
216
100
AcDbEntity
  8
0
  6
Continuous
 62
     7
100
AcDbLine
 10
1399.6813898836
 20
-121.2286441986
 30
0.0
 11
1398.0101418606
 21
-125.8203604042
 31
0.0
  0
LINE
  5
B1B
330
216
100
AcDbEntity
  8
0
  6
Continuous
 62
     7
100
AcDbLine
 10
1436.3406626127
 20
-303.7650810604
 30
0.0
 11
1421.1222029671
 21
-130.4792152001
 31
0.0
  0
LWPOLYLINE
  5
B1C
330
216
100
AcDbEntity
  8
0
  6
Continuous
 62
     7
100
AcDbPolyline
 90
       18
 70
     0
 43
0.0
 10
1436.3404178397
 20
-303.7622939392
 10
1436.5349112624
 20
-305.2520572274
 10
1436.8575516004
 20
-306.7396763423
 10
1437.3078501805
 20
-308.206812743
 10
1437.8831484557
 20
-309.6327759632
 10
1438.5818621342
 20
-311.0062663395
 10
1439.4007418552
 20
-312.32340646
 10
1440.3301019431
 20
-313.5692808218
 10
1441.3597411834
 20
-314.7284228739
 10
1442.4883715648
 20
-315.7942043236
 10
1443.7041041353
 20
-316.7557176706
 10
1444.990634247
 20
-317.6063306995
 10
1446.3410200454
 20
-318.3443306736
 10
1447.7384449818
 20
-318.9602969034
 10
1449.1681390968
 20
-319.4487010374
 10
1450.6281241234
 20
-319.813886651
 10
1452.1068655435
 20
-320.0561006726
 10
1453.6432931187
 20
-320.1764981055
  0
LINE
  5
B1D
330
216
100
AcDbEntity
  8
0
  6
Continuous
 62
     7
100
AcDbLine
 10
1446.5649220905
 20
-130.4624271888
 30
0.0
 11
1461.547403393599
 21
-301.0224285995
 31
0.0
  0
LINE
  5
B1E
330
216
100
AcDbEntity
  8
0
  6
Continuous
 62
     7
100
AcDbLine
 10
1453.550390675
 20
-317.3327193492
 30
0.0
 11
1453.6448009369
 21
-320.1875260233
 31
0.0
  0
LWPOLYLINE
  5
B1F
330
216
100
AcDbEntity
  8
0
  6
Continuous
 62
     7
100
AcDbPolyline
 90
       18
 70
     0
 43
0.0
 10
2141.5521443623
 20
-323.6903486674
 10
2142.969432391
 20
-323.5840401065
 10
2144.4522936452
 20
-323.3510670061999
 10
2145.9181664105
 20
-322.9943117324
 10
2147.3552457052
 20
-322.5133912964
 10
2148.7613303243
 20
-321.9036224736
 10
2150.1215417717
 20
-321.169899568
 10
2151.4186935604
 20
-320.3216753735
 10
2152.6453614013
 20
-319.3609017714
 10
2153.7848510466
 20
-318.2942982166
 10
2154.824769397301
 20
-317.1325189962
 10
2155.763627426
 20
-315.8823863141
 10
2156.5910573724
 20
-314.559611823
 10
2157.2972112655
 20
-313.1793597208
 10
2157.8785498186
 20
-311.7457840508
 10
2158.3333577275
 20
-310.2704496919
 10
2158.6589811316
 20
-308.7743279927
 10
2158.8549540035
 20
-307.2760631037
  0
LINE
  5
B20
330
216
100
AcDbEntity
  8
0
  6
Continuous
 62
     7
100
AcDbLine
 10
2141.5530426895
 20
-323.6902814079
 30
0.0
 11
2141.552164166
 21
-323.6903199026
 31
0.0
  0
LINE
  5
B21
330
216
100
AcDbEntity
  8
0
  6
Continuous
 62
     7
100
AcDbLine
 10
2065.6894726228
 20
-326.339503467
 30
0.0
 11
2141.552164166
 21
-323.6903199026
 31
0.0
  0
LINE
  5
B22
330
216
100
AcDbEntity
  8
0
  6
Continuous
 62
     7
100
AcDbLine
 10
1453.6448181459
 20
-320.1875266243
 30
0.0
 11
1453.6444605962
 21
-320.187503565
 31
0.0
  0
LINE
  5
B23
330
216
100
AcDbEntity
  8
0
  6
Continuous
 62
     7
100
AcDbLine
 10
1687.2974224074
 20
-304.1135000169
 30
0.0
 11
1712.1978124695
 21
-134.6543213869
 31
0.0
  0
LWPOLYLINE
  5
B24
330
216
100
AcDbEntity
  8
0
  6
Continuous
 62
     7
100
AcDbPolyline
 90
       39
 70
     0
 43
0.0
 10
1791.0502558309
 20
-325.4784492988
 10
1791.3803867265
 20
-325.4412954022
 10
1791.7633125434
 20
-325.3906357655
 10
1792.1918774464
 20
-325.324179854
 10
1792.6460623147
 20
-325.2423445355
 10
1793.1224870005
 20
-325.143678279
 10
1793.6241853219
 20
-325.0252941585
 10
1794.140070233
 20
-324.8876789957
 10
1794.6679588929
 20
-324.7296844282
 10
1795.2085246569
 20
-324.549242722
 10
1795.7547546152
 20
-324.3469359934
 10
1796.3059301295
 20
-324.1215586669
 10
1796.8606027774
 20
-323.8725588424
 10
1797.4107849744
 20
-323.6028628218
 10
1797.9527424226
 20
-323.3141764754
 10
1798.4880547086
 20
-323.0054887713
 10
1799.0168140471
 20
-322.6762696999
 10
1799.5376370174
 20
-322.3267686619
 10
1800.0494429201
 20
-321.9570298095
 10
1800.5525531674
 20
-321.5659164727
 10
1801.04553653
 20
-321.1534000137
 10
1801.5268677286
 20
-320.7195316767
 10
1801.9966896106
 20
-320.2633268177
 10
1802.4538053401
 20
-319.7854409139
 10
1802.8970653717
 20
-319.2865277406
 10
1803.3265524439
 20
-318.7656913802
 10
1803.7407388375
 20
-318.2237061987
 10
1804.1381244114
 20
-317.6613290911
 10
1804.5183211487
 20
-317.0775101514
 10
1804.8792353505
 20
-316.4734417496
 10
1805.2190135907
 20
-315.8499195311
 10
1805.5371111474
 20
-315.2052404778
 10
1805.8318594014
 20
-314.5409498429
 10
1806.1020966426
 20
-313.8580905228
 10
1806.3478046472
 20
-313.1542486065
 10
1806.567071161
 20
-312.4314511153
 10
1806.7581591393
 20
-311.6915212862
 10
1806.9201580885
 20
-310.9321215304
 10
1807.0501000613
 20
-310.1596523977
  0
LINE
  5
B25
330
216
100
AcDbEntity
  8
0
  6
Continuous
 62
     7
100
AcDbLine
 10
1790.7640220168
 20
-325.5058441412
 30
0.0
 11
1791.0502558309
 21
-325.4784492988
 31
0.0
  0
LWPOLYLINE
  5
B26
330
216
100
AcDbEntity
  8
0
  6
Continuous
 62
     7
100
AcDbPolyline
 90
        6
 70
     0
 43
0.0
 10
1789.8686979786
 20
-325.5640522463
 10
1790.0009241425
 20
-325.5578927081
 10
1790.1482935277
 20
-325.550100585
 10
1790.3139963905
 20
-325.5400956763
 10
1790.5172194009
 20
-325.5259381878
 10
1790.7640220168
 20
-325.5058441412
  0
LINE
  5
B27
330
216
100
AcDbEntity
  8
0
  6
Continuous
 62
     7
100
AcDbLine
 10
1789.6456189925
 20
-325.5728387887
 30
0.0
 11
1789.8686979786
 21
-325.5640522463
 31
0.0
  0
LINE
  5
B28
330
216
100
AcDbEntity
  8
0
  6
Continuous
 62
     7
100
AcDbLine
 10
1767.6894726229
 20
-326.339503467
 30
0.0
 11
1789.6360697815
 21
-325.5731114065
 31
0.0
  0
LINE
  5
B29
330
216
100
AcDbEntity
  8
0
  6
Continuous
 62
     7
100
AcDbLine
 10
2056.7519289132
 20
-332.216906013
 30
0.0
 11
1936.7519289132
 21
-332.216906013
 31
0.0
  0
LINE
  5
B2A
330
216
100
AcDbEntity
  8
0
  6
Continuous
 62
     7
100
AcDbLine
 10
1758.7519289133
 20
-332.216906013
 30
0.0
 11
1638.7519289133
 21
-332.216906013
 31
0.0
  0
LINE
  5
B2B
330
216
100
AcDbEntity
  8
0
  6
Continuous
 62
     7
100
AcDbLine
 10
1634.1959083167
 20
-329.2766818075
 30
0.0
 11
1763.3079495099
 21
-329.2766818075
 31
0.0
  0
LINE
  5
B2C
330
216
100
AcDbEntity
  8
0
  6
Continuous
 62
     7
100
AcDbLine
 10
1932.1959083166
 20
-329.2766818075
 30
0.0
 11
2061.3079495098
 21
-329.2766818075
 31
0.0
  0
LINE
  5
B2D
330
216
100
AcDbEntity
  8
0
  6
Continuous
 62
     7
100
AcDbLine
 10
2065.6894726228
 20
-326.339503467
 30
0.0
 11
1927.8143852036
 21
-326.339503467
 31
0.0
  0
LINE
  5
B2E
330
216
100
AcDbEntity
  8
0
  6
Continuous
 62
     7
100
AcDbLine
 10
1767.6894726229
 20
-326.339503467
 30
0.0
 11
1629.8143852037
 21
-326.339503467
 31
0.0
  0
LINE
  5
B2F
330
216
100
AcDbEntity
  8
0
  6
Continuous
 62
     7
100
AcDbLine
 10
1629.8143852037
 20
-326.339503467
 30
0.0
 11
1453.6448009369
 21
-320.1875260233
 31
0.0
  0
LINE
  5
B30
330
216
100
AcDbEntity
  8
0
  6
Continuous
 62
     7
100
AcDbLine
 10
1906.4845880416
 20
-325.5945642993
 30
0.0
 11
1927.8143852036
 21
-326.339503467
 31
0.0
  0
LINE
  5
B31
330
216
100
AcDbEntity
  8
0
  6
Continuous
 62
     7
100
AcDbLine
 10
1830.5454432917
 20
-194.1603620635
 30
0.0
 11
1832.3823111951
 21
-159.110834523
 31
0.0
  0
LINE
  5
B32
330
216
100
AcDbEntity
  8
0
  6
Continuous
 62
     7
100
AcDbLine
 10
1832.7180766352
 20
-151.5846665449
 30
0.0
 11
1826.634141188099
 21
-194.1603620635
 31
0.0
  0
LINE
  5
B33
330
216
100
AcDbEntity
  8
0
  6
Continuous
 62
     7
100
AcDbLine
 10
1829.7482446918
 20
-151.3172945976
 30
0.0
 11
1807.0501000613
 21
-310.1596523977
 31
0.0
  0
LINE
  5
B34
330
216
100
AcDbEntity
  8
0
  6
Continuous
 62
     7
100
AcDbLine
 10
1825.1445402604
 20
-201.7416744136
 30
0.0
 11
1830.2474534835
 21
-201.7416744136
 31
0.0
  0
LINE
  5
B35
330
216
100
AcDbEntity
  8
0
  6
Continuous
 62
     7
100
AcDbLine
 10
1832.7180766352
 20
-151.5846665449
 30
0.0
 11
1832.7180766352
 21
-148.7416744136
 31
0.0
  0
LINE
  5
B36
330
216
100
AcDbEntity
  8
0
  6
Continuous
 62
     7
100
AcDbLine
 10
1834.7524781278
 20
-148.7416744136
 30
0.0
 11
1834.7524781278
 21
-155.1157582585
 31
0.0
  0
LINE
  5
B37
330
216
100
AcDbEntity
  8
0
  6
Continuous
 62
     7
100
AcDbLine
 10
1841.7524781278
 20
-154.2678423917
 30
0.0
 11
1841.7524781278
 21
-151.7416744136
 31
0.0
  0
LINE
  5
B38
330
216
100
AcDbEntity
  8
0
  6
Continuous
 62
     7
100
AcDbLine
 10
1832.244712553
 20
-199.8463463261
 30
0.0
 11
1834.3795702646
 21
-159.110834523
 31
0.0
  0
LINE
  5
B39
330
216
100
AcDbEntity
  8
0
  6
Continuous
 62
     7
100
AcDbLine
 10
1830.5454432917
 20
-194.1603620635
 30
0.0
 11
1826.634141188099
 21
-194.1603620635
 31
0.0
  0
LINE
  5
B3A
330
216
100
AcDbEntity
  8
0
  6
Continuous
 62
     7
100
AcDbLine
 10
1839.7524781278
 20
-156.2678423917
 30
0.0
 11
1837.3754588688
 21
-156.2678423917
 31
0.0
  0
LINE
  5
B3B
330
216
100
AcDbEntity
  8
0
  6
Continuous
 62
     7
100
AcDbLine
 10
1832.7180766352
 20
-151.5846665449
 30
0.0
 11
1834.7524781278
 21
-151.5846665449
 31
0.0
  0
LINE
  5
B3C
330
216
100
AcDbEntity
  8
0
  6
Continuous
 62
     7
100
AcDbLine
 10
1924.553573781
 20
-148.7416744136
 30
0.0
 11
1772.5578573723
 21
-148.7416744136
 31
0.0
  0
LWPOLYLINE
  5
B3D
330
216
100
AcDbEntity
  8
0
  6
Continuous
 62
     7
100
AcDbPolyline
 90
       41
 70
     0
 43
0.0
 10
1888.9794561205
 20
-310.1829406698
 10
1889.0381883598
 20
-310.5564573207
 10
1889.2220241735
 20
-311.4953883835
 10
1889.450883516
 20
-312.4073411982
 10
1889.7212386824
 20
-313.290184198
 10
1890.031972142
 20
-314.1474410515
 10
1890.3805341427
 20
-314.976430597
 10
1890.7639165824
 20
-315.773907777
 10
1891.1821653605
 20
-316.5430586554
 10
1891.6321775812
 20
-317.2823773084
 10
1892.1096982689
 20
-317.9892868068
 10
1892.6134689088
 20
-318.6653267796
 10
1893.1406396022
 20
-319.3091479942
 10
1893.6882100262
 20
-319.9192459028
 10
1894.2557571186
 20
-320.4967659645
 10
1894.8411295364
 20
-321.0406357258
 10
1895.4418201797
 20
-321.5500423512
 10
1896.0570463582
 20
-322.0268375269
 10
1896.6844777277
 20
-322.4714180145
 10
1897.3211361113
 20
-322.8836379592
 10
1897.9656633633
 20
-323.2643207588
 10
1898.6183148561
 20
-323.6148566035
 10
1899.2744925468
 20
-323.9338769869
 10
1899.925546085
 20
-324.2188214276
 10
1900.5705839162
 20
-324.4712112631
 10
1901.2066424833
 20
-324.6921248208
 10
1901.821930072
 20
-324.8806918065
 10
1902.4181282519
 20
-325.0408199466
 10
1902.9912241193
 20
-325.1745170033
 10
1903.5213870519
 20
-325.2810469217
 10
1904.0079502864
 20
-325.3646454501
 10
1904.451946115
 20
-325.4293280385
 10
1904.8370716302
 20
-325.4766350898
 10
1905.1524172295
 20
-325.5094113142
 10
1905.4117309281
 20
-325.532450783
 10
1905.6353607232
 20
-325.5495858831
 10
1905.8232377844
 20
-325.5621170886
 10
1905.9767703435
 20
-325.5711697685
 10
1906.1173246952
 20
-325.578586662
 10
1906.2491311502
 20
-325.5848478886
 10
1906.4845880416
 20
-325.5945642993
  0
LINE
  5
B3E
330
216
100
AcDbEntity
  8
0
  6
Continuous
 62
     7
100
AcDbLine
 10
1888.9796912011
 20
-310.1828570125
 30
0.0
 11
1865.7857789304
 21
-151.3089810505
 31
0.0
  0
LINE
  5
B3F
330
216
100
AcDbEntity
  8
0
  6
Continuous
 62
     7
100
AcDbLine
 10
2197.7519479906
 20
-128.2416744136
 30
0.0
 11
1397.7520130194
 21
-128.2416744136
 31
0.0
  0
LINE
  5
B40
330
216
100
AcDbEntity
  8
0
  6
Continuous
 62
     7
100
AcDbLine
 10
2197.4938199915
 20
-125.8203599265
 30
0.0
 11
1398.0101408962
 21
-125.8203603854
 31
0.0
  0
LINE
  5
B41
330
216
100
AcDbEntity
  8
0
  6
Continuous
 62
     7
100
AcDbLine
 10
2194.4130322718
 20
-120.2416744136
 30
0.0
 11
1401.0909416488
 21
-120.2416744136
 31
0.0
  0
LINE
  5
B42
330
216
100
AcDbEntity
  8
0
  6
Continuous
 62
     7
100
AcDbLine
 10
1397.8333300838
 20
-126.6894126083
 30
0.0
 11
2197.6351049975
 21
-126.6893597987
 31
0.0
  0
LINE
  5
B43
330
216
100
AcDbEntity
  8
0
  6
Continuous
 62
     7
100
AcDbLine
 10
1399.681388702
 20
-121.2286433648
 30
0.0
 11
2195.8225723822
 21
-121.2286433579
 31
0.0
  0
LINE
  5
B44
330
216
100
AcDbEntity
  8
0
  6
Continuous
 62
     7
100
AcDbLine
 10
1985.2681491324
 20
-134.6638219409
 30
0.0
 11
2011.1499779008
 21
-304.2177947104
 31
0.0
  0
LINE
  5
B45
330
216
100
AcDbEntity
  8
0
  6
Continuous
 62
     7
100
AcDbLine
 10
2134.2942932467
 20
-303.249329818
 30
0.0
 11
2149.4766064921
 21
-130.457740078
 31
0.0
  0
LINE
  5
B46
330
216
100
AcDbEntity
  8
0
  6
Continuous
 62
     7
100
AcDbLine
 10
2197.7519815751
 20
-128.2416742687
 30
0.0
 11
2197.6706310138
 21
-126.6894128196
 31
0.0
  0
LINE
  5
B47
330
216
100
AcDbEntity
  8
0
  6
Continuous
 62
     7
100
AcDbLine
 10
2191.2608885645
 20
-120.2416744136
 30
0.0
 11
2191.2608885674
 21
-128.2416744136
 31
0.0
  0
LINE
  5
B48
330
216
100
AcDbEntity
  8
0
  6
Continuous
 62
     7
100
AcDbLine
 10
2174.3817580446
 20
-130.4792160529
 30
0.0
 11
2158.8550452031
 21
-307.2750246534
 31
0.0
  0
LINE
  5
B49
330
216
100
AcDbEntity
  8
0
  6
Continuous
 62
     7
100
AcDbLine
 10
2197.4938201646
 20
-125.8203602754
 30
0.0
 11
2195.822572548101
 21
-121.228643813
 31
0.0
  0
LINE
  5
B4A
330
216
100
AcDbEntity
  8
0
  6
Continuous
 62
     7
100
AcDbLine
 10
2197.6706315887
 20
-126.6894134677
 30
0.0
 11
2197.4940648757
 21
-125.820271685
 31
0.0
  0
ARC
  5
C5E
330
216
100
AcDbEntity
  8
0
  6
Continuous
 62
     7
100
AcDbCircle
 10
1789.2377982052
 20
-307.5673040374
 30
0.0
 40
17.9999546509
100
AcDbArc
 50
271.9921537814
 51
351.7194827482
  0
ARC
  5
C5F
330
216
100
AcDbEntity
  8
0
  6
Continuous
 62
     7
100
AcDbCircle
 10
1454.0182122985
 20
-299.3417693254
 30
0.0
 40
17.99688591309999
100
AcDbArc
 50
185.0260211077
 51
268.5134584426
  0
ARC
  5
C60
330
216
100
AcDbEntity
  8
0
  6
Continuous
 62
     7
100
AcDbCircle
 10
1789.6135443761
 20
-304.9777784394
 30
0.0
 40
17.9944998276
100
AcDbArc
 50
271.0832025456
 51
351.8507273082
  0
ARC
  5
C61
330
216
100
AcDbEntity
  8
0
  6
Continuous
 62
     7
100
AcDbCircle
 10
1758.7519289133
 20
-327.216906013
 30
0.0
 40
5.0
100
AcDbArc
 50
270.0
 51
335.6722858621
  0
ARC
  5
C62
330
216
100
AcDbEntity
  8
0
  6
Continuous
 62
     7
100
AcDbCircle
 10
1638.7519289133
 20
-327.216906013
 30
0.0
 40
5.0
100
AcDbArc
 50
204.3277141379
 51
270.0
  0
ARC
  5
C63
330
216
100
AcDbEntity
  8
0
  6
Continuous
 62
     7
100
AcDbCircle
 10
1767.8639701064
 20
-331.3364576021
 30
0.0
 40
5.0
100
AcDbArc
 50
92.0
 51
155.6722858620999
  0
ARC
  5
C64
330
216
100
AcDbEntity
  8
0
  6
Continuous
 62
     7
100
AcDbCircle
 10
1629.6398877202
 20
-331.3364576021
 30
0.0
 40
5.0
100
AcDbArc
 50
24.3277141379
 51
88.0
  0
ARC
  5
C65
330
216
100
AcDbEntity
  8
0
  6
Continuous
 62
     7
100
AcDbCircle
 10
1418.1337058262
 20
-130.7416744136
 30
0.0
 40
3.0
100
AcDbArc
 50
5.0190018175
 51
56.544903988
  0
ARC
  5
C66
330
216
100
AcDbEntity
  8
0
  6
Continuous
 62
     7
100
AcDbCircle
 10
1400.8292197229
 20
-126.8464208342
 30
0.0
 40
3.0
100
AcDbArc
 50
160.0
 51
177.0
  0
ARC
  5
C67
330
216
100
AcDbEntity
  8
0
  6
Continuous
 62
     7
100
AcDbCircle
 10
1401.0899939885
 20
-121.7419299597
 30
0.0
 40
1.499999959
100
AcDbArc
 50
89.96429835309998
 51
159.9786034799
  0
ARC
  5
C68
330
216
100
AcDbEntity
  8
0
  6
Continuous
 62
     7
100
AcDbCircle
 10
1906.789895735
 20
-307.5780999959
 30
0.0
 40
17.999915414
100
AcDbArc
 50
188.3205749042
 51
268.0104474872
  0
ARC
  5
C69
330
216
100
AcDbEntity
  8
0
  6
Continuous
 62
     7
100
AcDbCircle
 10
1906.4157370219
 20
-305.058283906
 30
0.0
 40
17.9945026519
100
AcDbArc
 50
188.3604517552999
 51
268.9075685334
  0
ARC
  5
C6A
330
216
100
AcDbEntity
  8
0
  6
Continuous
 62
     7
100
AcDbCircle
 10
1936.7519289132
 20
-327.216906013
 30
0.0
 40
5.0
100
AcDbArc
 50
204.327714138
 51
270.0
  0
ARC
  5
C6B
330
216
100
AcDbEntity
  8
0
  6
Continuous
 62
     7
100
AcDbCircle
 10
1927.6398877201
 20
-331.3364576021
 30
0.0
 40
5.0
100
AcDbArc
 50
24.327714138
 51
88.0
  0
ARC
  5
C6C
330
216
100
AcDbEntity
  8
0
  6
Continuous
 62
     7
100
AcDbCircle
 10
1837.7251869333
 20
-159.4340539892
 30
0.0
 40
5.352643457
100
AcDbArc
 50
174.1876999315
 51
176.5380873104
  0
ARC
  5
C6D
330
216
100
AcDbEntity
  8
0
  6
Continuous
 62
     7
100
AcDbCircle
 10
1837.2956149071
 20
-159.3235715206
 30
0.0
 40
4.9073449238
100
AcDbArc
 50
139.9268808702
 51
146.1699250254
  0
ARC
  5
C6E
330
216
100
AcDbEntity
  8
0
  6
Continuous
 62
     7
100
AcDbCircle
 10
1832.7180766352
 20
-151.7416744136
 30
0.0
 40
3.0
100
AcDbArc
 50
90.0
 51
171.8676645852
  0
ARC
  5
C6F
330
216
100
AcDbEntity
  8
0
  6
Continuous
 62
     7
100
AcDbCircle
 10
1825.1445402604
 20
-204.7416744136
 30
0.0
 40
3.0
100
AcDbArc
 50
90.0
 51
171.8676645852
  0
ARC
  5
C70
330
216
100
AcDbEntity
  8
0
  6
Continuous
 62
     7
100
AcDbCircle
 10
1844.7524781278
 20
-151.7416744136
 30
0.0
 40
3.0
100
AcDbArc
 50
90.0000000001
 51
180.0
  0
ARC
  5
C71
330
216
100
AcDbEntity
  8
0
  6
Continuous
 62
     7
100
AcDbCircle
 10
1862.8171468459
 20
-151.7416744136
 30
0.0
 40
3.0
100
AcDbArc
 50
8.292757654099997
 51
90.0
  0
ARC
  5
C72
330
216
100
AcDbEntity
  8
0
  6
Continuous
 62
     7
100
AcDbCircle
 10
1837.3754588688
 20
-159.2678423917
 30
0.0
 40
3.0
100
AcDbArc
 50
90.0
 51
177.0
  0
ARC
  5
C73
330
216
100
AcDbEntity
  8
0
  6
Continuous
 62
     7
100
AcDbCircle
 10
1839.7524781279
 20
-154.2678423917
 30
0.0
 40
2.0
100
AcDbArc
 50
270.0
 51
360.0
  0
ARC
  5
C74
330
216
100
AcDbEntity
  8
0
  6
Continuous
 62
     7
100
AcDbCircle
 10
1830.2474534835
 20
-199.7416744136
 30
0.0
 40
2.0
100
AcDbArc
 50
270.0
 51
357.0
  0
ARC
  5
C75
330
216
100
AcDbEntity
  8
0
  6
Continuous
 62
     7
100
AcDbCircle
 10
2141.2839703707
 20
-301.6600652800998
 30
0.0
 40
17.9951552163
100
AcDbArc
 50
271.0979926406
 51
354.9650854123
  0
ARC
  5
C76
330
216
100
AcDbEntity
  8
0
  6
Continuous
 62
     7
100
AcDbCircle
 10
2056.7519289132
 20
-327.216906013
 30
0.0
 40
5.0
100
AcDbArc
 50
270.0
 51
335.672285862
  0
ARC
  5
C77
330
216
100
AcDbEntity
  8
0
  6
Continuous
 62
     7
100
AcDbCircle
 10
2065.8639701063
 20
-331.3364576021
 30
0.0
 40
5.0
100
AcDbArc
 50
92.0
 51
155.672285862
  0
ARC
  5
C78
330
216
100
AcDbEntity
  8
0
  6
Continuous
 62
     7
100
AcDbCircle
 10
2177.3702552604
 20
-130.7416744136
 30
0.0
 40
3.0
100
AcDbArc
 50
123.4036623891999
 51
174.9809981825
  0
ARC
  5
C79
330
216
100
AcDbEntity
  8
0
  6
Continuous
 62
     7
100
AcDbCircle
 10
2194.6747413637
 20
-126.8464208342
 30
0.0
 40
3.0
100
AcDbArc
 50
3.0
 51
20.0
  0
ARC
  5
C7A
330
216
100
AcDbEntity
  8
0
  6
Continuous
 62
     7
100
AcDbCircle
 10
2194.4139670872
 20
-121.7419299837
 30
0.0
 40
1.499999959
100
AcDbArc
 50
20.0213972404
 51
90.03570123020002
  0
ARC
  5
C7B
330
216
100
AcDbEntity
  8
0
  6
Continuous
 62
     7
100
AcDbCircle
 10
2007.1413503097
 20
8035.187567138001
 30
0.0
 40
8339.406325292101
100
AcDbArc
 50
270.0275412233001
 51
270.8736368895
  0
ARC
  5
C7C
330
216
100
AcDbEntity
  8
0
  6
Continuous
 62
     7
100
AcDbCircle
 10
2002.9787485408
 20
8002.869737730801
 30
0.0
 40
8323.420592454002
100
AcDbArc
 50
270.050299238
 51
270.895108235
  0
SPLINE
  5
DD0
330
216
100
AcDbEntity
  8
0
  6
Continuous
 62
     7
100
AcDbSpline
210
0.0
220
0.0
230
1.0
 70
     8
 71
     3
 72
     9
 73
     5
 74
     0
 42
0.0000000001
 43
0.0000000001
 40
0.0
 40
0.0
 40
0.0
 40
0.0
 40
0.7492332411
 40
1.0
 40
1.0
 40
1.0
 40
1.0
 10
1789.63602755
 20
-325.5731755528
 30
0.0
 10
1789.69301967
 20
-325.5711761715001
 30
0.0
 10
1789.7398643618
 20
-325.5483092437
 30
0.0
 10
1789.8645528092
 20
-325.5754385934
 30
0.0
 10
1789.8635241028
 20
-325.5563794603
 30
0.0
  0
SPLINE
  5
DD1
330
216
100
AcDbEntity
  8
0
  6
Continuous
 62
     7
100
AcDbSpline
210
0.0
220
0.0
230
1.0
 70
     8
 71
     3
 72
    11
 73
     7
 74
     0
 42
0.0000000001
 43
0.0000000001
 40
0.0
 40
0.0
 40
0.0
 40
0.0
 40
0.2581308629
 40
0.5129278431000001
 40
0.7612786317
 40
1.0
 40
1.0
 40
1.0
 40
1.0
 10
1712.2080887611
 20
-134.6543838312999
 30
0.0
 10
1717.3000488326
 20
-136.3044055682
 30
0.0
 10
1727.365100465499
 20
-139.7435228116
 30
0.0
 10
1742.510381855
 20
-144.2278624021
 30
0.0
 10
1757.5209056198
 20
-147.6331856259
 30
0.0
 10
1767.6163892907
 20
-148.7424124247
 30
0.0
 10
1772.5665401914
 20
-148.7416736382
 30
0.0
  0
SPLINE
  5
DD2
330
216
100
AcDbEntity
  8
0
  6
Continuous
 62
     7
100
AcDbSpline
210
0.0
220
0.0
230
1.0
 70
     8
 71
     3
 72
    14
 73
    10
 74
     0
 42
0.0000000001
 43
0.0000000001
 40
0.0
 40
0.0
 40
0.0
 40
0.0
 40
0.3672225647
 40
0.5455805099000001
 40
0.7047414122
 40
0.8337878168999999
 40
0.9268220820999999
 40
0.9808236132999999
 40
1.0
 40
1.0
 40
1.0
 40
1.0
 10
1826.634141188099
 20
-194.1603620676
 30
0.0
 10
1826.2717243178
 20
-194.1087164779
 30
0.0
 10
1825.7321530764
 20
-194.0367297342
 30
0.0
 10
1825.0353119891
 20
-193.956096956
 30
0.0
 10
1824.5699610586
 20
-193.9084891585
 30
0.0
 10
1824.1981866092
 20
-193.8798374834
 30
0.0
 10
1823.9070119782
 20
-193.861777942
 30
0.0
 10
1823.7692005884
 20
-193.8703989199
 30
0.0
 10
1823.6670403647
 20
-193.8740695855
 30
0.0
 10
1823.66430958
 20
-193.8929901641
 30
0.0
  0
SPLINE
  5
DD3
330
216
100
AcDbEntity
  8
0
  6
Continuous
 62
     7
100
AcDbSpline
210
0.0
220
0.0
230
1.0
 70
     8
 71
     3
 72
    18
 73
    14
 74
     0
 42
0.0000000001
 43
0.0000000001
 40
0.0
 40
0.0
 40
0.0
 40
0.0
 40
0.0048236992
 40
0.019300478
 40
0.0432485952
 40
0.0764565181
 40
0.1185366299
 40
0.1690297669
 40
0.2933143355
 40
0.4443840823
 40
0.6165881786
 40
0.8041534998000001
 40
1.0
 40
1.0
 40
1.0
 40
1.0
 10
1825.1445402604
 20
-201.7416744136
 30
0.0
 10
1825.1321171457
 20
-201.7416744136
 30
0.0
 10
1825.17504422
 20
-201.6627070593
 30
0.0
 10
1825.1656199433
 20
-201.5827474502
 30
0.0
 10
1825.2206410149
 20
-201.385535793
 30
0.0
 10
1825.2621351131
 20
-201.1419520831
 30
0.0
 10
1825.3270158271
 20
-200.8212515138
 30
0.0
 10
1825.4323025545
 20
-200.2742820116
 30
0.0
 10
1825.5959041113
 20
-199.4502263923
 30
0.0
 10
1825.8204863756
 20
-198.32005099
 30
0.0
 10
1826.0756439591
 20
-197.0292685471
 30
0.0
 10
1826.3479277733
 20
-195.6245006503
 30
0.0
 10
1826.5361414089
 20
-194.6551396608
 30
0.0
 10
1826.634141188099
 20
-194.1603620635
 30
0.0
  0
SPLINE
  5
DD4
330
216
100
AcDbEntity
  8
0
  6
Continuous
 62
     7
100
AcDbSpline
210
0.0
220
0.0
230
1.0
 70
     8
 71
     3
 72
    14
 73
    10
 74
     0
 42
0.0000000001
 43
0.0000000001
 40
0.0
 40
0.0
 40
0.0
 40
0.0
 40
0.0216390455
 40
0.0789731491
 40
0.1713585898
 40
0.2952115704
 40
0.4460705205
 40
0.6183589705000001
 40
1.0
 40
1.0
 40
1.0
 40
1.0
 10
1829.7482446918
 20
-151.3172945976
 30
0.0
 10
1829.7512959985
 20
-151.2959413952
 30
0.0
 10
1829.8634332256
 20
-151.2959198663
 30
0.0
 10
1830.0042732296
 20
-151.2857321757
 30
0.0
 10
1830.2929481913
 20
-151.3051314202
 30
0.0
 10
1830.6509148134
 20
-151.3326073443
 30
0.0
 10
1831.0967087428
 20
-151.3780600076
 30
0.0
 10
1831.7936289961
 20
-151.458057619
 30
0.0
 10
1832.3414563167
 20
-151.5309960741
 30
0.0
 10
1832.7180766352
 20
-151.5846665449
 30
0.0
  0
SPLINE
  5
DD5
330
216
100
AcDbEntity
  8
0
  6
Continuous
 62
     7
100
AcDbSpline
210
0.0
220
0.0
230
1.0
 70
     8
 71
     3
 72
    17
 73
    13
 74
     0
 42
0.0000000001
 43
0.0000000001
 40
0.0
 40
0.0
 40
0.0
 40
0.0
 40
0.2009517819
 40
0.3900952074
 40
0.5634242969
 40
0.7129959284999999
 40
0.8354774439999999
 40
0.9253511769999999
 40
0.9574826076
 40
0.9806254423
 40
0.9946658500999999
 40
1.0
 40
1.0
 40
1.0
 40
1.0
 10
2133.0068143283
 20
-319.5351459685
 30
0.0
 10
2133.5850470561
 20
-319.5262692683
 30
0.0
 10
2134.7075610355
 20
-319.5119808339
 30
0.0
 10
2136.3290454305
 20
-319.5005026923
 30
0.0
 10
2137.8023421804
 20
-319.4995785306
 30
0.0
 10
2139.0848907522
 20
-319.5089876812
 30
0.0
 10
2140.1239985736
 20
-319.528364881
 30
0.0
 10
2140.8321509261
 20
-319.553097492
 30
0.0
 10
2141.2422903042
 20
-319.5799862898
 30
0.0
 10
2141.4521647449
 20
-319.5996702891
 30
0.0
 10
2141.5526531218
 20
-319.6185025295
 30
0.0
 10
2141.62882425
 20
-319.6368195383
 30
0.0
 10
2141.6280650266
 20
-319.6521514165
 30
0.0
  0
SPLINE
  5
DD6
330
216
100
AcDbEntity
  8
0
  6
Continuous
 62
     7
100
AcDbSpline
210
0.0
220
0.0
230
1.0
 70
     8
 71
     3
 72
    14
 73
    10
 74
     0
 42
0.0000000001
 43
0.0000000001
 40
0.0
 40
0.0
 40
0.0
 40
0.0
 40
0.3663440278
 40
0.5402926334
 40
0.6949107040000003
 40
0.8216249139
 40
0.9148625999
 40
0.9730864775
 40
1.0
 40
1.0
 40
1.0
 40
1.0
 10
2134.2943579577
 20
-303.2493292893
 30
0.0
 10
2134.3081011969
 20
-305.2574025264
 30
0.0
 10
2134.2858849058
 20
-308.2203842221
 30
0.0
 10
2134.148565554
 20
-312.0255610936
 30
0.0
 10
2133.997088752801
 20
-314.5212336765
 30
0.0
 10
2133.8063835829
 20
-316.5540844302
 30
0.0
 10
2133.5822620621
 20
-318.0921197579
 30
0.0
 10
2133.3598030981
 20
-318.9913482682
 30
0.0
 10
2133.1456028354
 20
-319.4856277638
 30
0.0
 10
2133.006635729
 20
-319.5351486929
 30
0.0
  0
SPLINE
  5
DD7
330
216
100
AcDbEntity
  8
0
  6
Continuous
 62
     7
100
AcDbSpline
210
0.0
220
0.0
230
1.0
 70
     8
 71
     3
 72
    15
 73
    11
 74
     0
 42
0.0000000001
 43
0.0000000001
 40
0.0
 40
0.0
 40
0.0
 40
0.0
 40
0.0087896313
 40
0.0245242704
 40
0.0813255791
 40
0.1740057924
 40
0.3008725389
 40
0.4562033246000002
 40
0.6312299554000002
 40
1.0
 40
1.0
 40
1.0
 40
1.0
 10
1462.3584650977
 20
-317.3361512042
 30
0.0
 10
1462.3135196212
 20
-317.3190737105
 30
0.0
 10
1462.227869051
 20
-317.2003113339
 30
0.0
 10
1462.0796375764
 20
-316.7886122329
 30
0.0
 10
1461.9255413583
 20
-315.8855886876
 30
0.0
 10
1461.7704482845
 20
-314.3876771784
 30
0.0
 10
1461.6456019692
 20
-312.3377488582
 30
0.0
 10
1461.5571641056
 20
-309.8390396025
 30
0.0
 10
1461.4950813525
 20
-306.0146569952
 30
0.0
 10
1461.5128790978
 20
-303.0397797749
 30
0.0
 10
1461.5473657314
 20
-301.0228504531
 30
0.0
  0
SPLINE
  5
DD8
330
216
100
AcDbEntity
  8
0
  6
Continuous
 62
     7
100
AcDbSpline
210
0.0
220
0.0
230
1.0
 70
     8
 71
     3
 72
    18
 73
    14
 74
     0
 42
0.0000000001
 43
0.0000000001
 40
0.0
 40
0.0
 40
0.0
 40
0.0
 40
0.0051769741
 40
0.0193758892
 40
0.0426571122
 40
0.0749726306
 40
0.1162385419
 40
0.1660342047
 40
0.2884816786
 40
0.4395038532
 40
0.6119979204
 40
0.8013430679999999
 40
1.0
 40
1.0
 40
1.0
 40
1.0
 10
1453.5503914353
 20
-317.3327193691
 30
0.0
 10
1453.5496829159
 20
-317.3175234772
 30
0.0
 10
1453.633278825
 20
-317.3093026242
 30
0.0
 10
1453.7322567218
 20
-317.2902497192
 30
0.0
 10
1453.951204247
 20
-317.2795436913
 30
0.0
 10
1454.2293958781
 20
-317.2669773182
 30
0.0
 10
1454.5942161401
 20
-317.2583679389
 30
0.0
 10
1455.2204413713
 20
-317.2488707937
 30
0.0
 10
1456.1710637994
 20
-317.2458268989
 30
0.0
 10
1457.4812191828
 20
-317.2526077951
 30
0.0
 10
1458.9882505641
 20
-317.2702144088
 30
0.0
 10
1460.6349955892
 20
-317.297960145
 30
0.0
 10
1461.7748793564
 20
-317.3223863194
 30
0.0
 10
1462.3584651498
 20
-317.3361512238
 30
0.0
  0
SPLINE
  5
DD9
330
216
100
AcDbEntity
  8
0
  6
Continuous
 62
     7
100
AcDbSpline
210
0.0
220
0.0
230
1.0
 70
     8
 71
     3
 72
    16
 73
    12
 74
     0
 42
0.0000000001
 43
0.0000000001
 40
0.0
 40
0.0
 40
0.0
 40
0.0
 40
0.0076319615
 40
0.0232103749
 40
0.0473113131
 40
0.0803866775
 40
0.1739306924
 40
0.3010530319
 40
0.4566754178
 40
0.631630715
 40
1.0
 40
1.0
 40
1.0
 40
1.0
 10
1687.7971932511
 20
-320.463577444
 30
0.0
 10
1687.770371434
 20
-320.4317116164
 30
0.0
 10
1687.7430105027
 20
-320.3011144293
 30
0.0
 10
1687.6970840259
 20
-320.0520741342
 30
0.0
 10
1687.6565690945
 20
-319.6541998721
 30
0.0
 10
1687.5896095803
 20
-318.8359860266
 30
0.0
 10
1687.5193632864
 20
-317.4515289886
 30
0.0
 10
1687.445070404599
 20
-315.3998582558001
 30
0.0
 10
1687.3847896091
 20
-312.9024150141
 30
0.0
 10
1687.3217866093
 20
-309.0885058345
 30
0.0
 10
1687.3016533518
 20
-306.1232567889
 30
0.0
 10
1687.2974179113
 20
-304.1128863329
 30
0.0
  0
SPLINE
  5
DDA
330
216
100
AcDbEntity
  8
0
  6
Continuous
 62
     7
100
AcDbSpline
210
0.0
220
0.0
230
1.0
 70
     8
 71
     3
 72
    25
 73
    21
 74
     0
 42
0.0000000001
 43
0.0000000001
 40
0.0
 40
0.0
 40
0.0
 40
0.0
 40
0.0010670904
 40
0.0024030193
 40
0.0042729132
 40
0.0096077801
 40
0.0170570823
 40
0.026607183
 40
0.0382509142
 40
0.0519827046
 40
0.0677969548
 40
0.1056950826
 40
0.151971453
 40
0.2061143518
 40
0.2676403266
 40
0.3364262357999999
 40
0.4126043589
 40
0.5860534119
 40
0.7821547389
 40
1.0
 40
1.0
 40
1.0
 40
1.0
 10
1829.747635607
 20
-151.3215790738
 30
0.0
 10
1829.7505567166
 20
-151.3009187104
 30
0.0
 10
1829.6669866087
 20
-151.3206090946
 30
0.0
 10
1829.602557966
 20
-151.3042049826
 30
0.0
 10
1829.4248128858
 20
-151.3051577715
 30
0.0
 10
1829.1463902817
 20
-151.2934407041
 30
0.0
 10
1828.7058500226
 20
-151.2888350793
 30
0.0
 10
1828.1473061852
 20
-151.2812161668
 30
0.0
 10
1827.4638578656
 20
-151.2753127639
 30
0.0
 10
1826.6586397952
 20
-151.2694046615
 30
0.0
 10
1825.339781425
 20
-151.2618916565
 30
0.0
 10
1823.3846679054
 20
-151.2540445891
 30
0.0
 10
1820.6800035089
 20
-151.2470763283
 30
0.0
 10
1817.5133424554
 20
-151.2421485715
 30
0.0
 10
1813.9065193182
 20
-151.239317615
 30
0.0
 10
1809.8688221253
 20
-151.2385591766
 30
0.0
 10
1803.6425845875
 20
-151.2404944723
 30
0.0
 10
1794.9268295627
 20
-151.2486952797
 30
0.0
 10
1783.4409305067
 20
-151.2662983571
 30
0.0
 10
1775.3466507924
 20
-151.2826130417
 30
0.0
 10
1771.0869231998
 20
-151.2920092488
 30
0.0
  0
SPLINE
  5
DDB
330
216
100
AcDbEntity
  8
0
  6
Continuous
 62
     7
100
AcDbSpline
210
0.0
220
0.0
230
1.0
 70
     8
 71
     3
 72
    11
 73
     7
 74
     0
 42
0.0000000001
 43
0.0000000001
 40
0.0
 40
0.0
 40
0.0
 40
0.0
 40
0.3163010985
 40
0.6051512067
 40
0.8405382881999997
 40
1.0
 40
1.0
 40
1.0
 40
1.0
 10
1687.2973786259
 20
-304.1155689881
 30
0.0
 10
1699.125317597
 20
-304.3785466839
 30
0.0
 10
1721.7544472728
 20
-304.8910503638
 30
0.0
 10
1753.1850943162
 20
-305.6338818503
 30
0.0
 10
1778.7491626029
 20
-306.2998950954
 30
0.0
 10
1793.5119473288
 20
-306.7385129513001
 30
0.0
 10
1799.4715414541
 20
-306.9797223564
 30
0.0
  0
LINE
  5
DDC
330
216
100
AcDbEntity
  8
0
  6
Continuous
 62
     7
100
AcDbLine
 10
1799.4715414541
 20
-306.9797223564
 30
0.0
 11
1799.7966262952
 21
-306.992971502
 31
0.0
  0
SPLINE
  5
DDD
330
216
100
AcDbEntity
  8
0
  6
Continuous
 62
     7
100
AcDbSpline
210
0.0
220
0.0
230
1.0
 70
     8
 71
     3
 72
    15
 73
    11
 74
     0
 42
0.0000000001
 43
0.0000000001
 40
0.0
 40
0.0
 40
0.0
 40
0.0
 40
0.2344220086
 40
0.4376129349000001
 40
0.6089325533
 40
0.749017138
 40
0.8581994865
 40
0.9363455562999998
 40
0.9833756467
 40
1.0
 40
1.0
 40
1.0
 40
1.0
 10
1799.7966262952
 20
-306.992971502
 30
0.0
 10
1800.3948216774
 20
-307.0175237233
 30
0.0
 10
1801.5111834657
 20
-307.0651526027
 30
0.0
 10
1803.0656437683
 20
-307.138222168
 30
0.0
 10
1804.3751860796
 20
-307.2086393461
 30
0.0
 10
1805.4551328226
 20
-307.2742548834999
 30
0.0
 10
1806.2688193285
 20
-307.340051319
 30
0.0
 10
1806.9102694724
 20
-307.3926465316
 30
0.0
 10
1807.1879357932
 20
-307.4557169583
 30
0.0
 10
1807.432085857
 20
-307.4864586596
 30
0.0
 10
1807.4261457671
 20
-307.5284986273
 30
0.0
  0
SPLINE
  5
DDE
330
216
100
AcDbEntity
  8
0
  6
Continuous
 62
     7
100
AcDbSpline
210
0.0
220
0.0
230
1.0
 70
     8
 71
     3
 72
    10
 73
     6
 74
     0
 42
0.0000000001
 43
0.0000000001
 40
0.0
 40
0.0
 40
0.0
 40
0.0
 40
0.2347223175
 40
0.4830638186
 40
1.0
 40
1.0
 40
1.0
 40
1.0
 10
1771.087236659299
 20
-151.2877556292
 30
0.0
 10
1766.2747910677
 20
-151.298359793
 30
0.0
 10
1756.3748978088
 20
-149.9990280989
 30
0.0
 10
1736.5933532704
 20
-144.5396835994
 30
0.0
 10
1722.000787775
 20
-138.679853962
 30
0.0
 10
1712.1977454397
 20
-134.6510620163
 30
0.0
  0
SPLINE
  5
DDF
330
216
100
AcDbEntity
  8
0
  6
Continuous
 62
     7
100
AcDbSpline
210
0.0
220
0.0
230
1.0
 70
     8
 71
     3
 72
    16
 73
    12
 74
     0
 42
0.0000000001
 43
0.0000000001
 40
0.0
 40
0.0
 40
0.0
 40
0.0
 40
0.0052973891
 40
0.019825683
 40
0.0436632581
 40
0.0766643249
 40
0.1688230305
 40
0.2929135639
 40
0.4442464191
 40
0.6171550240000001
 40
1.0
 40
1.0
 40
1.0
 40
1.0
 10
1841.7524781278
 20
-151.7416744136
 30
0.0
 10
1841.7524781278
 20
-151.7293021865
 30
0.0
 10
1841.6850317887
 20
-151.7243884946
 30
0.0
 10
1841.6041164032
 20
-151.7065997046
 30
0.0
 10
1841.4267068591
 20
-151.6963151884
 30
0.0
 10
1841.0859810585
 20
-151.6740642693
 30
0.0
 10
1840.499445807999
 20
-151.6522781932
 30
0.0
 10
1839.6434789364
 20
-151.6280518161
 30
0.0
 10
1838.5957420536
 20
-151.6092889807
 30
0.0
 10
1836.9447537226
 20
-151.5910362397
 30
0.0
 10
1835.6466248017
 20
-151.5838206384
 30
0.0
 10
1834.7524781278
 20
-151.5846665449
 30
0.0
  0
SPLINE
  5
DE0
330
216
100
AcDbEntity
  8
0
  6
Continuous
 62
     7
100
AcDbSpline
210
0.0
220
0.0
230
1.0
 70
     8
 71
     3
 72
    14
 73
    10
 74
     0
 42
0.0000000001
 43
0.0000000001
 40
0.0
 40
0.0
 40
0.0
 40
0.0
 40
0.0179697314
 40
0.0689693588
 40
0.152663982
 40
0.2678966825
 40
0.4128052349000001
 40
0.5853620173
 40
1.0
 40
1.0
 40
1.0
 40
1.0
 10
1841.7524781278
 20
-154.2678423917
 30
0.0
 10
1841.7524781278
 20
-154.2878048441
 30
0.0
 10
1841.6357073751
 20
-154.2826052695
 30
0.0
 10
1841.5051276176
 20
-154.314969975
 30
0.0
 10
1841.2064811728
 20
-154.3205418964
 30
0.0
 10
1840.8339790873
 20
-154.3381802467
 30
0.0
 10
1840.3499350562
 20
-154.3475317348
 30
0.0
 10
1839.5383032925
 20
-154.3587895571
 30
0.0
 10
1838.8852648123
 20
-154.3590727031
 30
0.0
 10
1838.4246511652
 20
-154.356954951
 30
0.0
  0
SPLINE
  5
DE1
330
216
100
AcDbEntity
  8
0
  6
Continuous
 62
     7
100
AcDbSpline
210
0.0
220
0.0
230
1.0
 70
     8
 71
     3
 72
    10
 73
     6
 74
     0
 42
0.0000000001
 43
0.0000000001
 40
0.0
 40
0.0
 40
0.0
 40
0.0
 40
0.3885291862
 40
0.6831891519
 40
1.0
 40
1.0
 40
1.0
 40
1.0
 10
1772.5558229295
 20
-148.7416748612
 30
0.0
 10
1772.1531118334
 20
-148.7412303794
 30
0.0
 10
1771.5481500398
 20
-149.3715188088
 30
0.0
 10
1771.2195891939
 20
-150.3248412882
 30
0.0
 10
1771.1120497487
 20
-150.9603192401
 30
0.0
 10
1771.0872365244
 20
-151.287755538
 30
0.0
  0
SPLINE
  5
DE2
330
216
100
AcDbEntity
  8
0
  6
Continuous
 62
     7
100
AcDbSpline
210
0.0
220
0.0
230
1.0
 70
     8
 71
     3
 72
     9
 73
     5
 74
     0
 42
0.0000000001
 43
0.0000000001
 40
0.0
 40
0.0
 40
0.0
 40
0.0
 40
0.2331828587
 40
1.0
 40
1.0
 40
1.0
 40
1.0
 10
1838.4246511652
 20
-154.356954951
 30
0.0
 10
1838.1322137219
 20
-154.3596992901
 30
0.0
 10
1836.8801068056
 20
-154.4286125431
 30
0.0
 10
1835.6338283916
 20
-154.7308929672
 30
0.0
 10
1834.7524781278
 20
-155.1157582585
 30
0.0
  0
SPLINE
  5
DE3
330
216
100
AcDbEntity
  8
0
  6
Continuous
 62
     7
100
AcDbSpline
210
0.0
220
0.0
230
1.0
 70
     8
 71
     3
 72
    10
 73
     6
 74
     0
 42
0.0000000001
 43
0.0000000001
 40
0.0
 40
0.0
 40
0.0
 40
0.0
 40
0.1779004909
 40
0.5364317989
 40
1.0
 40
1.0
 40
1.0
 40
1.0
 10
1837.3754588688
 20
-156.2678423917
 30
0.0
 10
1837.5143273453
 20
-156.2678423917
 30
0.0
 10
1837.9291866489
 20
-156.0858714536
 30
0.0
 10
1838.3123123431
 20
-155.3554732336
 30
0.0
 10
1838.416178537
 20
-154.7187154003
 30
0.0
 10
1838.4246511652
 20
-154.356954951
 30
0.0
  0
SPLINE
  5
DE4
330
216
100
AcDbEntity
  8
0
  6
Continuous
 62
     7
100
AcDbSpline
210
0.0
220
0.0
230
1.0
 70
     8
 71
     3
 72
    13
 73
     9
 74
     0
 42
0.0000000001
 43
0.0000000001
 40
0.0
 40
0.0
 40
0.0
 40
0.0
 40
0.381207109
 40
0.7043169051
 40
0.8283064529
 40
0.9208411127999999
 40
0.9782842160000001
 40
1.0
 40
1.0
 40
1.0
 40
1.0
 10
1832.3823111951
 20
-159.110834523
 30
0.0
 10
1832.636492656
 20
-159.1241191217
 30
0.0
 10
1833.1050531499
 20
-159.1437391032
 30
0.0
 10
1833.6622209491
 20
-159.156429059
 30
0.0
 10
1834.0163872603
 20
-159.1520062327
 30
0.0
 10
1834.2102996779
 20
-159.1475018323
 30
0.0
 10
1834.3038965555
 20
-159.1322183692
 30
0.0
 10
1834.3788114234
 20
-159.1253140755
 30
0.0
 10
1834.3795702646
 20
-159.110834523
 30
0.0
  0
SPLINE
  5
DE5
330
216
100
AcDbEntity
  8
0
  6
Continuous
 62
     7
100
AcDbSpline
210
0.0
220
0.0
230
1.0
 70
     8
 71
     3
 72
     8
 73
     4
 74
     0
 42
0.0000000001
 43
0.0000000001
 40
0.0
 40
0.0
 40
0.0
 40
0.0
 40
1.0
 40
1.0
 40
1.0
 40
1.0
 10
1834.7524781278
 20
-155.1157582585
 30
0.0
 10
1834.2998563767
 20
-155.3995772029999
 30
0.0
 10
1833.8843819467
 20
-155.7556229788
 30
0.0
 10
1833.5403991822
 20
-156.1643961439
 30
0.0
  0
SPLINE
  5
DE6
330
216
100
AcDbEntity
  8
0
  6
Continuous
 62
     7
100
AcDbSpline
210
0.0
220
0.0
230
1.0
 70
     8
 71
     3
 72
     8
 73
     4
 74
     0
 42
0.0000000001
 43
0.0000000001
 40
0.0
 40
0.0
 40
0.0
 40
0.0
 40
1.0
 40
1.0
 40
1.0
 40
1.0
 10
1833.2191210143
 20
-156.591496898
 30
0.0
 10
1832.7659161537
 20
-157.2676450251
 30
0.0
 10
1832.4825025918
 20
-158.0821934837
 30
0.0
 10
1832.400061462
 20
-158.8919924685
 30
0.0
  0
SPLINE
  5
DE7
330
216
100
AcDbEntity
  8
0
  6
Continuous
 62
     7
100
AcDbSpline
210
0.0
220
0.0
230
1.0
 70
     8
 71
     3
 72
    13
 73
     9
 74
     0
 42
0.0000000001
 43
0.0000000001
 40
0.0
 40
0.0
 40
0.0
 40
0.0
 40
0.0197733472
 40
0.0761513414
 40
0.1677081428
 40
0.2909480055
 40
0.6143877083
 40
1.0
 40
1.0
 40
1.0
 40
1.0
 10
1835.8016704242
 20
-156.7137887643
 30
0.0
 10
1835.790933997
 20
-156.7204044692
 30
0.0
 10
1835.756994444
 20
-156.6532629629
 30
0.0
 10
1835.69610302
 20
-156.5949177306
 30
0.0
 10
1835.5969999215
 20
-156.4370240548
 30
0.0
 10
1835.4079853259
 20
-156.1594977935
 30
0.0
 10
1835.1212456626
 20
-155.7066329764
 30
0.0
 10
1834.8817516324
 20
-155.3249776791
 30
0.0
 10
1834.7524781278
 20
-155.1157582585
 30
0.0
  0
SPLINE
  5
DE8
330
216
100
AcDbEntity
  8
0
  6
Continuous
 62
     7
100
AcDbSpline
210
0.0
220
0.0
230
1.0
 70
     8
 71
     3
 72
     9
 73
     5
 74
     0
 42
0.0000000001
 43
0.0000000001
 40
0.0
 40
0.0
 40
0.0
 40
0.0
 40
0.1978330507
 40
1.0
 40
1.0
 40
1.0
 40
1.0
 10
1446.4702101621
 20
-128.2387840403
 30
0.0
 10
1446.4862516906
 20
-128.3846852414
 30
0.0
 10
1446.5440992005
 20
-129.1246018969
 30
0.0
 10
1446.5609785255
 20
-129.8669519393
 30
0.0
 10
1446.5649198827
 20
-130.4620993015
 30
0.0
  0
SPLINE
  5
DE9
330
216
100
AcDbEntity
  8
0
  6
Continuous
 62
     7
100
AcDbSpline
210
0.0
220
0.0
230
1.0
 70
     8
 71
     3
 72
    18
 73
    14
 74
     0
 42
0.0000000001
 43
0.0000000001
 40
0.0
 40
0.0
 40
0.0
 40
0.0
 40
0.1975162743
 40
0.3862390909
 40
0.5590093303
 40
0.7098567506000001
 40
0.8333151698000001
 40
0.8832614191999999
 40
0.9247758974999999
 40
0.9574583207999999
 40
0.9809926774999999
 40
0.9952201162999999
 40
1.0
 40
1.0
 40
1.0
 40
1.0
 10
1830.5454432917
 20
-194.1603620635
 30
0.0
 10
1830.5254298652
 20
-194.6594932053
 30
0.0
 10
1830.4878189902
 20
-195.6356024553
 30
0.0
 10
1830.4350242511
 20
-197.0483577598
 30
0.0
 10
1830.3868678497
 20
-198.3433073218
 30
0.0
 10
1830.3441209342
 20
-199.4728812335998
 30
0.0
 10
1830.312603865
 20
-200.2930725562
 30
0.0
 10
1830.2885902368
 20
-200.8349180732
 30
0.0
 10
1830.2772843235
 20
-201.1512191261
 30
0.0
 10
1830.2599984474
 20
-201.3912312928
 30
0.0
 10
1830.2662193773
 20
-201.5850224922
 30
0.0
 10
1830.2358047286
 20
-201.6645028641
 30
0.0
 10
1830.2595421375
 20
-201.7416744136
 30
0.0
 10
1830.2474534835
 20
-201.7416744136
 30
0.0
  0
SPLINE
  5
DEA
330
216
100
AcDbEntity
  8
0
  6
Continuous
 62
     7
100
AcDbSpline
210
0.0
220
0.0
230
1.0
 70
     8
 71
     3
 72
    18
 73
    14
 74
     0
 42
0.0000000001
 43
0.0000000001
 40
0.0
 40
0.0
 40
0.0
 40
0.0
 40
0.1997750957
 40
0.3879682207
 40
0.5606044385
 40
0.7097864076000002
 40
0.8322127152
 40
0.8813734094999999
 40
0.9224167337
 40
0.9548840066
 40
0.9785140393
 40
0.9932845872999999
 40
1.0
 40
1.0
 40
1.0
 40
1.0
 10
2134.2942005108
 20
-303.2510183993
 30
0.0
 10
2135.9565835928
 20
-303.3281246627
 30
0.0
 10
2139.1856376356
 20
-303.4641787047001
 30
0.0
 10
2143.8531013275
 20
-303.6178259426
 30
0.0
 10
2148.1007500612
 20
-303.713032258
 30
0.0
 10
2151.8010424167
 20
-303.747316714
 30
0.0
 10
2154.474044817
 20
-303.7247455455
 30
0.0
 10
2156.2433626821
 20
-303.6693472656001
 30
0.0
 10
2157.2664192567
 20
-303.6146993096
 30
0.0
 10
2158.066485096401
 20
-303.5509130859
 30
0.0
 10
2158.6673032076
 20
-303.4656252192
 30
0.0
 10
2159.0055322207
 20
-303.3944010742
 30
0.0
 10
2159.20455421
 20
-303.2952959174
 30
0.0
 10
2159.2094502979
 20
-303.2395697291
 30
0.0
  0
SPLINE
  5
DEB
330
216
100
AcDbEntity
  8
0
  6
Continuous
 62
     7
100
AcDbSpline
210
0.0
220
0.0
230
1.0
 70
     8
 71
     3
 72
     9
 73
     5
 74
     0
 42
0.0000000001
 43
0.0000000001
 40
0.0
 40
0.0
 40
0.0
 40
0.0
 40
0.4997602847
 40
1.0
 40
1.0
 40
1.0
 40
1.0
 10
1461.5473729095
 20
-301.0224310854
 30
0.0
 10
1499.1484129209
 20
-301.892575076
 30
0.0
 10
1574.3917505716
 20
-303.4364519063
 30
0.0
 10
1649.6502481745
 20
-304.0813019005
 30
0.0
 10
1687.2974224074
 20
-304.1135000169
 30
0.0
  0
SPLINE
  5
DEC
330
216
100
AcDbEntity
  8
0
  6
Continuous
 62
     7
100
AcDbSpline
210
0.0
220
0.0
230
1.0
 70
     8
 71
     3
 72
    16
 73
    12
 74
     0
 42
0.0000000001
 43
0.0000000001
 40
0.0
 40
0.0
 40
0.0
 40
0.0
 40
0.0047782486
 40
0.0165799186
 40
0.0633513613
 40
0.1415416087
 40
0.2513684589
 40
0.3928855193
 40
0.5654391109
 40
0.7680751053
 40
1.0
 40
1.0
 40
1.0
 40
1.0
 10
1888.611397497
 20
-307.6661938195
 30
0.0
 10
1888.6094276648
 20
-307.652705267
 30
0.0
 10
1888.6663211233
 20
-307.62417218
 30
0.0
 10
1888.8228486545
 20
-307.5893391269
 30
0.0
 10
1889.2303308959
 20
-307.5327178168
 30
0.0
 10
1889.88560142
 20
-307.4770112488
 30
0.0
 10
1890.8288698967
 20
-307.4111074698
 30
0.0
 10
1892.0341833603
 20
-307.3432946661
 30
0.0
 10
1893.5072622269
 20
-307.2708700803
 30
0.0
 10
1895.2373679965
 20
-307.1954715052001
 30
0.0
 10
1896.4762012754
 20
-307.146299525
 30
0.0
 10
1897.1373636066
 20
-307.1209786674
 30
0.0
  0
SPLINE
  5
DED
330
216
100
AcDbEntity
  8
0
  6
Continuous
 62
     7
100
AcDbSpline
210
0.0
220
0.0
230
1.0
 70
     8
 71
     3
 72
    10
 73
     6
 74
     0
 42
0.0000000001
 43
0.0000000001
 40
0.0
 40
0.0
 40
0.0
 40
0.0
 40
0.1620493397
 40
0.3989783594
 40
1.0
 40
1.0
 40
1.0
 40
1.0
 10
1897.1373636066
 20
-307.1209786674
 30
0.0
 10
1903.2934319381
 20
-306.8852167034
 30
0.0
 10
1918.4552475235
 20
-306.4454764558
 30
0.0
 10
1956.4591745033
 20
-305.4676500443
 30
0.0
 10
1988.3070888208
 20
-304.7381439153
 30
0.0
 10
2011.1500441641
 20
-304.2187380495
 30
0.0
  0
SPLINE
  5
DEE
330
216
100
AcDbEntity
  8
0
  6
Continuous
 62
     7
100
AcDbSpline
210
0.0
220
0.0
230
1.0
 70
     8
 71
     3
 72
    25
 73
    21
 74
     0
 42
0.0000000001
 43
0.0000000001
 40
0.0
 40
0.0
 40
0.0
 40
0.0
 40
0.2182683598
 40
0.4141405132
 40
0.5870718742000001
 40
0.6636172018
 40
0.7325588901000001
 40
0.7940101664000001
 40
0.8479409808999999
 40
0.8941819342
 40
0.9323300491999999
 40
0.9482353487000001
 40
0.9620056348999998
 40
0.973644404
 40
0.9831551820999999
 40
0.9905415591
 40
0.9958072914
 40
0.9976462523
 40
0.9989568638999999
 40
1.0
 40
1.0
 40
1.0
 40
1.0
 10
1925.9812448583
 20
-151.2852024953
 30
0.0
 10
1921.601645913
 20
-151.2752443943
 30
0.0
 10
1913.2918285331
 20
-151.2579958607
 30
0.0
 10
1901.5120958979
 20
-151.2393948011
 30
0.0
 10
1892.5760613569
 20
-151.2307162265
 30
0.0
 10
1886.1869153029
 20
-151.2286542148
 30
0.0
 10
1882.0346463047
 20
-151.2294296049
 30
0.0
 10
1878.3361413394
 20
-151.232385044
 30
0.0
 10
1875.0931443431
 20
-151.2375398623
 30
0.0
 10
1872.3177092274
 20
-151.2448914007
 30
0.0
 10
1870.3053433591
 20
-151.2531266238
 30
0.0
 10
1868.9443832364
 20
-151.2610342874
 30
0.0
 10
1868.1156157868
 20
-151.2672439899
 30
0.0
 10
1867.4144049784
 20
-151.2734579182
 30
0.0
 10
1866.843427252
 20
-151.2814122962
 30
0.0
 10
1866.3947878008
 20
-151.2863541916
 30
0.0
 10
1866.112360401
 20
-151.2983745517
 30
0.0
 10
1865.9325353585
 20
-151.2977555083
 30
0.0
 10
1865.8678603391
 20
-151.3142137652
 30
0.0
 10
1865.7835736464
 20
-151.2950487929
 30
0.0
 10
1865.7867557309
 20
-151.3157362853
 30
0.0
  0
SPLINE
  5
DEF
330
216
100
AcDbEntity
  8
0
  6
Continuous
 62
     7
100
AcDbSpline
210
0.0
220
0.0
230
1.0
 70
     8
 71
     3
 72
    11
 73
     7
 74
     0
 42
0.0000000001
 43
0.0000000001
 40
0.0
 40
0.0
 40
0.0
 40
0.0
 40
0.2605343889
 40
0.5168807140000001
 40
0.7646172978
 40
1.0
 40
1.0
 40
1.0
 40
1.0
 10
1985.2680684759
 20
-134.6637473035
 30
0.0
 10
1980.3169922009
 20
-136.7553382712
 30
0.0
 10
1970.4031570976
 20
-140.6882305882
 30
0.0
 10
1955.531787063
 20
-145.9700626454
 30
0.0
 10
1940.804802129
 20
-150.0124336761
 30
0.0
 10
1930.8409765555
 20
-151.267269638
 30
0.0
 10
1925.9851109802
 20
-151.2770844556
 30
0.0
  0
SPLINE
  5
DF0
330
216
100
AcDbEntity
  8
0
  6
Continuous
 62
     7
100
AcDbSpline
210
0.0
220
0.0
230
1.0
 70
     8
 71
     3
 72
    16
 73
    12
 74
     0
 42
0.0000000001
 43
0.0000000001
 40
0.0
 40
0.0
 40
0.0
 40
0.0
 40
0.0084793282
 40
0.024475436
 40
0.0488139629
 40
0.0820164327
 40
0.1755934893
 40
0.3025422995
 40
0.4578487218000002
 40
0.6324185605000002
 40
1.0
 40
1.0
 40
1.0
 40
1.0
 10
2010.2858774648
 20
-320.5475730858
 30
0.0
 10
2010.3239100629
 20
-320.5211127275
 30
0.0
 10
2010.3818846868
 20
-320.3900023389
 30
0.0
 10
2010.4535106484
 20
-320.1391130207
 30
0.0
 10
2010.5270850036
 20
-319.7405910165
 30
0.0
 10
2010.6394304923
 20
-318.924254529
 30
0.0
 10
2010.7619707483
 20
-317.5413604687
 30
0.0
 10
2010.8893435579
 20
-315.4923474248
 30
0.0
 10
2010.9942799636
 20
-312.9980259029
 30
0.0
 10
2011.1044769171
 20
-309.1887034619
 30
0.0
 10
2011.1411619941
 20
-306.226277727
 30
0.0
 10
2011.149981369
 20
-304.2178026602
 30
0.0
  0
SPLINE
  5
DF1
330
216
100
AcDbEntity
  8
0
  6
Continuous
 62
     7
100
AcDbSpline
210
0.0
220
0.0
230
1.0
 70
     8
 71
     3
 72
    11
 73
     7
 74
     0
 42
0.0000000001
 43
0.0000000001
 40
0.0
 40
0.0
 40
0.0
 40
0.0
 40
0.2574884736
 40
0.5120499458
 40
0.760546596
 40
1.0
 40
1.0
 40
1.0
 40
1.0
 10
1985.2681529913
 20
-134.6638307213
 30
0.0
 10
1980.157546503
 20
-136.3096154779
 30
0.0
 10
1970.0486127616
 20
-139.7470170987
 30
0.0
 10
1954.8290008033
 20
-144.2360580502
 30
0.0
 10
1939.71600256
 20
-147.6411596937
 30
0.0
 10
1929.5452457784
 20
-148.741305766
 30
0.0
 10
1924.5522380491
 20
-148.7416802536
 30
0.0
  0
SPLINE
  5
DF2
330
216
100
AcDbEntity
  8
0
  6
Continuous
 62
     7
100
AcDbSpline
210
0.0
220
0.0
230
1.0
 70
     8
 71
     3
 72
    13
 73
     9
 74
     0
 42
0.0000000001
 43
0.0000000001
 40
0.0
 40
0.0
 40
0.0
 40
0.0
 40
0.0192128018
 40
0.0732616571
 40
0.1663944774
 40
0.2955777402
 40
0.6332276817000002
 40
1.0
 40
1.0
 40
1.0
 40
1.0
 10
1832.5427023612
 20
-194.1603620635
 30
0.0
 10
1832.5420309365
 20
-194.1731736100999
 30
0.0
 10
1832.4740767198
 20
-194.1819491653
 30
0.0
 10
1832.382505465
 20
-194.1959649858
 30
0.0
 10
1832.1870754447
 20
-194.2015415766999
 30
0.0
 10
1831.8195544343
 20
-194.2060384874
 30
0.0
 10
1831.2587183581
 20
-194.1929565095
 30
0.0
 10
1830.7900175022
 20
-194.1731445467
 30
0.0
 10
1830.5454432917
 20
-194.1603620635
 30
0.0
  0
SPLINE
  5
DF3
330
216
100
AcDbEntity
  8
0
  6
Continuous
 62
     7
100
AcDbSpline
210
0.0
220
0.0
230
1.0
 70
     8
 71
     3
 72
     9
 73
     5
 74
     0
 42
0.0000000001
 43
0.0000000001
 40
0.0
 40
0.0
 40
0.0
 40
0.0
 40
0.2499215495
 40
1.0
 40
1.0
 40
1.0
 40
1.0
 10
1985.2577689582
 20
-134.6671505588
 30
0.0
 10
1962.510769514
 20
-134.6632539493
 30
0.0
 10
1871.4942099866
 20
-134.6509930172
 30
0.0
 10
1780.4776491616
 20
-134.6505475396
 30
0.0
 10
1712.2080887611
 20
-134.6543838312999
 30
0.0
  0
SPLINE
  5
DF4
330
216
100
AcDbEntity
  8
0
  6
Continuous
 62
     7
100
AcDbSpline
210
0.0
220
0.0
230
1.0
 70
     8
 71
     3
 72
    21
 73
    17
 74
     0
 42
0.0000000001
 43
0.0000000001
 40
0.0
 40
0.0
 40
0.0
 40
0.0
 40
0.0012072932
 40
0.0047219719
 40
0.0105669961
 40
0.018735341
 40
0.0419989317
 40
0.0743553204
 40
0.1155036154
 40
0.1651187987
 40
0.2227771155
 40
0.2879697974
 40
0.4386731917000001
 40
0.611731808
 40
0.8011349285999999
 40
1.0
 40
1.0
 40
1.0
 40
1.0
 10
1421.1222029553
 20
-130.4792150661
 30
0.0
 10
1421.1213070918
 20
-130.4690140943
 30
0.0
 10
1421.1842466068
 20
-130.4710971445
 30
0.0
 10
1421.2513588187
 20
-130.4549343636
 30
0.0
 10
1421.4123328655
 20
-130.4516490798
 30
0.0
 10
1421.7207147488
 20
-130.4368552459
 30
0.0
 10
1422.267257656
 20
-130.4265063432
 30
0.0
 10
1423.0852491774
 20
-130.4122688259
 30
0.0
 10
1424.1305108792
 20
-130.4002067771
 30
0.0
 10
1425.3889929713
 20
-130.3875541414
 30
0.0
 10
1426.8519331085
 20
-130.3769101896
 30
0.0
 10
1429.1721635571
 20
-130.3693385248
 30
0.0
 10
1432.4712915597
 20
-130.3839039267
 30
0.0
 10
1436.8238698419
 20
-130.4061298988
 30
0.0
 10
1441.5849849315
 20
-130.4284566079
 30
0.0
 10
1444.8782083093
 20
-130.448752257
 30
0.0
 10
1446.5649220905
 20
-130.4624271888
 30
0.0
  0
SPLINE
  5
DF5
330
216
100
AcDbEntity
  8
0
  6
Continuous
 62
     7
100
AcDbSpline
210
0.0
220
0.0
230
1.0
 70
     8
 71
     3
 72
    21
 73
    17
 74
     0
 42
0.0000000001
 43
0.0000000001
 40
0.0
 40
0.0
 40
0.0
 40
0.0
 40
0.1998948781
 40
0.3897722536999999
 40
0.562820988
 40
0.7132364894
 40
0.7782319521
 40
0.8356678555
 40
0.8850726317000001
 40
0.9260262074999999
 40
0.9582186163999999
 40
0.9813635073
 40
0.9894860579999999
 40
0.9952960468999998
 40
0.9987891784999998
 40
1.0
 40
1.0
 40
1.0
 40
1.0
 10
2149.4766064921
 20
-130.457740078
 30
0.0
 10
2151.136271659
 20
-130.4456409571
 30
0.0
 10
2154.3724528312
 20
-130.4253482953
 30
0.0
 10
2159.0454561864
 20
-130.4026224117
 30
0.0
 10
2163.3076228198
 20
-130.3833244622
 30
0.0
 10
2166.5329890907
 20
-130.3694496525
 30
0.0
 10
2168.7983644646
 20
-130.3767043024
 30
0.0
 10
2170.2251792204
 20
-130.3878668073
 30
0.0
 10
2171.4518861203
 20
-130.4011811113
 30
0.0
 10
2172.4703135847
 20
-130.4130987587
 30
0.0
 10
2173.2671851469
 20
-130.4263501063
 30
0.0
 10
2173.7992506584
 20
-130.4363081604
 30
0.0
 10
2174.0997787423
 20
-130.4500254178
 30
0.0
 10
2174.2559847324
 20
-130.4543392724
 30
0.0
 10
2174.322105064
 20
-130.4688347108
 30
0.0
 10
2174.3826375221
 20
-130.4692012535
 30
0.0
 10
2174.3817580446
 20
-130.4792160529
 30
0.0
  0
SPLINE
  5
DF6
330
216
100
AcDbEntity
  8
0
  6
Continuous
 62
     7
100
AcDbSpline
210
0.0
220
0.0
230
1.0
 70
     8
 71
     3
 72
     9
 73
     5
 74
     0
 42
0.0000000001
 43
0.0000000001
 40
0.0
 40
0.0
 40
0.0
 40
0.0
 40
0.2787299792
 40
1.0
 40
1.0
 40
1.0
 40
1.0
 10
2149.476674075
 20
-130.4574177001
 30
0.0
 10
2149.478449122
 20
-130.2507865768
 30
0.0
 10
2149.4949942699
 20
-129.5099613193
 30
0.0
 10
2149.523248347
 20
-128.7666863277
 30
0.0
 10
2149.5976678276
 20
-128.2371708869
 30
0.0
  0
SPLINE
  5
DF7
330
216
100
AcDbEntity
  8
0
  6
Continuous
 62
     7
100
AcDbSpline
210
0.0
220
0.0
230
1.0
 70
     8
 71
     3
 72
    14
 73
    10
 74
     0
 42
0.0000000001
 43
0.0000000001
 40
0.0
 40
0.0
 40
0.0
 40
0.0
 40
0.0234509623
 40
0.0748391782
 40
0.1566988988
 40
0.2689244375
 40
0.4106427619
 40
0.5807849827
 40
1.0
 40
1.0
 40
1.0
 40
1.0
 10
1436.0906619564
 20
-300.9184342119
 30
0.0
 10
1436.0959528919
 20
-300.9786796937
 30
0.0
 10
1436.3101457663
 20
-301.0858417296
 30
0.0
 10
1436.6730710736
 20
-301.1659326048
 30
0.0
 10
1437.3170053296
 20
-301.2600803013
 30
0.0
 10
1438.1729966323
 20
-301.3312207953
 30
0.0
 10
1439.2677678985
 20
-301.3927203889
 30
0.0
 10
1441.1508752254
 20
-301.4564883439
 30
0.0
 10
1442.6714475783
 20
-301.4726438542
 30
0.0
 10
1443.7525519287
 20
-301.4754207322
 30
0.0
  0
SPLINE
  5
DF8
330
216
100
AcDbEntity
  8
0
  6
Continuous
 62
     7
100
AcDbSpline
210
0.0
220
0.0
230
1.0
 70
     8
 71
     3
 72
     9
 73
     5
 74
     0
 42
0.0000000001
 43
0.0000000001
 40
0.0
 40
0.0
 40
0.0
 40
0.0
 40
0.2131968797
 40
1.0
 40
1.0
 40
1.0
 40
1.0
 10
1443.7525519287
 20
-301.4754207322
 30
0.0
 10
1445.0176245692
 20
-301.4786701433
 30
0.0
 10
1450.9515573341
 20
-301.4348825147
 30
0.0
 10
1456.8832385319
 20
-301.2296577338
 30
0.0
 10
1461.547403393599
 20
-301.0224285995
 30
0.0
  0
LINE
  5
DF9
330
216
100
AcDbEntity
  8
0
  6
Continuous
 62
     7
100
AcDbLine
 10
1446.5649198827
 20
-130.4620993015
 30
0.0
 11
2149.476674075
 21
-130.4574177001
 31
0.0
  0
SPLINE
  5
DFA
330
216
100
AcDbEntity
  8
0
  6
Continuous
 62
     7
100
AcDbSpline
210
0.0
220
0.0
230
1.0
 70
     8
 71
     3
 72
     9
 73
     5
 74
     0
 42
0.0000000001
 43
0.0000000001
 40
0.0
 40
0.0
 40
0.0
 40
0.0
 40
0.2501802286
 40
1.0
 40
1.0
 40
1.0
 40
1.0
 10
1687.7972147134
 20
-320.4636029315
 30
0.0
 10
1668.995026217
 20
-320.4526312334
 30
0.0
 10
1593.8403808523
 20
-320.1067542968
 30
0.0
 10
1518.6951913272
 20
-318.6649511044
 30
0.0
 10
1462.3584650977
 20
-317.3361512042
 30
0.0
  0
SPLINE
  5
DFB
330
216
100
AcDbEntity
  8
0
  6
Continuous
 62
     7
100
AcDbSpline
210
0.0
220
0.0
230
1.0
 70
     8
 71
     3
 72
    22
 73
    18
 74
     0
 42
0.0000000001
 43
0.0000000001
 40
0.0
 40
0.0
 40
0.0
 40
0.0
 40
0.0017773243
 40
0.0055269899
 40
0.0115531609
 40
0.0198997745
 40
0.0436529157
 40
0.076885914
 40
0.1187453662
 40
0.169200401
 40
0.2281602696
 40
0.2943254535
 40
0.3669677759
 40
0.4461213123
 40
0.6189817357000002
 40
0.8061971001999999
 40
1.0
 40
1.0
 40
1.0
 40
1.0
 10
1789.9514197098
 20
-322.9693111274
 30
0.0
 10
1789.9564534364
 20
-322.9089033925
 30
0.0
 10
1789.7733632244
 20
-322.7635111402
 30
0.0
 10
1789.41684825
 20
-322.6657460162
 30
0.0
 10
1788.8014392755
 20
-322.5247625241999
 30
0.0
 10
1787.5210358658
 20
-322.340378947
 30
0.0
 10
1785.2975311023
 20
-322.1215672892
 30
0.0
 10
1781.9362612443
 20
-321.8953806546
 30
0.0
 10
1777.658745866
 20
-321.6785131119
 30
0.0
 10
1772.5035641494
 20
-321.4782638057
 30
0.0
 10
1766.5179703319
 20
-321.2929055907
 30
0.0
 10
1759.775034564
 20
-321.1254849477
 30
0.0
 10
1752.3427693329
 20
-320.9757807905
 30
0.0
 10
1741.2715481043
 20
-320.7957022372
 30
0.0
 10
1726.2921536778
 20
-320.6250635706
 30
0.0
 10
1707.4020296866
 20
-320.5002130128
 30
0.0
 10
1694.4070893742
 20
-320.4675414275
 30
0.0
 10
1687.7972839303
 20
-320.4636847769
 30
0.0
  0
SPLINE
  5
DFC
330
216
100
AcDbEntity
  8
0
  6
Continuous
 62
     7
100
AcDbSpline
210
0.0
220
0.0
230
1.0
 70
     8
 71
     3
 72
     9
 73
     5
 74
     0
 42
0.0000000001
 43
0.0000000001
 40
0.0
 40
0.0
 40
0.0
 40
0.0
 40
0.1082090818
 40
1.0
 40
1.0
 40
1.0
 40
1.0
 10
1789.8789605576
 20
-325.5558357147001
 30
0.0
 10
1789.8742597609
 20
-325.4683545321
 30
0.0
 10
1789.8488818837
 20
-324.6589769336
 30
0.0
 10
1789.8982590895
 20
-323.8485955071
 30
0.0
 10
1789.9555840087
 20
-323.1288700298
 30
0.0
  0
LINE
  5
DFD
330
216
100
AcDbEntity
  8
0
  6
Continuous
 62
     7
100
AcDbLine
 10
1789.9555840087
 20
-323.1288700298
 30
0.0
 11
1789.9686145099
 21
-322.9689754767
 31
0.0
  0
SPLINE
  5
DFE
330
216
100
AcDbEntity
  8
0
  6
Continuous
 62
     7
100
AcDbSpline
210
0.0
220
0.0
230
1.0
 70
     8
 71
     3
 72
    11
 73
     7
 74
     0
 42
0.0000000001
 43
0.0000000001
 40
0.0
 40
0.0
 40
0.0
 40
0.0
 40
0.0645658512
 40
0.2522307083
 40
0.564112486
 40
1.0
 40
1.0
 40
1.0
 40
1.0
 10
1906.1649879168
 20
-325.5671645944
 30
0.0
 10
1906.1645254457
 20
-325.576296173
 30
0.0
 10
1906.2203233654
 20
-325.5729566843
 30
0.0
 10
1906.2804769978
 20
-325.5882610462
 30
0.0
 10
1906.4240423261
 20
-325.5904098818
 30
0.0
 10
1906.5261486652
 20
-325.5961550176
 30
0.0
 10
1906.5878377966
 20
-325.5983107522
 30
0.0
  0
SPLINE
  5
DFF
330
216
100
AcDbEntity
  8
0
  6
Continuous
 62
     7
100
AcDbSpline
210
0.0
220
0.0
230
1.0
 70
     8
 71
     3
 72
     9
 73
     5
 74
     0
 42
0.0000000001
 43
0.0000000001
 40
0.0
 40
0.0
 40
0.0
 40
0.0
 40
0.3501234634000001
 40
1.0
 40
1.0
 40
1.0
 40
1.0
 10
1906.0576677046
 20
-323.0494190353
 30
0.0
 10
1906.082667335
 20
-323.342441928
 30
0.0
 10
1906.1452351485
 20
-324.179680975
 30
0.0
 10
1906.1777312482
 20
-325.0214737766
 30
0.0
 10
1906.1501681123
 20
-325.5666434547
 30
0.0
  0
LINE
  5
E00
330
216
100
AcDbEntity
  8
0
  6
Continuous
 62
     7
100
AcDbLine
 10
2141.5507031209
 20
-323.6903906565
 30
0.0
 11
2141.6265866309
 21
-319.6521799883
 31
0.0
  0
SPLINE
  5
E01
330
216
100
AcDbEntity
  8
0
  6
Continuous
 62
     7
100
AcDbSpline
210
0.0
220
0.0
230
1.0
 70
     8
 71
     3
 72
    22
 73
    18
 74
     0
 42
0.0000000001
 43
0.0000000001
 40
0.0
 40
0.0
 40
0.0
 40
0.0
 40
0.1919038104
 40
0.3786411852
 40
0.551076589
 40
0.6307084985
 40
0.703902736
 40
0.7700942078000002
 40
0.8292260362
 40
0.8802912170999999
 40
0.9224443815999999
 40
0.9557483708999999
 40
0.9798951106999997
 40
0.9883804921999999
 40
0.9944701935999999
 40
0.9982340709999999
 40
1.0
 40
1.0
 40
1.0
 40
1.0
 10
2010.2857213684
 20
-320.5476829424
 30
0.0
 10
2003.6092267394
 20
-320.5494156026
 30
0.0
 10
1990.435971649
 20
-320.5783011298
 30
0.0
 10
1971.2638791747
 20
-320.6983061585
 30
0.0
 10
1955.9983254979
 20
-320.8658924417
 30
0.0
 10
1944.6835947872
 20
-321.044453364
 30
0.0
 10
1937.0652156363
 20
-321.1936913259
 30
0.0
 10
1930.160652555
 20
-321.3607876203
 30
0.0
 10
1924.02657902
 20
-321.5460518449
 30
0.0
 10
1918.7303070614
 20
-321.747534522
 30
0.0
 10
1914.3327141858
 20
-321.9652050197
 30
0.0
 10
1910.8773552618
 20
-322.1926077332
 30
0.0
 10
1908.587657205
 20
-322.4133572364
 30
0.0
 10
1907.2607273867
 20
-322.5997391434
 30
0.0
 10
1906.6245574253
 20
-322.7429752186
 30
0.0
 10
1906.258891215
 20
-322.841086547
 30
0.0
 10
1906.0705239923
 20
-322.9885589321
 30
0.0
 10
1906.0757489068
 20
-323.0497745112
 30
0.0
  0
SPLINE
  5
E02
330
216
100
AcDbEntity
  8
0
  6
Continuous
 62
     7
100
AcDbSpline
210
0.0
220
0.0
230
1.0
 70
     8
 71
     3
 72
    10
 73
     6
 74
     0
 42
0.0000000001
 43
0.0000000001
 40
0.0
 40
0.0
 40
0.0
 40
0.0
 40
0.3848988664
 40
0.6807372722000001
 40
1.0
 40
1.0
 40
1.0
 40
1.0
 10
1924.5522380491
 20
-148.7416802536
 30
0.0
 10
1924.9468789912
 20
-148.7411183808
 30
0.0
 10
1925.5342951422
 20
-149.3761686871
 30
0.0
 10
1925.850890859
 20
-150.3190888647
 30
0.0
 10
1925.9561970473
 20
-150.9520840189
 30
0.0
 10
1925.9807574196
 20
-151.2785051809
 30
0.0
  0
ENDSEC
  0
SECTION
  2
OBJECTS
  0
DICTIONARY
  5
C
330
0
100
AcDbDictionary
281
     1
  3
ACAD_COLOR
350
E50
  3
ACAD_GROUP
350
D
  3
ACAD_LAYOUT
350
1A
  3
ACAD_MATERIAL
350
E26
  3
ACAD_MLEADERSTYLE
350
E63
  3
ACAD_MLINESTYLE
350
17
  3
ACAD_PLOTSETTINGS
350
19
  3
ACAD_PLOTSTYLENAME
350
E
  3
ACAD_SCALELIST
350
E51
  3
ACAD_TABLESTYLE
350
E1F
  3
ACAD_VISUALSTYLE
350
E3F
  3
ACDB_RECOMPOSE_DATA
350
F12
  3
AcDbVariableDictionary
350
F0A
  3
AcmDictionary
350
EC2
  3
AMG
350
E69
  3
AMGSNAPSETTINGS
350
F03
  0
DICTIONARY
  5
E50
102
{ACAD_REACTORS
330
C
102
}
330
C
100
AcDbDictionary
281
     1
  0
DICTIONARY
  5
D
102
{ACAD_REACTORS
330
C
102
}
330
C
100
AcDbDictionary
281
     1
  0
DICTIONARY
  5
1A
102
{ACAD_REACTORS
330
C
102
}
330
C
100
AcDbDictionary
281
     1
  3
Layout1
350
E21
  3
Model
350
E20
  0
DICTIONARY
  5
E26
102
{ACAD_REACTORS
330
C
102
}
330
C
100
AcDbDictionary
281
     1
  3
ByBlock
350
E2F
  3
ByLayer
350
E27
  3
Global
350
E37
  0
DICTIONARY
  5
E63
102
{ACAD_REACTORS
330
C
102
}
330
C
100
AcDbDictionary
281
     1
  3
Standard
350
E64
  0
DICTIONARY
  5
17
102
{ACAD_REACTORS
330
C
102
}
330
C
100
AcDbDictionary
281
     1
  3
Standard
350
18
  0
DICTIONARY
  5
19
102
{ACAD_REACTORS
330
C
102
}
330
C
100
AcDbDictionary
281
     1
  0
ACDBDICTIONARYWDFLT
  5
E
102
{ACAD_REACTORS
330
C
102
}
330
C
100
AcDbDictionary
281
     1
  3
Normal
350
F
100
AcDbDictionaryWithDefault
340
F
  0
DICTIONARY
  5
E51
102
{ACAD_REACTORS
330
C
102
}
330
C
100
AcDbDictionary
281
     1
  3
A0
350
E52
  3
A1
350
E53
  3
A2
350
E54
  3
A3
350
E55
  3
A4
350
E56
  3
A5
350
E57
  3
A6
350
E58
  3
A7
350
E59
  3
A8
350
E5A
  3
A9
350
E5B
  3
B0
350
E5C
  3
B1
350
E5D
  3
B2
350
E5E
  3
B3
350
E5F
  3
B4
350
E60
  3
B5
350
E61
  3
B6
350
E62
  0
DICTIONARY
  5
E1F
330
C
100
AcDbDictionary
281
     1
  3
Standard
350
E22
  3
Standard1
350
E23
  0
DICTIONARY
  5
E3F
102
{ACAD_REACTORS
330
C
102
}
330
C
100
AcDbDictionary
281
     1
  3
2dWireframe
350
E45
  3
3D Hidden
350
E47
  3
3dWireframe
350
E46
  3
Basic
350
E44
  3
Brighten
350
E4B
  3
ColorChange
350
E4F
  3
Conceptual
350
E48
  3
Dim
350
E4A
  3
Facepattern
350
E4E
  3
Flat
350
E40
  3
FlatWithEdges
350
E41
  3
Gouraud
350
E42
  3
GouraudWithEdges
350
E43
  3
Linepattern
350
E4D
  3
Realistic
350
E49
  3
Thicken
350
E4C
  0
XRECORD
  5
F12
102
{ACAD_REACTORS
330
C
102
}
330
C
100
AcDbXrecord
280
     1
 90
        1
330
E22
330
E23
  0
DICTIONARY
  5
F0A
102
{ACAD_REACTORS
330
C
102
}
330
C
100
AcDbDictionary
281
     1
  3
CANNOSCALE
350
F0D
  3
CMLEADERSTYLE
350
F0C
  3
CTABLESTYLE
350
F0B
  0
DICTIONARY
  5
EC2
102
{ACAD_REACTORS
330
C
102
}
330
C
100
AcDbDictionary
281
     1
  3
AcmStdDictionary
350
ECF
  0
DICTIONARY
  5
E69
102
{ACAD_REACTORS
330
C
102
}
330
C
100
AcDbDictionary
281
     1
  0
DICTIONARY
  5
F03
102
{ACAD_REACTORS
330
C
102
}
330
C
100
AcDbDictionary
281
     1
  0
LAYOUT
  5
E21
102
{ACAD_REACTORS
330
1A
102
}
330
1A
100
AcDbPlotSettings
  1

  2
none_device
  4
ANSI_D_(34.00_x_22.00_Inches)
  6

 40
0.0
 41
0.0
 42
0.0
 43
0.0
 44
863.6000000000001
 45
558.8
 46
0.0
 47
0.0
 48
0.0
 49
0.0
140
0.0
141
0.0
142
1.0
143
1.0
 70
     0
 72
     1
 73
     0
 74
     0
  7

 75
     0
147
1.0
 76
     0
 77
     2
 78
   300
148
0.0
149
0.0
100
AcDbLayout
  1
Layout1
 70
     1
 71
     1
 10
0.0
 20
0.0
 11
12.0
 21
9.0
 12
0.0
 22
0.0
 32
0.0
 14
1.000000000000000E+20
 24
1.000000000000000E+20
 34
1.000000000000000E+20
 15
-1.000000000000000E+20
 25
-1.000000000000000E+20
 35
-1.000000000000000E+20
146
0.0
 13
0.0
 23
0.0
 33
0.0
 16
1.0
 26
0.0
 36
0.0
 17
0.0
 27
1.0
 37
0.0
 76
     0
330
217
  0
LAYOUT
  5
E20
102
{ACAD_REACTORS
330
1A
102
}
330
1A
100
AcDbPlotSettings
  1

  2
none_device
  4
ANSI_D_(34.00_x_22.00_Inches)
  6

 40
0.0
 41
0.0
 42
0.0
 43
0.0
 44
863.6000000000001
 45
558.8
 46
0.0
 47
0.0
 48
0.0
 49
0.0
140
0.0
141
0.0
142
1.0
143
1.0
 70
  1024
 72
     1
 73
     0
 74
     0
  7

 75
     0
147
1.0
 76
     0
 77
     2
 78
   300
148
0.0
149
0.0
100
AcDbLayout
  1
Model
 70
     0
 71
     0
 10
0.0
 20
0.0
 11
863.6000000000001
 21
558.8
 12
0.0
 22
0.0
 32
0.0
 14
0.0
 24
0.0
 34
0.0
 15
0.0
 25
0.0
 35
0.0
146
0.0
 13
0.0
 23
0.0
 33
0.0
 16
1.0
 26
0.0
 36
0.0
 17
0.0
 27
1.0
 37
0.0
 76
     0
330
216
331
1F4
  0
MATERIAL
  5
E2F
102
{ACAD_XDICTIONARY
360
E30
102
}
102
{ACAD_REACTORS
330
E26
102
}
330
E26
100
AcDbMaterial
  1
ByBlock
 72
     0
 43
0.0008202099737533
 43
0.0
 43
0.0
 43
0.0
 43
0.0
 43
0.0008202099737533
 43
0.0
 43
0.0
 43
0.0
 43
0.0
 43
1.0
 43
0.0
 43
0.0
 43
0.0
 43
0.0
 43
1.0
 77
     0
 47
0.0008202099737533
 47
0.0
 47
0.0
 47
0.0
 47
0.0
 47
0.0008202099737533
 47
0.0
 47
0.0
 47
0.0
 47
0.0
 47
1.0
 47
0.0
 47
0.0
 47
0.0
 47
0.0
 47
1.0
171
     0
 49
0.0008202099737533
 49
0.0
 49
0.0
 49
0.0
 49
0.0
 49
0.0008202099737533
 49
0.0
 49
0.0
 49
0.0
 49
0.0
 49
1.0
 49
0.0
 49
0.0
 49
0.0
 49
0.0
 49
1.0
175
     0
142
0.0008202099737533
142
0.0
142
0.0
142
0.0
142
0.0
142
0.0008202099737533
142
0.0
142
0.0
142
0.0
142
0.0
142
1.0
142
0.0
142
0.0
142
0.0
142
0.0
142
1.0
179
     0
144
0.0008202099737533
144
0.0
144
0.0
144
0.0
144
0.0
144
0.0008202099737533
144
0.0
144
0.0
144
0.0
144
0.0
144
1.0
144
0.0
144
0.0
144
0.0
144
0.0
144
1.0
147
0.0008202099737533
147
0.0
147
0.0
147
0.0
147
0.0
147
0.0008202099737533
147
0.0
147
0.0
147
0.0
147
0.0
147
1.0
147
0.0
147
0.0
147
0.0
147
0.0
147
1.0
  0
MATERIAL
  5
E27
102
{ACAD_XDICTIONARY
360
E28
102
}
102
{ACAD_REACTORS
330
E26
102
}
330
E26
100
AcDbMaterial
  1
ByLayer
 72
     0
 43
0.0008202099737533
 43
0.0
 43
0.0
 43
0.0
 43
0.0
 43
0.0008202099737533
 43
0.0
 43
0.0
 43
0.0
 43
0.0
 43
1.0
 43
0.0
 43
0.0
 43
0.0
 43
0.0
 43
1.0
 77
     0
 47
0.0008202099737533
 47
0.0
 47
0.0
 47
0.0
 47
0.0
 47
0.0008202099737533
 47
0.0
 47
0.0
 47
0.0
 47
0.0
 47
1.0
 47
0.0
 47
0.0
 47
0.0
 47
0.0
 47
1.0
171
     0
 49
0.0008202099737533
 49
0.0
 49
0.0
 49
0.0
 49
0.0
 49
0.0008202099737533
 49
0.0
 49
0.0
 49
0.0
 49
0.0
 49
1.0
 49
0.0
 49
0.0
 49
0.0
 49
0.0
 49
1.0
175
     0
142
0.0008202099737533
142
0.0
142
0.0
142
0.0
142
0.0
142
0.0008202099737533
142
0.0
142
0.0
142
0.0
142
0.0
142
1.0
142
0.0
142
0.0
142
0.0
142
0.0
142
1.0
179
     0
144
0.0008202099737533
144
0.0
144
0.0
144
0.0
144
0.0
144
0.0008202099737533
144
0.0
144
0.0
144
0.0
144
0.0
144
1.0
144
0.0
144
0.0
144
0.0
144
0.0
144
1.0
147
0.0008202099737533
147
0.0
147
0.0
147
0.0
147
0.0
147
0.0008202099737533
147
0.0
147
0.0
147
0.0
147
0.0
147
1.0
147
0.0
147
0.0
147
0.0
147
0.0
147
1.0
  0
MATERIAL
  5
E37
102
{ACAD_XDICTIONARY
360
E38
102
}
102
{ACAD_REACTORS
330
E26
102
}
330
E26
100
AcDbMaterial
  1
Global
 72
     0
 43
0.0008202099737533
 43
0.0
 43
0.0
 43
0.0
 43
0.0
 43
0.0008202099737533
 43
0.0
 43
0.0
 43
0.0
 43
0.0
 43
1.0
 43
0.0
 43
0.0
 43
0.0
 43
0.0
 43
1.0
 77
     0
 47
0.0008202099737533
 47
0.0
 47
0.0
 47
0.0
 47
0.0
 47
0.0008202099737533
 47
0.0
 47
0.0
 47
0.0
 47
0.0
 47
1.0
 47
0.0
 47
0.0
 47
0.0
 47
0.0
 47
1.0
171
     0
 49
0.0008202099737533
 49
0.0
 49
0.0
 49
0.0
 49
0.0
 49
0.0008202099737533
 49
0.0
 49
0.0
 49
0.0
 49
0.0
 49
1.0
 49
0.0
 49
0.0
 49
0.0
 49
0.0
 49
1.0
175
     0
142
0.0008202099737533
142
0.0
142
0.0
142
0.0
142
0.0
142
0.0008202099737533
142
0.0
142
0.0
142
0.0
142
0.0
142
1.0
142
0.0
142
0.0
142
0.0
142
0.0
142
1.0
179
     0
144
0.0008202099737533
144
0.0
144
0.0
144
0.0
144
0.0
144
0.0008202099737533
144
0.0
144
0.0
144
0.0
144
0.0
144
1.0
144
0.0
144
0.0
144
0.0
144
0.0
144
1.0
147
0.0008202099737533
147
0.0
147
0.0
147
0.0
147
0.0
147
0.0008202099737533
147
0.0
147
0.0
147
0.0
147
0.0
147
1.0
147
0.0
147
0.0
147
0.0
147
0.0
147
1.0
  0
MLEADERSTYLE
  5
E64
102
{ACAD_REACTORS
330
E63
102
}
330
E63
100
AcDbMLeaderStyle
170
     2
171
     1
172
     0
 90
        2
 40
0.0
 41
0.0
173
     1
 91
-1056964608
340
14
 92
       -2
290
     1
 42
2.0
291
     1
 43
0.36
  3
Standard
 44
4.0
300

342
11
174
     1
178
     6
175
     1
176
     0
 93
-1056964608
 45
4.0
292
     0
297
     0
 46
4.0
 94
-1056964608
 47
1.0
 49
1.0
140
1.0
293
     1
141
0.0
294
     1
177
     0
142
1.0
295
     0
296
     0
143
0.125
1001
ACAD_MLEADERVER
1070
     2
  0
MLINESTYLE
  5
18
102
{ACAD_REACTORS
330
17
102
}
330
17
100
AcDbMlineStyle
  2
STANDARD
 70
     0
  3

 62
   256
 51
90.0
 52
90.0
 71
     2
 49
0.5
 62
   256
  6
BYLAYER
 49
-0.5
 62
   256
  6
BYLAYER
  0
ACDBPLACEHOLDER
  5
F
102
{ACAD_REACTORS
330
E
102
}
330
E
  0
SCALE
  5
E52
102
{ACAD_REACTORS
330
E51
102
}
330
E51
100
AcDbScale
 70
     0
300
1:1
140
1.0
141
1.0
290
     1
  0
SCALE
  5
E53
102
{ACAD_REACTORS
330
E51
102
}
330
E51
100
AcDbScale
 70
     0
300
1:2
140
1.0
141
2.0
290
     0
  0
SCALE
  5
E54
102
{ACAD_REACTORS
330
E51
102
}
330
E51
100
AcDbScale
 70
     0
300
1:4
140
1.0
141
4.0
290
     0
  0
SCALE
  5
E55
102
{ACAD_REACTORS
330
E51
102
}
330
E51
100
AcDbScale
 70
     0
300
1:5
140
1.0
141
5.0
290
     0
  0
SCALE
  5
E56
102
{ACAD_REACTORS
330
E51
102
}
330
E51
100
AcDbScale
 70
     0
300
1:8
140
1.0
141
8.0
290
     0
  0
SCALE
  5
E57
102
{ACAD_REACTORS
330
E51
102
}
330
E51
100
AcDbScale
 70
     0
300
1:10
140
1.0
141
10.0
290
     0
  0
SCALE
  5
E58
102
{ACAD_REACTORS
330
E51
102
}
330
E51
100
AcDbScale
 70
     0
300
1:16
140
1.0
141
16.0
290
     0
  0
SCALE
  5
E59
102
{ACAD_REACTORS
330
E51
102
}
330
E51
100
AcDbScale
 70
     0
300
1:20
140
1.0
141
20.0
290
     0
  0
SCALE
  5
E5A
102
{ACAD_REACTORS
330
E51
102
}
330
E51
100
AcDbScale
 70
     0
300
1:30
140
1.0
141
30.0
290
     0
  0
SCALE
  5
E5B
102
{ACAD_REACTORS
330
E51
102
}
330
E51
100
AcDbScale
 70
     0
300
1:40
140
1.0
141
40.0
290
     0
  0
SCALE
  5
E5C
102
{ACAD_REACTORS
330
E51
102
}
330
E51
100
AcDbScale
 70
     0
300
1:50
140
1.0
141
50.0
290
     0
  0
SCALE
  5
E5D
102
{ACAD_REACTORS
330
E51
102
}
330
E51
100
AcDbScale
 70
     0
300
1:100
140
1.0
141
100.0
290
     0
  0
SCALE
  5
E5E
102
{ACAD_REACTORS
330
E51
102
}
330
E51
100
AcDbScale
 70
     0
300
2:1
140
2.0
141
1.0
290
     0
  0
SCALE
  5
E5F
102
{ACAD_REACTORS
330
E51
102
}
330
E51
100
AcDbScale
 70
     0
300
4:1
140
4.0
141
1.0
290
     0
  0
SCALE
  5
E60
102
{ACAD_REACTORS
330
E51
102
}
330
E51
100
AcDbScale
 70
     0
300
8:1
140
8.0
141
1.0
290
     0
  0
SCALE
  5
E61
102
{ACAD_REACTORS
330
E51
102
}
330
E51
100
AcDbScale
 70
     0
300
10:1
140
10.0
141
1.0
290
     0
  0
SCALE
  5
E62
102
{ACAD_REACTORS
330
E51
102
}
330
E51
100
AcDbScale
 70
     0
300
100:1
140
100.0
141
1.0
290
     0
  0
TABLESTYLE
  5
E22
102
{ACAD_XDICTIONARY
360
F0E
102
}
102
{ACAD_REACTORS
330
E1F
102
}
330
E1F
100
AcDbTableStyle
  3
Standard
 70
     0
 71
     0
 40
0.06
 41
0.06
280
     1
281
     1
  7
STANDARD
140
0.18
170
     1
 62
     0
 63
     7
283
     0
 90
      512
 91
        0
  1

274
    -2
284
     1
 64
     0
275
    -2
285
     1
 65
     0
276
    -2
286
     1
 66
     0
277
    -2
287
     1
 67
     0
278
    -2
288
     1
 68
     0
279
    -2
289
     1
 69
     0
  7
STANDARD
140
0.18
170
     1
 62
     0
 63
     7
283
     0
 90
      512
 91
        0
  1

274
    -2
284
     1
 64
     0
275
    -2
285
     1
 65
     0
276
    -2
286
     1
 66
     0
277
    -2
287
     1
 67
     0
278
    -2
288
     1
 68
     0
279
    -2
289
     1
 69
     0
  7
STANDARD
140
0.18
170
     1
 62
     0
 63
     7
283
     0
 90
      512
 91
        0
  1

274
    -2
284
     1
 64
     0
275
    -2
285
     1
 65
     0
276
    -2
286
     1
 66
     0
277
    -2
287
     1
 67
     0
278
    -2
288
     1
 68
     0
279
    -2
289
     1
 69
     0
  0
TABLESTYLE
  5
E23
102
{ACAD_XDICTIONARY
360
F10
102
}
102
{ACAD_REACTORS
330
E1F
102
}
330
E1F
100
AcDbTableStyle
  3
Standard1
 70
     1
 71
     0
 40
0.06
 41
0.06
280
     1
281
     1
  7
STANDARD
140
0.18
170
     1
 62
     0
 63
     7
283
     0
 90
      512
 91
        0
  1

274
    -2
284
     1
 64
     0
275
    -2
285
     1
 65
     0
276
    -2
286
     1
 66
     0
277
    -2
287
     1
 67
     0
278
    -2
288
     1
 68
     0
279
    -2
289
     1
 69
     0
  7
STANDARD
140
0.18
170
     1
 62
     0
 63
     7
283
     0
 90
      512
 91
        0
  1

274
    -2
284
     1
 64
     0
275
    -2
285
     1
 65
     0
276
    -2
286
     1
 66
     0
277
    -2
287
     1
 67
     0
278
    -2
288
     1
 68
     0
279
    -2
289
     1
 69
     0
  7
STANDARD
140
0.18
170
     1
 62
     0
 63
     7
283
     0
 90
      512
 91
        0
  1

274
    -2
284
     1
 64
     0
275
    -2
285
     1
 65
     0
276
    -2
286
     1
 66
     0
277
    -2
287
     1
 67
     0
278
    -2
288
     1
 68
     0
279
    -2
289
     1
 69
     0
  0
VISUALSTYLE
  5
E45
102
{ACAD_REACTORS
330
E3F
102
}
330
E3F
100
AcDbVisualStyle
  2
2dWireframe
 70
     4
 71
     0
 72
     2
 73
     0
 90
        0
 40
-0.6
 41
-30.0
 62
     5
 63
     7
421
 16777215
 74
     1
 91
        4
 64
     7
 65
   257
 75
     1
175
     1
 42
1.0
 92
        0
 66
   257
 43
1.0
 76
     1
 77
     6
 78
     2
 67
     7
 79
     5
170
     0
171
     0
290
     0
174
     0
 93
        1
 44
0.0
173
     0
291
     0
 45
0.0
  0
VISUALSTYLE
  5
E47
102
{ACAD_REACTORS
330
E3F
102
}
330
E3F
100
AcDbVisualStyle
  2
3D Hidden
 70
     6
 71
     1
 72
     2
 73
     2
 90
        0
 40
-0.6
 41
-30.0
 62
     5
 63
     7
421
 16777215
 74
     2
 91
        2
 64
     7
 65
   257
 75
     2
175
     1
 42
40.0
 92
        0
 66
   257
 43
1.0
 76
     1
 77
     6
 78
     2
 67
     7
 79
     3
170
     0
171
     0
290
     0
174
     0
 93
        1
 44
0.0
173
     0
291
     0
 45
0.0
  0
VISUALSTYLE
  5
E46
102
{ACAD_REACTORS
330
E3F
102
}
330
E3F
100
AcDbVisualStyle
  2
3dWireframe
 70
     5
 71
     0
 72
     2
 73
     0
 90
        0
 40
-0.6
 41
-30.0
 62
     5
 63
     7
421
 16777215
 74
     1
 91
        4
 64
     7
 65
   257
 75
     1
175
     1
 42
1.0
 92
        0
 66
   257
 43
1.0
 76
     1
 77
     6
 78
     2
 67
     7
 79
     5
170
     0
171
     0
290
     0
174
     0
 93
        1
 44
0.0
173
     0
291
     0
 45
0.0
  0
VISUALSTYLE
  5
E44
102
{ACAD_REACTORS
330
E3F
102
}
330
E3F
100
AcDbVisualStyle
  2
Basic
 70
     7
 71
     1
 72
     0
 73
     1
 90
        0
 40
-0.6
 41
-30.0
 62
     5
 63
     7
421
 16777215
 74
     0
 91
        4
 64
     7
 65
   257
 75
     1
175
     1
 42
1.0
 92
        8
 66
     7
 43
1.0
 76
     1
 77
     6
 78
     2
 67
     7
 79
     5
170
     0
171
     0
290
     0
174
     0
 93
        1
 44
0.0
173
     0
291
     1
 45
0.0
  0
VISUALSTYLE
  5
E4B
102
{ACAD_REACTORS
330
E3F
102
}
330
E3F
100
AcDbVisualStyle
  2
Brighten
 70
    12
 71
     2
 72
     2
 73
     0
 90
        0
 40
-0.6
 41
-30.0
 62
     5
 63
     7
421
 16777215
 74
     1
 91
        4
 64
     7
 65
   257
 75
     1
175
     1
 42
1.0
 92
        8
 66
     7
 43
1.0
 76
     1
 77
     6
 78
     2
 67
     7
 79
     5
170
     0
171
     0
290
     0
174
     0
 93
        1
 44
50.0
173
     0
291
     1
 45
0.0
  0
VISUALSTYLE
  5
E4F
102
{ACAD_REACTORS
330
E3F
102
}
330
E3F
100
AcDbVisualStyle
  2
ColorChange
 70
    16
 71
     2
 72
     2
 73
     3
 90
        0
 40
-0.6
 41
-30.0
 62
     5
 63
     8
421
  8421504
 74
     1
 91
        4
 64
     7
 65
   257
 75
     1
175
     1
 42
1.0
 92
        8
 66
     8
424
  8421504
 43
1.0
 76
     1
 77
     6
 78
     2
 67
     7
 79
     5
170
     0
171
     0
290
     0
174
     0
 93
        1
 44
0.0
173
     0
291
     1
 45
0.0
  0
VISUALSTYLE
  5
E48
102
{ACAD_REACTORS
330
E3F
102
}
330
E3F
100
AcDbVisualStyle
  2
Conceptual
 70
     9
 71
     3
 72
     2
 73
     0
 90
        0
 40
-0.6
 41
-30.0
 62
     5
 63
     7
421
 16777215
 74
     2
 91
        2
 64
     7
 65
   257
 75
     1
175
     1
 42
40.0
 92
        8
 66
     7
 43
1.0
 76
     1
 77
     6
 78
     2
 67
     7
 79
     3
170
     0
171
     0
290
     0
174
     0
 93
        1
 44
0.0
173
     0
291
     0
 45
0.0
  0
VISUALSTYLE
  5
E4A
102
{ACAD_REACTORS
330
E3F
102
}
330
E3F
100
AcDbVisualStyle
  2
Dim
 70
    11
 71
     2
 72
     2
 73
     0
 90
        0
 40
-0.6
 41
-30.0
 62
     5
 63
     7
421
 16777215
 74
     1
 91
        4
 64
     7
 65
   257
 75
     1
175
     1
 42
1.0
 92
        8
 66
     7
 43
1.0
 76
     1
 77
     6
 78
     2
 67
     7
 79
     5
170
     0
171
     0
290
     0
174
     0
 93
        1
 44
-50.0
173
     0
291
     1
 45
0.0
  0
VISUALSTYLE
  5
E4E
102
{ACAD_REACTORS
330
E3F
102
}
330
E3F
100
AcDbVisualStyle
  2
Facepattern
 70
    15
 71
     2
 72
     2
 73
     0
 90
        0
 40
-0.6
 41
-30.0
 62
     5
 63
     7
421
 16777215
 74
     1
 91
        4
 64
     7
 65
   257
 75
     1
175
     1
 42
1.0
 92
        8
 66
     7
 43
1.0
 76
     1
 77
     6
 78
     2
 67
     7
 79
     5
170
     0
171
     0
290
     0
174
     0
 93
        1
 44
0.0
173
     0
291
     1
 45
0.0
  0
VISUALSTYLE
  5
E40
102
{ACAD_REACTORS
330
E3F
102
}
330
E3F
100
AcDbVisualStyle
  2
Flat
 70
     0
 71
     2
 72
     1
 73
     1
 90
        2
 40
-0.6
 41
30.0
 62
     5
 63
     7
421
 16777215
 74
     0
 91
        4
 64
     7
 65
   257
 75
     1
175
     1
 42
1.0
 92
        8
 66
     7
 43
1.0
 76
     1
 77
     6
 78
     2
 67
     7
 79
     5
170
     0
171
     0
290
     0
174
     0
 93
       13
 44
0.0
173
     0
291
     1
 45
0.0
  0
VISUALSTYLE
  5
E41
102
{ACAD_REACTORS
330
E3F
102
}
330
E3F
100
AcDbVisualStyle
  2
FlatWithEdges
 70
     1
 71
     2
 72
     1
 73
     1
 90
        2
 40
-0.6
 41
30.0
 62
     5
 63
     7
421
 16777215
 74
     1
 91
        4
 64
     7
 65
   257
 75
     1
175
     1
 42
1.0
 92
        0
 66
   257
 43
1.0
 76
     1
 77
     6
 78
     2
 67
     7
 79
     5
170
     0
171
     0
290
     0
174
     0
 93
       13
 44
0.0
173
     0
291
     1
 45
0.0
  0
VISUALSTYLE
  5
E42
102
{ACAD_REACTORS
330
E3F
102
}
330
E3F
100
AcDbVisualStyle
  2
Gouraud
 70
     2
 71
     2
 72
     2
 73
     1
 90
        2
 40
-0.6
 41
30.0
 62
     5
 63
     7
421
 16777215
 74
     0
 91
        4
 64
     7
 65
   257
 75
     1
175
     1
 42
1.0
 92
        0
 66
     7
 43
1.0
 76
     1
 77
     6
 78
     2
 67
     7
 79
     5
170
     0
171
     0
290
     0
174
     0
 93
       13
 44
0.0
173
     0
291
     1
 45
0.0
  0
VISUALSTYLE
  5
E43
102
{ACAD_REACTORS
330
E3F
102
}
330
E3F
100
AcDbVisualStyle
  2
GouraudWithEdges
 70
     3
 71
     2
 72
     2
 73
     1
 90
        2
 40
-0.6
 41
30.0
 62
     5
 63
     7
421
 16777215
 74
     1
 91
        4
 64
     7
 65
   257
 75
     1
175
     1
 42
1.0
 92
        0
 66
   257
 43
1.0
 76
     1
 77
     6
 78
     2
 67
     7
 79
     5
170
     0
171
     0
290
     0
174
     0
 93
       13
 44
0.0
173
     0
291
     1
 45
0.0
  0
VISUALSTYLE
  5
E4D
102
{ACAD_REACTORS
330
E3F
102
}
330
E3F
100
AcDbVisualStyle
  2
Linepattern
 70
    14
 71
     2
 72
     2
 73
     0
 90
        0
 40
-0.6
 41
-30.0
 62
     5
 63
     7
421
 16777215
 74
     1
 91
        4
 64
     7
 65
   257
 75
     7
175
     7
 42
1.0
 92
        8
 66
     7
 43
1.0
 76
     1
 77
     6
 78
     2
 67
     7
 79
     5
170
     0
171
     0
290
     0
174
     0
 93
        1
 44
0.0
173
     0
291
     1
 45
0.0
  0
VISUALSTYLE
  5
E49
102
{ACAD_REACTORS
330
E3F
102
}
330
E3F
100
AcDbVisualStyle
  2
Realistic
 70
     8
 71
     2
 72
     2
 73
     0
 90
        0
 40
-0.6
 41
-30.0
 62
     5
 63
     7
421
 16777215
 74
     1
 91
        0
 64
     7
 65
   257
 75
     1
175
     1
 42
1.0
 92
        8
 66
     8
424
  7895160
 43
1.0
 76
     1
 77
     6
 78
     2
 67
     7
 79
     5
170
     0
171
     0
290
     0
174
     0
 93
       13
 44
0.0
173
     0
291
     0
 45
0.0
  0
VISUALSTYLE
  5
E4C
102
{ACAD_REACTORS
330
E3F
102
}
330
E3F
100
AcDbVisualStyle
  2
Thicken
 70
    13
 71
     2
 72
     2
 73
     0
 90
        0
 40
-0.6
 41
-30.0
 62
     5
 63
     7
421
 16777215
 74
     1
 91
        4
 64
     7
 65
   257
 75
     1
175
     1
 42
1.0
 92
       12
 66
     7
 43
1.0
 76
     1
 77
     6
 78
     2
 67
     7
 79
     5
170
     0
171
     0
290
     0
174
     0
 93
        1
 44
0.0
173
     0
291
     1
 45
0.0
  0
DICTIONARYVAR
  5
F0D
102
{ACAD_REACTORS
330
F0A
102
}
330
F0A
100
DictionaryVariables
280
     0
  1
1:1
  0
DICTIONARYVAR
  5
F0C
102
{ACAD_REACTORS
330
F0A
102
}
330
F0A
100
DictionaryVariables
280
     0
  1
STANDARD
  0
DICTIONARYVAR
  5
F0B
102
{ACAD_REACTORS
330
F0A
102
}
330
F0A
100
DictionaryVariables
280
     0
  1
STANDARD
  0
DICTIONARY
  5
ECF
102
{ACAD_REACTORS
330
EC2
102
}
330
EC2
100
AcDbDictionary
281
     1
  0
DICTIONARY
  5
E30
330
E2F
100
AcDbDictionary
280
     1
281
     1
  3
BUMPTILE
360
E32
  3
DIFFUSETILE
360
E31
  3
OPACITYTILE
360
E35
  3
REFLECTIONTILE
360
E34
  3
REFRACTIONTILE
360
E36
  3
SPECULARTILE
360
E33
  0
DICTIONARY
  5
E28
330
E27
100
AcDbDictionary
280
     1
281
     1
  3
BUMPTILE
360
E2A
  3
DIFFUSETILE
360
E29
  3
OPACITYTILE
360
E2D
  3
REFLECTIONTILE
360
E2C
  3
REFRACTIONTILE
360
E2E
  3
SPECULARTILE
360
E2B
  0
DICTIONARY
  5
E38
330
E37
100
AcDbDictionary
280
     1
281
     1
  3
BUMPTILE
360
E3A
  3
DIFFUSETILE
360
E39
  3
OPACITYTILE
360
E3D
  3
REFLECTIONTILE
360
E3C
  3
REFRACTIONTILE
360
E3E
  3
SPECULARTILE
360
E3B
  0
DICTIONARY
  5
F0E
330
E22
100
AcDbDictionary
280
     1
281
     1
  3
ACAD_ROUNDTRIP_2008_TABLESTYLE_CELLSTYLEMAP
360
F92
  0
DICTIONARY
  5
F10
330
E23
100
AcDbDictionary
280
     1
281
     1
  3
ACAD_ROUNDTRIP_2008_TABLESTYLE_CELLSTYLEMAP
360
F93
  0
XRECORD
  5
E32
102
{ACAD_REACTORS
330
E30
102
}
330
E30
100
AcDbXrecord
280
     1
270
     1
271
     1
  0
XRECORD
  5
E31
102
{ACAD_REACTORS
330
E30
102
}
330
E30
100
AcDbXrecord
280
     1
270
     1
271
     1
  0
XRECORD
  5
E35
102
{ACAD_REACTORS
330
E30
102
}
330
E30
100
AcDbXrecord
280
     1
270
     1
271
     1
  0
XRECORD
  5
E34
102
{ACAD_REACTORS
330
E30
102
}
330
E30
100
AcDbXrecord
280
     1
270
     1
271
     1
  0
XRECORD
  5
E36
102
{ACAD_REACTORS
330
E30
102
}
330
E30
100
AcDbXrecord
280
     1
270
     1
271
     1
  0
XRECORD
  5
E33
102
{ACAD_REACTORS
330
E30
102
}
330
E30
100
AcDbXrecord
280
     1
270
     1
271
     1
  0
XRECORD
  5
E2A
102
{ACAD_REACTORS
330
E28
102
}
330
E28
100
AcDbXrecord
280
     1
270
     1
271
     1
  0
XRECORD
  5
E29
102
{ACAD_REACTORS
330
E28
102
}
330
E28
100
AcDbXrecord
280
     1
270
     1
271
     1
  0
XRECORD
  5
E2D
102
{ACAD_REACTORS
330
E28
102
}
330
E28
100
AcDbXrecord
280
     1
270
     1
271
     1
  0
XRECORD
  5
E2C
102
{ACAD_REACTORS
330
E28
102
}
330
E28
100
AcDbXrecord
280
     1
270
     1
271
     1
  0
XRECORD
  5
E2E
102
{ACAD_REACTORS
330
E28
102
}
330
E28
100
AcDbXrecord
280
     1
270
     1
271
     1
  0
XRECORD
  5
E2B
102
{ACAD_REACTORS
330
E28
102
}
330
E28
100
AcDbXrecord
280
     1
270
     1
271
     1
  0
XRECORD
  5
E3A
102
{ACAD_REACTORS
330
E38
102
}
330
E38
100
AcDbXrecord
280
     1
270
     1
271
     1
  0
XRECORD
  5
E39
102
{ACAD_REACTORS
330
E38
102
}
330
E38
100
AcDbXrecord
280
     1
270
     1
271
     1
  0
XRECORD
  5
E3D
102
{ACAD_REACTORS
330
E38
102
}
330
E38
100
AcDbXrecord
280
     1
270
     1
271
     1
  0
XRECORD
  5
E3C
102
{ACAD_REACTORS
330
E38
102
}
330
E38
100
AcDbXrecord
280
     1
270
     1
271
     1
  0
XRECORD
  5
E3E
102
{ACAD_REACTORS
330
E38
102
}
330
E38
100
AcDbXrecord
280
     1
270
     1
271
     1
  0
XRECORD
  5
E3B
102
{ACAD_REACTORS
330
E38
102
}
330
E38
100
AcDbXrecord
280
     1
270
     1
271
     1
  0
CELLSTYLEMAP
  5
F92
102
{ACAD_REACTORS
330
F0E
102
}
330
F0E
100
AcDbCellStyleMap
 90
        3
300
CELLSTYLE
  1
TABLEFORMAT_BEGIN
 90
        5
170
     1
 91
        0
 92
    32768
 62
   257
 93
        1
300
CONTENTFORMAT
  1
CONTENTFORMAT_BEGIN
 90
        0
 91
        0
 92
      512
 93
        0
300

 40
0.0
140
1.0
 94
        1
 62
     0
340
11
144
0.18
309
CONTENTFORMAT_END
171
     1
301
MARGIN
  1
CELLMARGIN_BEGIN
 40
0.06
 40
0.06
 40
0.06
 40
0.06
 40
0.18
 40
0.18
309
CELLMARGIN_END
 94
        6
 95
        1
302
GRIDFORMAT
  1
GRIDFORMAT_BEGIN
 90
        0
 91
        1
 62
     0
 92
       -2
340
0
 93
        0
 40
0.045
309
GRIDFORMAT_END
 95
        2
302
GRIDFORMAT
  1
GRIDFORMAT_BEGIN
 90
        0
 91
        1
 62
     0
 92
       -2
340
0
 93
        0
 40
0.045
309
GRIDFORMAT_END
 95
        4
302
GRIDFORMAT
  1
GRIDFORMAT_BEGIN
 90
        0
 91
        1
 62
     0
 92
       -2
340
0
 93
        0
 40
0.045
309
GRIDFORMAT_END
 95
        8
302
GRIDFORMAT
  1
GRIDFORMAT_BEGIN
 90
        0
 91
        1
 62
     0
 92
       -2
340
0
 93
        0
 40
0.045
309
GRIDFORMAT_END
 95
       16
302
GRIDFORMAT
  1
GRIDFORMAT_BEGIN
 90
        0
 91
        1
 62
     0
 92
       -2
340
0
 93
        0
 40
0.045
309
GRIDFORMAT_END
 95
       32
302
GRIDFORMAT
  1
GRIDFORMAT_BEGIN
 90
        0
 91
        1
 62
     0
 92
       -2
340
0
 93
        0
 40
0.045
309
GRIDFORMAT_END
309
TABLEFORMAT_END
  1
CELLSTYLE_BEGIN
 90
        1
 91
        1
300
_TITLE
309
CELLSTYLE_END
300
CELLSTYLE
  1
TABLEFORMAT_BEGIN
 90
        5
170
     1
 91
        0
 92
        0
 62
   257
 93
        1
300
CONTENTFORMAT
  1
CONTENTFORMAT_BEGIN
 90
        0
 91
        0
 92
      512
 93
        0
300

 40
0.0
140
1.0
 94
        1
 62
     0
340
11
144
0.18
309
CONTENTFORMAT_END
171
     1
301
MARGIN
  1
CELLMARGIN_BEGIN
 40
0.06
 40
0.06
 40
0.06
 40
0.06
 40
0.18
 40
0.18
309
CELLMARGIN_END
 94
        6
 95
        1
302
GRIDFORMAT
  1
GRIDFORMAT_BEGIN
 90
        0
 91
        1
 62
     0
 92
       -2
340
0
 93
        0
 40
0.045
309
GRIDFORMAT_END
 95
        2
302
GRIDFORMAT
  1
GRIDFORMAT_BEGIN
 90
        0
 91
        1
 62
     0
 92
       -2
340
0
 93
        0
 40
0.045
309
GRIDFORMAT_END
 95
        4
302
GRIDFORMAT
  1
GRIDFORMAT_BEGIN
 90
        0
 91
        1
 62
     0
 92
       -2
340
0
 93
        0
 40
0.045
309
GRIDFORMAT_END
 95
        8
302
GRIDFORMAT
  1
GRIDFORMAT_BEGIN
 90
        0
 91
        1
 62
     0
 92
       -2
340
0
 93
        0
 40
0.045
309
GRIDFORMAT_END
 95
       16
302
GRIDFORMAT
  1
GRIDFORMAT_BEGIN
 90
        0
 91
        1
 62
     0
 92
       -2
340
0
 93
        0
 40
0.045
309
GRIDFORMAT_END
 95
       32
302
GRIDFORMAT
  1
GRIDFORMAT_BEGIN
 90
        0
 91
        1
 62
     0
 92
       -2
340
0
 93
        0
 40
0.045
309
GRIDFORMAT_END
309
TABLEFORMAT_END
  1
CELLSTYLE_BEGIN
 90
        2
 91
        1
300
_HEADER
309
CELLSTYLE_END
300
CELLSTYLE
  1
TABLEFORMAT_BEGIN
 90
        5
170
     1
 91
        0
 92
        0
 62
   257
 93
        1
300
CONTENTFORMAT
  1
CONTENTFORMAT_BEGIN
 90
        0
 91
        0
 92
      512
 93
        0
300

 40
0.0
140
1.0
 94
        1
 62
     0
340
11
144
0.18
309
CONTENTFORMAT_END
171
     1
301
MARGIN
  1
CELLMARGIN_BEGIN
 40
0.06
 40
0.06
 40
0.06
 40
0.06
 40
0.18
 40
0.18
309
CELLMARGIN_END
 94
        6
 95
        1
302
GRIDFORMAT
  1
GRIDFORMAT_BEGIN
 90
        0
 91
        1
 62
     0
 92
       -2
340
0
 93
        0
 40
0.045
309
GRIDFORMAT_END
 95
        2
302
GRIDFORMAT
  1
GRIDFORMAT_BEGIN
 90
        0
 91
        1
 62
     0
 92
       -2
340
0
 93
        0
 40
0.045
309
GRIDFORMAT_END
 95
        4
302
GRIDFORMAT
  1
GRIDFORMAT_BEGIN
 90
        0
 91
        1
 62
     0
 92
       -2
340
0
 93
        0
 40
0.045
309
GRIDFORMAT_END
 95
        8
302
GRIDFORMAT
  1
GRIDFORMAT_BEGIN
 90
        0
 91
        1
 62
     0
 92
       -2
340
0
 93
        0
 40
0.045
309
GRIDFORMAT_END
 95
       16
302
GRIDFORMAT
  1
GRIDFORMAT_BEGIN
 90
        0
 91
        1
 62
     0
 92
       -2
340
0
 93
        0
 40
0.045
309
GRIDFORMAT_END
 95
       32
302
GRIDFORMAT
  1
GRIDFORMAT_BEGIN
 90
        0
 91
        1
 62
     0
 92
       -2
340
0
 93
        0
 40
0.045
309
GRIDFORMAT_END
309
TABLEFORMAT_END
  1
CELLSTYLE_BEGIN
 90
        3
 91
        2
300
_DATA
309
CELLSTYLE_END
  0
CELLSTYLEMAP
  5
F93
102
{ACAD_REACTORS
330
F10
102
}
330
F10
100
AcDbCellStyleMap
 90
        3
300
CELLSTYLE
  1
TABLEFORMAT_BEGIN
 90
        5
170
     1
 91
        0
 92
    32768
 62
   257
 93
        1
300
CONTENTFORMAT
  1
CONTENTFORMAT_BEGIN
 90
        0
 91
        0
 92
      512
 93
        0
300

 40
0.0
140
1.0
 94
        1
 62
     0
340
11
144
0.18
309
CONTENTFORMAT_END
171
     1
301
MARGIN
  1
CELLMARGIN_BEGIN
 40
0.06
 40
0.06
 40
0.06
 40
0.06
 40
0.18
 40
0.18
309
CELLMARGIN_END
 94
        6
 95
        1
302
GRIDFORMAT
  1
GRIDFORMAT_BEGIN
 90
        0
 91
        1
 62
     0
 92
       -2
340
0
 93
        0
 40
0.045
309
GRIDFORMAT_END
 95
        2
302
GRIDFORMAT
  1
GRIDFORMAT_BEGIN
 90
        0
 91
        1
 62
     0
 92
       -2
340
0
 93
        0
 40
0.045
309
GRIDFORMAT_END
 95
        4
302
GRIDFORMAT
  1
GRIDFORMAT_BEGIN
 90
        0
 91
        1
 62
     0
 92
       -2
340
0
 93
        0
 40
0.045
309
GRIDFORMAT_END
 95
        8
302
GRIDFORMAT
  1
GRIDFORMAT_BEGIN
 90
        0
 91
        1
 62
     0
 92
       -2
340
0
 93
        0
 40
0.045
309
GRIDFORMAT_END
 95
       16
302
GRIDFORMAT
  1
GRIDFORMAT_BEGIN
 90
        0
 91
        1
 62
     0
 92
       -2
340
0
 93
        0
 40
0.045
309
GRIDFORMAT_END
 95
       32
302
GRIDFORMAT
  1
GRIDFORMAT_BEGIN
 90
        0
 91
        1
 62
     0
 92
       -2
340
0
 93
        0
 40
0.045
309
GRIDFORMAT_END
309
TABLEFORMAT_END
  1
CELLSTYLE_BEGIN
 90
        1
 91
        1
300
_TITLE
309
CELLSTYLE_END
300
CELLSTYLE
  1
TABLEFORMAT_BEGIN
 90
        5
170
     1
 91
        0
 92
        0
 62
   257
 93
        1
300
CONTENTFORMAT
  1
CONTENTFORMAT_BEGIN
 90
        0
 91
        0
 92
      512
 93
        0
300

 40
0.0
140
1.0
 94
        1
 62
     0
340
11
144
0.18
309
CONTENTFORMAT_END
171
     1
301
MARGIN
  1
CELLMARGIN_BEGIN
 40
0.06
 40
0.06
 40
0.06
 40
0.06
 40
0.18
 40
0.18
309
CELLMARGIN_END
 94
        6
 95
        1
302
GRIDFORMAT
  1
GRIDFORMAT_BEGIN
 90
        0
 91
        1
 62
     0
 92
       -2
340
0
 93
        0
 40
0.045
309
GRIDFORMAT_END
 95
        2
302
GRIDFORMAT
  1
GRIDFORMAT_BEGIN
 90
        0
 91
        1
 62
     0
 92
       -2
340
0
 93
        0
 40
0.045
309
GRIDFORMAT_END
 95
        4
302
GRIDFORMAT
  1
GRIDFORMAT_BEGIN
 90
        0
 91
        1
 62
     0
 92
       -2
340
0
 93
        0
 40
0.045
309
GRIDFORMAT_END
 95
        8
302
GRIDFORMAT
  1
GRIDFORMAT_BEGIN
 90
        0
 91
        1
 62
     0
 92
       -2
340
0
 93
        0
 40
0.045
309
GRIDFORMAT_END
 95
       16
302
GRIDFORMAT
  1
GRIDFORMAT_BEGIN
 90
        0
 91
        1
 62
     0
 92
       -2
340
0
 93
        0
 40
0.045
309
GRIDFORMAT_END
 95
       32
302
GRIDFORMAT
  1
GRIDFORMAT_BEGIN
 90
        0
 91
        1
 62
     0
 92
       -2
340
0
 93
        0
 40
0.045
309
GRIDFORMAT_END
309
TABLEFORMAT_END
  1
CELLSTYLE_BEGIN
 90
        2
 91
        1
300
_HEADER
309
CELLSTYLE_END
300
CELLSTYLE
  1
TABLEFORMAT_BEGIN
 90
        5
170
     1
 91
        0
 92
        0
 62
   257
 93
        1
300
CONTENTFORMAT
  1
CONTENTFORMAT_BEGIN
 90
        0
 91
        0
 92
      512
 93
        0
300

 40
0.0
140
1.0
 94
        1
 62
     0
340
11
144
0.18
309
CONTENTFORMAT_END
171
     1
301
MARGIN
  1
CELLMARGIN_BEGIN
 40
0.06
 40
0.06
 40
0.06
 40
0.06
 40
0.18
 40
0.18
309
CELLMARGIN_END
 94
        6
 95
        1
302
GRIDFORMAT
  1
GRIDFORMAT_BEGIN
 90
        0
 91
        1
 62
     0
 92
       -2
340
0
 93
        0
 40
0.045
309
GRIDFORMAT_END
 95
        2
302
GRIDFORMAT
  1
GRIDFORMAT_BEGIN
 90
        0
 91
        1
 62
     0
 92
       -2
340
0
 93
        0
 40
0.045
309
GRIDFORMAT_END
 95
        4
302
GRIDFORMAT
  1
GRIDFORMAT_BEGIN
 90
        0
 91
        1
 62
     0
 92
       -2
340
0
 93
        0
 40
0.045
309
GRIDFORMAT_END
 95
        8
302
GRIDFORMAT
  1
GRIDFORMAT_BEGIN
 90
        0
 91
        1
 62
     0
 92
       -2
340
0
 93
        0
 40
0.045
309
GRIDFORMAT_END
 95
       16
302
GRIDFORMAT
  1
GRIDFORMAT_BEGIN
 90
        0
 91
        1
 62
     0
 92
       -2
340
0
 93
        0
 40
0.045
309
GRIDFORMAT_END
 95
       32
302
GRIDFORMAT
  1
GRIDFORMAT_BEGIN
 90
        0
 91
        1
 62
     0
 92
       -2
340
0
 93
        0
 40
0.045
309
GRIDFORMAT_END
309
TABLEFORMAT_END
  1
CELLSTYLE_BEGIN
 90
        3
 91
        2
300
_DATA
309
CELLSTYLE_END
  0
ENDSEC
  0
EOF
