  0
SECTION
  2
HEADER
  9
$ACADVER
  1
AC1021
  9
$ACADMAINTVER
 70
    50
  9
$DWGCODEPAGE
  3
ANSI_936
  9
$LASTSAVEDBY
  1
ko81367
  9
$INSBASE
 10
0.0
 20
0.0
 30
0.0
  9
$EXTMIN
 10
2160.7013702159
 20
-336.9791246878
 30
0.0
  9
$EXTMAX
 10
2610.7013702159
 20
-125.0038930884
 30
0.0
  9
$LIMMIN
 10
0.0
 20
0.0
  9
$LIMMAX
 10
863.6000000000001
 20
558.8
  9
$ORTHOMODE
 70
     0
  9
$REGENMODE
 70
     1
  9
$FILLMODE
 70
     1
  9
$QTEXTMODE
 70
     0
  9
$MIRRTEXT
 70
     0
  9
$LTSCALE
 40
47.498
  9
$ATTMODE
 70
     1
  9
$TEXTSIZE
 40
0.2
  9
$TRACEWID
 40
0.05
  9
$TEXTSTYLE
  7
STANDARD
  9
$CLAYER
  8
0
  9
$CELTYPE
  6
BYLAYER
  9
$CECOLOR
 62
   256
  9
$CELTSCALE
 40
1.0
  9
$DISPSILH
 70
     0
  9
$DIMSCALE
 40
1.0
  9
$DIMASZ
 40
3.5
  9
$DIMEXO
 40
1.0
  9
$DIMDLI
 40
10.0
  9
$DIMRND
 40
0.0
  9
$DIMDLE
 40
0.0
  9
$DIMEXE
 40
1.0
  9
$DIMTP
 40
0.1
  9
$DIMTM
 40
0.1
  9
$DIMTXT
 40
3.5
  9
$DIMCEN
 40
0.0
  9
$DIMTSZ
 40
0.0
  9
$DIMTOL
 70
     0
  9
$DIMLIM
 70
     0
  9
$DIMTIH
 70
     0
  9
$DIMTOH
 70
     0
  9
$DIMSE1
 70
     0
  9
$DIMSE2
 70
     0
  9
$DIMTAD
 70
     1
  9
$DIMZIN
 70
     8
  9
$DIMBLK
  1

  9
$DIMASO
 70
     1
  9
$DIMSHO
 70
     1
  9
$DIMPOST
  1

  9
$DIMAPOST
  1
"
  9
$DIMALT
 70
     0
  9
$DIMALTD
 70
     2
  9
$DIMALTF
 40
0.0393701
  9
$DIMLFAC
 40
1.0
  9
$DIMTOFL
 70
     1
  9
$DIMTVP
 40
0.0
  9
$DIMTIX
 70
     0
  9
$DIMSOXD
 70
     0
  9
$DIMSAH
 70
     0
  9
$DIMBLK1
  1

  9
$DIMBLK2
  1

  9
$DIMSTYLE
  2
AM_ISO
  9
$DIMCLRD
 70
   256
  9
$DIMCLRE
 70
   256
  9
$DIMCLRT
 70
     2
  9
$DIMTFAC
 40
0.71
  9
$DIMGAP
 40
1.5
  9
$DIMJUST
 70
     0
  9
$DIMSD1
 70
     0
  9
$DIMSD2
 70
     0
  9
$DIMTOLJ
 70
     0
  9
$DIMTZIN
 70
     8
  9
$DIMALTZ
 70
     0
  9
$DIMALTTZ
 70
     0
  9
$DIMUPT
 70
     0
  9
$DIMDEC
 70
     2
  9
$DIMTDEC
 70
     3
  9
$DIMALTU
 70
     2
  9
$DIMALTTD
 70
     4
  9
$DIMTXSTY
  7
STANDARD
  9
$DIMAUNIT
 70
     0
  9
$DIMADEC
 70
     0
  9
$DIMALTRND
 40
0.0
  9
$DIMAZIN
 70
     2
  9
$DIMDSEP
 70
    46
  9
$DIMATFIT
 70
     3
  9
$DIMFRAC
 70
     0
  9
$DIMLDRBLK
  1

  9
$DIMLUNIT
 70
     2
  9
$DIMLWD
 70
    -1
  9
$DIMLWE
 70
    -1
  9
$DIMTMOVE
 70
     0
  9
$DIMFXL
 40
1.0
  9
$DIMFXLON
 70
     0
  9
$DIMJOGANG
 40
0.7853981633974483
  9
$DIMTFILL
 70
     0
  9
$DIMTFILLCLR
 70
     0
  9
$DIMARCSYM
 70
     1
  9
$DIMLTYPE
  6
BYBLOCK
  9
$DIMLTEX1
  6
BYBLOCK
  9
$DIMLTEX2
  6
BYBLOCK
  9
$LUNITS
 70
     2
  9
$LUPREC
 70
     2
  9
$SKETCHINC
 40
0.1
  9
$FILLETRAD
 40
0.0
  9
$AUNITS
 70
     0
  9
$AUPREC
 70
     0
  9
$MENU
  1
.
  9
$ELEVATION
 40
0.0
  9
$PELEVATION
 40
0.0
  9
$THICKNESS
 40
0.0
  9
$LIMCHECK
 70
     0
  9
$CHAMFERA
 40
0.0
  9
$CHAMFERB
 40
0.0
  9
$CHAMFERC
 40
0.0
  9
$CHAMFERD
 40
0.0
  9
$SKPOLY
 70
     0
  9
$TDCREATE
 40
2456125.720997349
  9
$TDUCREATE
 40
2456125.387664017
  9
$TDUPDATE
 40
2456126.416171620
  9
$TDUUPDATE
 40
2456126.082838288
  9
$TDINDWG
 40
0.0047167477
  9
$TDUSRTIMER
 40
0.0047165625
  9
$USRTIMER
 70
     1
  9
$ANGBASE
 50
0.0
  9
$ANGDIR
 70
     0
  9
$PDMODE
 70
     3
  9
$PDSIZE
 40
7.9375
  9
$PLINEWID
 40
0.0
  9
$SPLFRAME
 70
     0
  9
$SPLINETYPE
 70
     6
  9
$SPLINESEGS
 70
     8
  9
$HANDSEED
  5
1642
  9
$SURFTAB1
 70
     6
  9
$SURFTAB2
 70
     6
  9
$SURFTYPE
 70
     6
  9
$SURFU
 70
     6
  9
$SURFV
 70
     6
  9
$UCSBASE
  2

  9
$UCSNAME
  2

  9
$UCSORG
 10
0.0
 20
0.0
 30
0.0
  9
$UCSXDIR
 10
1.0
 20
0.0
 30
0.0
  9
$UCSYDIR
 10
0.0
 20
1.0
 30
0.0
  9
$UCSORTHOREF
  2

  9
$UCSORTHOVIEW
 70
     0
  9
$UCSORGTOP
 10
0.0
 20
0.0
 30
0.0
  9
$UCSORGBOTTOM
 10
0.0
 20
0.0
 30
0.0
  9
$UCSORGLEFT
 10
0.0
 20
0.0
 30
0.0
  9
$UCSORGRIGHT
 10
0.0
 20
0.0
 30
0.0
  9
$UCSORGFRONT
 10
0.0
 20
0.0
 30
0.0
  9
$UCSORGBACK
 10
0.0
 20
0.0
 30
0.0
  9
$PUCSBASE
  2

  9
$PUCSNAME
  2

  9
$PUCSORG
 10
0.0
 20
0.0
 30
0.0
  9
$PUCSXDIR
 10
1.0
 20
0.0
 30
0.0
  9
$PUCSYDIR
 10
0.0
 20
1.0
 30
0.0
  9
$PUCSORTHOREF
  2

  9
$PUCSORTHOVIEW
 70
     0
  9
$PUCSORGTOP
 10
0.0
 20
0.0
 30
0.0
  9
$PUCSORGBOTTOM
 10
0.0
 20
0.0
 30
0.0
  9
$PUCSORGLEFT
 10
0.0
 20
0.0
 30
0.0
  9
$PUCSORGRIGHT
 10
0.0
 20
0.0
 30
0.0
  9
$PUCSORGFRONT
 10
0.0
 20
0.0
 30
0.0
  9
$PUCSORGBACK
 10
0.0
 20
0.0
 30
0.0
  9
$USERI1
 70
     0
  9
$USERI2
 70
     0
  9
$USERI3
 70
     0
  9
$USERI4
 70
     0
  9
$USERI5
 70
     0
  9
$USERR1
 40
0.0
  9
$USERR2
 40
0.0
  9
$USERR3
 40
0.0
  9
$USERR4
 40
0.0
  9
$USERR5
 40
0.0
  9
$WORLDVIEW
 70
     1
  9
$SHADEDGE
 70
     3
  9
$SHADEDIF
 70
    70
  9
$TILEMODE
 70
     1
  9
$MAXACTVP
 70
    64
  9
$PINSBASE
 10
0.0
 20
0.0
 30
0.0
  9
$PLIMCHECK
 70
     0
  9
$PEXTMIN
 10
1.000000000000000E+20
 20
1.000000000000000E+20
 30
1.000000000000000E+20
  9
$PEXTMAX
 10
-1.000000000000000E+20
 20
-1.000000000000000E+20
 30
-1.000000000000000E+20
  9
$PLIMMIN
 10
0.0
 20
0.0
  9
$PLIMMAX
 10
12.0
 20
9.0
  9
$UNITMODE
 70
     0
  9
$VISRETAIN
 70
     1
  9
$PLINEGEN
 70
     0
  9
$PSLTSCALE
 70
     1
  9
$TREEDEPTH
 70
  3020
  9
$CMLSTYLE
  2
Standard
  9
$CMLJUST
 70
     0
  9
$CMLSCALE
 40
1.0
  9
$PROXYGRAPHICS
 70
     1
  9
$MEASUREMENT
 70
     1
  9
$CELWEIGHT
370
    -1
  9
$ENDCAPS
280
     0
  9
$JOINSTYLE
280
     0
  9
$LWDISPLAY
290
     0
  9
$INSUNITS
 70
     4
  9
$HYPERLINKBASE
  1

  9
$STYLESHEET
  1

  9
$XEDIT
290
     1
  9
$CEPSNTYPE
380
     0
  9
$PSTYLEMODE
290
     1
  9
$FINGERPRINTGUID
  2
{D9C66EB0-787C-4A38-ACDC-DC65477ECB04}
  9
$VERSIONGUID
  2
{71BA3182-5D43-4216-80D9-08EB8B846148}
  9
$EXTNAMES
290
     1
  9
$PSVPSCALE
 40
0.0
  9
$OLESTARTUP
290
     0
  9
$SORTENTS
280
   127
  9
$INDEXCTL
280
     0
  9
$HIDETEXT
280
     1
  9
$XCLIPFRAME
290
     0
  9
$HALOGAP
280
     0
  9
$OBSCOLOR
 70
   257
  9
$OBSLTYPE
280
     0
  9
$INTERSECTIONDISPLAY
280
     0
  9
$INTERSECTIONCOLOR
 70
   257
  9
$DIMASSOC
280
     2
  9
$PROJECTNAME
  1

  9
$CAMERADISPLAY
290
     0
  9
$LENSLENGTH
 40
50.0
  9
$CAMERAHEIGHT
 40
0.0
  9
$STEPSPERSEC
 40
2.0
  9
$STEPSIZE
 40
6.0
  9
$3DDWFPREC
 40
2.0
  9
$PSOLWIDTH
 40
0.25
  9
$PSOLHEIGHT
 40
4.0
  9
$LOFTANG1
 40
1.570796326794896
  9
$LOFTANG2
 40
1.570796326794896
  9
$LOFTMAG1
 40
0.0
  9
$LOFTMAG2
 40
0.0
  9
$LOFTPARAM
 70
     7
  9
$LOFTNORMALS
280
     1
  9
$LATITUDE
 40
37.795
  9
$LONGITUDE
 40
-122.394
  9
$NORTHDIRECTION
 40
0.0
  9
$TIMEZONE
 70
 -8000
  9
$LIGHTGLYPHDISPLAY
280
     1
  9
$TILEMODELIGHTSYNCH
280
     1
  9
$CMATERIAL
347
13EE
  9
$SOLIDHIST
280
     1
  9
$SHOWHIST
280
     1
  9
$DWFFRAME
280
     2
  9
$DGNFRAME
280
     0
  9
$REALWORLDSCALE
290
     1
  9
$INTERFERECOLOR
 62
     1
  9
$INTERFEREOBJVS
345
1410
  9
$INTERFEREVPVS
346
140D
  9
$CSHADOW
280
     0
  9
$SHADOWPLANELOCATION
 40
0.0
  0
ENDSEC
  0
SECTION
  2
CLASSES
  0
CLASS
  1
ACDBDICTIONARYWDFLT
  2
AcDbDictionaryWithDefault
  3
ObjectDBX Classes
 90
        0
 91
        1
280
     0
281
     0
  0
CLASS
  1
TABLESTYLE
  2
AcDbTableStyle
  3
ObjectDBX Classes
 90
     4095
 91
        2
280
     0
281
     0
  0
CLASS
  1
ACAD_TABLE
  2
AcDbTable
  3
ObjectDBX Classes
 90
     1025
 91
        0
280
     0
281
     1
  0
CLASS
  1
MATERIAL
  2
AcDbMaterial
  3
ObjectDBX Classes
 90
     1153
 91
        3
280
     0
281
     0
  0
CLASS
  1
VISUALSTYLE
  2
AcDbVisualStyle
  3
ObjectDBX Classes
 90
     4095
 91
       16
280
     0
281
     0
  0
CLASS
  1
SCALE
  2
AcDbScale
  3
ObjectDBX Classes
 90
     1153
 91
       17
280
     0
281
     0
  0
CLASS
  1
MLEADERSTYLE
  2
AcDbMLeaderStyle
  3
ACDB_MLEADERSTYLE_CLASS
 90
     4095
 91
        1
280
     0
281
     0
  0
CLASS
  1
AMGSETTINGSOBJ
  2
AmgSettingsObj
  3
"AcadM|Product Description: AutoCAD Mechanical|Company: Autodesk, Inc."
 90
     1024
 91
        2
280
     0
281
     0
  0
CLASS
  1
ACME_DOCUMENT
  2
AcMeDbDoc
  3
AcMeServices
 90
     1024
 91
        1
280
     0
281
     0
  0
CLASS
  1
ACMESCOPE
  2
AcMeScope
  3
AcMeServices
 90
     1024
 91
        1
280
     0
281
     0
  0
CLASS
  1
ACMECOMMANDHISTORY
  2
AcMeCommandHistory
  3
AcMeServices
 90
     1024
 91
        1
280
     0
281
     0
  0
CLASS
  1
ACIMSYSVARMAN
  2
AcImSysVarManager
  3
AcMeServices
 90
     1024
 91
        5
280
     0
281
     0
  0
CLASS
  1
ACIMINTSYSVAR
  2
AcImIntSysVar
  3
AcMeServices
 90
     1024
 91
       27
280
     0
281
     0
  0
CLASS
  1
ACMEDRAWINGMAN
  2
AcMeDrawingMan
  3
AcMeServices
 90
     1024
 91
        1
280
     0
281
     0
  0
CLASS
  1
ACMEVIEW
  2
AcMeView
  3
AcMeServices
 90
     1024
 91
        1
280
     0
281
     0
  0
CLASS
  1
ACDBENTITYCACHE
  2
AcMeEntityCache
  3
AcMeServices
 90
     1024
 91
        1
280
     0
281
     0
  0
CLASS
  1
GSMANAGER
  2
AcMeGSManager
  3
AcMeServices
 90
     1024
 91
        1
280
     0
281
     0
  0
CLASS
  1
AMDTINTERNALREACTOR
  2
AmdtInternalReactor
  3
AcMeServices
 90
     1024
 91
        2
280
     0
281
     0
  0
CLASS
  1
ACMESTATEMGR
  2
AcMeStateMgr
  3
AcMeServices
 90
     1024
 91
        1
280
     0
281
     0
  0
CLASS
  1
ACGREFMASTER
  2
AcGrefMaster
  3
AcAttribServices
 90
     1024
 91
        1
280
     0
281
     0
  0
CLASS
  1
AM_DRAWING_MGR
  2
AcDmDwgMgr
  3
AcMechDwgViewMgmt
 90
     1024
 91
        1
280
     0
281
     0
  0
CLASS
  1
AM_DWG_DOCUMENT
  2
AcDmDwgDocument
  3
AcMechDwgViewMgmt
 90
     1024
 91
        1
280
     0
281
     0
  0
CLASS
  1
AM_DWG_SHEET
  2
AcDmSheet
  3
AcMechDwgViewMgmt
 90
     1024
 91
        1
280
     0
281
     0
  0
CLASS
  1
AM_VIEWDIMPARMAP
  2
AcDmViewDimParMap
  3
AcMechDwgViewMgmt
 90
     1024
 91
        1
280
     0
281
     0
  0
CLASS
  1
ACIMREALSYSVAR
  2
AcImRealSysVar
  3
AcMeServices
 90
     1024
 91
        1
280
     0
281
     0
  0
CLASS
  1
AM_DWGMGR_NAME
  2
AcDmDwgMgrName
  3
AcMechDwgViewMgmt
 90
     1024
 91
        1
280
     0
281
     0
  0
CLASS
  1
ACME_DATABASE
  2
AcMeDbDatabase
  3
AcMeServices
 90
     1024
 91
        1
280
     0
281
     0
  0
CLASS
  1
ACRFINSADJUSTERMGR
  2
AcRfInsAdjusterMgr
  3
AcMeServices
 90
     1024
 91
        1
280
     0
281
     0
  0
CLASS
  1
ACGREFACADMASTER
  2
AcGrefacadMaster
  3
AcGrefServices
 90
     1024
 91
        1
280
     0
281
     0
  0
CLASS
  1
AMDTMENUSTATEMGR
  2
AmdtMenuStateMgr
  3
McadcomServices
 90
     1024
 91
        1
280
     0
281
     0
  0
CLASS
  1
AMDTMCOMMENUSTATE
  2
AmdtMcomMenuState
  3
McadcomServices
 90
     1024
 91
        1
280
     0
281
     0
  0
CLASS
  1
AMIMASTER
  2
AmiMaster
  3
AmiServices
 90
     1024
 91
        1
280
     0
281
     0
  0
CLASS
  1
MAPIAMMOUDLE
  2
MApiAmModule
  3
MApiAmServices
 90
     1024
 91
        1
280
     0
281
     0
  0
CLASS
  1
ACIMSTRSYSVAR
  2
AcImStrSysVar
  3
AcMeServices
 90
     1024
 91
        5
280
     0
281
     0
  0
CLASS
  1
AMDTADMENUSTATE
  2
AmdtAdMenuState
  3
DesignerServices
 90
     1024
 91
        1
280
     0
281
     0
  0
CLASS
  1
ADAPPL
  2
AcAdAppl
  3
DesignerServices
 90
     1024
 91
        1
280
     0
281
     0
  0
CLASS
  1
DEPMGR
  2
AcAdDepMgr
  3
DesignerServices
 90
     1024
 91
        1
280
     0
281
     0
  0
CLASS
  1
PARAMMGR
  2
AcAdParamMgr
  3
DesignerServices
 90
     1024
 91
        1
280
     0
281
     0
  0
CLASS
  1
PARAMSCOPE
  2
AcAdParamScope
  3
DesignerServices
 90
     1024
 91
        1
280
     0
281
     0
  0
CLASS
  1
NAMEDAPPL
  2
AcAdNamedAppl
  3
DesignerServices
 90
     1024
 91
        1
280
     0
281
     0
  0
CLASS
  1
AMDTDMMENUSTATE
  2
AmdtDmMenuState
  3
AcMechDwgViewMgmt
 90
     1024
 91
        1
280
     0
281
     0
  0
CLASS
  1
AMDTAMMENUSTATE
  2
AmdtAmMenuState
  3
DesignerAssemblies
 90
     1024
 91
        1
280
     0
281
     0
  0
CLASS
  1
ACAMPROJECT
  2
AcAmProject
  3
DesignerAssemblies
 90
     1024
 91
        1
280
     0
281
     0
  0
CLASS
  1
ACAMGRCOMPDEF
  2
AcAmGrCompDef
  3
DesignerAssemblies
 90
     1024
 91
        1
280
     0
281
     0
  0
CLASS
  1
ACCMCONTEXT
  2
AcCmContext
  3
DesignerAssemblies
 90
     1024
 91
        1
280
     0
281
     0
  0
CLASS
  1
ACAMCOMPDEF
  2
AcAmCompDef
  3
DesignerAssemblies
 90
     1024
 91
        1
280
     0
281
     0
  0
CLASS
  1
ACAMCOMPDEFMGR
  2
AcAmCompDefMgr
  3
DesignerAssemblies
 90
     1024
 91
        1
280
     0
281
     0
  0
CLASS
  1
AMCONTEXTMGR
  2
AcAmContextMgr
  3
DesignerAssemblies
 90
     1024
 91
        1
280
     0
281
     0
  0
CLASS
  1
ACAMCONTEXTMODELER
  2
AcAmContextModeler
  3
DesignerAssemblies
 90
     1024
 91
        1
280
     0
281
     0
  0
CLASS
  1
ACMDATADICTIONARY
  2
AcmDataDictionary
  3
"AcmSymBB|Product Description: AutoCAD Mechanical|Company: Autodesk, Inc."
 90
     1024
 91
        1
280
     0
281
     0
  0
CLASS
  1
CATALOGSTATE
  2
AcAmCatalogState
  3
DesignerAssemblies
 90
     1024
 91
        1
280
     0
281
     0
  0
CLASS
  1
ACAMGRCOMPDEFSET
  2
AcAmGrCompDefSet
  3
DesignerAssemblies
 90
     1024
 91
        1
280
     0
281
     0
  0
CLASS
  1
AMDTBROWSERDBTAB
  2
AmdtBrowserDbTab
  3
McadcomServices
 90
     1024
 91
        1
280
     0
281
     0
  0
CLASS
  1
CBROWSERAPPOBJECT
  2
CBrowserAppObject
  3
McadcomServices
 90
     1024
 91
        3
280
     0
281
     0
  0
CLASS
  1
DM_PLACEHOLDER
  2
AcDmSelsetPlaceholder
  3
AcMechDwgViewMgmt
 90
     1024
 91
        1
280
     0
281
     0
  0
CLASS
  1
EXACXREFPANELOBJECT
  2
ExAcXREFPanelObject
  3
EXAC_ESW
 90
     1025
 91
        1
280
     0
281
     0
  0
CLASS
  1
NPOCOLLECTION
  2
AcDbImpNonPersistentObjectsCollection
  3
ObjectDBX Classes
 90
     1153
 91
        1
280
     0
281
     0
  0
CLASS
  1
ACMSTANDARDISO
  2
AcmStandardISO
  3
"Amdt_StdImp|Product Description: AutoCAD Mechanical|Company: Autodesk, Inc."
 90
     1024
 91
        1
280
     0
281
     0
  0
CLASS
  1
AMDTEDGESTANDARDISO13715
  2
AmdtEdgeStdISO13715
  3
"Amdt_StdImp|Product Description: AutoCAD Mechanical|Company: Autodesk, Inc."
 90
     1024
 91
        1
280
     0
281
     0
  0
CLASS
  1
ACMSURFSTANDARDISO2002
  2
AcmSurfTextStdISO2002
  3
"Amdt_StdImp|Product Description: AutoCAD Mechanical|Company: Autodesk, Inc."
 90
     1024
 91
        1
280
     0
281
     0
  0
CLASS
  1
ACMFCFSTANDARDISO
  2
AcmFCFStdISO
  3
"Amdt_StdImp|Product Description: AutoCAD Mechanical|Company: Autodesk, Inc."
 90
     1024
 91
        1
280
     0
281
     0
  0
CLASS
  1
ACMWELDSTANDARDISO
  2
AcmWeldingStdISO
  3
"Amdt_StdImp|Product Description: AutoCAD Mechanical|Company: Autodesk, Inc."
 90
     1024
 91
        1
280
     0
281
     0
  0
CLASS
  1
ACMIDSTANDARDISO
  2
AcmIdStdISO
  3
"Amdt_StdImp|Product Description: AutoCAD Mechanical|Company: Autodesk, Inc."
 90
     1024
 91
        1
280
     0
281
     0
  0
CLASS
  1
ACMDATUMSTANDARDISO
  2
AcmDatumStdISO
  3
"Amdt_StdImp|Product Description: AutoCAD Mechanical|Company: Autodesk, Inc."
 90
     1024
 91
        1
280
     0
281
     0
  0
CLASS
  1
ACMBOMSTANDARDISO
  2
AcmBOMStdISO
  3
"Amdt_StdImp|Product Description: AutoCAD Mechanical|Company: Autodesk, Inc."
 90
     1024
 91
        1
280
     0
281
     0
  0
CLASS
  1
ACMDETAILSTANDARDISO
  2
AmdtDetailSymStdISO
  3
"Amdt_StdImp|Product Description: AutoCAD Mechanical|Company: Autodesk, Inc."
 90
     1024
 91
        1
280
     0
281
     0
  0
CLASS
  1
ACMSECTIONSTANDARDISO2001
  2
AmdtSectionSymStdISO2001
  3
"Amdt_StdImp|Product Description: AutoCAD Mechanical|Company: Autodesk, Inc."
 90
     1024
 91
        1
280
     0
281
     0
  0
CLASS
  1
ACMCENTERLINESTANDARDISO
  2
AmdtCenterLineStdISO
  3
"Amdt_StdImp|Product Description: AutoCAD Mechanical|Company: Autodesk, Inc."
 90
     1024
 91
        1
280
     0
281
     0
  0
CLASS
  1
ACMTHREADLINESTANDARDISO
  2
AmdtThreadLineStdISO
  3
"Amdt_StdImp|Product Description: AutoCAD Mechanical|Company: Autodesk, Inc."
 90
     1024
 91
        1
280
     0
281
     0
  0
CLASS
  1
ACMNOTESTANDARDISO
  2
AmdtNoteStdISO
  3
"Amdt_StdImp|Product Description: AutoCAD Mechanical|Company: Autodesk, Inc."
 90
     1024
 91
        1
280
     0
281
     0
  0
CLASS
  1
ACMTAPERSTANDARDISO
  2
AcmTaperStdISO
  3
"Amdt_StdImp|Product Description: AutoCAD Mechanical|Company: Autodesk, Inc."
 90
     1024
 91
        1
280
     0
281
     0
  0
CLASS
  1
ACMANOOTATIONVIEWSTANDARDISO
  2
AmdtAnViewStdISO
  3
"Amdt_StdImp|Product Description: AutoCAD Mechanical|Company: Autodesk, Inc."
 90
     1024
 91
        1
280
     0
281
     0
  0
CLASS
  1
ACAMGLAYSTD
  2
AcAmgLayStd
  3
"AmgLay|Product Description: AutoCAD Mechanical|Company: Autodesk, Inc."
 90
     1024
 91
        1
280
     0
281
     0
  0
CLASS
  1
ACAMGDIMSTD
  2
AcAmgDimStd
  3
"AmgDim|Product Description: AutoCAD Mechanical|Company: Autodesk, Inc."
 90
     1024
 91
        1
280
     0
281
     0
  0
CLASS
  1
AMGOBJPROPCFG
  2
AmgObjPropCfg
  3
"AmgLay|Product Description: AutoCAD Mechanical|Company: Autodesk, Inc."
 90
     1025
 91
        1
280
     0
281
     0
  0
CLASS
  1
ACAMGHOLECHARTSTDISO
  2
AcAmgHoleChartStdISO
  3
AmgDim|Product Description: AutoCAD Mechanical|Company: Autodesk, Inc.
 90
     1024
 91
        1
280
     0
281
     0
  0
CLASS
  1
ACAMGTITLESTD
  2
AcAmgTitleStd
  3
"AmgTitle|Product Description: AutoCAD Mechanical|Company: Autodesk, Inc."
 90
     4095
 91
        1
280
     0
281
     0
  0
CLASS
  1
AMDTNOTETEMPLATEDB
  2
AmdtNoteTemplateDB
  3
AcmSymBB|Product Description: AutoCAD Mechanical|Company: Autodesk, Inc.
 90
     1024
 91
        6
280
     0
281
     0
  0
CLASS
  1
ACAMGFILTERDAT
  2
AcAmgFilterDat
  3
"AcadM|Product Description: AutoCAD Mechanical|Company: Autodesk, Inc."
 90
     1024
 91
        0
280
     0
281
     0
  0
CLASS
  1
DICTIONARYVAR
  2
AcDbDictionaryVar
  3
ObjectDBX Classes
 90
        0
 91
        3
280
     0
281
     0
  0
CLASS
  1
CELLSTYLEMAP
  2
AcDbCellStyleMap
  3
ObjectDBX Classes
 90
     1152
 91
        4
280
     0
281
     0
  0
ENDSEC
  0
SECTION
  2
TABLES
  0
TABLE
  2
VPORT
  5
8
330
0
100
AcDbSymbolTable
 70
     1
  0
VPORT
  5
1F4
330
8
100
AcDbSymbolTableRecord
100
AcDbViewportTableRecord
  2
*ACTIVE
 70
     0
 10
0.0
 20
0.0
 11
1.0
 21
1.0
 12
2363.804089860797
 22
-202.1257703860245
 13
0.0
 23
0.0
 14
1.0
 24
1.0
 15
0.0
 25
0.0
 16
0.0
 26
0.0
 36
1.0
 17
0.0
 27
0.0
 37
0.0
 40
436.0279410136413
 41
1.753048780487804
 42
50.0
 43
0.0
 44
0.0
 50
0.0
 51
0.0
 71
     0
 72
   100
 73
     1
 74
     1
 75
     0
 76
     0
 77
     0
 78
     0
281
     0
 65
     0
110
0.0
120
0.0
130
0.0
111
1.0
121
0.0
131
0.0
112
0.0
122
1.0
132
0.0
 79
     0
146
0.0
348
140C
 60
     3
 61
     5
292
     1
282
     1
141
0.0
142
0.0
 63
   250
421
  3355443
  0
ENDTAB
  0
TABLE
  2
LTYPE
  5
5
330
0
100
AcDbSymbolTable
 70
    17
  0
LTYPE
  5
14
330
5
100
AcDbSymbolTableRecord
100
AcDbLinetypeTableRecord
  2
BYBLOCK
 70
     0
  3

 72
    65
 73
     0
 40
0.0
  0
LTYPE
  5
15
330
5
100
AcDbSymbolTableRecord
100
AcDbLinetypeTableRecord
  2
BYLAYER
 70
     0
  3

 72
    65
 73
     0
 40
0.0
  0
LTYPE
  5
16
330
5
100
AcDbSymbolTableRecord
100
AcDbLinetypeTableRecord
  2
CONTINUOUS
 70
     0
  3
Solid line
 72
    65
 73
     0
 40
0.0
  0
LTYPE
  5
1F5
330
5
100
AcDbSymbolTableRecord
100
AcDbLinetypeTableRecord
  2
CENTER
 70
     0
  3
____ _ ____ _ ____ _ ____ _ ____ _ ____ _ ____
 72
    65
 73
     4
 40
0.6
 49
0.375
 74
     0
 49
-0.075
 74
     0
 49
0.075
 74
     0
 49
-0.075
 74
     0
  0
LTYPE
  5
1F6
330
5
100
AcDbSymbolTableRecord
100
AcDbLinetypeTableRecord
  2
HIDDEN
 70
     0
  3
- - - - - - - - - - - - - - - - - - - -
 72
    65
 73
     2
 40
0.2
 49
0.1
 74
     0
 49
-0.1
 74
     0
  0
LTYPE
  5
1F7
330
5
100
AcDbSymbolTableRecord
100
AcDbLinetypeTableRecord
  2
PHANTOM
 70
     0
  3
_____ _ _ _____ _ _ _____ _ _ _____
 72
    65
 73
     6
 40
0.8
 49
0.45
 74
     0
 49
-0.05
 74
     0
 49
0.1
 74
     0
 49
-0.05
 74
     0
 49
0.1
 74
     0
 49
-0.05
 74
     0
  0
LTYPE
  5
1F8
330
5
100
AcDbSymbolTableRecord
100
AcDbLinetypeTableRecord
  2
DOT
 70
     0
  3
. . . . . . . . . . . . . . . . . . . .
 72
    65
 73
     2
 40
0.2
 49
0.1
 74
     0
 49
-0.1
 74
     0
  0
LTYPE
  5
1F9
330
5
100
AcDbSymbolTableRecord
100
AcDbLinetypeTableRecord
  2
DASHED
 70
     0
  3
- - - - - - - - - - - - - - - - - - - -
 72
    65
 73
     2
 40
0.2
 49
0.1
 74
     0
 49
-0.1
 74
     0
  0
LTYPE
  5
1462
330
5
100
AcDbSymbolTableRecord
100
AcDbLinetypeTableRecord
  2
PHANTOM2
 70
     0
  3
Phantom (.5x) ___ _ _ ___ _ _ ___ _ _ ___ _ _
 72
    65
 73
     6
 40
31.75
 49
15.875
 74
     0
 49
-3.174999999999998
 74
     0
 49
3.174999999999998
 74
     0
 49
-3.174999999999998
 74
     0
 49
3.174999999999998
 74
     0
 49
-3.174999999999998
 74
     0
  0
LTYPE
  5
14AA
330
5
100
AcDbSymbolTableRecord
100
AcDbLinetypeTableRecord
  2
AM_ISO02W050
 70
     0
  3
__ __ __ __ __ __ __ __ __ __ __ __ __ __ __
 72
    65
 73
     2
 40
7.5
 49
6.0
 74
     0
 49
-1.5
 74
     0
  0
LTYPE
  5
14AB
330
5
100
AcDbSymbolTableRecord
100
AcDbLinetypeTableRecord
  2
AM_ISO08W050
 70
     0
  3
____ . ____ . ____ . ____ . ____ . ____ . ____
 72
    65
 73
     4
 40
18.0
 49
12.0
 74
     0
 49
-1.5
 74
     0
 49
3.0
 74
     0
 49
-1.5
 74
     0
  0
LTYPE
  5
14AC
330
5
100
AcDbSymbolTableRecord
100
AcDbLinetypeTableRecord
  2
AM_ISO09W050
 70
     0
  3
_____ . . _____ . . _____ . . ____ .. ____
 72
    65
 73
     6
 40
22.5
 49
12.0
 74
     0
 49
-1.5
 74
     0
 49
3.0
 74
     0
 49
-1.5
 74
     0
 49
3.0
 74
     0
 49
-1.5
 74
     0
  0
LTYPE
  5
14AD
330
5
100
AcDbSymbolTableRecord
100
AcDbLinetypeTableRecord
  2
Amconstr
 70
     0
  3
_______________________
 72
    65
 73
     2
 40
9999.0
 49
9999.0
 74
     0
 49
0.0
 74
     0
  0
LTYPE
  5
14AE
330
5
100
AcDbSymbolTableRecord
100
AcDbLinetypeTableRecord
  2
AM_ISO08W050x2
 70
     0
  3
__ . __ . __ . __ . __ . __
 72
    65
 73
     4
 40
9.0
 49
6.0
 74
     0
 49
-0.75
 74
     0
 49
1.5
 74
     0
 49
-0.75
 74
     0
  0
LTYPE
  5
14AF
330
5
100
AcDbSymbolTableRecord
100
AcDbLinetypeTableRecord
  2
AM_ISO02W050x2
 70
     0
  3
 _ _ _ _ _ _ _ _ _ _ _ _
 72
    65
 73
     2
 40
3.75
 49
3.0
 74
     0
 49
-0.75
 74
     0
  0
LTYPE
  5
14B2
330
5
100
AcDbSymbolTableRecord
100
AcDbLinetypeTableRecord
  2
Amzigzag
 70
     0
  3
/\/-/\/-/\/-/\/-/\/-/\/
 72
    65
 73
     2
 40
11.0001
 49
0.0001
 74
     4
 75
   136
340
14B1
 46
0.04
 50
0.0
 44
0.0
 45
0.0
 49
-11.0
 74
     0
  0
LTYPE
  5
14C1
330
5
100
AcDbSymbolTableRecord
100
AcDbLinetypeTableRecord
  2
ACISOWELD
 70
     0
  3
_ _ _ _ _
 72
    65
 73
     2
 40
2.0
 49
2.0
 74
     0
 49
-1.0
 74
     0
  0
LTYPE
  5
14C2
330
5
100
AcDbSymbolTableRecord
100
AcDbLinetypeTableRecord
  2
ACISOTGB
 70
     0
  3
__ . . __ . .
 72
    65
 73
     6
 40
9.0
 49
4.0
 74
     0
 49
-1.0
 74
     0
 49
1.0
 74
     0
 49
-1.0
 74
     0
 49
1.0
 74
     0
 49
-1.0
 74
     0
  0
LTYPE
  5
14C3
330
5
100
AcDbSymbolTableRecord
100
AcDbLinetypeTableRecord
  2
ACISOTGL
 70
     0
  3
_ _ _ _ _
 72
    65
 73
     2
 40
3.0
 49
2.0
 74
     0
 49
-1.0
 74
     0
  0
ENDTAB
  0
TABLE
  2
LAYER
  5
2
330
0
100
AcDbSymbolTable
 70
    24
  0
LAYER
  5
10
330
2
100
AcDbSymbolTableRecord
100
AcDbLayerTableRecord
  2
0
 70
     0
 62
     7
  6
CONTINUOUS
370
    -3
390
F
347
13FE
  0
LAYER
  5
1FA
330
2
100
AcDbSymbolTableRecord
100
AcDbLayerTableRecord
  2
DEFAULT_1
 70
     0
 62
     7
  6
CENTER
370
    -3
390
F
347
13FE
  0
LAYER
  5
1FB
330
2
100
AcDbSymbolTableRecord
100
AcDbLayerTableRecord
  2
DEFAULT_2
 70
     0
 62
     8
  6
HIDDEN
370
    -3
390
F
347
13FE
  0
LAYER
  5
1FC
330
2
100
AcDbSymbolTableRecord
100
AcDbLayerTableRecord
  2
DEFAULT_3
 70
     0
 62
     7
  6
PHANTOM
370
    -3
390
F
347
13FE
  0
LAYER
  5
1FD
330
2
100
AcDbSymbolTableRecord
100
AcDbLayerTableRecord
  2
11
 70
     0
 62
     7
  6
CONTINUOUS
370
    -3
390
F
347
13FE
  0
LAYER
  5
1FE
330
2
100
AcDbSymbolTableRecord
100
AcDbLayerTableRecord
  2
DATUM_AXIS
 70
     0
 62
     7
  6
CONTINUOUS
370
    -3
390
F
347
13FE
  0
LAYER
  5
1FF
330
2
100
AcDbSymbolTableRecord
100
AcDbLayerTableRecord
  2
DATUM_CSYS
 70
     0
 62
     7
  6
CONTINUOUS
370
    -3
390
F
347
13FE
  0
LAYER
  5
200
330
2
100
AcDbSymbolTableRecord
100
AcDbLayerTableRecord
  2
DATUM_PLANE
 70
     0
 62
     7
  6
CONTINUOUS
370
    -3
390
F
347
13FE
  0
LAYER
  5
201
330
2
100
AcDbSymbolTableRecord
100
AcDbLayerTableRecord
  2
DATUM_POINT
 70
     0
 62
     7
  6
CONTINUOUS
370
    -3
390
F
347
13FE
  0
LAYER
  5
202
330
2
100
AcDbSymbolTableRecord
100
AcDbLayerTableRecord
  2
_CURVE
 70
     0
 62
     7
  6
CONTINUOUS
370
    -3
390
F
347
13FE
  0
LAYER
  5
203
330
2
100
AcDbSymbolTableRecord
100
AcDbLayerTableRecord
  2
___GDT
 70
     0
 62
     7
  6
CONTINUOUS
370
    -3
390
F
347
13FE
  0
LAYER
  5
204
330
2
100
AcDbSymbolTableRecord
100
AcDbLayerTableRecord
  2
___NOTE
 70
     0
 62
     7
  6
CONTINUOUS
370
    -3
390
F
347
13FE
  0
LAYER
  5
205
330
2
100
AcDbSymbolTableRecord
100
AcDbLayerTableRecord
  2
___SYMBOL
 70
     0
 62
     7
  6
CONTINUOUS
370
    -3
390
F
347
13FE
  0
LAYER
  5
155E
102
{ACAD_XDICTIONARY
360
155F
102
}
330
2
100
AcDbSymbolTableRecord
100
AcDbLayerTableRecord
  2
_2D_DELETED_OBJS
 70
     0
 62
     7
  6
CONTINUOUS
370
    -3
390
F
347
13FE
  0
LAYER
  5
1560
102
{ACAD_XDICTIONARY
360
1561
102
}
330
2
100
AcDbSymbolTableRecord
100
AcDbLayerTableRecord
  2
_BLACK_HOLE
 70
     0
 62
     7
  6
CONTINUOUS
370
    -3
390
F
347
13FE
  0
LAYER
  5
1562
102
{ACAD_XDICTIONARY
360
1563
102
}
330
2
100
AcDbSymbolTableRecord
100
AcDbLayerTableRecord
  2
AXIS
 70
     0
 62
     7
  6
CONTINUOUS
370
    -3
390
F
347
13FE
  0
LAYER
  5
1564
102
{ACAD_XDICTIONARY
360
1565
102
}
330
2
100
AcDbSymbolTableRecord
100
AcDbLayerTableRecord
  2
COSM_SKETCH
 70
     0
 62
     7
  6
CONTINUOUS
370
    -3
390
F
347
13FE
  0
LAYER
  5
1566
102
{ACAD_XDICTIONARY
360
1567
102
}
330
2
100
AcDbSymbolTableRecord
100
AcDbLayerTableRecord
  2
CURVE
 70
     0
 62
     7
  6
CONTINUOUS
370
    -3
390
F
347
13FE
  0
LAYER
  5
1568
102
{ACAD_XDICTIONARY
360
1569
102
}
330
2
100
AcDbSymbolTableRecord
100
AcDbLayerTableRecord
  2
DATUM-CSYS
 70
     0
 62
     7
  6
CONTINUOUS
370
    -3
390
F
347
13FE
  0
LAYER
  5
156A
102
{ACAD_XDICTIONARY
360
156B
102
}
330
2
100
AcDbSymbolTableRecord
100
AcDbLayerTableRecord
  2
DATUM-PLN
 70
     0
 62
     7
  6
CONTINUOUS
370
    -3
390
F
347
13FE
  0
LAYER
  5
156C
102
{ACAD_XDICTIONARY
360
156D
102
}
330
2
100
AcDbSymbolTableRecord
100
AcDbLayerTableRecord
  2
SURFACE
 70
     0
 62
     7
  6
CONTINUOUS
370
    -3
390
F
347
13FE
  0
LAYER
  5
156E
102
{ACAD_XDICTIONARY
360
156F
102
}
330
2
100
AcDbSymbolTableRecord
100
AcDbLayerTableRecord
  2
_SURFACE
 70
     0
 62
     7
  6
CONTINUOUS
370
    -3
390
F
347
13FE
  0
LAYER
  5
1570
102
{ACAD_XDICTIONARY
360
1571
102
}
330
2
100
AcDbSymbolTableRecord
100
AcDbLayerTableRecord
  2
___COSMETIC_SKETCH
 70
     0
 62
     7
  6
CONTINUOUS
370
    -3
390
F
347
13FE
  0
LAYER
  5
1572
330
2
100
AcDbSymbolTableRecord
100
AcDbLayerTableRecord
  2
DEFPOINTS
 70
     0
 62
     7
  6
CONTINUOUS
290
     0
370
    -3
390
F
347
13FE
  0
ENDTAB
  0
TABLE
  2
STYLE
  5
3
330
0
100
AcDbSymbolTable
 70
    20
  0
STYLE
  5
11
330
3
100
AcDbSymbolTableRecord
100
AcDbTextStyleTableRecord
  2
STANDARD
 70
     0
 40
0.0
 41
0.8
 50
0.0
 71
     0
 42
0.2
  3
txt
  4

  0
STYLE
  5
206
330
3
100
AcDbSymbolTableRecord
100
AcDbTextStyleTableRecord
  2
TEXTSTYLE_1
 70
     0
 40
0.0
 41
0.8
 50
0.0
 71
     0
 42
0.2
  3
gdt
  4

  0
STYLE
  5
207
330
3
100
AcDbSymbolTableRecord
100
AcDbTextStyleTableRecord
  2
TEXTSTYLE_2
 70
     0
 40
0.0
 41
1.04
 50
0.0
 71
     0
 42
0.2
  3
txt
  4

  0
STYLE
  5
208
330
3
100
AcDbSymbolTableRecord
100
AcDbTextStyleTableRecord
  2
TEXTSTYLE_3
 70
     0
 40
0.0
 41
0.9399999999999998
 50
0.0
 71
     0
 42
0.2
  3
txt
  4

  0
STYLE
  5
209
330
3
100
AcDbSymbolTableRecord
100
AcDbTextStyleTableRecord
  2
TEXTSTYLE_4
 70
     0
 40
0.0
 41
1.0
 50
0.0
 71
     0
 42
0.2
  3
txt
  4

  0
STYLE
  5
20A
330
3
100
AcDbSymbolTableRecord
100
AcDbTextStyleTableRecord
  2
TEXTSTYLE_5
 70
     0
 40
0.0
 41
1.199999999999999
 50
0.0
 71
     0
 42
0.2
  3
txt
  4

  0
STYLE
  5
20B
330
3
100
AcDbSymbolTableRecord
100
AcDbTextStyleTableRecord
  2
TEXTSTYLE_6
 70
     0
 40
0.0
 41
1.02
 50
0.0
 71
     0
 42
0.2
  3
txt
  4

  0
STYLE
  5
20C
330
3
100
AcDbSymbolTableRecord
100
AcDbTextStyleTableRecord
  2
TEXTSTYLE_7
 70
     0
 40
0.0
 41
0.925
 50
0.0
 71
     0
 42
0.2
  3
txt
  4

  0
STYLE
  5
20D
330
3
100
AcDbSymbolTableRecord
100
AcDbTextStyleTableRecord
  2
TEXTSTYLE_8
 70
     0
 40
0.0
 41
1.0500002909
 50
0.0
 71
     0
 42
0.2
  3
txt
  4

  0
STYLE
  5
20E
330
3
100
AcDbSymbolTableRecord
100
AcDbTextStyleTableRecord
  2
TEXTSTYLE_9
 70
     0
 40
0.0
 41
1.09
 50
0.0
 71
     0
 42
0.2
  3
txt
  4

  0
STYLE
  5
20F
330
3
100
AcDbSymbolTableRecord
100
AcDbTextStyleTableRecord
  2
TEXTSTYLE_10
 70
     0
 40
0.0
 41
0.9899995429
 50
0.0
 71
     0
 42
0.2
  3
txt
  4

  0
STYLE
  5
210
330
3
100
AcDbSymbolTableRecord
100
AcDbTextStyleTableRecord
  2
TEXTSTYLE_11
 70
     0
 40
0.0
 41
1.07
 50
0.0
 71
     0
 42
0.2
  3
txt
  4

  0
STYLE
  5
211
330
3
100
AcDbSymbolTableRecord
100
AcDbTextStyleTableRecord
  2
TEXTSTYLE_12
 70
     0
 40
0.0
 41
1.229999999999998
 50
0.0
 71
     0
 42
0.2
  3
txt
  4

  0
STYLE
  5
212
330
3
100
AcDbSymbolTableRecord
100
AcDbTextStyleTableRecord
  2
TEXTSTYLE_13
 70
     0
 40
0.0
 41
0.9700032
 50
0.0
 71
     0
 42
0.2
  3
txt
  4

  0
STYLE
  5
213
330
3
100
AcDbSymbolTableRecord
100
AcDbTextStyleTableRecord
  2
TEXTSTYLE_14
 70
     0
 40
0.0
 41
1.379999999999999
 50
0.0
 71
     0
 42
0.2
  3
txt
  4

  0
STYLE
  5
214
330
3
100
AcDbSymbolTableRecord
100
AcDbTextStyleTableRecord
  2
TEXTSTYLE_15
 70
     0
 40
0.0
 41
0.95
 50
0.0
 71
     0
 42
0.2
  3
txt
  4

  0
STYLE
  5
14B1
330
3
100
AcDbSymbolTableRecord
100
AcDbTextStyleTableRecord
  2

 70
     1
 40
0.0
 41
1.0
 50
0.0
 71
     0
 42
0.2
  3
genltshp.shx
  4

  0
STYLE
  5
14BF
330
3
100
AcDbSymbolTableRecord
100
AcDbTextStyleTableRecord
  2
ACISOTS
 70
     0
 40
1.0
 41
1.0
 50
0.0
 71
     0
 42
0.2
  3
isocp.shx
  4
gbcbig.shx
  0
STYLE
  5
14C0
330
3
100
AcDbSymbolTableRecord
100
AcDbTextStyleTableRecord
  2
ACISOGDT
 70
     0
 40
0.0
 41
1.0
 50
0.0
 71
     0
 42
0.2
  3
amgdt.shx
  4

  0
STYLE
  5
1573
330
3
100
AcDbSymbolTableRecord
100
AcDbTextStyleTableRecord
  2
Annotative
 70
     0
 40
0.0
 41
1.0
 50
0.0
 71
     0
 42
0.2
  3
txt
  4

1001
AcadAnnotative
1000
AnnotativeData
1002
{
1070
     1
1070
     1
1002
}
  0
ENDTAB
  0
TABLE
  2
VIEW
  5
6
330
0
100
AcDbSymbolTable
 70
     0
  0
ENDTAB
  0
TABLE
  2
UCS
  5
7
330
0
100
AcDbSymbolTable
 70
     0
  0
ENDTAB
  0
TABLE
  2
APPID
  5
9
330
0
100
AcDbSymbolTable
 70
    14
  0
APPID
  5
215
330
9
100
AcDbSymbolTableRecord
100
AcDbRegAppTableRecord
  2
ACAD
 70
     0
  0
APPID
  5
142C
330
9
100
AcDbSymbolTableRecord
100
AcDbRegAppTableRecord
  2
ACAD_MLEADERVER
 70
     0
  0
APPID
  5
1435
330
9
100
AcDbSymbolTableRecord
100
AcDbRegAppTableRecord
  2
MCAD_NO_VIS
 70
     0
  0
APPID
  5
1436
330
9
100
AcDbSymbolTableRecord
100
AcDbRegAppTableRecord
  2
ACAD_TEMP_GRAPHIC
 70
     0
  0
APPID
  5
1464
330
9
100
AcDbSymbolTableRecord
100
AcDbRegAppTableRecord
  2
AD_DRAW
 70
     0
  0
APPID
  5
1467
330
9
100
AcDbSymbolTableRecord
100
AcDbRegAppTableRecord
  2
ACATTRIBSERVICES
 70
     0
  0
APPID
  5
1488
330
9
100
AcDbSymbolTableRecord
100
AcDbRegAppTableRecord
  2
DESIGNERASSEMBLIES
 70
     0
  0
APPID
  5
148E
330
9
100
AcDbSymbolTableRecord
100
AcDbRegAppTableRecord
  2
ACADM_DIM_EDIT
 70
     0
  0
APPID
  5
148F
330
9
100
AcDbSymbolTableRecord
100
AcDbRegAppTableRecord
  2
AMDT_DM_ADJ
 70
     0
  0
APPID
  5
1575
330
9
100
AcDbSymbolTableRecord
100
AcDbRegAppTableRecord
  2
AcadAnnotative
 70
     0
  0
APPID
  5
1576
330
9
100
AcDbSymbolTableRecord
100
AcDbRegAppTableRecord
  2
DCO15
 70
     0
  0
APPID
  5
1577
330
9
100
AcDbSymbolTableRecord
100
AcDbRegAppTableRecord
  2
ACAD_DSTYLE_DIMARC_LENGTH_
 70
     0
  0
APPID
  5
1578
330
9
100
AcDbSymbolTableRecord
100
AcDbRegAppTableRecord
  2
ACAD_DSTYLE_DIMJOGGED_JOGA
 70
     0
  0
APPID
  5
1579
330
9
100
AcDbSymbolTableRecord
100
AcDbRegAppTableRecord
  2
ACAD_EXEMPT_FROM_CAD_STANDARDS
 70
     0
  0
ENDTAB
  0
TABLE
  2
DIMSTYLE
  5
A
330
0
100
AcDbSymbolTable
 70
    26
100
AcDbDimStyleTable
 71
     1
340
14A8
  0
DIMSTYLE
105
25B
330
A
100
AcDbSymbolTableRecord
100
AcDbDimStyleTableRecord
  2
STANDARD
 70
     0
 41
4.7625
 47
0.01
 48
0.01
 71
     1
 78
     8
140
3.96875
271
     3
272
     3
284
     8
340
11
341
218
342
218
343
218
344
218
  0
DIMSTYLE
105
25C
330
A
100
AcDbSymbolTableRecord
100
AcDbDimStyleTableRecord
  2
DIMSTYLE_1
 70
     0
 41
4.7625
 47
2.0
 48
2.0
 71
     1
 78
     8
140
3.96875
144
2.5
271
     0
272
     0
284
     8
340
11
341
218
342
218
343
218
344
218
  0
DIMSTYLE
105
25D
330
A
100
AcDbSymbolTableRecord
100
AcDbDimStyleTableRecord
  2
DIMSTYLE_2
 70
     0
 41
4.7625
 47
4.0
 48
4.0
 71
     1
 78
     8
140
3.96875
144
2.5
271
     0
272
     0
284
     8
340
11
341
218
342
218
343
218
344
218
  0
DIMSTYLE
105
25E
330
A
100
AcDbSymbolTableRecord
100
AcDbDimStyleTableRecord
  2
DIMSTYLE_3
 70
     0
 41
4.7625
 78
     8
140
3.96875
144
2.5
271
     0
272
     0
284
     8
340
11
341
218
342
218
343
218
344
218
  0
DIMSTYLE
105
25F
330
A
100
AcDbSymbolTableRecord
100
AcDbDimStyleTableRecord
  2
DIMSTYLE_4
 70
     0
 41
4.7625
 78
     8
140
3.96875
144
2.5
271
     0
272
     0
284
     8
340
11
341
218
342
218
343
218
344
218
  0
DIMSTYLE
105
260
330
A
100
AcDbSymbolTableRecord
100
AcDbDimStyleTableRecord
  2
DIMSTYLE_5
 70
     0
 41
4.7625
 78
     8
140
3.96875
144
2.5
271
     0
272
     0
284
     8
340
11
341
218
342
218
343
218
344
218
  0
DIMSTYLE
105
261
330
A
100
AcDbSymbolTableRecord
100
AcDbDimStyleTableRecord
  2
DIMSTYLE_6
 70
     0
 41
4.7625
 78
     8
140
3.96875
144
2.5
271
     1
272
     1
284
     8
340
11
341
218
342
218
343
218
344
218
  0
DIMSTYLE
105
262
330
A
100
AcDbSymbolTableRecord
100
AcDbDimStyleTableRecord
  2
DIMSTYLE_7
 70
     0
 41
4.7625
 47
3.0
 48
3.0
 78
     8
140
3.96875
144
2.5
271
     0
272
     0
284
     8
340
11
341
218
342
218
343
218
344
218
  0
DIMSTYLE
105
263
330
A
100
AcDbSymbolTableRecord
100
AcDbDimStyleTableRecord
  2
DIMSTYLE_8
 70
     0
 41
4.7625
 47
3.0
 48
3.0
 78
     8
140
3.96875
144
2.5
271
     1
272
     1
284
     8
340
11
341
218
342
218
343
218
344
218
  0
DIMSTYLE
105
264
330
A
100
AcDbSymbolTableRecord
100
AcDbDimStyleTableRecord
  2
DIMSTYLE_9
 70
     0
 41
4.7625
 78
     8
140
3.96875
144
0.5
271
     0
272
     0
284
     8
340
11
341
218
342
218
343
218
344
218
  0
DIMSTYLE
105
265
330
A
100
AcDbSymbolTableRecord
100
AcDbDimStyleTableRecord
  2
DIMSTYLE_10
 70
     0
 41
4.7625
 78
     8
140
3.96875
144
0.5
271
     1
272
     1
284
     8
340
11
341
218
342
218
343
218
344
218
  0
DIMSTYLE
105
266
330
A
100
AcDbSymbolTableRecord
100
AcDbDimStyleTableRecord
  2
DIMSTYLE_11
 70
     0
 41
4.7625
 78
     8
140
3.96875
144
0.5
271
     0
272
     0
284
     8
340
11
341
218
342
218
343
218
344
218
  0
DIMSTYLE
105
267
330
A
100
AcDbSymbolTableRecord
100
AcDbDimStyleTableRecord
  2
DIMSTYLE_12
 70
     0
 41
4.7625
 47
3.0
 48
3.0
 78
     8
140
3.96875
144
0.5
271
     1
272
     1
284
     8
340
11
341
218
342
218
343
218
344
218
  0
DIMSTYLE
105
268
330
A
100
AcDbSymbolTableRecord
100
AcDbDimStyleTableRecord
  2
DIMSTYLE_13
 70
     0
 41
4.7625
 78
     8
140
3.96875
144
0.6666666667
271
     0
272
     0
284
     8
340
11
341
218
342
218
343
218
344
218
  0
DIMSTYLE
105
269
330
A
100
AcDbSymbolTableRecord
100
AcDbDimStyleTableRecord
  2
DIMSTYLE_14
 70
     0
 41
4.7625
 78
     8
140
3.96875
144
0.6666666667
271
     1
272
     1
284
     8
340
11
341
218
342
218
343
218
344
218
  0
DIMSTYLE
105
26A
330
A
100
AcDbSymbolTableRecord
100
AcDbDimStyleTableRecord
  2
DIMSTYLE_15
 70
     0
 41
4.7625
 47
3.0
 48
3.0
 78
     8
140
3.96875
144
0.6666666667
271
     0
272
     0
284
     8
340
11
341
218
342
218
343
218
344
218
  0
DIMSTYLE
105
26B
330
A
100
AcDbSymbolTableRecord
100
AcDbDimStyleTableRecord
  2
DIMSTYLE_16
 70
     0
 41
4.7625
 47
0.2
 48
0.2
 71
     1
 78
     8
140
3.96875
144
0.6666666667
271
     1
272
     1
284
     8
340
11
341
218
342
218
343
218
344
218
  0
DIMSTYLE
105
26C
330
A
100
AcDbSymbolTableRecord
100
AcDbDimStyleTableRecord
  2
DIMSTYLE_17
 70
     0
 41
4.7625
 78
     8
140
3.96875
144
0.6666666667
271
     0
272
     0
284
     8
340
11
341
218
342
218
343
218
344
218
  0
DIMSTYLE
105
14A8
102
{ACAD_REACTORS
330
1626
102
}
330
A
100
AcDbSymbolTableRecord
100
AcDbDimStyleTableRecord
  2
AM_ISO
 70
     0
  4
"
 41
3.5
 42
1.0
 43
10.0
 44
1.0
 47
0.1
 48
0.1
 73
     0
 74
     0
 77
     1
 78
     8
 79
     2
 90
     1
140
3.5
141
0.0
143
0.0393701
146
0.71
147
1.5
172
     1
176
   256
177
   256
178
     2
271
     2
272
     3
274
     4
283
     0
284
     8
340
11
345
14
346
14
347
14
371
    -1
372
    -1
  0
DIMSTYLE
105
14B3
330
A
100
AcDbSymbolTableRecord
100
AcDbDimStyleTableRecord
  2
AM_ISO$3
 70
     0
  4
"
 41
3.5
 42
1.0
 43
10.0
 44
1.0
 47
0.1
 48
0.1
 73
     0
 77
     1
 78
     8
 79
     2
 90
     1
140
3.5
141
0.0
143
0.0393701
146
0.71
147
1.5
176
   256
177
   256
178
     2
271
     2
272
     3
274
     4
283
     0
284
     8
288
     1
289
     0
340
11
345
14
346
14
347
14
371
    -1
372
    -1
  0
DIMSTYLE
105
14B4
330
A
100
AcDbSymbolTableRecord
100
AcDbDimStyleTableRecord
  2
AM_ISO$4
 70
     0
  4
"
 41
3.5
 42
1.0
 43
10.0
 44
1.0
 47
0.1
 48
0.1
 73
     0
 74
     0
 77
     1
 78
     8
 79
     2
 90
     1
140
3.5
141
0.0
143
0.0393701
146
0.71
147
1.5
172
     1
176
   256
177
   256
178
     2
271
     2
272
     3
274
     4
283
     0
284
     8
340
11
345
14
346
14
347
14
371
    -1
372
    -1
  0
DIMSTYLE
105
14B5
330
A
100
AcDbSymbolTableRecord
100
AcDbDimStyleTableRecord
  2
AM_ISO$6
 70
     0
  4
"
 41
3.5
 42
1.0
 43
10.0
 44
1.0
 47
0.1
 48
0.1
 73
     0
 74
     0
 78
     8
 79
     2
 90
     1
140
3.5
141
0.0
143
0.0393701
146
0.71
147
1.5
172
     1
176
   256
177
   256
178
     2
271
     2
272
     3
274
     4
283
     0
284
     8
340
11
345
14
346
14
347
14
371
    -1
372
    -1
  0
DIMSTYLE
105
14B6
330
A
100
AcDbSymbolTableRecord
100
AcDbDimStyleTableRecord
  2
AM_ISO$7
 70
     0
  4
"
 41
3.5
 42
1.0
 43
10.0
 44
1.0
 47
0.1
 48
0.1
 73
     0
 74
     0
 77
     1
 78
     8
 79
     2
 90
     1
140
3.5
141
0.0
143
0.0393701
146
0.71
147
1.5
172
     1
176
   256
177
   256
178
     2
271
     2
272
     3
274
     4
283
     0
284
     8
340
11
345
14
346
14
347
14
371
    -1
372
    -1
  0
DIMSTYLE
105
14B7
330
A
100
AcDbSymbolTableRecord
100
AcDbDimStyleTableRecord
  2
AM_ISO$SF
 70
     0
  4
"
 41
3.5
 42
1.0
 43
10.0
 44
1.0
 47
0.1
 48
0.1
 73
     0
 74
     0
 75
     1
 76
     1
 77
     1
 78
     8
 79
     2
 90
     1
140
3.5
141
0.0
143
0.0393701
146
0.71
147
1.5
172
     1
176
   256
177
   256
178
     2
271
     2
272
     3
274
     4
283
     0
284
     8
340
11
345
14
346
14
347
14
371
    -1
372
    -1
  0
DIMSTYLE
105
14BC
330
A
100
AcDbSymbolTableRecord
100
AcDbDimStyleTableRecord
  2
AM_ISO$SH
 70
     0
  4
"
 41
3.5
 42
1.0
 43
10.0
 44
1.0
 47
0.1
 48
0.1
 73
     0
 74
     0
 75
     1
 76
     1
 77
     1
 78
     8
 79
     2
 90
     1
140
3.5
141
0.0
143
0.0393701
144
2.0
146
0.71
147
1.5
172
     1
173
     1
176
   256
177
   256
178
     2
271
     2
272
     3
274
     4
283
     0
284
     8
340
11
343
14B8
345
14
346
14
347
14
371
    -1
372
    -1
  0
DIMSTYLE
105
1574
330
A
100
AcDbSymbolTableRecord
100
AcDbDimStyleTableRecord
  2
Annotative
 70
     0
340
11
1001
AcadAnnotative
1000
AnnotativeData
1002
{
1070
     1
1070
     1
1002
}
  0
ENDTAB
  0
TABLE
  2
BLOCK_RECORD
  5
1
330
0
100
AcDbSymbolTable
 70
    79
  0
BLOCK_RECORD
  5
216
330
1
100
AcDbSymbolTableRecord
100
AcDbBlockTableRecord
  2
*Model_Space
340
13E7
 70
     0
280
     1
281
     0
  0
BLOCK_RECORD
  5
217
330
1
100
AcDbSymbolTableRecord
100
AcDbBlockTableRecord
  2
*Paper_Space
340
13E8
 70
     0
280
     1
281
     0
  0
BLOCK_RECORD
  5
218
330
1
100
AcDbSymbolTableRecord
100
AcDbBlockTableRecord
  2
_FILLED
340
0
102
{BLKREFS
331
35C
331
35D
331
364
331
365
331
36C
331
36D
331
374
331
375
331
37C
331
37D
331
384
331
385
331
38C
331
38D
331
394
331
395
331
39C
331
39D
331
3A4
331
3A5
331
3AC
331
3AD
331
3B4
331
3B5
331
3BC
331
3BD
331
3C5
331
3C6
331
3CB
331
3D0
331
3D8
331
3D9
331
3F1
331
3F2
331
3FA
331
3FB
331
40A
331
40B
331
412
331
413
331
420
331
427
331
428
331
42F
331
430
331
437
331
438
331
43D
331
442
331
449
331
44A
331
459
331
45A
331
463
331
464
331
46B
331
46C
331
473
331
474
331
48C
331
48D
331
492
331
497
331
49C
331
4A1
331
4A8
331
4A9
331
4B0
331
4B1
102
}
 70
     0
280
     1
281
     0
  0
BLOCK_RECORD
  5
219
330
1
100
AcDbSymbolTableRecord
100
AcDbBlockTableRecord
  2
*D1
340
0
 70
     0
280
     1
281
     0
  0
BLOCK_RECORD
  5
21A
330
1
100
AcDbSymbolTableRecord
100
AcDbBlockTableRecord
  2
*D2
340
0
 70
     0
280
     1
281
     0
  0
BLOCK_RECORD
  5
21B
330
1
100
AcDbSymbolTableRecord
100
AcDbBlockTableRecord
  2
*D3
340
0
 70
     0
280
     1
281
     0
  0
BLOCK_RECORD
  5
21C
330
1
100
AcDbSymbolTableRecord
100
AcDbBlockTableRecord
  2
*D4
340
0
 70
     0
280
     1
281
     0
  0
BLOCK_RECORD
  5
21D
330
1
100
AcDbSymbolTableRecord
100
AcDbBlockTableRecord
  2
*D5
340
0
 70
     0
280
     1
281
     0
  0
BLOCK_RECORD
  5
21E
330
1
100
AcDbSymbolTableRecord
100
AcDbBlockTableRecord
  2
*D6
340
0
 70
     0
280
     1
281
     0
  0
BLOCK_RECORD
  5
21F
330
1
100
AcDbSymbolTableRecord
100
AcDbBlockTableRecord
  2
*D7
340
0
 70
     0
280
     1
281
     0
  0
BLOCK_RECORD
  5
220
330
1
100
AcDbSymbolTableRecord
100
AcDbBlockTableRecord
  2
*D8
340
0
 70
     0
280
     1
281
     0
  0
BLOCK_RECORD
  5
221
330
1
100
AcDbSymbolTableRecord
100
AcDbBlockTableRecord
  2
*D9
340
0
 70
     0
280
     1
281
     0
  0
BLOCK_RECORD
  5
222
330
1
100
AcDbSymbolTableRecord
100
AcDbBlockTableRecord
  2
*D10
340
0
 70
     0
280
     1
281
     0
  0
BLOCK_RECORD
  5
223
330
1
100
AcDbSymbolTableRecord
100
AcDbBlockTableRecord
  2
*D11
340
0
 70
     0
280
     1
281
     0
  0
BLOCK_RECORD
  5
224
330
1
100
AcDbSymbolTableRecord
100
AcDbBlockTableRecord
  2
*D12
340
0
 70
     0
280
     1
281
     0
  0
BLOCK_RECORD
  5
225
330
1
100
AcDbSymbolTableRecord
100
AcDbBlockTableRecord
  2
*D13
340
0
 70
     0
280
     1
281
     0
  0
BLOCK_RECORD
  5
226
330
1
100
AcDbSymbolTableRecord
100
AcDbBlockTableRecord
  2
*D14
340
0
 70
     0
280
     1
281
     0
  0
BLOCK_RECORD
  5
227
330
1
100
AcDbSymbolTableRecord
100
AcDbBlockTableRecord
  2
*D15
340
0
 70
     0
280
     1
281
     0
  0
BLOCK_RECORD
  5
228
330
1
100
AcDbSymbolTableRecord
100
AcDbBlockTableRecord
  2
*D16
340
0
 70
     0
280
     1
281
     0
  0
BLOCK_RECORD
  5
229
330
1
100
AcDbSymbolTableRecord
100
AcDbBlockTableRecord
  2
*D17
340
0
 70
     0
280
     1
281
     0
  0
BLOCK_RECORD
  5
22A
330
1
100
AcDbSymbolTableRecord
100
AcDbBlockTableRecord
  2
*D18
340
0
 70
     0
280
     1
281
     0
  0
BLOCK_RECORD
  5
22B
330
1
100
AcDbSymbolTableRecord
100
AcDbBlockTableRecord
  2
*D19
340
0
 70
     0
280
     1
281
     0
  0
BLOCK_RECORD
  5
22C
330
1
100
AcDbSymbolTableRecord
100
AcDbBlockTableRecord
  2
*D20
340
0
 70
     0
280
     1
281
     0
  0
BLOCK_RECORD
  5
22D
330
1
100
AcDbSymbolTableRecord
100
AcDbBlockTableRecord
  2
*D21
340
0
 70
     0
280
     1
281
     0
  0
BLOCK_RECORD
  5
22E
330
1
100
AcDbSymbolTableRecord
100
AcDbBlockTableRecord
  2
*D22
340
0
 70
     0
280
     1
281
     0
  0
BLOCK_RECORD
  5
22F
330
1
100
AcDbSymbolTableRecord
100
AcDbBlockTableRecord
  2
*D23
340
0
 70
     0
280
     1
281
     0
  0
BLOCK_RECORD
  5
230
330
1
100
AcDbSymbolTableRecord
100
AcDbBlockTableRecord
  2
*D24
340
0
 70
     0
280
     1
281
     0
  0
BLOCK_RECORD
  5
231
330
1
100
AcDbSymbolTableRecord
100
AcDbBlockTableRecord
  2
*D25
340
0
 70
     0
280
     1
281
     0
  0
BLOCK_RECORD
  5
232
330
1
100
AcDbSymbolTableRecord
100
AcDbBlockTableRecord
  2
*D26
340
0
 70
     0
280
     1
281
     0
  0
BLOCK_RECORD
  5
233
330
1
100
AcDbSymbolTableRecord
100
AcDbBlockTableRecord
  2
*D27
340
0
 70
     0
280
     1
281
     0
  0
BLOCK_RECORD
  5
234
330
1
100
AcDbSymbolTableRecord
100
AcDbBlockTableRecord
  2
*D28
340
0
 70
     0
280
     1
281
     0
  0
BLOCK_RECORD
  5
235
330
1
100
AcDbSymbolTableRecord
100
AcDbBlockTableRecord
  2
*D29
340
0
 70
     0
280
     1
281
     0
  0
BLOCK_RECORD
  5
236
330
1
100
AcDbSymbolTableRecord
100
AcDbBlockTableRecord
  2
*D30
340
0
 70
     0
280
     1
281
     0
  0
BLOCK_RECORD
  5
237
330
1
100
AcDbSymbolTableRecord
100
AcDbBlockTableRecord
  2
*D31
340
0
 70
     0
280
     1
281
     0
  0
BLOCK_RECORD
  5
238
330
1
100
AcDbSymbolTableRecord
100
AcDbBlockTableRecord
  2
*D32
340
0
 70
     0
280
     1
281
     0
  0
BLOCK_RECORD
  5
239
330
1
100
AcDbSymbolTableRecord
100
AcDbBlockTableRecord
  2
*D33
340
0
 70
     0
280
     1
281
     0
  0
BLOCK_RECORD
  5
23A
330
1
100
AcDbSymbolTableRecord
100
AcDbBlockTableRecord
  2
*D34
340
0
 70
     0
280
     1
281
     0
  0
BLOCK_RECORD
  5
23B
330
1
100
AcDbSymbolTableRecord
100
AcDbBlockTableRecord
  2
*D35
340
0
 70
     0
280
     1
281
     0
  0
BLOCK_RECORD
  5
23C
330
1
100
AcDbSymbolTableRecord
100
AcDbBlockTableRecord
  2
*D36
340
0
 70
     0
280
     1
281
     0
  0
BLOCK_RECORD
  5
23D
330
1
100
AcDbSymbolTableRecord
100
AcDbBlockTableRecord
  2
*D37
340
0
 70
     0
280
     1
281
     0
  0
BLOCK_RECORD
  5
23E
330
1
100
AcDbSymbolTableRecord
100
AcDbBlockTableRecord
  2
*D38
340
0
 70
     0
280
     1
281
     0
  0
BLOCK_RECORD
  5
23F
330
1
100
AcDbSymbolTableRecord
100
AcDbBlockTableRecord
  2
*D39
340
0
 70
     0
280
     1
281
     0
  0
BLOCK_RECORD
  5
240
330
1
100
AcDbSymbolTableRecord
100
AcDbBlockTableRecord
  2
*D40
340
0
 70
     0
280
     1
281
     0
  0
BLOCK_RECORD
  5
241
330
1
100
AcDbSymbolTableRecord
100
AcDbBlockTableRecord
  2
*D41
340
0
 70
     0
280
     1
281
     0
  0
BLOCK_RECORD
  5
242
330
1
100
AcDbSymbolTableRecord
100
AcDbBlockTableRecord
  2
*D42
340
0
 70
     0
280
     1
281
     0
  0
BLOCK_RECORD
  5
243
330
1
100
AcDbSymbolTableRecord
100
AcDbBlockTableRecord
  2
*D43
340
0
 70
     0
280
     1
281
     0
  0
BLOCK_RECORD
  5
244
330
1
100
AcDbSymbolTableRecord
100
AcDbBlockTableRecord
  2
*D44
340
0
 70
     0
280
     1
281
     0
  0
BLOCK_RECORD
  5
245
330
1
100
AcDbSymbolTableRecord
100
AcDbBlockTableRecord
  2
*D45
340
0
 70
     0
280
     1
281
     0
  0
BLOCK_RECORD
  5
246
330
1
100
AcDbSymbolTableRecord
100
AcDbBlockTableRecord
  2
*D46
340
0
 70
     0
280
     1
281
     0
  0
BLOCK_RECORD
  5
247
330
1
100
AcDbSymbolTableRecord
100
AcDbBlockTableRecord
  2
SYMBOL_41_BL17
340
0
 70
     0
280
     1
281
     0
  0
BLOCK_RECORD
  5
248
330
1
100
AcDbSymbolTableRecord
100
AcDbBlockTableRecord
  2
SYMBOL_38_BL16
340
0
 70
     0
280
     1
281
     0
  0
BLOCK_RECORD
  5
249
330
1
100
AcDbSymbolTableRecord
100
AcDbBlockTableRecord
  2
SYMBOL_26_BL15
340
0
 70
     0
280
     1
281
     0
  0
BLOCK_RECORD
  5
24A
330
1
100
AcDbSymbolTableRecord
100
AcDbBlockTableRecord
  2
SYMBOL_20_BL14
340
0
 70
     0
280
     1
281
     0
  0
BLOCK_RECORD
  5
24B
330
1
100
AcDbSymbolTableRecord
100
AcDbBlockTableRecord
  2
SYMBOL_19_BL13
340
0
 70
     0
280
     1
281
     0
  0
BLOCK_RECORD
  5
24C
330
1
100
AcDbSymbolTableRecord
100
AcDbBlockTableRecord
  2
SYMBOL_12_BL12
340
0
 70
     0
280
     1
281
     0
  0
BLOCK_RECORD
  5
24D
330
1
100
AcDbSymbolTableRecord
100
AcDbBlockTableRecord
  2
SYMBOL_11_BL11
340
0
 70
     0
280
     1
281
     0
  0
BLOCK_RECORD
  5
24E
330
1
100
AcDbSymbolTableRecord
100
AcDbBlockTableRecord
  2
SYMBOL_10_BL10
340
0
 70
     0
280
     1
281
     0
  0
BLOCK_RECORD
  5
24F
330
1
100
AcDbSymbolTableRecord
100
AcDbBlockTableRecord
  2
SYMBOL_9_BL9
340
0
 70
     0
280
     1
281
     0
  0
BLOCK_RECORD
  5
250
330
1
100
AcDbSymbolTableRecord
100
AcDbBlockTableRecord
  2
SYMBOL_5_BL8
340
0
 70
     0
280
     1
281
     0
  0
BLOCK_RECORD
  5
251
330
1
100
AcDbSymbolTableRecord
100
AcDbBlockTableRecord
  2
SYMBOL_4_BL7
340
0
 70
     0
280
     1
281
     0
  0
BLOCK_RECORD
  5
252
330
1
100
AcDbSymbolTableRecord
100
AcDbBlockTableRecord
  2
SYMBOL_1_BL6
340
0
 70
     0
280
     1
281
     0
  0
BLOCK_RECORD
  5
253
330
1
100
AcDbSymbolTableRecord
100
AcDbBlockTableRecord
  2
SYMBOL_0_BL5
340
0
 70
     0
280
     1
281
     0
  0
BLOCK_RECORD
  5
254
330
1
100
AcDbSymbolTableRecord
100
AcDbBlockTableRecord
  2
SYMBOL_11_BL4
340
0
 70
     0
280
     1
281
     0
  0
BLOCK_RECORD
  5
255
330
1
100
AcDbSymbolTableRecord
100
AcDbBlockTableRecord
  2
SYMBOL_10_BL3
340
0
 70
     0
280
     1
281
     0
  0
BLOCK_RECORD
  5
256
330
1
100
AcDbSymbolTableRecord
100
AcDbBlockTableRecord
  2
SYMBOL_8_BL2
340
0
 70
     0
280
     1
281
     0
  0
BLOCK_RECORD
  5
257
330
1
100
AcDbSymbolTableRecord
100
AcDbBlockTableRecord
  2
SYMBOL_6_BL1
340
0
 70
     0
280
     1
281
     0
  0
BLOCK_RECORD
  5
258
330
1
100
AcDbSymbolTableRecord
100
AcDbBlockTableRecord
  2
SYMBOL_0_BL0
340
0
 70
     0
280
     1
281
     0
  0
BLOCK_RECORD
  5
14B8
330
1
100
AcDbSymbolTableRecord
100
AcDbBlockTableRecord
  2
GENAXEH
340
0
 70
     0
280
     1
281
     0
  0
BLOCK_RECORD
  5
14DA
330
1
100
AcDbSymbolTableRecord
100
AcDbBlockTableRecord
  2
$MODEL_SPACE
340
0
 70
     0
280
     1
281
     0
  0
BLOCK_RECORD
  5
14DD
330
1
100
AcDbSymbolTableRecord
100
AcDbBlockTableRecord
  2
$PAPER_SPACE
340
0
 70
     0
280
     1
281
     0
  0
BLOCK_RECORD
  5
14E0
330
1
100
AcDbSymbolTableRecord
100
AcDbBlockTableRecord
  2
C_ARROW_BL0
340
0
 70
     0
280
     1
281
     0
  0
BLOCK_RECORD
  5
14EC
330
1
100
AcDbSymbolTableRecord
100
AcDbBlockTableRecord
  2
*U69
340
0
102
{BLKREFS
331
14EA
102
}
 70
     0
280
     1
281
     0
  0
BLOCK_RECORD
  5
14FC
330
1
100
AcDbSymbolTableRecord
100
AcDbBlockTableRecord
  2
C_ARROW_BL1
340
0
 70
     0
280
     1
281
     0
  0
BLOCK_RECORD
  5
1508
330
1
100
AcDbSymbolTableRecord
100
AcDbBlockTableRecord
  2
*U71
340
0
102
{BLKREFS
331
1506
102
}
 70
     0
280
     1
281
     0
  0
BLOCK_RECORD
  5
151D
330
1
100
AcDbSymbolTableRecord
100
AcDbBlockTableRecord
  2
C_ARROW_BL2
340
0
 70
     0
280
     1
281
     0
  0
BLOCK_RECORD
  5
1529
330
1
100
AcDbSymbolTableRecord
100
AcDbBlockTableRecord
  2
*U73
340
0
102
{BLKREFS
331
1527
102
}
 70
     0
280
     1
281
     0
  0
BLOCK_RECORD
  5
1539
330
1
100
AcDbSymbolTableRecord
100
AcDbBlockTableRecord
  2
C_ARROW_BL3
340
0
 70
     0
280
     1
281
     0
  0
BLOCK_RECORD
  5
1545
330
1
100
AcDbSymbolTableRecord
100
AcDbBlockTableRecord
  2
*U75
340
0
102
{BLKREFS
331
1543
102
}
 70
     0
280
     1
281
     0
  0
BLOCK_RECORD
  5
155A
330
1
100
AcDbSymbolTableRecord
100
AcDbBlockTableRecord
  2
*U76
340
0
 70
     0
280
     1
281
     0
  0
BLOCK_RECORD
  5
157A
330
1
100
AcDbSymbolTableRecord
100
AcDbBlockTableRecord
  2
3347T PLAN VIEW
340
0
 70
     0
280
     1
281
     0
  0
ENDTAB
  0
ENDSEC
  0
SECTION
  2
BLOCKS
  0
BLOCK
  5
20
330
216
100
AcDbEntity
  8
0
100
AcDbBlockBegin
  2
*Model_Space
 70
     0
 10
0.0
 20
0.0
 30
0.0
  3
*Model_Space
  1

  0
ENDBLK
  5
21
330
216
100
AcDbEntity
  8
0
100
AcDbBlockEnd
  0
BLOCK
  5
1C
330
217
100
AcDbEntity
 67
     1
  8
0
100
AcDbBlockBegin
  2
*Paper_Space
 70
     0
 10
0.0
 20
0.0
 30
0.0
  3
*Paper_Space
  1

  0
ENDBLK
  5
1D
330
217
100
AcDbEntity
 67
     1
  8
0
100
AcDbBlockEnd
  0
BLOCK
  5
354
330
218
100
AcDbEntity
  8
0
100
AcDbBlockBegin
  2
_FILLED
 70
     0
 10
0.0
 20
0.0
 30
0.0
  3
_FILLED
  1

  0
SOLID
  5
355
330
218
100
AcDbEntity
  8
0
  6
ByBlock
 62
     0
100
AcDbTrace
 10
0.0
 20
0.0
 30
0.0
 11
-1.0
 21
0.1666666667
 31
0.0
 12
-1.0
 22
-0.1666666667
 32
0.0
 13
-1.0
 23
-0.1666666667
 33
0.0
  0
ENDBLK
  5
356
330
218
100
AcDbEntity
  8
0
  6
ByBlock
 62
     0
100
AcDbBlockEnd
  0
BLOCK
  5
357
330
219
100
AcDbEntity
  8
0
  6
Continuous
 62
     2
100
AcDbBlockBegin
  2
*D1
 70
     1
 10
0.0
 20
0.0
 30
0.0
  3
*D1
  1

  0
LINE
  5
358
330
219
100
AcDbEntity
  8
0
  6
Continuous
 62
     2
100
AcDbLine
 10
83.53776554339999
 20
470.1431252535
 30
0.0
 11
83.53776554339999
 21
496.855596322
 31
0.0
  0
LINE
  5
359
330
219
100
AcDbEntity
  8
0
  6
Continuous
 62
     2
100
AcDbLine
 10
203.9054174321
 20
411.6716284095998
 30
0.0
 11
203.9054174321
 21
496.855596322
 31
0.0
  0
LINE
  5
35A
330
219
100
AcDbEntity
  8
0
  6
Continuous
 62
     2
100
AcDbLine
 10
83.53776554339999
 20
493.680596322
 30
0.0
 11
133.0721123211
 21
493.680596322
 31
0.0
  0
LINE
  5
35B
330
219
100
AcDbEntity
  8
0
  6
Continuous
 62
     2
100
AcDbLine
 10
203.9054174321
 20
493.680596322
 30
0.0
 11
154.3710706544
 21
493.680596322
 31
0.0
  0
INSERT
  5
35C
330
219
100
AcDbEntity
  8
0
  6
Continuous
 62
     2
100
AcDbBlockReference
  2
_FILLED
 10
83.53776554339999
 20
493.680596322
 30
0.0
 41
4.7625
 42
4.7625
 43
4.7625
 50
180.0
  0
INSERT
  5
35D
330
219
100
AcDbEntity
  8
0
  6
Continuous
 62
     2
100
AcDbBlockReference
  2
_FILLED
 10
203.9054174321
 20
493.680596322
 30
0.0
 41
4.7625
 42
4.7625
 43
4.7625
  0
ENDBLK
  5
35E
330
219
100
AcDbEntity
  8
0
  6
ByBlock
 62
     0
100
AcDbBlockEnd
  0
BLOCK
  5
35F
330
21A
100
AcDbEntity
  8
0
  6
Continuous
 62
     2
100
AcDbBlockBegin
  2
*D2
 70
     1
 10
0.0
 20
0.0
 30
0.0
  3
*D2
  1

  0
LINE
  5
360
330
21A
100
AcDbEntity
  8
0
  6
Continuous
 62
     2
100
AcDbLine
 10
203.9054174321
 20
411.6716284095998
 30
0.0
 11
203.9054174321
 21
497.0072946215998
 31
0.0
  0
LINE
  5
361
330
21A
100
AcDbEntity
  8
0
  6
Continuous
 62
     2
100
AcDbLine
 10
323.1054174321
 20
411.6716284095998
 30
0.0
 11
323.1054174321
 21
497.0072946215998
 31
0.0
  0
LINE
  5
362
330
21A
100
AcDbEntity
  8
0
  6
Continuous
 62
     2
100
AcDbLine
 10
203.9054174321
 20
493.8322946216
 30
0.0
 11
252.8559382654
 21
493.8322946216
 31
0.0
  0
LINE
  5
363
330
21A
100
AcDbEntity
  8
0
  6
Continuous
 62
     2
100
AcDbLine
 10
323.1054174321
 20
493.8322946216
 30
0.0
 11
274.1548965988
 21
493.8322946216
 31
0.0
  0
INSERT
  5
364
330
21A
100
AcDbEntity
  8
0
  6
Continuous
 62
     2
100
AcDbBlockReference
  2
_FILLED
 10
203.9054174321
 20
493.8322946216
 30
0.0
 41
4.7625
 42
4.7625
 43
4.7625
 50
180.0
  0
INSERT
  5
365
330
21A
100
AcDbEntity
  8
0
  6
Continuous
 62
     2
100
AcDbBlockReference
  2
_FILLED
 10
323.1054174321
 20
493.8322946216
 30
0.0
 41
4.7625
 42
4.7625
 43
4.7625
  0
ENDBLK
  5
366
330
21A
100
AcDbEntity
  8
0
  6
ByBlock
 62
     0
100
AcDbBlockEnd
  0
BLOCK
  5
367
330
21B
100
AcDbEntity
  8
0
  6
Continuous
 62
     2
100
AcDbBlockBegin
  2
*D3
 70
     1
 10
0.0
 20
0.0
 30
0.0
  3
*D3
  1

  0
LINE
  5
368
330
21B
100
AcDbEntity
  8
0
  6
Continuous
 62
     2
100
AcDbLine
 10
263.7054380841
 20
442.8716179905999
 30
0.0
 11
263.7054380841
 21
487.2346484463998
 31
0.0
  0
LINE
  5
369
330
21B
100
AcDbEntity
  8
0
  6
Continuous
 62
     2
100
AcDbLine
 10
83.53776554339999
 20
470.1431252535
 30
0.0
 11
83.53776554339999
 21
487.2346484463998
 31
0.0
  0
LINE
  5
36A
330
21B
100
AcDbEntity
  8
0
  6
Continuous
 62
     2
100
AcDbLine
 10
263.7054380841
 20
484.0596484464
 30
0.0
 11
180.3684768138
 21
484.0596484464
 31
0.0
  0
LINE
  5
36B
330
21B
100
AcDbEntity
  8
0
  6
Continuous
 62
     2
100
AcDbLine
 10
83.53776554339999
 20
484.0596484464
 30
0.0
 11
166.8747268138
 21
484.0596484464
 31
0.0
  0
INSERT
  5
36C
330
21B
100
AcDbEntity
  8
0
  6
Continuous
 62
     2
100
AcDbBlockReference
  2
_FILLED
 10
263.7054380841
 20
484.0596484464
 30
0.0
 41
4.7625
 42
4.7625
 43
4.7625
  0
INSERT
  5
36D
330
21B
100
AcDbEntity
  8
0
  6
Continuous
 62
     2
100
AcDbBlockReference
  2
_FILLED
 10
83.53776554339999
 20
484.0596484464
 30
0.0
 41
4.7625
 42
4.7625
 43
4.7625
 50
180.0
  0
ENDBLK
  5
36E
330
21B
100
AcDbEntity
  8
0
  6
ByBlock
 62
     0
100
AcDbBlockEnd
  0
BLOCK
  5
36F
330
21C
100
AcDbEntity
  8
0
  6
Continuous
 62
     2
100
AcDbBlockBegin
  2
*D4
 70
     1
 10
0.0
 20
0.0
 30
0.0
  3
*D4
  1

  0
LINE
  5
370
330
21C
100
AcDbEntity
  8
0
  6
Continuous
 62
     2
100
AcDbLine
 10
403.4731106294
 20
470.1454000859
 30
0.0
 11
403.4731106294
 21
512.9176430751998
 31
0.0
  0
LINE
  5
371
330
21C
100
AcDbEntity
  8
0
  6
Continuous
 62
     2
100
AcDbLine
 10
83.53776554339999
 20
470.1431252535
 30
0.0
 11
83.53776554339999
 21
512.9176430751998
 31
0.0
  0
LINE
  5
372
330
21C
100
AcDbEntity
  8
0
  6
Continuous
 62
     2
100
AcDbLine
 10
403.4731106294
 20
509.7426430751998
 30
0.0
 11
250.2523130864
 21
509.7426430751998
 31
0.0
  0
LINE
  5
373
330
21C
100
AcDbEntity
  8
0
  6
Continuous
 62
     2
100
AcDbLine
 10
83.53776554339999
 20
509.7426430751998
 30
0.0
 11
236.7585630864
 21
509.7426430751998
 31
0.0
  0
INSERT
  5
374
330
21C
100
AcDbEntity
  8
0
  6
Continuous
 62
     2
100
AcDbBlockReference
  2
_FILLED
 10
403.4731106294
 20
509.7426430751998
 30
0.0
 41
4.7625
 42
4.7625
 43
4.7625
  0
INSERT
  5
375
330
21C
100
AcDbEntity
  8
0
  6
Continuous
 62
     2
100
AcDbBlockReference
  2
_FILLED
 10
83.53776554339999
 20
509.7426430751998
 30
0.0
 41
4.7625
 42
4.7625
 43
4.7625
 50
180.0
  0
ENDBLK
  5
376
330
21C
100
AcDbEntity
  8
0
  6
ByBlock
 62
     0
100
AcDbBlockEnd
  0
BLOCK
  5
377
330
21D
100
AcDbEntity
  8
0
  6
Continuous
 62
     2
100
AcDbBlockBegin
  2
*D5
 70
     1
 10
0.0
 20
0.0
 30
0.0
  3
*D5
  1

  0
LINE
  5
378
330
21D
100
AcDbEntity
  8
0
  6
Continuous
 62
     2
100
AcDbLine
 10
402.3482822741
 20
471.2517905946
 30
0.0
 11
420.8122085304998
 21
471.2517905946
 31
0.0
  0
LINE
  5
379
330
21D
100
AcDbEntity
  8
0
  6
Continuous
 62
     2
100
AcDbLine
 10
265.2929380841
 20
441.2841179905998
 30
0.0
 11
420.8122085304998
 21
441.2841179905998
 31
0.0
  0
LINE
  5
37A
330
21D
100
AcDbEntity
  8
0
  6
Continuous
 62
     2
100
AcDbLine
 10
417.6372085305
 20
471.2517905946
 30
0.0
 11
417.6372085305
 21
460.2367042925998
 31
0.0
  0
LINE
  5
37B
330
21D
100
AcDbEntity
  8
0
  6
Continuous
 62
     2
100
AcDbLine
 10
417.6372085305
 20
441.2841179905998
 30
0.0
 11
417.6372085305
 21
452.2992042925999
 31
0.0
  0
INSERT
  5
37C
330
21D
100
AcDbEntity
  8
0
  6
Continuous
 62
     2
100
AcDbBlockReference
  2
_FILLED
 10
417.6372085305
 20
471.2517905946
 30
0.0
 41
4.7625
 42
4.7625
 43
4.7625
 50
90.0
  0
INSERT
  5
37D
330
21D
100
AcDbEntity
  8
0
  6
Continuous
 62
     2
100
AcDbBlockReference
  2
_FILLED
 10
417.6372085305
 20
441.2841179905998
 30
0.0
 41
4.7625
 42
4.7625
 43
4.7625
 50
270.0
  0
ENDBLK
  5
37E
330
21D
100
AcDbEntity
  8
0
  6
ByBlock
 62
     0
100
AcDbBlockEnd
  0
BLOCK
  5
37F
330
21E
100
AcDbEntity
  8
0
  6
Continuous
 62
     2
100
AcDbBlockBegin
  2
*D6
 70
     1
 10
0.0
 20
0.0
 30
0.0
  3
*D6
  1

  0
LINE
  5
380
330
21E
100
AcDbEntity
  8
0
  6
Continuous
 62
     2
100
AcDbLine
 10
402.3482822741
 20
471.2517905946
 30
0.0
 11
432.0591028766998
 21
471.2517905946
 31
0.0
  0
LINE
  5
381
330
21E
100
AcDbEntity
  8
0
  6
Continuous
 62
     2
100
AcDbLine
 10
205.4929174321
 20
410.0841284096
 30
0.0
 11
432.0591028766998
 21
410.0841284096
 31
0.0
  0
LINE
  5
382
330
21E
100
AcDbEntity
  8
0
  6
Continuous
 62
     2
100
AcDbLine
 10
428.8841028767
 20
471.2517905946
 30
0.0
 11
428.8841028767
 21
444.6367095021
 31
0.0
  0
LINE
  5
383
330
21E
100
AcDbEntity
  8
0
  6
Continuous
 62
     2
100
AcDbLine
 10
428.8841028767
 20
410.0841284096
 30
0.0
 11
428.8841028767
 21
436.6992095021
 31
0.0
  0
INSERT
  5
384
330
21E
100
AcDbEntity
  8
0
  6
Continuous
 62
     2
100
AcDbBlockReference
  2
_FILLED
 10
428.8841028767
 20
471.2517905946
 30
0.0
 41
4.7625
 42
4.7625
 43
4.7625
 50
90.0
  0
INSERT
  5
385
330
21E
100
AcDbEntity
  8
0
  6
Continuous
 62
     2
100
AcDbBlockReference
  2
_FILLED
 10
428.8841028767
 20
410.0841284096
 30
0.0
 41
4.7625
 42
4.7625
 43
4.7625
 50
270.0
  0
ENDBLK
  5
386
330
21E
100
AcDbEntity
  8
0
  6
ByBlock
 62
     0
100
AcDbBlockEnd
  0
BLOCK
  5
387
330
21F
100
AcDbEntity
  8
0
  6
Continuous
 62
     2
100
AcDbBlockBegin
  2
*D7
 70
     1
 10
0.0
 20
0.0
 30
0.0
  3
*D7
  1

  0
LINE
  5
388
330
21F
100
AcDbEntity
  8
0
  6
Continuous
 62
     2
100
AcDbLine
 10
402.3482822741
 20
471.2517905946
 30
0.0
 11
448.2081191815
 21
471.2517905946
 31
0.0
  0
LINE
  5
389
330
21F
100
AcDbEntity
  8
0
  6
Continuous
 62
     2
100
AcDbLine
 10
402.3482822741
 20
291.3164453867
 30
0.0
 11
448.2081191815
 21
291.3164453867
 31
0.0
  0
LINE
  5
38A
330
21F
100
AcDbEntity
  8
0
  6
Continuous
 62
     2
100
AcDbLine
 10
445.0331191815
 20
471.2517905946
 30
0.0
 11
445.0331191815
 21
385.2528679907
 31
0.0
  0
LINE
  5
38B
330
21F
100
AcDbEntity
  8
0
  6
Continuous
 62
     2
100
AcDbLine
 10
445.0331191815
 20
291.3164453867
 30
0.0
 11
445.0331191815
 21
377.3153679907
 31
0.0
  0
INSERT
  5
38C
330
21F
100
AcDbEntity
  8
0
  6
Continuous
 62
     2
100
AcDbBlockReference
  2
_FILLED
 10
445.0331191815
 20
471.2517905946
 30
0.0
 41
4.7625
 42
4.7625
 43
4.7625
 50
90.0
  0
INSERT
  5
38D
330
21F
100
AcDbEntity
  8
0
  6
Continuous
 62
     2
100
AcDbBlockReference
  2
_FILLED
 10
445.0331191815
 20
291.3164453867
 30
0.0
 41
4.7625
 42
4.7625
 43
4.7625
 50
270.0
  0
ENDBLK
  5
38E
330
21F
100
AcDbEntity
  8
0
  6
ByBlock
 62
     0
100
AcDbBlockEnd
  0
BLOCK
  5
38F
330
220
100
AcDbEntity
  8
0
  6
Continuous
 62
     2
100
AcDbBlockBegin
  2
*D8
 70
     1
 10
0.0
 20
0.0
 30
0.0
  3
*D8
  1

  0
LINE
  5
390
330
220
100
AcDbEntity
  8
0
  6
Continuous
 62
     2
100
AcDbLine
 10
258.1314947426
 20
445.5183725652998
 30
0.0
 11
263.7054380841
 21
441.2841179905998
 31
0.0
  0
LINE
  5
391
330
220
100
AcDbEntity
  8
0
  6
Continuous
 62
     2
100
AcDbLine
 10
263.7054380841
 20
441.2841179905998
 30
0.0
 11
234.3434469133
 21
463.5889994395998
 31
0.0
  0
LINE
  5
392
330
220
100
AcDbEntity
  8
0
  6
Continuous
 62
     2
100
AcDbLine
 10
234.3434469133
 20
463.5889994395998
 30
0.0
 11
238.7090719133
 21
463.5889994395998
 31
0.0
  0
LINE
  5
393
330
220
100
AcDbEntity
  8
0
  6
Continuous
 62
     2
100
AcDbLine
 10
269.2793814257
 20
437.0498634159998
 30
0.0
 11
263.7054380841
 21
441.2841179905998
 31
0.0
  0
INSERT
  5
394
330
220
100
AcDbEntity
  8
0
  6
Continuous
 62
     2
100
AcDbBlockReference
  2
_FILLED
 10
258.1314947426
 20
445.5183725652998
 30
0.0
 41
4.7625
 42
4.7625
 43
4.7625
 50
142.7778240715
  0
INSERT
  5
395
330
220
100
AcDbEntity
  8
0
  6
Continuous
 62
     2
100
AcDbBlockReference
  2
_FILLED
 10
269.2793814257
 20
437.0498634159998
 30
0.0
 41
4.7625
 42
4.7625
 43
4.7625
 50
322.7778240715
  0
ENDBLK
  5
396
330
220
100
AcDbEntity
  8
0
  6
ByBlock
 62
     0
100
AcDbBlockEnd
  0
BLOCK
  5
397
330
221
100
AcDbEntity
  8
0
  6
Continuous
 62
     2
100
AcDbBlockBegin
  2
*D9
 70
     1
 10
0.0
 20
0.0
 30
0.0
  3
*D9
  1

  0
LINE
  5
398
330
221
100
AcDbEntity
  8
0
  6
Continuous
 62
     2
100
AcDbLine
 10
271.4659825517
 20
451.7135930286
 30
0.0
 11
263.7054380841
 21
441.2841179905998
 31
0.0
  0
LINE
  5
399
330
221
100
AcDbEntity
  8
0
  6
Continuous
 62
     2
100
AcDbLine
 10
263.7054380841
 20
441.2841179905998
 30
0.0
 11
291.350111954
 21
478.4360777871
 31
0.0
  0
LINE
  5
39A
330
221
100
AcDbEntity
  8
0
  6
Continuous
 62
     2
100
AcDbLine
 10
291.350111954
 20
478.4360777871
 30
0.0
 11
295.715736954
 21
478.4360777871
 31
0.0
  0
LINE
  5
39B
330
221
100
AcDbEntity
  8
0
  6
Continuous
 62
     2
100
AcDbLine
 10
255.9448936165
 20
430.8546429526998
 30
0.0
 11
263.7054380841
 21
441.2841179905998
 31
0.0
  0
INSERT
  5
39C
330
221
100
AcDbEntity
  8
0
  6
Continuous
 62
     2
100
AcDbBlockReference
  2
_FILLED
 10
271.4659825517
 20
451.7135930286
 30
0.0
 41
4.7625
 42
4.7625
 43
4.7625
 50
53.3471633006
  0
INSERT
  5
39D
330
221
100
AcDbEntity
  8
0
  6
Continuous
 62
     2
100
AcDbBlockReference
  2
_FILLED
 10
255.9448936165
 20
430.8546429526998
 30
0.0
 41
4.7625
 42
4.7625
 43
4.7625
 50
233.3471633006
  0
ENDBLK
  5
39E
330
221
100
AcDbEntity
  8
0
  6
ByBlock
 62
     0
100
AcDbBlockEnd
  0
BLOCK
  5
39F
330
222
100
AcDbEntity
  8
0
  6
Continuous
 62
     2
100
AcDbBlockBegin
  2
*D10
 70
     1
 10
0.0
 20
0.0
 30
0.0
  3
*D10
  1

  0
LINE
  5
3A0
330
222
100
AcDbEntity
  8
0
  6
Continuous
 62
     2
100
AcDbLine
 10
83.5054380841
 20
190.9700804344
 30
0.0
 11
83.5054380841
 21
210.6447377929
 31
0.0
  0
LINE
  5
3A1
330
222
100
AcDbEntity
  8
0
  6
Continuous
 62
     2
100
AcDbLine
 10
95.50543808409999
 20
194.1700804344
 30
0.0
 11
95.50543808409999
 21
210.6447377929
 31
0.0
  0
LINE
  5
3A2
330
222
100
AcDbEntity
  8
0
  6
Continuous
 62
     2
100
AcDbLine
 10
83.5054380841
 20
207.4697377929
 30
0.0
 11
70.8054380841
 21
207.4697377929
 31
0.0
  0
LINE
  5
3A3
330
222
100
AcDbEntity
  8
0
  6
Continuous
 62
     2
100
AcDbLine
 10
95.50543808409999
 20
207.4697377929
 30
0.0
 11
108.2054380841
 21
207.4697377929
 31
0.0
  0
INSERT
  5
3A4
330
222
100
AcDbEntity
  8
0
  6
Continuous
 62
     2
100
AcDbBlockReference
  2
_FILLED
 10
83.5054380841
 20
207.4697377929
 30
0.0
 41
4.7625
 42
4.7625
 43
4.7625
  0
INSERT
  5
3A5
330
222
100
AcDbEntity
  8
0
  6
Continuous
 62
     2
100
AcDbBlockReference
  2
_FILLED
 10
95.50543808409999
 20
207.4697377929
 30
0.0
 41
4.7625
 42
4.7625
 43
4.7625
 50
180.0
  0
ENDBLK
  5
3A6
330
222
100
AcDbEntity
  8
0
  6
ByBlock
 62
     0
100
AcDbBlockEnd
  0
BLOCK
  5
3A7
330
223
100
AcDbEntity
  8
0
  6
Continuous
 62
     2
100
AcDbBlockBegin
  2
*D11
 70
     1
 10
0.0
 20
0.0
 30
0.0
  3
*D11
  1

  0
LINE
  5
3A8
330
223
100
AcDbEntity
  8
0
  6
Continuous
 62
     2
100
AcDbLine
 10
95.50543808409999
 20
194.1700804344
 30
0.0
 11
95.50543808409999
 21
220.0494263259
 31
0.0
  0
LINE
  5
3A9
330
223
100
AcDbEntity
  8
0
  6
Continuous
 62
     2
100
AcDbLine
 10
253.9070184612
 20
186.1700804344
 30
0.0
 11
253.9070184612
 21
220.0494263259
 31
0.0
  0
LINE
  5
3AA
330
223
100
AcDbEntity
  8
0
  6
Continuous
 62
     2
100
AcDbLine
 10
95.50543808409999
 20
216.8744263259
 30
0.0
 11
167.9593532727
 21
216.8744263259
 31
0.0
  0
LINE
  5
3AB
330
223
100
AcDbEntity
  8
0
  6
Continuous
 62
     2
100
AcDbLine
 10
253.9070184612
 20
216.8744263259
 30
0.0
 11
181.4531032727
 21
216.8744263259
 31
0.0
  0
INSERT
  5
3AC
330
223
100
AcDbEntity
  8
0
  6
Continuous
 62
     2
100
AcDbBlockReference
  2
_FILLED
 10
95.50543808409999
 20
216.8744263259
 30
0.0
 41
4.7625
 42
4.7625
 43
4.7625
 50
180.0
  0
INSERT
  5
3AD
330
223
100
AcDbEntity
  8
0
  6
Continuous
 62
     2
100
AcDbBlockReference
  2
_FILLED
 10
253.9070184612
 20
216.8744263259
 30
0.0
 41
4.7625
 42
4.7625
 43
4.7625
  0
ENDBLK
  5
3AE
330
223
100
AcDbEntity
  8
0
  6
ByBlock
 62
     0
100
AcDbBlockEnd
  0
BLOCK
  5
3AF
330
224
100
AcDbEntity
  8
0
  6
Continuous
 62
     2
100
AcDbBlockBegin
  2
*D12
 70
     1
 10
0.0
 20
0.0
 30
0.0
  3
*D12
  1

  0
LINE
  5
3B0
330
224
100
AcDbEntity
  8
0
  6
Continuous
 62
     2
100
AcDbLine
 10
253.9070184612
 20
186.1700804344
 30
0.0
 11
253.9070184612
 21
219.9409159247
 31
0.0
  0
LINE
  5
3B1
330
224
100
AcDbEntity
  8
0
  6
Continuous
 62
     2
100
AcDbLine
 10
273.1005240016
 20
186.1700804344
 30
0.0
 11
273.1005240016
 21
219.9409159247
 31
0.0
  0
LINE
  5
3B2
330
224
100
AcDbEntity
  8
0
  6
Continuous
 62
     2
100
AcDbLine
 10
253.9070184612
 20
216.7659159247
 30
0.0
 11
258.3443962313999
 21
216.7659159247
 31
0.0
  0
LINE
  5
3B3
330
224
100
AcDbEntity
  8
0
  6
Continuous
 62
     2
100
AcDbLine
 10
273.1005240016
 20
216.7659159247
 30
0.0
 11
268.6631462314
 21
216.7659159247
 31
0.0
  0
INSERT
  5
3B4
330
224
100
AcDbEntity
  8
0
  6
Continuous
 62
     2
100
AcDbBlockReference
  2
_FILLED
 10
253.9070184612
 20
216.7659159247
 30
0.0
 41
4.7625
 42
4.7625
 43
4.7625
 50
180.0
  0
INSERT
  5
3B5
330
224
100
AcDbEntity
  8
0
  6
Continuous
 62
     2
100
AcDbBlockReference
  2
_FILLED
 10
273.1005240016
 20
216.7659159247
 30
0.0
 41
4.7625
 42
4.7625
 43
4.7625
  0
ENDBLK
  5
3B6
330
224
100
AcDbEntity
  8
0
  6
ByBlock
 62
     0
100
AcDbBlockEnd
  0
BLOCK
  5
3B7
330
225
100
AcDbEntity
  8
0
  6
Continuous
 62
     2
100
AcDbBlockBegin
  2
*D13
 70
     1
 10
0.0
 20
0.0
 30
0.0
  3
*D13
  1

  0
LINE
  5
3B8
330
225
100
AcDbEntity
  8
0
  6
Continuous
 62
     2
100
AcDbLine
 10
273.1005240016
 20
186.1700804344
 30
0.0
 11
273.1005240016
 21
219.8953065402
 31
0.0
  0
LINE
  5
3B9
330
225
100
AcDbEntity
  8
0
  6
Continuous
 62
     2
100
AcDbLine
 10
391.5054380841
 20
194.1700804344
 30
0.0
 11
391.5054380841
 21
219.8953065402
 31
0.0
  0
LINE
  5
3BA
330
225
100
AcDbEntity
  8
0
  6
Continuous
 62
     2
100
AcDbLine
 10
273.1005240016
 20
216.7203065402
 30
0.0
 11
325.5561060429
 21
216.7203065402
 31
0.0
  0
LINE
  5
3BB
330
225
100
AcDbEntity
  8
0
  6
Continuous
 62
     2
100
AcDbLine
 10
391.5054380841
 20
216.7203065402
 30
0.0
 11
339.0498560429
 21
216.7203065402
 31
0.0
  0
INSERT
  5
3BC
330
225
100
AcDbEntity
  8
0
  6
Continuous
 62
     2
100
AcDbBlockReference
  2
_FILLED
 10
273.1005240016
 20
216.7203065402
 30
0.0
 41
4.7625
 42
4.7625
 43
4.7625
 50
180.0
  0
INSERT
  5
3BD
330
225
100
AcDbEntity
  8
0
  6
Continuous
 62
     2
100
AcDbBlockReference
  2
_FILLED
 10
391.5054380841
 20
216.7203065402
 30
0.0
 41
4.7625
 42
4.7625
 43
4.7625
  0
ENDBLK
  5
3BE
330
225
100
AcDbEntity
  8
0
  6
ByBlock
 62
     0
100
AcDbBlockEnd
  0
BLOCK
  5
3BF
330
226
100
AcDbEntity
  8
0
  6
Continuous
 62
     2
100
AcDbBlockBegin
  2
*D14
 70
     1
 10
0.0
 20
0.0
 30
0.0
  3
*D14
  1

  0
LINE
  5
3C0
330
226
100
AcDbEntity
  8
0
  6
Continuous
 62
     2
100
AcDbLine
 10
382.6970942543
 20
192.5825804343999
 30
0.0
 11
256.1183468134
 21
192.5825804343999
 31
0.0
  0
LINE
  5
3C1
330
226
100
AcDbEntity
  8
0
  6
Continuous
 62
     2
100
AcDbLine
 10
269.0963857485
 20
184.5825804343999
 30
0.0
 11
256.1183468134
 21
184.5825804343999
 31
0.0
  0
LINE
  5
3C2
330
226
100
AcDbEntity
  8
0
  6
Continuous
 62
     2
100
AcDbLine
 10
259.2933468134
 20
192.5825804343999
 30
0.0
 11
259.2933468134
 21
199.6967045819
 31
0.0
  0
LINE
  5
3C3
330
226
100
AcDbEntity
  8
0
  6
Continuous
 62
     2
100
AcDbLine
 10
259.2933468134
 20
199.6967045819
 30
0.0
 11
263.6589718134
 21
199.6967045819
 31
0.0
  0
LINE
  5
3C4
330
226
100
AcDbEntity
  8
0
  6
Continuous
 62
     2
100
AcDbLine
 10
259.2933468134
 20
184.5825804343999
 30
0.0
 11
259.2933468134
 21
171.8825804344
 31
0.0
  0
INSERT
  5
3C5
330
226
100
AcDbEntity
  8
0
  6
Continuous
 62
     2
100
AcDbBlockReference
  2
_FILLED
 10
259.2933468134
 20
192.5825804343999
 30
0.0
 41
4.7625
 42
4.7625
 43
4.7625
 50
270.0
  0
INSERT
  5
3C6
330
226
100
AcDbEntity
  8
0
  6
Continuous
 62
     2
100
AcDbBlockReference
  2
_FILLED
 10
259.2933468134
 20
184.5825804343999
 30
0.0
 41
4.7625
 42
4.7625
 43
4.7625
 50
90.0
  0
ENDBLK
  5
3C7
330
226
100
AcDbEntity
  8
0
  6
ByBlock
 62
     0
100
AcDbBlockEnd
  0
BLOCK
  5
3C8
330
227
100
AcDbEntity
  8
0
  6
Continuous
 62
     2
100
AcDbBlockBegin
  2
*D15
 70
     1
 10
0.0
 20
0.0
 30
0.0
  3
*D15
  1

  0
LINE
  5
3C9
330
227
100
AcDbEntity
  8
0
  6
Continuous
 62
     2
100
AcDbLine
 10
254.5830826362
 20
183.9665388091
 30
0.0
 11
244.1226516261
 21
197.0042604308
 31
0.0
  0
LINE
  5
3CA
330
227
100
AcDbEntity
  8
0
  6
Continuous
 62
     2
100
AcDbLine
 10
244.1226516261
 20
197.0042604308
 30
0.0
 11
239.7570266261
 21
197.0042604308
 31
0.0
  0
INSERT
  5
3CB
330
227
100
AcDbEntity
  8
0
  6
Continuous
 62
     2
100
AcDbBlockReference
  2
_FILLED
 10
254.5830826362
 20
183.9665388091
 30
0.0
 41
4.7625
 42
4.7625
 43
4.7625
 50
308.7407857144
  0
ENDBLK
  5
3CC
330
227
100
AcDbEntity
  8
0
  6
ByBlock
 62
     0
100
AcDbBlockEnd
  0
BLOCK
  5
3CD
330
228
100
AcDbEntity
  8
0
  6
Continuous
 62
     2
100
AcDbBlockBegin
  2
*D16
 70
     1
 10
0.0
 20
0.0
 30
0.0
  3
*D16
  1

  0
LINE
  5
3CE
330
228
100
AcDbEntity
  8
0
  6
Continuous
 62
     2
100
AcDbLine
 10
272.6679332502
 20
183.7583221964
 30
0.0
 11
287.6467196233
 21
198.6744034634
 31
0.0
  0
LINE
  5
3CF
330
228
100
AcDbEntity
  8
0
  6
Continuous
 62
     2
100
AcDbLine
 10
287.6467196233
 20
198.6744034634
 30
0.0
 11
292.0123446233
 21
198.6744034634
 31
0.0
  0
INSERT
  5
3D0
330
228
100
AcDbEntity
  8
0
  6
Continuous
 62
     2
100
AcDbBlockReference
  2
_FILLED
 10
272.6679332502
 20
183.7583221964
 30
0.0
 41
4.7625
 42
4.7625
 43
4.7625
 50
224.879821088
  0
ENDBLK
  5
3D1
330
228
100
AcDbEntity
  8
0
  6
ByBlock
 62
     0
100
AcDbBlockEnd
  0
BLOCK
  5
3D2
330
229
100
AcDbEntity
  8
0
  6
Continuous
 62
     2
100
AcDbBlockBegin
  2
*D17
 70
     1
 10
0.0
 20
0.0
 30
0.0
  3
*D17
  1

  0
LINE
  5
3D3
330
229
100
AcDbEntity
  8
0
  6
Continuous
 62
     2
100
AcDbLine
 10
253.3388906297
 20
180.6071722873
 30
0.0
 11
247.1948499182
 21
137.6149649967
 31
0.0
  0
LINE
  5
3D4
330
229
100
AcDbEntity
  8
0
  6
Continuous
 62
     2
100
AcDbLine
 10
256.0793550625
 20
178.5807992959
 30
0.0
 11
250.164258946
 21
137.1906050695
 31
0.0
  0
LINE
  5
3D5
330
229
100
AcDbEntity
  8
0
  6
Continuous
 62
     2
100
AcDbLine
 10
247.6440272803
 20
140.7580311267
 30
0.0
 11
235.0717627604
 21
142.5547405751
 31
0.0
  0
LINE
  5
3D6
330
229
100
AcDbEntity
  8
0
  6
Continuous
 62
     2
100
AcDbLine
 10
250.6134363081
 20
140.3336711995
 30
0.0
 11
255.0793297256
 21
139.69544784
 31
0.0
  0
LINE
  5
3D7
330
229
100
AcDbEntity
  8
0
  6
Continuous
 62
     2
100
AcDbLine
 10
255.0793297256
 20
139.69544784
 30
0.0
 11
259.4449547256
 21
139.69544784
 31
0.0
  0
INSERT
  5
3D8
330
229
100
AcDbEntity
  8
0
  6
Continuous
 62
     2
100
AcDbBlockReference
  2
_FILLED
 10
247.6440272803
 20
140.7580311267
 30
0.0
 41
4.7625
 42
4.7625
 43
4.7625
 50
351.8668979217
  0
INSERT
  5
3D9
330
229
100
AcDbEntity
  8
0
  6
Continuous
 62
     2
100
AcDbBlockReference
  2
_FILLED
 10
250.6134363081
 20
140.3336711995
 30
0.0
 41
4.7625
 42
4.7625
 43
4.7625
 50
171.8668979217
  0
ENDBLK
  5
3DA
330
229
100
AcDbEntity
  8
0
  6
ByBlock
 62
     0
100
AcDbBlockEnd
  0
BLOCK
  5
3DB
330
22A
100
AcDbEntity
  8
0
  6
Continuous
 62
     2
100
AcDbBlockBegin
  2
*D18
 70
     1
 10
0.0
 20
0.0
 30
0.0
  3
*D18
  1

  0
LINE
  5
3DC
330
22A
100
AcDbEntity
  8
0
  6
Continuous
 62
     2
100
AcDbLine
 10
253.3388906297
 20
180.6071722873
 30
0.0
 11
249.8057002452
 21
155.884085228
 31
0.0
  0
LINE
  5
3DD
330
22A
100
AcDbEntity
  8
0
  6
Continuous
 62
     2
100
AcDbLine
 10
254.4004748069
 20
180.5122073823
 30
0.0
 11
254.4004748069
 21
155.5574237664
 31
0.0
  0
ARC
  5
3DE
330
22A
100
AcDbEntity
  8
0
  6
Continuous
 62
     2
100
AcDbCircle
 10
254.4004748069
 20
188.0354835804
 30
0.0
 40
29.303059814
100
AcDbArc
 50
236.4065292897
 51
261.8668979217
  0
ARC
  5
3DF
330
22A
100
AcDbEntity
  8
0
  6
Continuous
 62
     2
100
AcDbCircle
 10
254.4004748069
 20
188.0354835804
 30
0.0
 40
29.303059814
100
AcDbArc
 50
270.0
 51
294.832096185
  0
SOLID
  5
3E0
330
22A
100
AcDbEntity
  8
0
  6
Continuous
 62
     2
100
AcDbTrace
 10
245.4348213963
 20
159.3073360032
 30
0.0
 11
250.2548776073
 21
159.027151358
 31
0.0
 12
245.7862356711
 22
160.8554523611
 32
0.0
 13
245.7862356711
 23
160.8554523611
 33
0.0
  0
SOLID
  5
3E1
330
22A
100
AcDbEntity
  8
0
  6
Continuous
 62
     2
100
AcDbTrace
 10
259.0828271025
 20
159.9101428722
 30
0.0
 11
254.4004748069
 21
158.7324237664
 31
0.0
 12
259.2116899317
 22
158.3278816355
 32
0.0
 13
259.2116899317
 23
158.3278816355
 33
0.0
  0
ENDBLK
  5
3E2
330
22A
100
AcDbEntity
  8
0
  6
ByBlock
 62
     0
100
AcDbBlockEnd
  0
BLOCK
  5
3E3
330
22B
100
AcDbEntity
  8
0
  6
Continuous
 62
     2
100
AcDbBlockBegin
  2
*D19
 70
     1
 10
0.0
 20
0.0
 30
0.0
  3
*D19
  1

  0
LINE
  5
3E4
330
22B
100
AcDbEntity
  8
0
  6
Continuous
 62
     2
100
AcDbLine
 10
94.6137181979
 20
189.8739746143
 30
0.0
 11
94.6137181979
 21
172.0584403125999
 31
0.0
  0
LINE
  5
3E5
330
22B
100
AcDbEntity
  8
0
  6
Continuous
 62
     2
100
AcDbLine
 10
95.8366572801
 20
188.8111340129
 30
0.0
 11
97.2975963871
 21
172.176066863
 31
0.0
  0
ARC
  5
3E6
330
22B
100
AcDbEntity
  8
0
  6
Continuous
 62
     2
100
AcDbCircle
 10
94.6137181979
 20
202.7362001949
 30
0.0
 40
27.5027598823
100
AcDbArc
 50
243.5424225449
 51
270.0
  0
ARC
  5
3E7
330
22B
100
AcDbEntity
  8
0
  6
Continuous
 62
     2
100
AcDbCircle
 10
94.6137181979
 20
202.7362001949
 30
0.0
 40
27.5027598823
100
AcDbArc
 50
275.0190018175
 51
312.3521558739
  0
SOLID
  5
3E8
330
22B
100
AcDbEntity
  8
0
  6
Continuous
 62
     2
100
AcDbTrace
 10
89.8004192403
 20
174.854496442
 30
0.0
 11
94.6137181979
 21
175.2334403125999
 31
0.0
 12
89.93769684760001
 22
176.4360498266
 32
0.0
 13
89.93769684760001
 23
176.4360498266
 33
0.0
  0
SOLID
  5
3E9
330
22B
100
AcDbEntity
  8
0
  6
Continuous
 62
     2
100
AcDbTrace
 10
101.5727085771
 20
176.9459784439
 30
0.0
 11
97.01982795540001
 21
175.3388930831
 31
0.0
 12
101.8478237957
 22
175.3824990336
 32
0.0
 13
101.8478237957
 23
175.3824990336
 33
0.0
  0
ENDBLK
  5
3EA
330
22B
100
AcDbEntity
  8
0
  6
ByBlock
 62
     0
100
AcDbBlockEnd
  0
BLOCK
  5
3EB
330
22C
100
AcDbEntity
  8
0
  6
Continuous
 62
     2
100
AcDbBlockBegin
  2
*D20
 70
     1
 10
0.0
 20
0.0
 30
0.0
  3
*D20
  1

  0
LINE
  5
3EC
330
22C
100
AcDbEntity
  8
0
  6
Continuous
 62
     2
100
AcDbLine
 10
95.8366572801
 20
188.8111340129
 30
0.0
 11
98.58840458600001
 21
157.4782050815
 31
0.0
  0
LINE
  5
3ED
330
22C
100
AcDbEntity
  8
0
  6
Continuous
 62
     2
100
AcDbLine
 10
92.9924112994
 20
186.9061506687
 30
0.0
 11
95.59990737019999
 21
157.2157467208
 31
0.0
  0
LINE
  5
3EE
330
22C
100
AcDbEntity
  8
0
  6
Continuous
 62
     2
100
AcDbLine
 10
98.3106361543
 20
160.6410313015
 30
0.0
 11
106.8083677099
 21
161.3873263562999
 31
0.0
  0
LINE
  5
3EF
330
22C
100
AcDbEntity
  8
0
  6
Continuous
 62
     2
100
AcDbLine
 10
106.8083677099
 20
161.3873263562999
 30
0.0
 11
111.1739927099
 21
161.3873263562999
 31
0.0
  0
LINE
  5
3F0
330
22C
100
AcDbEntity
  8
0
  6
Continuous
 62
     2
100
AcDbLine
 10
95.3221389385
 20
160.3785729409
 30
0.0
 11
82.67083405820001
 21
159.2674992141
 31
0.0
  0
INSERT
  5
3F1
330
22C
100
AcDbEntity
  8
0
  6
Continuous
 62
     2
100
AcDbBlockReference
  2
_FILLED
 10
98.3106361543
 20
160.6410313015
 30
0.0
 41
4.7625
 42
4.7625
 43
4.7625
 50
185.0190018174999
  0
INSERT
  5
3F2
330
22C
100
AcDbEntity
  8
0
  6
Continuous
 62
     2
100
AcDbBlockReference
  2
_FILLED
 10
95.3221389385
 20
160.3785729409
 30
0.0
 41
4.7625
 42
4.7625
 43
4.7625
 50
5.0190018175
  0
ENDBLK
  5
3F3
330
22C
100
AcDbEntity
  8
0
  6
ByBlock
 62
     0
100
AcDbBlockEnd
  0
BLOCK
  5
3F4
330
22D
100
AcDbEntity
  8
0
  6
Continuous
 62
     2
100
AcDbBlockBegin
  2
*D21
 70
     1
 10
0.0
 20
0.0
 30
0.0
  3
*D21
  1

  0
LINE
  5
3F5
330
22D
100
AcDbEntity
  8
0
  6
Continuous
 62
     2
100
AcDbLine
 10
174.7438670104
 20
110.1988517641
 30
0.0
 11
140.4340928129
 21
111.3969754802
 31
0.0
  0
LINE
  5
3F6
330
22D
100
AcDbEntity
  8
0
  6
Continuous
 62
     2
100
AcDbLine
 10
178.1392122711
 20
113.4823561456
 30
0.0
 11
140.5527511017
 21
114.7949042921
 31
0.0
  0
LINE
  5
3F7
330
22D
100
AcDbEntity
  8
0
  6
Continuous
 62
     2
100
AcDbLine
 10
143.6071586887
 20
111.2861695781
 30
0.0
 11
143.1639350806
 21
98.59390607500001
 31
0.0
  0
LINE
  5
3F8
330
22D
100
AcDbEntity
  8
0
  6
Continuous
 62
     2
100
AcDbLine
 10
143.7258169775
 20
114.68409839
 30
0.0
 11
144.2323300129
 21
129.1887339616
 31
0.0
  0
LINE
  5
3F9
330
22D
100
AcDbEntity
  8
0
  6
Continuous
 62
     2
100
AcDbLine
 10
144.2323300129
 20
129.1887339616
 30
0.0
 11
148.5979550129
 21
129.1887339616
 31
0.0
  0
INSERT
  5
3FA
330
22D
100
AcDbEntity
  8
0
  6
Continuous
 62
     2
100
AcDbBlockReference
  2
_FILLED
 10
143.6071586887
 20
111.2861695781
 30
0.0
 41
4.7625
 42
4.7625
 43
4.7625
 50
88.0
  0
INSERT
  5
3FB
330
22D
100
AcDbEntity
  8
0
  6
Continuous
 62
     2
100
AcDbBlockReference
  2
_FILLED
 10
143.7258169775
 20
114.68409839
 30
0.0
 41
4.7625
 42
4.7625
 43
4.7625
 50
268.0
  0
ENDBLK
  5
3FC
330
22D
100
AcDbEntity
  8
0
  6
ByBlock
 62
     0
100
AcDbBlockEnd
  0
BLOCK
  5
3FD
330
22E
100
AcDbEntity
  8
0
  6
Continuous
 62
     2
100
AcDbBlockBegin
  2
*D22
 70
     1
 10
0.0
 20
0.0
 30
0.0
  3
*D22
  1

  0
LINE
  5
3FE
330
22E
100
AcDbEntity
  8
0
  6
Continuous
 62
     2
100
AcDbLine
 10
178.1392122711
 20
113.4823561456
 30
0.0
 11
156.5927961954
 21
114.2347735747
 31
0.0
  0
LINE
  5
3FF
330
22E
100
AcDbEntity
  8
0
  6
Continuous
 62
     2
100
AcDbLine
 10
177.8805024783
 20
112.8826791029
 30
0.0
 11
156.5691952986
 21
112.8826791029
 31
0.0
  0
ARC
  5
400
330
22E
100
AcDbEntity
  8
0
  6
Continuous
 62
     2
100
AcDbCircle
 10
195.3117159518
 20
112.8826791029
 30
0.0
 40
35.5675206532
100
AcDbArc
 50
157.5415484
 51
178.0
  0
ARC
  5
401
330
22E
100
AcDbEntity
  8
0
  6
Continuous
 62
     2
100
AcDbCircle
 10
195.3117159518
 20
112.8826791029
 30
0.0
 40
35.5675206532
100
AcDbArc
 50
180.0
 51
204.8478444964
  0
SOLID
  5
402
330
22E
100
AcDbEntity
  8
0
  6
Continuous
 62
     2
100
AcDbTrace
 10
159.460480241
 20
118.9424930955
 30
0.0
 11
159.7658620712
 21
114.1239676727
 31
0.0
 12
161.039752369
 22
118.7810750175
 32
0.0
 13
161.039752369
 23
118.7810750175
 33
0.0
  0
SOLID
  5
403
330
22E
100
AcDbEntity
  8
0
  6
Continuous
 62
     2
100
AcDbTrace
 10
160.8547788744
 20
108.1839506118
 30
0.0
 11
159.7441952986
 21
112.8826791029
 31
0.0
 12
159.2708353867
 22
108.0777466678
 32
0.0
 13
159.2708353867
 23
108.0777466678
 33
0.0
  0
ENDBLK
  5
404
330
22E
100
AcDbEntity
  8
0
  6
ByBlock
 62
     0
100
AcDbBlockEnd
  0
BLOCK
  5
405
330
22F
100
AcDbEntity
  8
0
  6
Continuous
 62
     2
100
AcDbBlockBegin
  2
*D23
 70
     1
 10
0.0
 20
0.0
 30
0.0
  3
*D23
  1

  0
LINE
  5
406
330
22F
100
AcDbEntity
  8
0
  6
Continuous
 62
     2
100
AcDbLine
 10
101.3419801836
 20
192.5825804343999
 30
0.0
 11
69.8335123051
 21
192.5825804343999
 31
0.0
  0
LINE
  5
407
330
22F
100
AcDbEntity
  8
0
  6
Continuous
 62
     2
100
AcDbLine
 10
178.7330192608
 20
113.406183227
 30
0.0
 11
69.8335123051
 21
113.406183227
 31
0.0
  0
LINE
  5
408
330
22F
100
AcDbEntity
  8
0
  6
Continuous
 62
     2
100
AcDbLine
 10
73.0085123051
 20
192.5825804343999
 30
0.0
 11
73.0085123051
 21
156.9631318307
 31
0.0
  0
LINE
  5
409
330
22F
100
AcDbEntity
  8
0
  6
Continuous
 62
     2
100
AcDbLine
 10
73.0085123051
 20
113.406183227
 30
0.0
 11
73.0085123051
 21
149.0256318307
 31
0.0
  0
INSERT
  5
40A
330
22F
100
AcDbEntity
  8
0
  6
Continuous
 62
     2
100
AcDbBlockReference
  2
_FILLED
 10
73.0085123051
 20
192.5825804343999
 30
0.0
 41
4.7625
 42
4.7625
 43
4.7625
 50
90.0
  0
INSERT
  5
40B
330
22F
100
AcDbEntity
  8
0
  6
Continuous
 62
     2
100
AcDbBlockReference
  2
_FILLED
 10
73.0085123051
 20
113.406183227
 30
0.0
 41
4.7625
 42
4.7625
 43
4.7625
 50
270.0
  0
ENDBLK
  5
40C
330
22F
100
AcDbEntity
  8
0
  6
ByBlock
 62
     0
100
AcDbBlockEnd
  0
BLOCK
  5
40D
330
230
100
AcDbEntity
  8
0
  6
Continuous
 62
     2
100
AcDbBlockBegin
  2
*D24
 70
     1
 10
0.0
 20
0.0
 30
0.0
  3
*D24
  1

  0
LINE
  5
40E
330
230
100
AcDbEntity
  8
0
  6
Continuous
 62
     2
100
AcDbLine
 10
101.3419801836
 20
192.5825804343999
 30
0.0
 11
48.8390670902
 21
192.5825804343999
 31
0.0
  0
LINE
  5
40F
330
230
100
AcDbEntity
  8
0
  6
Continuous
 62
     2
100
AcDbLine
 10
182.5179174320999
 20
107.7924877947
 30
0.0
 11
48.8390670902
 21
107.7924877947
 31
0.0
  0
LINE
  5
410
330
230
100
AcDbEntity
  8
0
  6
Continuous
 62
     2
100
AcDbLine
 10
52.0140670902
 20
192.5825804343999
 30
0.0
 11
52.0140670902
 21
154.1562841146
 31
0.0
  0
LINE
  5
411
330
230
100
AcDbEntity
  8
0
  6
Continuous
 62
     2
100
AcDbLine
 10
52.0140670902
 20
107.7924877947
 30
0.0
 11
52.0140670902
 21
146.2187841146
 31
0.0
  0
INSERT
  5
412
330
230
100
AcDbEntity
  8
0
  6
Continuous
 62
     2
100
AcDbBlockReference
  2
_FILLED
 10
52.0140670902
 20
192.5825804343999
 30
0.0
 41
4.7625
 42
4.7625
 43
4.7625
 50
90.0
  0
INSERT
  5
413
330
230
100
AcDbEntity
  8
0
  6
Continuous
 62
     2
100
AcDbBlockReference
  2
_FILLED
 10
52.0140670902
 20
107.7924877947
 30
0.0
 41
4.7625
 42
4.7625
 43
4.7625
 50
270.0
  0
ENDBLK
  5
414
330
230
100
AcDbEntity
  8
0
  6
ByBlock
 62
     0
100
AcDbBlockEnd
  0
BLOCK
  5
415
330
231
100
AcDbEntity
  8
0
  6
Continuous
 62
     2
100
AcDbBlockBegin
  2
*D25
 70
     1
 10
0.0
 20
0.0
 30
0.0
  3
*D25
  1

  0
LINE
  5
416
330
231
100
AcDbEntity
  8
0
  6
Continuous
 62
     2
100
AcDbLine
 10
391.1742188881
 20
188.8111340129
 30
0.0
 11
388.706018392
 21
160.7068271348
 31
0.0
  0
LINE
  5
417
330
231
100
AcDbEntity
  8
0
  6
Continuous
 62
     2
100
AcDbLine
 10
391.8519118671
 20
188.3511578772
 30
0.0
 11
391.8519118671
 21
160.5689518024
 31
0.0
  0
ARC
  5
418
330
231
100
AcDbEntity
  8
0
  6
Continuous
 62
     2
100
AcDbCircle
 10
391.8519118671
 20
196.5277240878
 30
0.0
 40
32.7837722854
100
AcDbArc
 50
242.7853706177
 51
264.9809981825
  0
ARC
  5
419
330
231
100
AcDbEntity
  8
0
  6
Continuous
 62
     2
100
AcDbCircle
 10
391.8519118671
 20
196.5277240878
 30
0.0
 40
32.7837722854
100
AcDbArc
 50
270.0
 51
293.6661895967
  0
SOLID
  5
41A
330
231
100
AcDbEntity
  8
0
  6
Continuous
 62
     2
100
AcDbTrace
 10
384.155652396
 20
163.8459202315
 30
0.0
 11
388.9837868237
 21
163.8696533549
 31
0.0
 12
384.4089354061
 22
165.413084539
 32
0.0
 13
384.4089354061
 23
165.413084539
 33
0.0
  0
SOLID
  5
41B
330
231
100
AcDbEntity
  8
0
  6
Continuous
 62
     2
100
AcDbTrace
 10
396.5442509146
 20
164.8812290668
 30
0.0
 11
391.8519118671
 21
163.7439518024
 31
0.0
 12
396.6594576464
 22
163.297914929
 32
0.0
 13
396.6594576464
 23
163.297914929
 33
0.0
  0
ENDBLK
  5
41C
330
231
100
AcDbEntity
  8
0
  6
ByBlock
 62
     0
100
AcDbBlockEnd
  0
BLOCK
  5
41D
330
232
100
AcDbEntity
  8
0
  6
Continuous
 62
     2
100
AcDbBlockBegin
  2
*D26
 70
     1
 10
0.0
 20
0.0
 30
0.0
  3
*D26
  1

  0
LINE
  5
41E
330
232
100
AcDbEntity
  8
0
  6
Continuous
 62
     2
100
AcDbLine
 10
599.9722640464
 20
451.0027908487
 30
0.0
 11
588.491436606
 21
463.7061661189998
 31
0.0
  0
LINE
  5
41F
330
232
100
AcDbEntity
  8
0
  6
Continuous
 62
     2
100
AcDbLine
 10
588.491436606
 20
463.7061661189998
 30
0.0
 11
584.1258116059999
 21
463.7061661189998
 31
0.0
  0
INSERT
  5
420
330
232
100
AcDbEntity
  8
0
  6
Continuous
 62
     2
100
AcDbBlockReference
  2
_FILLED
 10
599.9722640464
 20
451.0027908487
 30
0.0
 41
4.7625
 42
4.7625
 43
4.7625
 50
312.1060755693
  0
ENDBLK
  5
421
330
232
100
AcDbEntity
  8
0
  6
ByBlock
 62
     0
100
AcDbBlockEnd
  0
BLOCK
  5
422
330
233
100
AcDbEntity
  8
0
  6
Continuous
 62
     2
100
AcDbBlockBegin
  2
*D27
 70
     1
 10
0.0
 20
0.0
 30
0.0
  3
*D27
  1

  0
LINE
  5
423
330
233
100
AcDbEntity
  8
0
  6
Continuous
 62
     2
100
AcDbLine
 10
606.4308275664
 20
454.0999339008998
 30
0.0
 11
560.7356313001
 21
454.0999339008998
 31
0.0
  0
LINE
  5
424
330
233
100
AcDbEntity
  8
0
  6
Continuous
 62
     2
100
AcDbLine
 10
614.6750630382
 20
439.0999339008998
 30
0.0
 11
560.7356313001
 21
439.0999339008998
 31
0.0
  0
LINE
  5
425
330
233
100
AcDbEntity
  8
0
  6
Continuous
 62
     2
100
AcDbLine
 10
563.9106313001
 20
454.0999339008998
 30
0.0
 11
563.9106313001
 21
466.7999339008998
 31
0.0
  0
LINE
  5
426
330
233
100
AcDbEntity
  8
0
  6
Continuous
 62
     2
100
AcDbLine
 10
563.9106313001
 20
439.0999339008998
 30
0.0
 11
563.9106313001
 21
426.3999339008998
 31
0.0
  0
INSERT
  5
427
330
233
100
AcDbEntity
  8
0
  6
Continuous
 62
     2
100
AcDbBlockReference
  2
_FILLED
 10
563.9106313001
 20
454.0999339008998
 30
0.0
 41
4.7625
 42
4.7625
 43
4.7625
 50
270.0
  0
INSERT
  5
428
330
233
100
AcDbEntity
  8
0
  6
Continuous
 62
     2
100
AcDbBlockReference
  2
_FILLED
 10
563.9106313001
 20
439.0999339008998
 30
0.0
 41
4.7625
 42
4.7625
 43
4.7625
 50
90.0
  0
ENDBLK
  5
429
330
233
100
AcDbEntity
  8
0
  6
ByBlock
 62
     0
100
AcDbBlockEnd
  0
BLOCK
  5
42A
330
234
100
AcDbEntity
  8
0
  6
Continuous
 62
     2
100
AcDbBlockBegin
  2
*D28
 70
     1
 10
0.0
 20
0.0
 30
0.0
  3
*D28
  1

  0
LINE
  5
42B
330
234
100
AcDbEntity
  8
0
  6
Continuous
 62
     2
100
AcDbLine
 10
658.613513604
 20
438.0999339008998
 30
0.0
 11
682.3682145932
 21
438.0999339008998
 31
0.0
  0
LINE
  5
42C
330
234
100
AcDbEntity
  8
0
  6
Continuous
 62
     2
100
AcDbLine
 10
643.1135136039999
 20
454.0999339008998
 30
0.0
 11
682.3682145932
 21
454.0999339008998
 31
0.0
  0
LINE
  5
42D
330
234
100
AcDbEntity
  8
0
  6
Continuous
 62
     2
100
AcDbLine
 10
679.1932145931999
 20
438.0999339008998
 30
0.0
 11
679.1932145931999
 21
425.3999339008998
 31
0.0
  0
LINE
  5
42E
330
234
100
AcDbEntity
  8
0
  6
Continuous
 62
     2
100
AcDbLine
 10
679.1932145931999
 20
454.0999339008998
 30
0.0
 11
679.1932145931999
 21
466.7999339008998
 31
0.0
  0
INSERT
  5
42F
330
234
100
AcDbEntity
  8
0
  6
Continuous
 62
     2
100
AcDbBlockReference
  2
_FILLED
 10
679.1932145931999
 20
438.0999339008998
 30
0.0
 41
4.7625
 42
4.7625
 43
4.7625
 50
90.0
  0
INSERT
  5
430
330
234
100
AcDbEntity
  8
0
  6
Continuous
 62
     2
100
AcDbBlockReference
  2
_FILLED
 10
679.1932145931999
 20
454.0999339008998
 30
0.0
 41
4.7625
 42
4.7625
 43
4.7625
 50
270.0
  0
ENDBLK
  5
431
330
234
100
AcDbEntity
  8
0
  6
ByBlock
 62
     0
100
AcDbBlockEnd
  0
BLOCK
  5
432
330
235
100
AcDbEntity
  8
0
  6
Continuous
 62
     2
100
AcDbBlockBegin
  2
*D29
 70
     1
 10
0.0
 20
0.0
 30
0.0
  3
*D29
  1

  0
LINE
  5
433
330
235
100
AcDbEntity
  8
0
  6
Continuous
 62
     2
100
AcDbLine
 10
637.3426383944
 20
436.5124339008999
 30
0.0
 11
637.3426383944
 21
423.8314861144998
 31
0.0
  0
LINE
  5
434
330
235
100
AcDbEntity
  8
0
  6
Continuous
 62
     2
100
AcDbLine
 10
657.0260136039999
 20
436.5124339008999
 30
0.0
 11
657.0260136039999
 21
423.8314861144998
 31
0.0
  0
LINE
  5
435
330
235
100
AcDbEntity
  8
0
  6
Continuous
 62
     2
100
AcDbLine
 10
637.3426383944
 20
427.0064861145
 30
0.0
 11
624.6426383944
 21
427.0064861145
 31
0.0
  0
LINE
  5
436
330
235
100
AcDbEntity
  8
0
  6
Continuous
 62
     2
100
AcDbLine
 10
657.0260136039999
 20
427.0064861145
 30
0.0
 11
669.726013604
 21
427.0064861145
 31
0.0
  0
INSERT
  5
437
330
235
100
AcDbEntity
  8
0
  6
Continuous
 62
     2
100
AcDbBlockReference
  2
_FILLED
 10
637.3426383944
 20
427.0064861145
 30
0.0
 41
4.7625
 42
4.7625
 43
4.7625
  0
INSERT
  5
438
330
235
100
AcDbEntity
  8
0
  6
Continuous
 62
     2
100
AcDbBlockReference
  2
_FILLED
 10
657.0260136039999
 20
427.0064861145
 30
0.0
 41
4.7625
 42
4.7625
 43
4.7625
 50
180.0
  0
ENDBLK
  5
439
330
235
100
AcDbEntity
  8
0
  6
ByBlock
 62
     0
100
AcDbBlockEnd
  0
BLOCK
  5
43A
330
236
100
AcDbEntity
  8
0
  6
Continuous
 62
     2
100
AcDbBlockBegin
  2
*D30
 70
     1
 10
0.0
 20
0.0
 30
0.0
  3
*D30
  1

  0
LINE
  5
43B
330
236
100
AcDbEntity
  8
0
  6
Continuous
 62
     2
100
AcDbLine
 10
656.5531881895
 20
442.5346414505
 30
0.0
 11
662.0747563265998
 21
444.8729414992
 31
0.0
  0
LINE
  5
43C
330
236
100
AcDbEntity
  8
0
  6
Continuous
 62
     2
100
AcDbLine
 10
662.0747563265998
 20
444.8729414992
 30
0.0
 11
666.4403813266
 21
444.8729414992
 31
0.0
  0
INSERT
  5
43D
330
236
100
AcDbEntity
  8
0
  6
Continuous
 62
     2
100
AcDbBlockReference
  2
_FILLED
 10
656.5531881895
 20
442.5346414505
 30
0.0
 41
4.7625
 42
4.7625
 43
4.7625
 50
202.9519180616
  0
ENDBLK
  5
43E
330
236
100
AcDbEntity
  8
0
  6
ByBlock
 62
     0
100
AcDbBlockEnd
  0
BLOCK
  5
43F
330
237
100
AcDbEntity
  8
0
  6
Continuous
 62
     2
100
AcDbBlockBegin
  2
*D31
 70
     1
 10
0.0
 20
0.0
 30
0.0
  3
*D31
  1

  0
LINE
  5
440
330
237
100
AcDbEntity
  8
0
  6
Continuous
 62
     2
100
AcDbLine
 10
649.0414217831999
 20
451.7074142757
 30
0.0
 11
655.5255186066999
 21
460.8592697919998
 31
0.0
  0
LINE
  5
441
330
237
100
AcDbEntity
  8
0
  6
Continuous
 62
     2
100
AcDbLine
 10
655.5255186066999
 20
460.8592697919998
 30
0.0
 11
659.8911436066998
 21
460.8592697919998
 31
0.0
  0
INSERT
  5
442
330
237
100
AcDbEntity
  8
0
  6
Continuous
 62
     2
100
AcDbBlockReference
  2
_FILLED
 10
649.0414217831999
 20
451.7074142757
 30
0.0
 41
4.7625
 42
4.7625
 43
4.7625
 50
234.6823982523
  0
ENDBLK
  5
443
330
237
100
AcDbEntity
  8
0
  6
ByBlock
 62
     0
100
AcDbBlockEnd
  0
BLOCK
  5
444
330
238
100
AcDbEntity
  8
0
  6
Continuous
 62
     2
100
AcDbBlockBegin
  2
*D32
 70
     1
 10
0.0
 20
0.0
 30
0.0
  3
*D32
  1

  0
LINE
  5
445
330
238
100
AcDbEntity
  8
0
  6
Continuous
 62
     2
100
AcDbLine
 10
657.0260136039999
 20
439.6874339008999
 30
0.0
 11
657.0260136039999
 21
490.2079542792
 31
0.0
  0
LINE
  5
446
330
238
100
AcDbEntity
  8
0
  6
Continuous
 62
     2
100
AcDbLine
 10
597.026013604
 20
455.6874339009
 30
0.0
 11
597.026013604
 21
490.2079542792
 31
0.0
  0
LINE
  5
447
330
238
100
AcDbEntity
  8
0
  6
Continuous
 62
     2
100
AcDbLine
 10
657.0260136039999
 20
487.0329542791998
 30
0.0
 11
632.1853886039998
 21
487.0329542791998
 31
0.0
  0
LINE
  5
448
330
238
100
AcDbEntity
  8
0
  6
Continuous
 62
     2
100
AcDbLine
 10
597.026013604
 20
487.0329542791998
 30
0.0
 11
621.866638604
 21
487.0329542791998
 31
0.0
  0
INSERT
  5
449
330
238
100
AcDbEntity
  8
0
  6
Continuous
 62
     2
100
AcDbBlockReference
  2
_FILLED
 10
657.0260136039999
 20
487.0329542791998
 30
0.0
 41
4.7625
 42
4.7625
 43
4.7625
  0
INSERT
  5
44A
330
238
100
AcDbEntity
  8
0
  6
Continuous
 62
     2
100
AcDbBlockReference
  2
_FILLED
 10
597.026013604
 20
487.0329542791998
 30
0.0
 41
4.7625
 42
4.7625
 43
4.7625
 50
180.0
  0
ENDBLK
  5
44B
330
238
100
AcDbEntity
  8
0
  6
ByBlock
 62
     0
100
AcDbBlockEnd
  0
BLOCK
  5
44C
330
239
100
AcDbEntity
  8
0
  6
Continuous
 62
     2
100
AcDbBlockBegin
  2
*D33
 70
     1
 10
0.0
 20
0.0
 30
0.0
  3
*D33
  1

  0
LINE
  5
44D
330
239
100
AcDbEntity
  8
0
  6
Continuous
 62
     2
100
AcDbLine
 10
657.0260136039999
 20
443.6874339008999
 30
0.0
 11
657.0260136039999
 21
478.7992957036999
 31
0.0
  0
LINE
  5
44E
330
239
100
AcDbEntity
  8
0
  6
Continuous
 62
     2
100
AcDbLine
 10
655.1173584846
 20
444.6448073935
 30
0.0
 11
635.0063965223998
 21
471.4594233430998
 31
0.0
  0
ARC
  5
44F
330
239
100
AcDbEntity
  8
0
  6
Continuous
 62
     2
100
AcDbCircle
 10
657.0260136039999
 20
442.0999339008998
 30
0.0
 40
33.5243618027
100
AcDbArc
 50
68.2946979245
 51
90.0
  0
ARC
  5
450
330
239
100
AcDbEntity
  8
0
  6
Continuous
 62
     2
100
AcDbCircle
 10
657.0260136039999
 20
442.0999339008998
 30
0.0
 40
33.5243618027
100
AcDbArc
 50
126.8698976458
 51
148.5751997212999
  0
SOLID
  5
451
330
239
100
AcDbEntity
  8
0
  6
Continuous
 62
     2
100
AcDbTrace
 10
661.8328374898999
 20
476.0780461222
 30
0.0
 11
657.0260136039999
 21
475.6242957037
 31
0.0
 12
661.7201714697
 22
474.4945491636
 32
0.0
 13
661.7201714697
 23
474.4945491636
 33
0.0
  0
SOLID
  5
452
330
239
100
AcDbEntity
  8
0
  6
Continuous
 62
     2
100
AcDbTrace
 10
633.8339181538998
 20
465.1991313917
 30
0.0
 11
636.9113965223998
 21
468.9194233431
 31
0.0
 12
632.7936871624999
 22
466.3983293463998
 32
0.0
 13
632.7936871624999
 23
466.3983293463998
 33
0.0
  0
ENDBLK
  5
453
330
239
100
AcDbEntity
  8
0
  6
ByBlock
 62
     0
100
AcDbBlockEnd
  0
BLOCK
  5
454
330
23A
100
AcDbEntity
  8
0
  6
Continuous
 62
     2
100
AcDbBlockBegin
  2
*D34
 70
     1
 10
0.0
 20
0.0
 30
0.0
  3
*D34
  1

  0
LINE
  5
455
330
23A
100
AcDbEntity
  8
0
  6
Continuous
 62
     2
100
AcDbLine
 10
560.6694509049998
 20
241.4468258907
 30
0.0
 11
560.6694509049998
 21
217.1190284785
 31
0.0
  0
LINE
  5
456
330
23A
100
AcDbEntity
  8
0
  6
Continuous
 62
     2
100
AcDbLine
 10
709.1694509049998
 20
241.4468258907
 30
0.0
 11
709.1694509049998
 21
217.1190284785
 31
0.0
  0
LINE
  5
457
330
23A
100
AcDbEntity
  8
0
  6
Continuous
 62
     2
100
AcDbLine
 10
560.6694509049998
 20
220.2940284785
 30
0.0
 11
627.1142425716
 21
220.2940284785
 31
0.0
  0
LINE
  5
458
330
23A
100
AcDbEntity
  8
0
  6
Continuous
 62
     2
100
AcDbLine
 10
709.1694509049998
 20
220.2940284785
 30
0.0
 11
642.7246592382998
 21
220.2940284785
 31
0.0
  0
INSERT
  5
459
330
23A
100
AcDbEntity
  8
0
  6
Continuous
 62
     2
100
AcDbBlockReference
  2
_FILLED
 10
560.6694509049998
 20
220.2940284785
 30
0.0
 41
4.7625
 42
4.7625
 43
4.7625
 50
180.0
  0
INSERT
  5
45A
330
23A
100
AcDbEntity
  8
0
  6
Continuous
 62
     2
100
AcDbBlockReference
  2
_FILLED
 10
709.1694509049998
 20
220.2940284785
 30
0.0
 41
4.7625
 42
4.7625
 43
4.7625
  0
ENDBLK
  5
45B
330
23A
100
AcDbEntity
  8
0
  6
ByBlock
 62
     0
100
AcDbBlockEnd
  0
BLOCK
  5
45C
330
23B
100
AcDbEntity
  8
0
  6
Continuous
 62
     2
100
AcDbBlockBegin
  2
*D35
 70
     1
 10
0.0
 20
0.0
 30
0.0
  3
*D35
  1

  0
LINE
  5
45D
330
23B
100
AcDbEntity
  8
0
  6
Continuous
 62
     2
100
AcDbLine
 10
562.256950905
 20
243.0343258907
 30
0.0
 11
587.4662013801001
 21
243.0343258907
 31
0.0
  0
LINE
  5
45E
330
23B
100
AcDbEntity
  8
0
  6
Continuous
 62
     2
100
AcDbLine
 10
562.256950905
 20
255.9158396217
 30
0.0
 11
587.4662013801001
 21
255.9158396217
 31
0.0
  0
LINE
  5
45F
330
23B
100
AcDbEntity
  8
0
  6
Continuous
 62
     2
100
AcDbLine
 10
584.2912013801
 20
243.0343258907
 30
0.0
 11
584.2912013801
 21
249.4750827562
 31
0.0
  0
LINE
  5
460
330
23B
100
AcDbEntity
  8
0
  6
Continuous
 62
     2
100
AcDbLine
 10
584.2912013801
 20
249.4750827562
 30
0.0
 11
584.2912013801
 21
237.3840232221
 31
0.0
  0
LINE
  5
461
330
23B
100
AcDbEntity
  8
0
  6
Continuous
 62
     2
100
AcDbLine
 10
584.2912013801
 20
237.3840232221
 30
0.0
 11
588.6568263801
 21
237.3840232221
 31
0.0
  0
LINE
  5
462
330
23B
100
AcDbEntity
  8
0
  6
Continuous
 62
     2
100
AcDbLine
 10
584.2912013801
 20
255.9158396217
 30
0.0
 11
584.2912013801
 21
249.4750827562
 31
0.0
  0
INSERT
  5
463
330
23B
100
AcDbEntity
  8
0
  6
Continuous
 62
     2
100
AcDbBlockReference
  2
_FILLED
 10
584.2912013801
 20
243.0343258907
 30
0.0
 41
4.7625
 42
4.7625
 43
4.7625
 50
270.0
  0
INSERT
  5
464
330
23B
100
AcDbEntity
  8
0
  6
Continuous
 62
     2
100
AcDbBlockReference
  2
_FILLED
 10
584.2912013801
 20
255.9158396217
 30
0.0
 41
4.7625
 42
4.7625
 43
4.7625
 50
90.0
  0
ENDBLK
  5
465
330
23B
100
AcDbEntity
  8
0
  6
ByBlock
 62
     0
100
AcDbBlockEnd
  0
BLOCK
  5
466
330
23C
100
AcDbEntity
  8
0
  6
Continuous
 62
     2
100
AcDbBlockBegin
  2
*D36
 70
     1
 10
0.0
 20
0.0
 30
0.0
  3
*D36
  1

  0
LINE
  5
467
330
23C
100
AcDbEntity
  8
0
  6
Continuous
 62
     2
100
AcDbLine
 10
551.2944509049
 20
258.8533396217
 30
0.0
 11
551.2944509049
 21
293.9350633934
 31
0.0
  0
LINE
  5
468
330
23C
100
AcDbEntity
  8
0
  6
Continuous
 62
     2
100
AcDbLine
 10
718.5444509050999
 20
258.8533396217
 30
0.0
 11
718.5444509050999
 21
293.9350633934
 31
0.0
  0
LINE
  5
469
330
23C
100
AcDbEntity
  8
0
  6
Continuous
 62
     2
100
AcDbLine
 10
551.2944509049
 20
290.7600633934
 30
0.0
 11
612.9592075156998
 21
290.7600633934
 31
0.0
  0
LINE
  5
46A
330
23C
100
AcDbEntity
  8
0
  6
Continuous
 62
     2
100
AcDbLine
 10
718.5444509050999
 20
290.7600633934
 30
0.0
 11
638.0946241824
 21
290.7600633934
 31
0.0
  0
INSERT
  5
46B
330
23C
100
AcDbEntity
  8
0
  6
Continuous
 62
     2
100
AcDbBlockReference
  2
_FILLED
 10
551.2944509049
 20
290.7600633934
 30
0.0
 41
4.7625
 42
4.7625
 43
4.7625
 50
180.0
  0
INSERT
  5
46C
330
23C
100
AcDbEntity
  8
0
  6
Continuous
 62
     2
100
AcDbBlockReference
  2
_FILLED
 10
718.5444509050999
 20
290.7600633934
 30
0.0
 41
4.7625
 42
4.7625
 43
4.7625
  0
ENDBLK
  5
46D
330
23C
100
AcDbEntity
  8
0
  6
ByBlock
 62
     0
100
AcDbBlockEnd
  0
BLOCK
  5
46E
330
23D
100
AcDbEntity
  8
0
  6
Continuous
 62
     2
100
AcDbBlockBegin
  2
*D37
 70
     1
 10
0.0
 20
0.0
 30
0.0
  3
*D37
  1

  0
LINE
  5
46F
330
23D
100
AcDbEntity
  8
0
  6
Continuous
 62
     2
100
AcDbLine
 10
546.4760827625
 20
265.6731837617
 30
0.0
 11
546.4760827625
 21
316.0760383436
 31
0.0
  0
LINE
  5
470
330
23D
100
AcDbEntity
  8
0
  6
Continuous
 62
     2
100
AcDbLine
 10
723.3628190475
 20
265.6731837617
 30
0.0
 11
723.3628190475
 21
316.0760383436
 31
0.0
  0
LINE
  5
471
330
23D
100
AcDbEntity
  8
0
  6
Continuous
 62
     2
100
AcDbLine
 10
546.4760827625
 20
312.9010383436
 30
0.0
 11
610.202080112
 21
312.9010383436
 31
0.0
  0
LINE
  5
472
330
23D
100
AcDbEntity
  8
0
  6
Continuous
 62
     2
100
AcDbLine
 10
723.3628190475
 20
312.9010383436
 30
0.0
 11
628.9874967787
 21
312.9010383436
 31
0.0
  0
INSERT
  5
473
330
23D
100
AcDbEntity
  8
0
  6
Continuous
 62
     2
100
AcDbBlockReference
  2
_FILLED
 10
546.4760827625
 20
312.9010383436
 30
0.0
 41
4.7625
 42
4.7625
 43
4.7625
 50
180.0
  0
INSERT
  5
474
330
23D
100
AcDbEntity
  8
0
  6
Continuous
 62
     2
100
AcDbBlockReference
  2
_FILLED
 10
723.3628190475
 20
312.9010383436
 30
0.0
 41
4.7625
 42
4.7625
 43
4.7625
  0
ENDBLK
  5
475
330
23D
100
AcDbEntity
  8
0
  6
ByBlock
 62
     0
100
AcDbBlockEnd
  0
BLOCK
  5
476
330
23E
100
AcDbEntity
  8
0
  6
Continuous
 62
     2
100
AcDbBlockBegin
  2
*D38
 70
     1
 10
0.0
 20
0.0
 30
0.0
  3
*D38
  1

  0
LINE
  5
477
330
23E
100
AcDbEntity
  8
0
  6
Continuous
 62
     2
100
AcDbLine
 10
720.5778046758
 20
260.1438172664
 30
0.0
 11
740.4717610216001
 21
288.3014170175
 31
0.0
  0
LINE
  5
478
330
23E
100
AcDbEntity
  8
0
  6
Continuous
 62
     2
100
AcDbLine
 10
719.4036851846
 20
261.0151531756
 30
0.0
 11
719.4036851846
 21
294.9931116159
 31
0.0
  0
ARC
  5
479
330
23E
100
AcDbEntity
  8
0
  6
Continuous
 62
     2
100
AcDbCircle
 10
719.4036851846
 20
258.4819866019
 30
0.0
 40
33.3361250139
100
AcDbArc
 50
32.9300995396
 51
54.7579634414
  0
ARC
  5
47A
330
23E
100
AcDbEntity
  8
0
  6
Continuous
 62
     2
100
AcDbCircle
 10
719.4036851846
 20
258.4819866019
 30
0.0
 40
33.3361250139
100
AcDbArc
 50
90.0
 51
126.587400891
  0
SOLID
  5
47B
330
23E
100
AcDbEntity
  8
0
  6
Continuous
 62
     2
100
AcDbTrace
 10
742.8263873041998
 20
283.3035441865
 30
0.0
 11
738.6396854348999
 21
285.7083254178
 31
0.0
 12
741.8201500469998
 22
282.0756831063
 32
0.0
 13
741.8201500469998
 23
282.0756831063
 33
0.0
  0
SOLID
  5
47C
330
23E
100
AcDbEntity
  8
0
  6
Continuous
 62
     2
100
AcDbTrace
 10
714.7099808182
 20
290.6864824215
 30
0.0
 11
719.4036851846
 21
291.8181116159
 31
0.0
 12
714.5966796938998
 22
292.2699340643
 32
0.0
 13
714.5966796938998
 23
292.2699340643
 33
0.0
  0
ENDBLK
  5
47D
330
23E
100
AcDbEntity
  8
0
  6
ByBlock
 62
     0
100
AcDbBlockEnd
  0
BLOCK
  5
47E
330
23F
100
AcDbEntity
  8
0
  6
Continuous
 62
     2
100
AcDbBlockBegin
  2
*D39
 70
     1
 10
0.0
 20
0.0
 30
0.0
  3
*D39
  1

  0
LINE
  5
47F
330
23F
100
AcDbEntity
  8
0
  6
Continuous
 62
     2
100
AcDbLine
 10
710.7569509050001
 20
255.9158396217
 30
0.0
 11
750.4856108252
 21
255.9158396217
 31
0.0
  0
LINE
  5
480
330
23F
100
AcDbEntity
  8
0
  6
Continuous
 62
     2
100
AcDbLine
 10
710.7407433339999
 20
256.1421057315
 30
0.0
 11
750.0637937582999
 21
261.8046249926
 31
0.0
  0
ARC
  5
481
330
23F
100
AcDbEntity
  8
0
  6
Continuous
 62
     2
100
AcDbCircle
 10
709.1694509049998
 20
255.9158396217
 30
0.0
 40
38.14115992020001
100
AcDbArc
 50
336.7891769677
 51
360.0
  0
ARC
  5
482
330
23F
100
AcDbEntity
  8
0
  6
Continuous
 62
     2
100
AcDbCircle
 10
709.1694509049998
 20
255.9158396217
 30
0.0
 40
38.14115992020001
100
AcDbArc
 50
8.1942633346
 51
27.2722463152
  0
SOLID
  5
483
330
23F
100
AcDbEntity
  8
0
  6
Continuous
 62
     2
100
AcDbTrace
 10
747.8056724658998
 20
251.1130946478
 30
0.0
 11
747.3106108251998
 21
255.9158396217
 31
0.0
 12
746.2212653586999
 22
251.2121419521
 32
0.0
 13
746.2212653586999
 23
251.2121419521
 33
0.0
  0
SOLID
  5
484
330
23F
100
AcDbEntity
  8
0
  6
Continuous
 62
     2
100
AcDbTrace
 10
745.1725678562
 20
265.8525038444
 30
0.0
 11
746.9212089002001
 21
261.352092773
 31
0.0
 12
746.7266817736
 22
266.1763652062
 32
0.0
 13
746.7266817736
 23
266.1763652062
 33
0.0
  0
ENDBLK
  5
485
330
23F
100
AcDbEntity
  8
0
  6
ByBlock
 62
     0
100
AcDbBlockEnd
  0
BLOCK
  5
486
330
240
100
AcDbEntity
  8
0
  6
Continuous
 62
     2
100
AcDbBlockBegin
  2
*D40
 70
     1
 10
0.0
 20
0.0
 30
0.0
  3
*D40
  1

  0
LINE
  5
487
330
240
100
AcDbEntity
  8
0
  6
Continuous
 62
     2
100
AcDbLine
 10
724.9503190475
 20
264.0856837617
 30
0.0
 11
762.7052175063
 21
264.0856837617
 31
0.0
  0
LINE
  5
488
330
240
100
AcDbEntity
  8
0
  6
Continuous
 62
     2
100
AcDbLine
 10
720.1319509051
 20
257.2658396217
 30
0.0
 11
762.7052175063
 21
257.2658396217
 31
0.0
  0
LINE
  5
489
330
240
100
AcDbEntity
  8
0
  6
Continuous
 62
     2
100
AcDbLine
 10
759.5302175062998
 20
264.0856837617
 30
0.0
 11
759.5302175062998
 21
276.7856837617
 31
0.0
  0
LINE
  5
48A
330
240
100
AcDbEntity
  8
0
  6
Continuous
 62
     2
100
AcDbLine
 10
759.5302175062998
 20
257.2658396217
 30
0.0
 11
759.5302175062998
 21
248.9313782617
 31
0.0
  0
LINE
  5
48B
330
240
100
AcDbEntity
  8
0
  6
Continuous
 62
     2
100
AcDbLine
 10
759.5302175062998
 20
248.9313782617
 30
0.0
 11
763.8958425063
 21
248.9313782617
 31
0.0
  0
INSERT
  5
48C
330
240
100
AcDbEntity
  8
0
  6
Continuous
 62
     2
100
AcDbBlockReference
  2
_FILLED
 10
759.5302175062998
 20
264.0856837617
 30
0.0
 41
4.7625
 42
4.7625
 43
4.7625
 50
270.0
  0
INSERT
  5
48D
330
240
100
AcDbEntity
  8
0
  6
Continuous
 62
     2
100
AcDbBlockReference
  2
_FILLED
 10
759.5302175062998
 20
257.2658396217
 30
0.0
 41
4.7625
 42
4.7625
 43
4.7625
 50
90.0
  0
ENDBLK
  5
48E
330
240
100
AcDbEntity
  8
0
  6
ByBlock
 62
     0
100
AcDbBlockEnd
  0
BLOCK
  5
48F
330
241
100
AcDbEntity
  8
0
  6
Continuous
 62
     2
100
AcDbBlockBegin
  2
*D41
 70
     1
 10
0.0
 20
0.0
 30
0.0
  3
*D41
  1

  0
LINE
  5
490
330
241
100
AcDbEntity
  8
0
  6
Continuous
 62
     2
100
AcDbLine
 10
545.7460554723
 20
263.8499649539
 30
0.0
 11
549.4256255355999
 21
273.1379025115
 31
0.0
  0
LINE
  5
491
330
241
100
AcDbEntity
  8
0
  6
Continuous
 62
     2
100
AcDbLine
 10
549.4256255355999
 20
273.1379025115
 30
0.0
 11
553.7912505355999
 21
273.1379025115
 31
0.0
  0
INSERT
  5
492
330
241
100
AcDbEntity
  8
0
  6
Continuous
 62
     2
100
AcDbBlockReference
  2
_FILLED
 10
545.7460554723
 20
263.8499649539
 30
0.0
 41
4.7625
 42
4.7625
 43
4.7625
 50
248.3881863245
  0
ENDBLK
  5
493
330
241
100
AcDbEntity
  8
0
  6
ByBlock
 62
     0
100
AcDbBlockEnd
  0
BLOCK
  5
494
330
242
100
AcDbEntity
  8
0
  6
Continuous
 62
     2
100
AcDbBlockBegin
  2
*D42
 70
     1
 10
0.0
 20
0.0
 30
0.0
  3
*D42
  1

  0
LINE
  5
495
330
242
100
AcDbEntity
  8
0
  6
Continuous
 62
     2
100
AcDbLine
 10
553.5563094802999
 20
256.9536645328
 30
0.0
 11
553.0969439435998
 21
249.9869259356
 31
0.0
  0
LINE
  5
496
330
242
100
AcDbEntity
  8
0
  6
Continuous
 62
     2
100
AcDbLine
 10
553.0969439435998
 20
249.9869259356
 30
0.0
 11
548.7313189436
 21
249.9869259356
 31
0.0
  0
INSERT
  5
497
330
242
100
AcDbEntity
  8
0
  6
Continuous
 62
     2
100
AcDbBlockReference
  2
_FILLED
 10
553.5563094802999
 20
256.9536645328
 30
0.0
 41
4.7625
 42
4.7625
 43
4.7625
 50
86.2275515161
  0
ENDBLK
  5
498
330
242
100
AcDbEntity
  8
0
  6
ByBlock
 62
     0
100
AcDbBlockEnd
  0
BLOCK
  5
499
330
243
100
AcDbEntity
  8
0
  6
Continuous
 62
     2
100
AcDbBlockBegin
  2
*D43
 70
     1
 10
0.0
 20
0.0
 30
0.0
  3
*D43
  1

  0
LINE
  5
49A
330
243
100
AcDbEntity
  8
0
  6
Continuous
 62
     2
100
AcDbLine
 10
537.0363016825
 20
249.1283397467
 30
0.0
 11
522.9666499710998
 21
237.5189596635
 31
0.0
  0
LINE
  5
49B
330
243
100
AcDbEntity
  8
0
  6
Continuous
 62
     2
100
AcDbLine
 10
522.9666499710998
 20
237.5189596635
 30
0.0
 11
518.6010249711
 21
237.5189596635
 31
0.0
  0
INSERT
  5
49C
330
243
100
AcDbEntity
  8
0
  6
Continuous
 62
     2
100
AcDbBlockReference
  2
_FILLED
 10
537.0363016825
 20
249.1283397467
 30
0.0
 41
4.7625
 42
4.7625
 43
4.7625
 50
39.5272770331
  0
ENDBLK
  5
49D
330
243
100
AcDbEntity
  8
0
  6
ByBlock
 62
     0
100
AcDbBlockEnd
  0
BLOCK
  5
49E
330
244
100
AcDbEntity
  8
0
  6
Continuous
 62
     2
100
AcDbBlockBegin
  2
*D44
 70
     1
 10
0.0
 20
0.0
 30
0.0
  3
*D44
  1

  0
LINE
  5
49F
330
244
100
AcDbEntity
  8
0
  6
Continuous
 62
     2
100
AcDbLine
 10
540.2187529489
 20
244.6902315446
 30
0.0
 11
526.673157539
 21
227.8498094864
 31
0.0
  0
LINE
  5
4A0
330
244
100
AcDbEntity
  8
0
  6
Continuous
 62
     2
100
AcDbLine
 10
526.673157539
 20
227.8498094864
 30
0.0
 11
522.3075325389999
 21
227.8498094864
 31
0.0
  0
INSERT
  5
4A1
330
244
100
AcDbEntity
  8
0
  6
Continuous
 62
     2
100
AcDbBlockReference
  2
_FILLED
 10
540.2187529489
 20
244.6902315446
 30
0.0
 41
4.7625
 42
4.7625
 43
4.7625
 50
51.18853635479999
  0
ENDBLK
  5
4A2
330
244
100
AcDbEntity
  8
0
  6
ByBlock
 62
     0
100
AcDbBlockEnd
  0
BLOCK
  5
4A3
330
245
100
AcDbEntity
  8
0
  6
Continuous
 62
     2
100
AcDbBlockBegin
  2
*D45
 70
     1
 10
0.0
 20
0.0
 30
0.0
  3
*D45
  1

  0
LINE
  5
4A4
330
245
100
AcDbEntity
  8
0
  6
Continuous
 62
     2
100
AcDbLine
 10
84.66259562579997
 20
471.2517905946
 30
0.0
 11
65.1794726043
 21
471.2517905946
 31
0.0
  0
LINE
  5
4A5
330
245
100
AcDbEntity
  8
0
  6
Continuous
 62
     2
100
AcDbLine
 10
251.9339317761
 20
460.8768576083
 30
0.0
 11
65.1794726043
 21
460.8768576083
 31
0.0
  0
LINE
  5
4A6
330
245
100
AcDbEntity
  8
0
  6
Continuous
 62
     2
100
AcDbLine
 10
68.3544726043
 20
471.2517905946
 30
0.0
 11
68.3544726043
 21
483.9517905945998
 31
0.0
  0
LINE
  5
4A7
330
245
100
AcDbEntity
  8
0
  6
Continuous
 62
     2
100
AcDbLine
 10
68.3544726043
 20
460.8768576083
 30
0.0
 11
68.3544726043
 21
448.1768576082998
 31
0.0
  0
INSERT
  5
4A8
330
245
100
AcDbEntity
  8
0
  6
Continuous
 62
     2
100
AcDbBlockReference
  2
_FILLED
 10
68.3544726043
 20
471.2517905946
 30
0.0
 41
4.7625
 42
4.7625
 43
4.7625
 50
270.0
  0
INSERT
  5
4A9
330
245
100
AcDbEntity
  8
0
  6
Continuous
 62
     2
100
AcDbBlockReference
  2
_FILLED
 10
68.3544726043
 20
460.8768576083
 30
0.0
 41
4.7625
 42
4.7625
 43
4.7625
 50
90.0
  0
ENDBLK
  5
4AA
330
245
100
AcDbEntity
  8
0
  6
ByBlock
 62
     0
100
AcDbBlockEnd
  0
BLOCK
  5
4AB
330
246
100
AcDbEntity
  8
0
  6
Continuous
 62
     2
100
AcDbBlockBegin
  2
*D46
 70
     1
 10
0.0
 20
0.0
 30
0.0
  3
*D46
  1

  0
LINE
  5
4AC
330
246
100
AcDbEntity
  8
0
  6
Continuous
 62
     2
100
AcDbLine
 10
84.6625938941
 20
291.3164453867
 30
0.0
 11
63.2114398004
 21
291.3164453867
 31
0.0
  0
LINE
  5
4AD
330
246
100
AcDbEntity
  8
0
  6
Continuous
 62
     2
100
AcDbLine
 10
251.9337412039
 20
301.6913794329
 30
0.0
 11
63.2114398004
 21
301.6913794329
 31
0.0
  0
LINE
  5
4AE
330
246
100
AcDbEntity
  8
0
  6
Continuous
 62
     2
100
AcDbLine
 10
66.3864398004
 20
291.3164453867
 30
0.0
 11
66.3864398004
 21
278.6164453867
 31
0.0
  0
LINE
  5
4AF
330
246
100
AcDbEntity
  8
0
  6
Continuous
 62
     2
100
AcDbLine
 10
66.3864398004
 20
301.6913794329
 30
0.0
 11
66.3864398004
 21
314.3913794329
 31
0.0
  0
INSERT
  5
4B0
330
246
100
AcDbEntity
  8
0
  6
Continuous
 62
     2
100
AcDbBlockReference
  2
_FILLED
 10
66.3864398004
 20
291.3164453867
 30
0.0
 41
4.7625
 42
4.7625
 43
4.7625
 50
90.0
  0
INSERT
  5
4B1
330
246
100
AcDbEntity
  8
0
  6
Continuous
 62
     2
100
AcDbBlockReference
  2
_FILLED
 10
66.3864398004
 20
301.6913794329
 30
0.0
 41
4.7625
 42
4.7625
 43
4.7625
 50
270.0
  0
ENDBLK
  5
4B2
330
246
100
AcDbEntity
  8
0
  6
ByBlock
 62
     0
100
AcDbBlockEnd
  0
BLOCK
  5
26D
330
247
100
AcDbEntity
  8
___SYMBOL
  6
Continuous
 62
     2
100
AcDbBlockBegin
  2
SYMBOL_41_BL17
 70
     0
 10
539.2034874779
 20
122.1540913342
 30
0.0
  3
SYMBOL_41_BL17
  1

  0
LWPOLYLINE
  5
26E
330
247
100
AcDbEntity
  8
___SYMBOL
  6
Continuous
 62
     2
100
AcDbPolyline
 90
        3
 70
     0
 43
0.381
 10
538.3726887207
 20
120.1456028809
 10
539.3648483154
 20
124.1143598572
 10
540.3570606200998
 20
120.1456028809
  0
LWPOLYLINE
  5
26F
330
247
100
AcDbEntity
  8
___SYMBOL
  6
Continuous
 62
     2
100
AcDbPolyline
 90
        2
 70
     0
 43
0.381
 10
538.7695420165998
 20
121.4685174805
 10
539.9602073241999
 20
121.4685174805
  0
LINE
  5
270
330
247
100
AcDbEntity
  8
___SYMBOL
  6
Continuous
 62
     7
100
AcDbLine
 10
535.6742518736
 20
119.2330913342
 30
0.0
 11
534.1869874779
 21
120.7203557298
 31
0.0
  0
LINE
  5
271
330
247
100
AcDbEntity
  8
___SYMBOL
  6
Continuous
 62
     7
100
AcDbLine
 10
534.1869874779
 20
123.5878269385
 30
0.0
 11
534.1869874779
 21
120.7203557298
 31
0.0
  0
LINE
  5
272
330
247
100
AcDbEntity
  8
___SYMBOL
  6
Continuous
 62
     7
100
AcDbLine
 10
535.6742518736
 20
125.0750913342
 30
0.0
 11
534.1869874779
 21
123.5878269385
 31
0.0
  0
LINE
  5
273
330
247
100
AcDbEntity
  8
___SYMBOL
  6
Continuous
 62
     7
100
AcDbLine
 10
542.7327230823
 20
119.2330913342
 30
0.0
 11
544.2199874778999
 21
120.7203557298
 31
0.0
  0
LINE
  5
274
330
247
100
AcDbEntity
  8
___SYMBOL
  6
Continuous
 62
     7
100
AcDbLine
 10
544.2199874778999
 20
123.5878269385
 30
0.0
 11
544.2199874778999
 21
120.7203557298
 31
0.0
  0
LINE
  5
275
330
247
100
AcDbEntity
  8
___SYMBOL
  6
Continuous
 62
     7
100
AcDbLine
 10
542.7327230823
 20
125.0750913342
 30
0.0
 11
544.2199874778999
 21
123.5878269385
 31
0.0
  0
LINE
  5
276
330
247
100
AcDbEntity
  8
___SYMBOL
  6
Continuous
 62
     7
100
AcDbLine
 10
535.6742518736
 20
125.0750913342
 30
0.0
 11
542.7327230823
 21
125.0750913342
 31
0.0
  0
LINE
  5
277
330
247
100
AcDbEntity
  8
___SYMBOL
  6
Continuous
 62
     7
100
AcDbLine
 10
542.7327230823
 20
119.2330913342
 30
0.0
 11
535.6742518736
 21
119.2330913342
 31
0.0
  0
ENDBLK
  5
278
330
247
100
AcDbEntity
  8
0
  6
ByBlock
 62
     0
100
AcDbBlockEnd
  0
BLOCK
  5
279
330
248
100
AcDbEntity
  8
___SYMBOL
  6
Continuous
 62
     2
100
AcDbBlockBegin
  2
SYMBOL_38_BL16
 70
     0
 10
548.7896126877999
 20
123.7721304154
 30
0.0
  3
SYMBOL_38_BL16
  1

  0
LWPOLYLINE
  5
27A
330
248
100
AcDbEntity
  8
___SYMBOL
  6
Continuous
 62
     2
100
AcDbPolyline
 90
        2
 70
     0
 43
0.381
 10
547.1308704101999
 20
129.294180896
 10
547.1308704101999
 20
125.3254370972
  0
LWPOLYLINE
  5
27B
330
248
100
AcDbEntity
  8
___SYMBOL
  6
Continuous
 62
     2
100
AcDbPolyline
 90
       17
 70
     0
 43
0.381
 10
549.5120956055
 20
126.6483516968
 10
549.7105486084
 20
127.3098089966
 10
550.3058549072
 20
127.6405376465
 10
550.9011612061
 20
127.3098089966
 10
551.099614209
 20
126.6483516968
 10
550.9011612061
 20
125.986894397
 10
550.7027082030998
 20
125.6561657471
 10
550.3058549072
 20
125.3254370972
 10
549.9090016113
 20
125.6561657471
 10
549.7105486084
 20
125.986894397
 10
549.5120956055
 20
126.6483516968
 10
549.5120956055
 20
127.9712662964
 10
549.7105486084
 20
128.6327235962
 10
549.9090016113
 20
128.9634522461
 10
550.3058549072
 20
129.294180896
 10
550.7027082030998
 20
128.9634522461
 10
550.9011612061
 20
128.6327235962
  0
LINE
  5
27C
330
248
100
AcDbEntity
  8
___SYMBOL
  6
Continuous
 62
     7
100
AcDbLine
 10
545.3606105129
 20
130.6301347653
 30
0.0
 11
545.3606105129
 21
116.9141260655
 31
0.0
  0
LINE
  5
27D
330
248
100
AcDbEntity
  8
___SYMBOL
  6
Continuous
 62
     7
100
AcDbLine
 10
545.3606105129
 20
116.9141260655
 30
0.0
 11
552.2186148628
 21
116.9141260655
 31
0.0
  0
LINE
  5
27E
330
248
100
AcDbEntity
  8
___SYMBOL
  6
Continuous
 62
     7
100
AcDbLine
 10
545.3606105129
 20
123.7721304154
 30
0.0
 11
552.2186148628
 21
123.7721304154
 31
0.0
  0
LINE
  5
27F
330
248
100
AcDbEntity
  8
___SYMBOL
  6
Continuous
 62
     7
100
AcDbLine
 10
545.3606105129
 20
130.6301347653
 30
0.0
 11
552.2186148628
 21
130.6301347653
 31
0.0
  0
LINE
  5
280
330
248
100
AcDbEntity
  8
___SYMBOL
  6
Continuous
 62
     7
100
AcDbLine
 10
552.2186148628
 20
116.9141260655
 30
0.0
 11
552.2186148628
 21
130.6301347653
 31
0.0
  0
ENDBLK
  5
281
330
248
100
AcDbEntity
  8
0
  6
ByBlock
 62
     0
100
AcDbBlockEnd
  0
BLOCK
  5
282
330
249
100
AcDbEntity
  8
___SYMBOL
  6
Continuous
 62
     2
100
AcDbBlockBegin
  2
SYMBOL_26_BL15
 70
     0
 10
795.3451894022998
 20
247.1187427385
 30
0.0
  3
SYMBOL_26_BL15
  1

  0
LWPOLYLINE
  5
283
330
249
100
AcDbEntity
  8
___SYMBOL
  6
Continuous
 62
     2
100
AcDbPolyline
 90
        2
 70
     0
 43
0.381
 10
793.6864565917999
 20
252.6407868408
 10
793.6864565917999
 20
248.672043042
  0
LWPOLYLINE
  5
284
330
249
100
AcDbEntity
  8
___SYMBOL
  6
Continuous
 62
     2
100
AcDbPolyline
 90
        2
 70
     0
 43
0.381
 10
796.8614410888998
 20
252.6407868408
 10
796.8614410888998
 20
248.672043042
  0
LINE
  5
285
330
249
100
AcDbEntity
  8
___SYMBOL
  6
Continuous
 62
     7
100
AcDbLine
 10
791.9161872274001
 20
253.9767470884
 30
0.0
 11
791.9161872274001
 21
240.2607383887
 31
0.0
  0
LINE
  5
286
330
249
100
AcDbEntity
  8
___SYMBOL
  6
Continuous
 62
     7
100
AcDbLine
 10
791.9161872274001
 20
240.2607383887
 30
0.0
 11
798.7741915772
 21
240.2607383887
 31
0.0
  0
LINE
  5
287
330
249
100
AcDbEntity
  8
___SYMBOL
  6
Continuous
 62
     7
100
AcDbLine
 10
791.9161872274001
 20
247.1187427385
 30
0.0
 11
798.7741915772
 21
247.1187427385
 31
0.0
  0
LINE
  5
288
330
249
100
AcDbEntity
  8
___SYMBOL
  6
Continuous
 62
     7
100
AcDbLine
 10
791.9161872274001
 20
253.9767470884
 30
0.0
 11
798.7741915772
 21
253.9767470884
 31
0.0
  0
LINE
  5
289
330
249
100
AcDbEntity
  8
___SYMBOL
  6
Continuous
 62
     7
100
AcDbLine
 10
798.7741915772
 20
240.2607383887
 30
0.0
 11
798.7741915772
 21
253.9767470884
 31
0.0
  0
ENDBLK
  5
28A
330
249
100
AcDbEntity
  8
0
  6
ByBlock
 62
     0
100
AcDbBlockEnd
  0
BLOCK
  5
28B
330
24A
100
AcDbEntity
  8
___SYMBOL
  6
Continuous
 62
     2
100
AcDbBlockBegin
  2
SYMBOL_20_BL14
 70
     0
 10
647.3269310256998
 20
229.5698708795
 30
0.0
  3
SYMBOL_20_BL14
  1

  0
LWPOLYLINE
  5
28C
330
24A
100
AcDbEntity
  8
___SYMBOL
  6
Continuous
 62
     2
100
AcDbPolyline
 90
        2
 70
     0
 43
0.381
 10
645.6681891357
 20
235.091927771
 10
645.6681891357
 20
231.1231839722
  0
LWPOLYLINE
  5
28D
330
24A
100
AcDbEntity
  8
___SYMBOL
  6
Continuous
 62
     2
100
AcDbPolyline
 90
       15
 70
     0
 43
0.381
 10
648.8431736328
 20
231.1231839722
 10
648.4463203369
 20
231.4539126221
 10
648.247867334
 20
231.784641272
 10
648.0494143311
 20
232.4460985718
 10
648.0494143311
 20
233.7690131714
 10
648.247867334
 20
234.4304704712
 10
648.4463203369
 20
234.7611991211
 10
648.8431736328
 20
235.091927771
 10
649.2400269286998
 20
234.7611991211
 10
649.4384799316
 20
234.4304704712
 10
649.6369329345998
 20
233.7690131714
 10
649.6369329345998
 20
232.4460985718
 10
649.4384799316
 20
231.784641272
 10
649.2400269286998
 20
231.4539126221
 10
648.8431736328
 20
231.1231839722
  0
LINE
  5
28E
330
24A
100
AcDbEntity
  8
___SYMBOL
  6
Continuous
 62
     7
100
AcDbLine
 10
643.8979288508
 20
236.4278752294
 30
0.0
 11
643.8979288508
 21
222.7118665296
 31
0.0
  0
LINE
  5
28F
330
24A
100
AcDbEntity
  8
___SYMBOL
  6
Continuous
 62
     7
100
AcDbLine
 10
643.8979288508
 20
222.7118665296
 30
0.0
 11
650.7559332007
 21
222.7118665296
 31
0.0
  0
LINE
  5
290
330
24A
100
AcDbEntity
  8
___SYMBOL
  6
Continuous
 62
     7
100
AcDbLine
 10
643.8979288508
 20
229.5698708795
 30
0.0
 11
650.7559332007
 21
229.5698708795
 31
0.0
  0
LINE
  5
291
330
24A
100
AcDbEntity
  8
___SYMBOL
  6
Continuous
 62
     7
100
AcDbLine
 10
643.8979288508
 20
236.4278752294
 30
0.0
 11
650.7559332007
 21
236.4278752294
 31
0.0
  0
LINE
  5
292
330
24A
100
AcDbEntity
  8
___SYMBOL
  6
Continuous
 62
     7
100
AcDbLine
 10
650.7559332007
 20
222.7118665296
 30
0.0
 11
650.7559332007
 21
236.4278752294
 31
0.0
  0
ENDBLK
  5
293
330
24A
100
AcDbEntity
  8
0
  6
ByBlock
 62
     0
100
AcDbBlockEnd
  0
BLOCK
  5
294
330
24B
100
AcDbEntity
  8
___SYMBOL
  6
Continuous
 62
     2
100
AcDbBlockBegin
  2
SYMBOL_19_BL13
 70
     0
 10
641.9171485169998
 20
300.5117915057
 30
0.0
  3
SYMBOL_19_BL13
  1

  0
LWPOLYLINE
  5
295
330
24B
100
AcDbEntity
  8
___SYMBOL
  6
Continuous
 62
     2
100
AcDbPolyline
 90
       17
 70
     0
 43
0.381
 10
642.6396329102
 20
304.7109279175
 10
642.4411799071998
 20
304.0494706177
 10
641.8458736084
 20
303.7187419678
 10
641.2505673095998
 20
304.0494706177
 10
641.0521670166
 20
304.7109279175
 10
641.2505673095998
 20
305.3723852173
 10
641.4490203125
 20
305.7031138672
 10
641.8458736084
 20
306.0338425171
 10
642.2427796143
 20
305.7031138672
 10
642.4411799071998
 20
305.3723852173
 10
642.6396329102
 20
304.7109279175
 10
642.6396329102
 20
303.3880133179
 10
642.4411799071998
 20
302.7265560181001
 10
642.2427796143
 20
302.3958273682
 10
641.8458736084
 20
302.0650987183
 10
641.4490203125
 20
302.3958273682
 10
641.2505673095998
 20
302.7265560181001
  0
LINE
  5
296
330
24B
100
AcDbEntity
  8
___SYMBOL
  6
Continuous
 62
     7
100
AcDbLine
 10
638.4881463421
 20
307.3697958555
 30
0.0
 11
638.4881463421
 21
293.6537871558
 31
0.0
  0
LINE
  5
297
330
24B
100
AcDbEntity
  8
___SYMBOL
  6
Continuous
 62
     7
100
AcDbLine
 10
638.4881463421
 20
293.6537871558
 30
0.0
 11
645.3461506919
 21
293.6537871558
 31
0.0
  0
LINE
  5
298
330
24B
100
AcDbEntity
  8
___SYMBOL
  6
Continuous
 62
     7
100
AcDbLine
 10
638.4881463421
 20
300.5117915057
 30
0.0
 11
645.3461506919
 21
300.5117915057
 31
0.0
  0
LINE
  5
299
330
24B
100
AcDbEntity
  8
___SYMBOL
  6
Continuous
 62
     7
100
AcDbLine
 10
638.4881463421
 20
307.3697958555
 30
0.0
 11
645.3461506919
 21
307.3697958555
 31
0.0
  0
LINE
  5
29A
330
24B
100
AcDbEntity
  8
___SYMBOL
  6
Continuous
 62
     7
100
AcDbLine
 10
645.3461506919
 20
293.6537871558
 30
0.0
 11
645.3461506919
 21
307.3697958555
 31
0.0
  0
ENDBLK
  5
29B
330
24B
100
AcDbEntity
  8
0
  6
ByBlock
 62
     0
100
AcDbBlockEnd
  0
BLOCK
  5
29C
330
24C
100
AcDbEntity
  8
___SYMBOL
  6
Continuous
 62
     2
100
AcDbBlockBegin
  2
SYMBOL_12_BL12
 70
     0
 10
632.6271617185
 20
322.2955029589
 30
0.0
  3
SYMBOL_12_BL12
  1

  0
LWPOLYLINE
  5
29D
330
24C
100
AcDbEntity
  8
___SYMBOL
  6
Continuous
 62
     2
100
AcDbPolyline
 90
       17
 70
     0
 43
0.381
 10
632.3574481200998
 20
323.8488078247
 10
631.9605948242
 20
324.1795364746
 10
631.7621418213
 20
324.5102651245
 10
631.5637415283
 20
324.8409937744
 10
631.5637415283
 20
325.1717224243
 10
631.7621418213
 20
325.5024510742
 10
631.9605948242
 20
325.8331797241
 10
632.3574481200998
 20
326.163908374
 10
632.7543541259999
 20
326.163908374
 10
633.1512074219
 20
325.8331797241
 10
633.3496604248
 20
325.5024510742
 10
633.5481134276999
 20
325.1717224243
 10
633.5481134276999
 20
324.8409937744
 10
633.3496604248
 20
324.5102651245
 10
633.1512074219
 20
324.1795364746
 10
632.7543541259999
 20
323.8488078247
 10
632.3574481200998
 20
323.8488078247
  0
LWPOLYLINE
  5
29E
330
24C
100
AcDbEntity
  8
___SYMBOL
  6
Continuous
 62
     2
100
AcDbPolyline
 90
       12
 70
     0
 43
0.381
 10
632.3574481200998
 20
326.163908374
 10
631.9605948242
 20
326.4946370239
 10
631.7621418213
 20
326.8253656738
 10
631.7621418213
 20
327.1560943237
 10
631.9605948242
 20
327.4868229736
 10
632.3574481200998
 20
327.8175516235
 10
632.7543541259999
 20
327.8175516235
 10
633.1512074219
 20
327.4868229736
 10
633.3496604248
 20
327.1560943237
 10
633.3496604248
 20
326.8253656738
 10
633.1512074219
 20
326.4946370239
 10
632.7543541259999
 20
326.163908374
  0
LINE
  5
29F
330
24C
100
AcDbEntity
  8
___SYMBOL
  6
Continuous
 62
     7
100
AcDbLine
 10
629.1981595434998
 20
329.1535073088
 30
0.0
 11
629.1981595434998
 21
315.437498609
 31
0.0
  0
LINE
  5
2A0
330
24C
100
AcDbEntity
  8
___SYMBOL
  6
Continuous
 62
     7
100
AcDbLine
 10
629.1981595434998
 20
315.437498609
 30
0.0
 11
636.0561638933999
 21
315.437498609
 31
0.0
  0
LINE
  5
2A1
330
24C
100
AcDbEntity
  8
___SYMBOL
  6
Continuous
 62
     7
100
AcDbLine
 10
629.1981595434998
 20
322.2955029589
 30
0.0
 11
636.0561638933999
 21
322.2955029589
 31
0.0
  0
LINE
  5
2A2
330
24C
100
AcDbEntity
  8
___SYMBOL
  6
Continuous
 62
     7
100
AcDbLine
 10
629.1981595434998
 20
329.1535073088
 30
0.0
 11
636.0561638933999
 21
329.1535073088
 31
0.0
  0
LINE
  5
2A3
330
24C
100
AcDbEntity
  8
___SYMBOL
  6
Continuous
 62
     7
100
AcDbLine
 10
636.0561638933999
 20
315.437498609
 30
0.0
 11
636.0561638933999
 21
329.1535073088
 31
0.0
  0
ENDBLK
  5
2A4
330
24C
100
AcDbEntity
  8
0
  6
ByBlock
 62
     0
100
AcDbBlockEnd
  0
BLOCK
  5
2A5
330
24D
100
AcDbEntity
  8
___SYMBOL
  6
Continuous
 62
     2
100
AcDbBlockBegin
  2
SYMBOL_11_BL11
 70
     0
 10
455.1912819382
 20
176.8590709949
 30
0.0
  3
SYMBOL_11_BL11
  1

  0
LWPOLYLINE
  5
2A6
330
24D
100
AcDbEntity
  8
___SYMBOL
  6
Continuous
 62
     2
100
AcDbPolyline
 90
        6
 70
     0
 43
0.381
 10
455.1200463379
 20
178.4123796752999
 10
455.3184466309
 20
180.0660229248
 10
455.5168996337998
 20
181.0582088745
 10
455.7153526367
 20
181.7196661743
 10
455.9137529297
 20
182.3811234741
 10
454.3262870360998
 20
182.3811234741
  0
LINE
  5
2A7
330
24D
100
AcDbEntity
  8
___SYMBOL
  6
Continuous
 62
     7
100
AcDbLine
 10
451.7622797632999
 20
183.7170753447
 30
0.0
 11
451.7622797632999
 21
170.001066645
 31
0.0
  0
LINE
  5
2A8
330
24D
100
AcDbEntity
  8
___SYMBOL
  6
Continuous
 62
     7
100
AcDbLine
 10
451.7622797632999
 20
170.001066645
 30
0.0
 11
458.6202841130998
 21
170.001066645
 31
0.0
  0
LINE
  5
2A9
330
24D
100
AcDbEntity
  8
___SYMBOL
  6
Continuous
 62
     7
100
AcDbLine
 10
451.7622797632999
 20
176.8590709949
 30
0.0
 11
458.6202841130998
 21
176.8590709949
 31
0.0
  0
LINE
  5
2AA
330
24D
100
AcDbEntity
  8
___SYMBOL
  6
Continuous
 62
     7
100
AcDbLine
 10
451.7622797632999
 20
183.7170753447
 30
0.0
 11
458.6202841130998
 21
183.7170753447
 31
0.0
  0
LINE
  5
2AB
330
24D
100
AcDbEntity
  8
___SYMBOL
  6
Continuous
 62
     7
100
AcDbLine
 10
458.6202841130998
 20
170.001066645
 30
0.0
 11
458.6202841130998
 21
183.7170753447
 31
0.0
  0
ENDBLK
  5
2AC
330
24D
100
AcDbEntity
  8
0
  6
ByBlock
 62
     0
100
AcDbBlockEnd
  0
BLOCK
  5
2AD
330
24E
100
AcDbEntity
  8
___SYMBOL
  6
Continuous
 62
     2
100
AcDbBlockBegin
  2
SYMBOL_10_BL10
 70
     0
 10
62.1584553902
 20
149.131405255
 30
0.0
  3
SYMBOL_10_BL10
  1

  0
LWPOLYLINE
  5
2AE
330
24E
100
AcDbEntity
  8
___SYMBOL
  6
Continuous
 62
     2
100
AcDbPolyline
 90
       17
 70
     0
 43
0.381
 10
61.2934486389
 20
152.0076146484
 10
61.4918884644
 20
152.6690719482
 10
62.0872013519
 20
152.9998005981
 10
62.6825142395
 20
152.6690719482
 10
62.8809474762
 20
152.0076146484
 10
62.6825142395
 20
151.3461573486
 10
62.4840744141
 20
151.0154286987
 10
62.0872013519
 20
150.6847000488
 10
61.690321701
 20
151.0154286987
 10
61.4918884644
 20
151.3461573486
 10
61.2934486389
 20
152.0076146484
 10
61.2934486389
 20
153.330529248
 10
61.4918884644
 20
153.9919865479
 10
61.690321701
 20
154.3227151978
 10
62.0872013519
 20
154.6534438477
 10
62.4840744141
 20
154.3227151978
 10
62.6825142395
 20
153.9919865479
  0
LINE
  5
2AF
330
24E
100
AcDbEntity
  8
___SYMBOL
  6
Continuous
 62
     7
100
AcDbLine
 10
58.7294532153
 20
155.9894096049
 30
0.0
 11
58.7294532153
 21
142.2734009051
 31
0.0
  0
LINE
  5
2B0
330
24E
100
AcDbEntity
  8
___SYMBOL
  6
Continuous
 62
     7
100
AcDbLine
 10
58.7294532153
 20
142.2734009051
 30
0.0
 11
65.5874575652
 21
142.2734009051
 31
0.0
  0
LINE
  5
2B1
330
24E
100
AcDbEntity
  8
___SYMBOL
  6
Continuous
 62
     7
100
AcDbLine
 10
58.7294532153
 20
149.131405255
 30
0.0
 11
65.5874575652
 21
149.131405255
 31
0.0
  0
LINE
  5
2B2
330
24E
100
AcDbEntity
  8
___SYMBOL
  6
Continuous
 62
     7
100
AcDbLine
 10
58.7294532153
 20
155.9894096049
 30
0.0
 11
65.5874575652
 21
155.9894096049
 31
0.0
  0
LINE
  5
2B3
330
24E
100
AcDbEntity
  8
___SYMBOL
  6
Continuous
 62
     7
100
AcDbLine
 10
65.5874575652
 20
142.2734009051
 30
0.0
 11
65.5874575652
 21
155.9894096049
 31
0.0
  0
ENDBLK
  5
2B4
330
24E
100
AcDbEntity
  8
0
  6
ByBlock
 62
     0
100
AcDbBlockEnd
  0
BLOCK
  5
2B5
330
24F
100
AcDbEntity
  8
___SYMBOL
  6
Continuous
 62
     2
100
AcDbBlockBegin
  2
SYMBOL_9_BL9
 70
     0
 10
457.5926413614999
 20
381.4548938579
 30
0.0
  3
SYMBOL_9_BL9
  1

  0
LWPOLYLINE
  5
2B6
330
24F
100
AcDbEntity
  8
___SYMBOL
  6
Continuous
 62
     2
100
AcDbPolyline
 90
       14
 70
     0
 43
0.381
 10
458.3151133301
 20
386.9769716064
 10
457.1245007323999
 20
386.9769716064
 10
456.9260477294998
 20
385.323302002
 10
457.3229537353998
 20
385.6540042969001
 10
457.7198070312999
 20
385.6540042969001
 10
458.1167130370998
 20
385.323302002
 10
458.3151133301
 20
384.9925469971
 10
458.5135663329999
 20
384.3310896973001
 10
458.3151133301
 20
383.6696323975
 10
458.1167130370998
 20
383.3389301025
 10
457.7198070312999
 20
383.0081750976999
 10
457.3229537353998
 20
383.0081750976999
 10
456.9260477294998
 20
383.3389301025
 10
456.7276474365
 20
383.6696323975
  0
LINE
  5
2B7
330
24F
100
AcDbEntity
  8
___SYMBOL
  6
Continuous
 62
     7
100
AcDbLine
 10
454.1636391865
 20
388.3128982077
 30
0.0
 11
454.1636391865
 21
374.596889508
 31
0.0
  0
LINE
  5
2B8
330
24F
100
AcDbEntity
  8
___SYMBOL
  6
Continuous
 62
     7
100
AcDbLine
 10
454.1636391865
 20
374.596889508
 30
0.0
 11
461.0216435364
 21
374.596889508
 31
0.0
  0
LINE
  5
2B9
330
24F
100
AcDbEntity
  8
___SYMBOL
  6
Continuous
 62
     7
100
AcDbLine
 10
454.1636391865
 20
381.4548938579
 30
0.0
 11
461.0216435364
 21
381.4548938579
 31
0.0
  0
LINE
  5
2BA
330
24F
100
AcDbEntity
  8
___SYMBOL
  6
Continuous
 62
     7
100
AcDbLine
 10
454.1636391865
 20
388.3128982077
 30
0.0
 11
461.0216435364
 21
388.3128982077
 31
0.0
  0
LINE
  5
2BB
330
24F
100
AcDbEntity
  8
___SYMBOL
  6
Continuous
 62
     7
100
AcDbLine
 10
461.0216435364
 20
374.596889508
 30
0.0
 11
461.0216435364
 21
388.3128982077
 31
0.0
  0
ENDBLK
  5
2BC
330
24F
100
AcDbEntity
  8
0
  6
ByBlock
 62
     0
100
AcDbBlockEnd
  0
BLOCK
  5
2BD
330
250
100
AcDbEntity
  8
___SYMBOL
  6
Continuous
 62
     2
100
AcDbBlockBegin
  2
SYMBOL_5_BL8
 70
     0
 10
438.7697062905998
 20
452.8724594787
 30
0.0
  3
SYMBOL_5_BL8
  1

  0
LWPOLYLINE
  5
2BE
330
250
100
AcDbEntity
  8
___SYMBOL
  6
Continuous
 62
     2
100
AcDbPolyline
 90
        4
 70
     0
 43
0.381
 10
439.2937751465
 20
454.4257445312998
 10
439.2937751465
 20
458.3944883301
 10
437.9047095458998
 20
455.4179568359
 10
439.6906284424
 20
455.4179568359
  0
LINE
  5
2BF
330
250
100
AcDbEntity
  8
___SYMBOL
  6
Continuous
 62
     7
100
AcDbLine
 10
435.3407041157
 20
459.7304638285
 30
0.0
 11
435.3407041157
 21
446.0144551287998
 31
0.0
  0
LINE
  5
2C0
330
250
100
AcDbEntity
  8
___SYMBOL
  6
Continuous
 62
     7
100
AcDbLine
 10
435.3407041157
 20
446.0144551287998
 30
0.0
 11
442.1987084656
 21
446.0144551287998
 31
0.0
  0
LINE
  5
2C1
330
250
100
AcDbEntity
  8
___SYMBOL
  6
Continuous
 62
     7
100
AcDbLine
 10
435.3407041157
 20
452.8724594787
 30
0.0
 11
442.1987084656
 21
452.8724594787
 31
0.0
  0
LINE
  5
2C2
330
250
100
AcDbEntity
  8
___SYMBOL
  6
Continuous
 62
     7
100
AcDbLine
 10
435.3407041157
 20
459.7304638285
 30
0.0
 11
442.1987084656
 21
459.7304638285
 31
0.0
  0
LINE
  5
2C3
330
250
100
AcDbEntity
  8
___SYMBOL
  6
Continuous
 62
     7
100
AcDbLine
 10
442.1987084656
 20
446.0144551287998
 30
0.0
 11
442.1987084656
 21
459.7304638285
 31
0.0
  0
ENDBLK
  5
2C4
330
250
100
AcDbEntity
  8
0
  6
ByBlock
 62
     0
100
AcDbBlockEnd
  0
BLOCK
  5
2C5
330
251
100
AcDbEntity
  8
___SYMBOL
  6
Continuous
 62
     2
100
AcDbBlockBegin
  2
SYMBOL_4_BL7
 70
     0
 10
381.4440101809
 20
484.3530591274999
 30
0.0
  3
SYMBOL_4_BL7
  1

  0
LWPOLYLINE
  5
2C6
330
251
100
AcDbEntity
  8
___SYMBOL
  6
Continuous
 62
     2
100
AcDbPolyline
 90
       18
 70
     0
 43
0.381
 10
380.777443042
 20
489.5443885254
 10
381.1743226929
 20
489.8750908202999
 10
381.5712023438
 20
489.8750908202999
 10
381.9680556396
 20
489.5443885254
 10
382.1665086426
 20
489.2136335205
 10
382.1665086426
 20
488.8829312256
 10
381.9680556396
 20
488.5521762207
 10
381.5712023438
 20
488.2214739257998
 10
381.9680556396
 20
487.8907189209
 10
382.1665086426
 20
487.5600166259999
 10
382.3649352905001
 20
487.2292616211
 10
382.3649352905001
 20
486.8985593262
 10
382.1665086426
 20
486.5678043212999
 10
381.9680556396
 20
486.2371020263998
 10
381.5712023438
 20
485.9063470215
 10
381.1743226929
 20
485.9063470215
 10
380.777443042
 20
486.2371020263998
 10
380.579016394
 20
486.5678043212999
  0
LWPOLYLINE
  5
2C7
330
251
100
AcDbEntity
  8
___SYMBOL
  6
Continuous
 62
     2
100
AcDbPolyline
 90
        2
 70
     0
 43
0.381
 10
381.1743226929
 20
488.2214739257998
 10
381.5712023438
 20
488.2214739257998
  0
LINE
  5
2C8
330
251
100
AcDbEntity
  8
___SYMBOL
  6
Continuous
 62
     7
100
AcDbLine
 10
378.015008006
 20
491.2110634773998
 30
0.0
 11
378.015008006
 21
477.4950547777
 31
0.0
  0
LINE
  5
2C9
330
251
100
AcDbEntity
  8
___SYMBOL
  6
Continuous
 62
     7
100
AcDbLine
 10
378.015008006
 20
477.4950547777
 30
0.0
 11
384.8730123559
 21
477.4950547777
 31
0.0
  0
LINE
  5
2CA
330
251
100
AcDbEntity
  8
___SYMBOL
  6
Continuous
 62
     7
100
AcDbLine
 10
378.015008006
 20
484.3530591274999
 30
0.0
 11
384.8730123559
 21
484.3530591274999
 31
0.0
  0
LINE
  5
2CB
330
251
100
AcDbEntity
  8
___SYMBOL
  6
Continuous
 62
     7
100
AcDbLine
 10
378.015008006
 20
491.2110634773998
 30
0.0
 11
384.8730123559
 21
491.2110634773998
 31
0.0
  0
LINE
  5
2CC
330
251
100
AcDbEntity
  8
___SYMBOL
  6
Continuous
 62
     7
100
AcDbLine
 10
384.8730123559
 20
477.4950547777
 30
0.0
 11
384.8730123559
 21
491.2110634773998
 31
0.0
  0
ENDBLK
  5
2CD
330
251
100
AcDbEntity
  8
0
  6
ByBlock
 62
     0
100
AcDbBlockEnd
  0
BLOCK
  5
2CE
330
252
100
AcDbEntity
  8
___SYMBOL
  6
Continuous
 62
     2
100
AcDbBlockBegin
  2
SYMBOL_1_BL6
 70
     0
 10
274.1052527517
 20
501.5977971731
 30
0.0
  3
SYMBOL_1_BL6
  1

  0
LWPOLYLINE
  5
2CF
330
252
100
AcDbEntity
  8
___SYMBOL
  6
Continuous
 62
     2
100
AcDbPolyline
 90
       13
 70
     0
 43
0.381
 10
273.2402411011
 20
506.4583824706998
 10
273.438694104
 20
506.7891374755999
 10
273.8355473999
 20
507.1198397705
 10
274.2324270508
 20
507.1198397705
 10
274.6293067017
 20
506.7891374755999
 10
274.8277597046
 20
506.4583824706998
 10
274.8277597046
 20
505.7969251708999
 10
274.6293067017
 20
505.4662228759998
 10
274.2324270508
 20
505.1354678711
 10
273.8355473999
 20
504.8047655762
 10
273.438694104
 20
504.1433082763998
 10
273.2402411011
 20
503.1510959717
 10
274.8277597046
 20
503.1510959717
  0
LINE
  5
2D0
330
252
100
AcDbEntity
  8
___SYMBOL
  6
Continuous
 62
     7
100
AcDbLine
 10
270.6762505768
 20
508.455801523
 30
0.0
 11
270.6762505768
 21
494.7397928233
 31
0.0
  0
LINE
  5
2D1
330
252
100
AcDbEntity
  8
___SYMBOL
  6
Continuous
 62
     7
100
AcDbLine
 10
270.6762505768
 20
494.7397928233
 30
0.0
 11
277.5342549267
 21
494.7397928233
 31
0.0
  0
LINE
  5
2D2
330
252
100
AcDbEntity
  8
___SYMBOL
  6
Continuous
 62
     7
100
AcDbLine
 10
270.6762505768
 20
501.5977971731
 30
0.0
 11
277.5342549267
 21
501.5977971731
 31
0.0
  0
LINE
  5
2D3
330
252
100
AcDbEntity
  8
___SYMBOL
  6
Continuous
 62
     7
100
AcDbLine
 10
270.6762505768
 20
508.455801523
 30
0.0
 11
277.5342549267
 21
508.455801523
 31
0.0
  0
LINE
  5
2D4
330
252
100
AcDbEntity
  8
___SYMBOL
  6
Continuous
 62
     7
100
AcDbLine
 10
277.5342549267
 20
494.7397928233
 30
0.0
 11
277.5342549267
 21
508.455801523
 31
0.0
  0
ENDBLK
  5
2D5
330
252
100
AcDbEntity
  8
0
  6
ByBlock
 62
     0
100
AcDbBlockEnd
  0
BLOCK
  5
2D6
330
253
100
AcDbEntity
  8
___SYMBOL
  6
Continuous
 62
     2
100
AcDbBlockBegin
  2
SYMBOL_0_BL5
 70
     0
 10
253.4045998325
 20
519.5177653719
 30
0.0
  3
SYMBOL_0_BL5
  1

  0
LWPOLYLINE
  5
2D7
330
253
100
AcDbEntity
  8
___SYMBOL
  6
Continuous
 62
     2
100
AcDbPolyline
 90
        2
 70
     0
 43
0.381
 10
253.3333492188
 20
525.0398033202999
 10
253.3333492188
 20
521.0710595215
  0
LINE
  5
2D8
330
253
100
AcDbEntity
  8
___SYMBOL
  6
Continuous
 62
     7
100
AcDbLine
 10
249.9755976576
 20
526.3757697217998
 30
0.0
 11
249.9755976576
 21
512.659761022
 31
0.0
  0
LINE
  5
2D9
330
253
100
AcDbEntity
  8
___SYMBOL
  6
Continuous
 62
     7
100
AcDbLine
 10
249.9755976576
 20
512.659761022
 30
0.0
 11
256.8336020074
 21
512.659761022
 31
0.0
  0
LINE
  5
2DA
330
253
100
AcDbEntity
  8
___SYMBOL
  6
Continuous
 62
     7
100
AcDbLine
 10
249.9755976576
 20
519.5177653719
 30
0.0
 11
256.8336020074
 21
519.5177653719
 31
0.0
  0
LINE
  5
2DB
330
253
100
AcDbEntity
  8
___SYMBOL
  6
Continuous
 62
     7
100
AcDbLine
 10
249.9755976576
 20
526.3757697217998
 30
0.0
 11
256.8336020074
 21
526.3757697217998
 31
0.0
  0
LINE
  5
2DC
330
253
100
AcDbEntity
  8
___SYMBOL
  6
Continuous
 62
     7
100
AcDbLine
 10
256.8336020074
 20
512.659761022
 30
0.0
 11
256.8336020074
 21
526.3757697217998
 31
0.0
  0
ENDBLK
  5
2DD
330
253
100
AcDbEntity
  8
0
  6
ByBlock
 62
     0
100
AcDbBlockEnd
  0
BLOCK
  5
2DE
330
254
100
AcDbEntity
  8
0
  6
Continuous
 62
     2
100
AcDbBlockBegin
  2
SYMBOL_11_BL4
 70
     0
 10
855.6625
 20
279.4
 30
0.0
  3
SYMBOL_11_BL4
  1

  0
LINE
  5
2DF
330
254
100
AcDbEntity
  8
0
  6
Continuous
 62
    30
420
 16744192
100
AcDbLine
 10
850.9
 20
279.4
 30
0.0
 11
855.6625
 21
277.01875
 31
0.0
  0
LINE
  5
2E0
330
254
100
AcDbEntity
  8
0
  6
Continuous
 62
    30
420
 16744192
100
AcDbLine
 10
850.9
 20
279.4
 30
0.0
 11
855.6625
 21
281.78125
 31
0.0
  0
LINE
  5
2E1
330
254
100
AcDbEntity
  8
0
  6
Continuous
 62
    30
420
 16744192
100
AcDbLine
 10
855.6625
 20
279.9953125
 30
0.0
 11
855.6625
 21
281.78125
 31
0.0
  0
LINE
  5
2E2
330
254
100
AcDbEntity
  8
0
  6
Continuous
 62
    30
420
 16744192
100
AcDbLine
 10
860.425
 20
279.9953125
 30
0.0
 11
855.6625
 21
279.9953125
 31
0.0
  0
LINE
  5
2E3
330
254
100
AcDbEntity
  8
0
  6
Continuous
 62
    30
420
 16744192
100
AcDbLine
 10
860.425
 20
279.9953125
 30
0.0
 11
860.425
 21
278.8046875
 31
0.0
  0
LINE
  5
2E4
330
254
100
AcDbEntity
  8
0
  6
Continuous
 62
    30
420
 16744192
100
AcDbLine
 10
855.6625
 20
278.8046875
 30
0.0
 11
860.425
 21
278.8046875
 31
0.0
  0
LINE
  5
2E5
330
254
100
AcDbEntity
  8
0
  6
Continuous
 62
    30
420
 16744192
100
AcDbLine
 10
855.6625
 20
277.01875
 30
0.0
 11
855.6625
 21
278.8046875
 31
0.0
  0
LWPOLYLINE
  5
2E6
330
254
100
AcDbEntity
  8
0
  6
Continuous
 62
     7
100
AcDbPolyline
 90
        8
 70
     0
 43
0.0
 10
850.9
 20
279.4
 10
855.6625
 20
281.78125
 10
855.6625
 20
279.9953125
 10
860.425
 20
279.9953125
 10
860.425
 20
278.8046875
 10
855.6625
 20
278.8046875
 10
855.6625
 20
277.01875
 10
850.9
 20
279.4
  0
HATCH
  5
2E7
330
254
100
AcDbEntity
  8
0
  6
Continuous
 62
     7
100
AcDbHatch
 10
0.0
 20
0.0
 30
0.0
210
0.0
220
0.0
230
1.0
  2
SOLID
 70
     1
 71
     1
 91
        1
 92
        1
 93
        7
 72
     1
 10
850.9
 20
279.4
 11
855.6625
 21
281.78125
 72
     1
 10
855.6625
 20
281.78125
 11
855.6625
 21
279.9953125
 72
     1
 10
855.6625
 20
279.9953125
 11
860.425
 21
279.9953125
 72
     1
 10
860.425
 20
279.9953125
 11
860.425
 21
278.8046875
 72
     1
 10
860.425
 20
278.8046875
 11
855.6625
 21
278.8046875
 72
     1
 10
855.6625
 20
278.8046875
 11
855.6625
 21
277.01875
 72
     1
 10
855.6625
 20
277.01875
 11
850.9
 21
279.4
 97
        1
330
2E6
 75
     0
 76
     1
 98
        1
 10
0.0
 20
0.0
450
        0
451
        0
460
0.0
461
0.0
452
        0
462
0.0
453
        0
470

  0
ENDBLK
  5
2E8
330
254
100
AcDbEntity
  8
0
  6
ByBlock
 62
     0
100
AcDbBlockEnd
  0
BLOCK
  5
2E9
330
255
100
AcDbEntity
  8
0
  6
Continuous
 62
     2
100
AcDbBlockBegin
  2
SYMBOL_10_BL3
 70
     0
 10
7.9375
 20
279.4
 30
0.0
  3
SYMBOL_10_BL3
  1

  0
LINE
  5
2EA
330
255
100
AcDbEntity
  8
0
  6
Continuous
 62
    30
420
 16744192
100
AcDbLine
 10
12.7
 20
279.4
 30
0.0
 11
7.9375
 21
281.78125
 31
0.0
  0
LINE
  5
2EB
330
255
100
AcDbEntity
  8
0
  6
Continuous
 62
    30
420
 16744192
100
AcDbLine
 10
12.7
 20
279.4
 30
0.0
 11
7.9375
 21
277.01875
 31
0.0
  0
LINE
  5
2EC
330
255
100
AcDbEntity
  8
0
  6
Continuous
 62
    30
420
 16744192
100
AcDbLine
 10
7.9375
 20
278.8046875
 30
0.0
 11
7.9375
 21
277.01875
 31
0.0
  0
LINE
  5
2ED
330
255
100
AcDbEntity
  8
0
  6
Continuous
 62
    30
420
 16744192
100
AcDbLine
 10
3.174999999999998
 20
278.8046875
 30
0.0
 11
7.9375
 21
278.8046875
 31
0.0
  0
LINE
  5
2EE
330
255
100
AcDbEntity
  8
0
  6
Continuous
 62
    30
420
 16744192
100
AcDbLine
 10
3.174999999999998
 20
278.8046875
 30
0.0
 11
3.174999999999998
 21
279.9953125
 31
0.0
  0
LINE
  5
2EF
330
255
100
AcDbEntity
  8
0
  6
Continuous
 62
    30
420
 16744192
100
AcDbLine
 10
7.9375
 20
279.9953125
 30
0.0
 11
3.174999999999998
 21
279.9953125
 31
0.0
  0
LINE
  5
2F0
330
255
100
AcDbEntity
  8
0
  6
Continuous
 62
    30
420
 16744192
100
AcDbLine
 10
7.9375
 20
281.78125
 30
0.0
 11
7.9375
 21
279.9953125
 31
0.0
  0
LWPOLYLINE
  5
2F1
330
255
100
AcDbEntity
  8
0
  6
Continuous
 62
     7
100
AcDbPolyline
 90
        8
 70
     0
 43
0.0
 10
12.7
 20
279.4
 10
7.9375
 20
277.01875
 10
7.9375
 20
278.8046875
 10
3.174999999999998
 20
278.8046875
 10
3.174999999999998
 20
279.9953125
 10
7.9375
 20
279.9953125
 10
7.9375
 20
281.78125
 10
12.7
 20
279.4
  0
HATCH
  5
2F2
330
255
100
AcDbEntity
  8
0
  6
Continuous
 62
     7
100
AcDbHatch
 10
0.0
 20
0.0
 30
0.0
210
0.0
220
0.0
230
1.0
  2
SOLID
 70
     1
 71
     1
 91
        1
 92
        1
 93
        7
 72
     1
 10
12.7
 20
279.4
 11
7.9375
 21
277.01875
 72
     1
 10
7.9375
 20
277.01875
 11
7.9375
 21
278.8046875
 72
     1
 10
7.9375
 20
278.8046875
 11
3.174999999999998
 21
278.8046875
 72
     1
 10
3.174999999999998
 20
278.8046875
 11
3.174999999999998
 21
279.9953125
 72
     1
 10
3.174999999999998
 20
279.9953125
 11
7.9375
 21
279.9953125
 72
     1
 10
7.9375
 20
279.9953125
 11
7.9375
 21
281.78125
 72
     1
 10
7.9375
 20
281.78125
 11
12.7
 21
279.4
 97
        1
330
2F1
 75
     0
 76
     1
 98
        1
 10
0.0
 20
0.0
450
        0
451
        0
460
0.0
461
0.0
452
        0
462
0.0
453
        0
470

  0
ENDBLK
  5
2F3
330
255
100
AcDbEntity
  8
0
  6
ByBlock
 62
     0
100
AcDbBlockEnd
  0
BLOCK
  5
2F4
330
256
100
AcDbEntity
  8
0
  6
Continuous
 62
     2
100
AcDbBlockBegin
  2
SYMBOL_8_BL2
 70
     0
 10
431.8
 20
550.8624999999998
 30
0.0
  3
SYMBOL_8_BL2
  1

  0
LINE
  5
2F5
330
256
100
AcDbEntity
  8
0
  6
Continuous
 62
    30
420
 16744192
100
AcDbLine
 10
431.8
 20
546.1
 30
0.0
 11
434.1812499999998
 21
550.8624999999998
 31
0.0
  0
LINE
  5
2F6
330
256
100
AcDbEntity
  8
0
  6
Continuous
 62
    30
420
 16744192
100
AcDbLine
 10
431.8
 20
546.1
 30
0.0
 11
429.4187499999998
 21
550.8624999999998
 31
0.0
  0
LINE
  5
2F7
330
256
100
AcDbEntity
  8
0
  6
Continuous
 62
    30
420
 16744192
100
AcDbLine
 10
431.2046875
 20
550.8624999999998
 30
0.0
 11
429.4187499999998
 21
550.8624999999998
 31
0.0
  0
LINE
  5
2F8
330
256
100
AcDbEntity
  8
0
  6
Continuous
 62
    30
420
 16744192
100
AcDbLine
 10
431.2046875
 20
555.625
 30
0.0
 11
431.2046875
 21
550.8624999999998
 31
0.0
  0
LINE
  5
2F9
330
256
100
AcDbEntity
  8
0
  6
Continuous
 62
    30
420
 16744192
100
AcDbLine
 10
431.2046875
 20
555.625
 30
0.0
 11
432.3953125
 21
555.625
 31
0.0
  0
LINE
  5
2FA
330
256
100
AcDbEntity
  8
0
  6
Continuous
 62
    30
420
 16744192
100
AcDbLine
 10
432.3953125
 20
550.8624999999998
 30
0.0
 11
432.3953125
 21
555.625
 31
0.0
  0
LINE
  5
2FB
330
256
100
AcDbEntity
  8
0
  6
Continuous
 62
    30
420
 16744192
100
AcDbLine
 10
434.1812499999998
 20
550.8624999999998
 30
0.0
 11
432.3953125
 21
550.8624999999998
 31
0.0
  0
LWPOLYLINE
  5
2FC
330
256
100
AcDbEntity
  8
0
  6
Continuous
 62
     7
100
AcDbPolyline
 90
        8
 70
     0
 43
0.0
 10
431.8
 20
546.1
 10
429.4187499999998
 20
550.8624999999998
 10
431.2046875
 20
550.8624999999998
 10
431.2046875
 20
555.625
 10
432.3953125
 20
555.625
 10
432.3953125
 20
550.8624999999998
 10
434.1812499999998
 20
550.8624999999998
 10
431.8
 20
546.1
  0
HATCH
  5
2FD
330
256
100
AcDbEntity
  8
0
  6
Continuous
 62
     7
100
AcDbHatch
 10
0.0
 20
0.0
 30
0.0
210
0.0
220
0.0
230
1.0
  2
SOLID
 70
     1
 71
     1
 91
        1
 92
        1
 93
        7
 72
     1
 10
431.8
 20
546.1
 11
429.4187499999998
 21
550.8624999999998
 72
     1
 10
429.4187499999998
 20
550.8624999999998
 11
431.2046875
 21
550.8624999999998
 72
     1
 10
431.2046875
 20
550.8624999999998
 11
431.2046875
 21
555.625
 72
     1
 10
431.2046875
 20
555.625
 11
432.3953125
 21
555.625
 72
     1
 10
432.3953125
 20
555.625
 11
432.3953125
 21
550.8624999999998
 72
     1
 10
432.3953125
 20
550.8624999999998
 11
434.1812499999998
 21
550.8624999999998
 72
     1
 10
434.1812499999998
 20
550.8624999999998
 11
431.8
 21
546.1
 97
        1
330
2FC
 75
     0
 76
     1
 98
        1
 10
0.0
 20
0.0
450
        0
451
        0
460
0.0
461
0.0
452
        0
462
0.0
453
        0
470

  0
ENDBLK
  5
2FE
330
256
100
AcDbEntity
  8
0
  6
ByBlock
 62
     0
100
AcDbBlockEnd
  0
BLOCK
  5
2FF
330
257
100
AcDbEntity
  8
0
  6
Continuous
 62
     2
100
AcDbBlockBegin
  2
SYMBOL_6_BL1
 70
     0
 10
431.8
 20
7.9375
 30
0.0
  3
SYMBOL_6_BL1
  1

  0
LINE
  5
300
330
257
100
AcDbEntity
  8
0
  6
Continuous
 62
    30
420
 16744192
100
AcDbLine
 10
431.8
 20
12.7
 30
0.0
 11
429.4187499999998
 21
7.9375
 31
0.0
  0
LINE
  5
301
330
257
100
AcDbEntity
  8
0
  6
Continuous
 62
    30
420
 16744192
100
AcDbLine
 10
431.8
 20
12.7
 30
0.0
 11
434.1812499999998
 21
7.9375
 31
0.0
  0
LINE
  5
302
330
257
100
AcDbEntity
  8
0
  6
Continuous
 62
    30
420
 16744192
100
AcDbLine
 10
432.3953125
 20
7.9375
 30
0.0
 11
434.1812499999998
 21
7.9375
 31
0.0
  0
LINE
  5
303
330
257
100
AcDbEntity
  8
0
  6
Continuous
 62
    30
420
 16744192
100
AcDbLine
 10
432.3953125
 20
3.174999999999998
 30
0.0
 11
432.3953125
 21
7.9375
 31
0.0
  0
LINE
  5
304
330
257
100
AcDbEntity
  8
0
  6
Continuous
 62
    30
420
 16744192
100
AcDbLine
 10
432.3953125
 20
3.174999999999998
 30
0.0
 11
431.2046875
 21
3.174999999999998
 31
0.0
  0
LINE
  5
305
330
257
100
AcDbEntity
  8
0
  6
Continuous
 62
    30
420
 16744192
100
AcDbLine
 10
431.2046875
 20
7.9375
 30
0.0
 11
431.2046875
 21
3.174999999999998
 31
0.0
  0
LINE
  5
306
330
257
100
AcDbEntity
  8
0
  6
Continuous
 62
    30
420
 16744192
100
AcDbLine
 10
429.4187499999998
 20
7.9375
 30
0.0
 11
431.2046875
 21
7.9375
 31
0.0
  0
LWPOLYLINE
  5
307
330
257
100
AcDbEntity
  8
0
  6
Continuous
 62
     7
100
AcDbPolyline
 90
        8
 70
     0
 43
0.0
 10
431.8
 20
12.7
 10
434.1812499999998
 20
7.9375
 10
432.3953125
 20
7.9375
 10
432.3953125
 20
3.174999999999998
 10
431.2046875
 20
3.174999999999998
 10
431.2046875
 20
7.9375
 10
429.4187499999998
 20
7.9375
 10
431.8
 20
12.7
  0
HATCH
  5
308
330
257
100
AcDbEntity
  8
0
  6
Continuous
 62
     7
100
AcDbHatch
 10
0.0
 20
0.0
 30
0.0
210
0.0
220
0.0
230
1.0
  2
SOLID
 70
     1
 71
     1
 91
        1
 92
        1
 93
        7
 72
     1
 10
431.8
 20
12.7
 11
434.1812499999998
 21
7.9375
 72
     1
 10
434.1812499999998
 20
7.9375
 11
432.3953125
 21
7.9375
 72
     1
 10
432.3953125
 20
7.9375
 11
432.3953125
 21
3.174999999999998
 72
     1
 10
432.3953125
 20
3.174999999999998
 11
431.2046875
 21
3.174999999999998
 72
     1
 10
431.2046875
 20
3.174999999999998
 11
431.2046875
 21
7.9375
 72
     1
 10
431.2046875
 20
7.9375
 11
429.4187499999998
 21
7.9375
 72
     1
 10
429.4187499999998
 20
7.9375
 11
431.8
 21
12.7
 97
        1
330
307
 75
     0
 76
     1
 98
        1
 10
0.0
 20
0.0
450
        0
451
        0
460
0.0
461
0.0
452
        0
462
0.0
453
        0
470

  0
ENDBLK
  5
309
330
257
100
AcDbEntity
  8
0
  6
ByBlock
 62
     0
100
AcDbBlockEnd
  0
BLOCK
  5
30A
330
258
100
AcDbEntity
  8
0
  6
Continuous
 62
     2
100
AcDbBlockBegin
  2
SYMBOL_0_BL0
 70
     0
 10
766.7592361
 20
55.2233084
 30
0.0
  3
SYMBOL_0_BL0
  1

  0
ARC
  5
30B
330
258
100
AcDbEntity
  8
0
  6
Continuous
 62
     2
100
AcDbCircle
 10
781.1308736
 20
56.63221465
 30
0.0
 40
0.7786687500000001
100
AcDbArc
 50
270.0
 51
90.0
  0
LINE
  5
30C
330
258
100
AcDbEntity
  8
0
  6
Continuous
 62
     2
100
AcDbLine
 10
749.3808736
 20
51.6514334
 30
0.0
 11
749.3808736
 21
58.7951834
 31
0.0
  0
LINE
  5
30D
330
258
100
AcDbEntity
  8
0
  6
Continuous
 62
     2
100
AcDbLine
 10
749.3808736
 20
58.7951834
 30
0.0
 11
751.0826736
 21
58.7951834
 31
0.0
  0
LINE
  5
30E
330
258
100
AcDbEntity
  8
0
  6
Continuous
 62
     2
100
AcDbLine
 10
749.3808736
 20
51.6514334
 30
0.0
 11
751.0826736
 21
51.6514334
 31
0.0
  0
LINE
  5
30F
330
258
100
AcDbEntity
  8
0
  6
Continuous
 62
     2
100
AcDbLine
 10
755.7308736
 20
58.7951834
 30
0.0
 11
752.5558736
 21
55.6201834
 31
0.0
  0
LINE
  5
310
330
258
100
AcDbEntity
  8
0
  6
Continuous
 62
     2
100
AcDbLine
 10
752.5558736
 20
55.6201834
 30
0.0
 11
755.7308736
 21
51.6514334
 31
0.0
  0
CIRCLE
  5
311
330
258
100
AcDbEntity
  8
0
  6
Continuous
 62
     2
100
AcDbCircle
 10
758.5089986
 20
55.2233084
 30
0.0
 40
1.870074999999999
  0
LINE
  5
312
330
258
100
AcDbEntity
  8
0
  6
Continuous
 62
     2
100
AcDbLine
 10
753.5515062341
 20
51.6514334
 30
0.0
 11
755.7308736
 21
51.6514334
 31
0.0
  0
CIRCLE
  5
313
330
258
100
AcDbEntity
  8
0
  6
Continuous
 62
     2
100
AcDbCircle
 10
758.5089986
 20
55.2233084
 30
0.0
 40
3.571874999999999
  0
LINE
  5
314
330
258
100
AcDbEntity
  8
0
  6
Continuous
 62
     2
100
AcDbLine
 10
751.0826736
 20
51.6514334
 30
0.0
 11
751.0826736
 21
54.7374741926
 31
0.0
  0
LINE
  5
315
330
258
100
AcDbEntity
  8
0
  6
Continuous
 62
     2
100
AcDbLine
 10
753.3241649589999
 20
58.7951834
 30
0.0
 11
751.0826736
 21
56.55369204100001
 31
0.0
  0
LINE
  5
316
330
258
100
AcDbEntity
  8
0
  6
Continuous
 62
     2
100
AcDbLine
 10
751.0826736
 20
54.7374741926
 30
0.0
 11
753.5515062341
 21
51.6514334
 31
0.0
  0
LINE
  5
317
330
258
100
AcDbEntity
  8
0
  6
Continuous
 62
     2
100
AcDbLine
 10
753.3241649589999
 20
58.7951834
 30
0.0
 11
755.7308736
 21
58.7951834
 31
0.0
  0
LINE
  5
318
330
258
100
AcDbEntity
  8
0
  6
Continuous
 62
     2
100
AcDbLine
 10
751.0826736
 20
58.7951834
 30
0.0
 11
751.0826736
 21
56.55369204100001
 31
0.0
  0
LINE
  5
319
330
258
100
AcDbEntity
  8
0
  6
Continuous
 62
     2
100
AcDbLine
 10
762.8746236
 20
58.7951834
 30
0.0
 11
762.8746236
 21
51.6514334
 31
0.0
  0
LINE
  5
31A
330
258
100
AcDbEntity
  8
0
  6
Continuous
 62
     2
100
AcDbLine
 10
764.5764235999998
 20
51.6514334
 30
0.0
 11
764.5764235999998
 21
54.7692834
 31
0.0
  0
LINE
  5
31B
330
258
100
AcDbEntity
  8
0
  6
Continuous
 62
     2
100
AcDbLine
 10
764.5764235999998
 20
56.4710834
 30
0.0
 11
764.5764235999998
 21
58.7951834
 31
0.0
  0
LINE
  5
31C
330
258
100
AcDbEntity
  8
0
  6
Continuous
 62
     2
100
AcDbLine
 10
766.5607986
 20
51.6514334
 30
0.0
 11
766.5607986
 21
54.7692834
 31
0.0
  0
LINE
  5
31D
330
258
100
AcDbEntity
  8
0
  6
Continuous
 62
     2
100
AcDbLine
 10
766.5607986
 20
56.4710834
 30
0.0
 11
766.5607986
 21
58.7951834
 31
0.0
  0
LINE
  5
31E
330
258
100
AcDbEntity
  8
0
  6
Continuous
 62
     2
100
AcDbLine
 10
768.2625986
 20
58.7951834
 30
0.0
 11
768.2625986
 21
51.6514334
 31
0.0
  0
LINE
  5
31F
330
258
100
AcDbEntity
  8
0
  6
Continuous
 62
     2
100
AcDbLine
 10
764.5764235999998
 20
56.4710834
 30
0.0
 11
766.5607986
 21
56.4710834
 31
0.0
  0
LINE
  5
320
330
258
100
AcDbEntity
  8
0
  6
Continuous
 62
     2
100
AcDbLine
 10
764.5764235999998
 20
54.7692834
 30
0.0
 11
766.5607986
 21
54.7692834
 31
0.0
  0
LINE
  5
321
330
258
100
AcDbEntity
  8
0
  6
Continuous
 62
     2
100
AcDbLine
 10
766.5607986
 20
51.6514334
 30
0.0
 11
768.2625986
 21
51.6514334
 31
0.0
  0
LINE
  5
322
330
258
100
AcDbEntity
  8
0
  6
Continuous
 62
     2
100
AcDbLine
 10
762.8746236
 20
51.6514334
 30
0.0
 11
764.5764235999998
 21
51.6514334
 31
0.0
  0
LINE
  5
323
330
258
100
AcDbEntity
  8
0
  6
Continuous
 62
     2
100
AcDbLine
 10
766.5607986
 20
58.7951834
 30
0.0
 11
768.2625986
 21
58.7951834
 31
0.0
  0
LINE
  5
324
330
258
100
AcDbEntity
  8
0
  6
Continuous
 62
     2
100
AcDbLine
 10
762.8746236
 20
58.7951834
 30
0.0
 11
764.5764235999998
 21
58.7951834
 31
0.0
  0
LINE
  5
325
330
258
100
AcDbEntity
  8
0
  6
Continuous
 62
     2
100
AcDbLine
 10
769.0563486000002
 20
58.7951834
 30
0.0
 11
769.0563486000002
 21
51.6514334
 31
0.0
  0
LINE
  5
326
330
258
100
AcDbEntity
  8
0
  6
Continuous
 62
     2
100
AcDbLine
 10
773.0250986000002
 20
53.3532334
 30
0.0
 11
773.0250986000002
 21
51.6514334
 31
0.0
  0
LINE
  5
327
330
258
100
AcDbEntity
  8
0
  6
Continuous
 62
     2
100
AcDbLine
 10
769.0563486000002
 20
51.6514334
 30
0.0
 11
773.0250986000002
 21
51.6514334
 31
0.0
  0
LINE
  5
328
330
258
100
AcDbEntity
  8
0
  6
Continuous
 62
     2
100
AcDbLine
 10
770.7581486
 20
53.3532334
 30
0.0
 11
770.7581486
 21
58.7951834
 31
0.0
  0
LINE
  5
329
330
258
100
AcDbEntity
  8
0
  6
Continuous
 62
     2
100
AcDbLine
 10
770.7581486
 20
53.3532334
 30
0.0
 11
773.0250986000002
 21
53.3532334
 31
0.0
  0
LINE
  5
32A
330
258
100
AcDbEntity
  8
0
  6
Continuous
 62
     2
100
AcDbLine
 10
769.0563486000002
 20
58.7951834
 30
0.0
 11
770.7581486
 21
58.7951834
 31
0.0
  0
LINE
  5
32B
330
258
100
AcDbEntity
  8
0
  6
Continuous
 62
     2
100
AcDbLine
 10
773.8188486
 20
51.6514334
 30
0.0
 11
777.7875986
 21
51.6514334
 31
0.0
  0
LINE
  5
32C
330
258
100
AcDbEntity
  8
0
  6
Continuous
 62
     2
100
AcDbLine
 10
777.7875986
 20
53.3532334
 30
0.0
 11
777.7875986
 21
51.6514334
 31
0.0
  0
LINE
  5
32D
330
258
100
AcDbEntity
  8
0
  6
Continuous
 62
     2
100
AcDbLine
 10
775.5206486
 20
53.3532334
 30
0.0
 11
777.7875986
 21
53.3532334
 31
0.0
  0
LINE
  5
32E
330
258
100
AcDbEntity
  8
0
  6
Continuous
 62
     2
100
AcDbLine
 10
775.5206486
 20
54.5708459
 30
0.0
 11
775.5206486
 21
53.3532334
 31
0.0
  0
LINE
  5
32F
330
258
100
AcDbEntity
  8
0
  6
Continuous
 62
     2
100
AcDbLine
 10
775.5206486
 20
57.0933834
 30
0.0
 11
777.7875986
 21
57.0933834
 31
0.0
  0
LINE
  5
330
330
258
100
AcDbEntity
  8
0
  6
Continuous
 62
     2
100
AcDbLine
 10
773.8188486
 20
58.7951834
 30
0.0
 11
773.8188486
 21
51.6514334
 31
0.0
  0
LINE
  5
331
330
258
100
AcDbEntity
  8
0
  6
Continuous
 62
     2
100
AcDbLine
 10
777.7875986
 20
57.0933834
 30
0.0
 11
777.7875986
 21
58.7951834
 31
0.0
  0
LINE
  5
332
330
258
100
AcDbEntity
  8
0
  6
Continuous
 62
     2
100
AcDbLine
 10
773.8188486
 20
58.7951834
 30
0.0
 11
777.7875986
 21
58.7951834
 31
0.0
  0
LINE
  5
333
330
258
100
AcDbEntity
  8
0
  6
Continuous
 62
     2
100
AcDbLine
 10
775.5206486
 20
55.8757709
 30
0.0
 11
777.7875986
 21
55.8757709
 31
0.0
  0
LINE
  5
334
330
258
100
AcDbEntity
  8
0
  6
Continuous
 62
     2
100
AcDbLine
 10
777.7875986
 20
55.8757709
 30
0.0
 11
777.7875986
 21
54.5708459
 31
0.0
  0
LINE
  5
335
330
258
100
AcDbEntity
  8
0
  6
Continuous
 62
     2
100
AcDbLine
 10
775.5206486
 20
54.5708459
 30
0.0
 11
777.7875986
 21
54.5708459
 31
0.0
  0
LINE
  5
336
330
258
100
AcDbEntity
  8
0
  6
Continuous
 62
     2
100
AcDbLine
 10
775.5206486
 20
55.8757709
 30
0.0
 11
775.5206486
 21
57.0933834
 31
0.0
  0
LINE
  5
337
330
258
100
AcDbEntity
  8
0
  6
Continuous
 62
     2
100
AcDbLine
 10
778.5813486000002
 20
51.6514334
 30
0.0
 11
778.5813486000002
 21
58.7951834
 31
0.0
  0
LINE
  5
338
330
258
100
AcDbEntity
  8
0
  6
Continuous
 62
     2
100
AcDbLine
 10
780.2831486
 20
54.4295584
 30
0.0
 11
780.2831486
 21
51.6514334
 31
0.0
  0
ARC
  5
339
330
258
100
AcDbEntity
  8
0
  6
Continuous
 62
     2
100
AcDbCircle
 10
781.1610361
 20
56.6123709
 30
0.0
 40
2.182812499999998
100
AcDbArc
 50
304.1679402531
 51
90.0
  0
LINE
  5
33A
330
258
100
AcDbEntity
  8
0
  6
Continuous
 62
     2
100
AcDbLine
 10
781.1610361
 20
58.7951834
 30
0.0
 11
778.5813486000002
 21
58.7951834
 31
0.0
  0
LINE
  5
33B
330
258
100
AcDbEntity
  8
0
  6
Continuous
 62
     2
100
AcDbLine
 10
781.1308736
 20
57.41088340000001
 30
0.0
 11
780.2831486
 21
57.41088340000001
 31
0.0
  0
LINE
  5
33C
330
258
100
AcDbEntity
  8
0
  6
Continuous
 62
     2
100
AcDbLine
 10
782.3869483446001
 20
54.8063228433
 30
0.0
 11
784.1375986
 21
51.6514334
 31
0.0
  0
LINE
  5
33D
330
258
100
AcDbEntity
  8
0
  6
Continuous
 62
     2
100
AcDbLine
 10
782.191350336
 20
51.6514334
 30
0.0
 11
780.6497669218998
 21
54.4295584
 31
0.0
  0
LINE
  5
33E
330
258
100
AcDbEntity
  8
0
  6
Continuous
 62
     2
100
AcDbLine
 10
778.5813486000002
 20
51.6514334
 30
0.0
 11
780.2831486
 21
51.6514334
 31
0.0
  0
LINE
  5
33F
330
258
100
AcDbEntity
  8
0
  6
Continuous
 62
     2
100
AcDbLine
 10
782.191350336
 20
51.6514334
 30
0.0
 11
784.1375986
 21
51.6514334
 31
0.0
  0
LINE
  5
340
330
258
100
AcDbEntity
  8
0
  6
Continuous
 62
     2
100
AcDbLine
 10
781.1308736
 20
55.8535459
 30
0.0
 11
780.2831486
 21
55.8535459
 31
0.0
  0
LINE
  5
341
330
258
100
AcDbEntity
  8
0
  6
Continuous
 62
     2
100
AcDbLine
 10
780.2831486
 20
57.41088340000001
 30
0.0
 11
780.2831486
 21
55.8535459
 31
0.0
  0
LINE
  5
342
330
258
100
AcDbEntity
  8
0
  6
Continuous
 62
     2
100
AcDbLine
 10
780.2831486
 20
54.4295584
 30
0.0
 11
780.6497669218998
 21
54.4295584
 31
0.0
  0
LWPOLYLINE
  5
343
330
258
100
AcDbEntity
  8
0
  6
Continuous
 62
     2
100
AcDbPolyline
 90
       14
 70
     0
 43
0.0
 10
784.1375986
 20
51.6514334
 10
782.191350336
 20
51.6514334
 10
780.6497669218998
 20
54.4295584
 10
780.2831486
 20
54.4295584
 10
780.2831486
 20
51.6514334
 10
778.5813486000002
 20
51.6514334
 10
778.5813486000002
 20
57.41088340000001
 10
780.2831486
 20
57.41088340000001
 10
780.2831486
 20
55.8535459
 10
781.1308736
 20
55.8535459
 10
783.1747134023999
 20
55.8535459
 10
782.9491152757
 20
55.36039515270001
 10
782.3869483444
 20
54.80632284439999
 10
784.1375986
 20
51.6514334
  0
HATCH
  5
344
330
258
100
AcDbEntity
  8
0
  6
Continuous
 62
     2
100
AcDbHatch
 10
0.0
 20
0.0
 30
0.0
210
0.0
220
0.0
230
1.0
  2
SOLID
 70
     1
 71
     1
 91
        1
 92
        1
 93
       13
 72
     1
 10
784.1375986
 20
51.6514334
 11
782.191350336
 21
51.6514334
 72
     1
 10
782.191350336
 20
51.6514334
 11
780.6497669218998
 21
54.4295584
 72
     1
 10
780.6497669218998
 20
54.4295584
 11
780.2831486
 21
54.4295584
 72
     1
 10
780.2831486
 20
54.4295584
 11
780.2831486
 21
51.6514334
 72
     1
 10
780.2831486
 20
51.6514334
 11
778.5813486000002
 21
51.6514334
 72
     1
 10
778.5813486000002
 20
51.6514334
 11
778.5813486000002
 21
57.41088340000001
 72
     1
 10
778.5813486000002
 20
57.41088340000001
 11
780.2831486
 21
57.41088340000001
 72
     1
 10
780.2831486
 20
57.41088340000001
 11
780.2831486
 21
55.8535459
 72
     1
 10
780.2831486
 20
55.8535459
 11
781.1308736
 21
55.8535459
 72
     1
 10
781.1308736
 20
55.8535459
 11
783.1747134023999
 21
55.8535459
 72
     1
 10
783.1747134023999
 20
55.8535459
 11
782.9491152757
 21
55.36039515270001
 72
     1
 10
782.9491152757
 20
55.36039515270001
 11
782.3869483444
 21
54.80632284439999
 72
     1
 10
782.3869483444
 20
54.80632284439999
 11
784.1375986
 21
51.6514334
 97
        1
330
343
 75
     0
 76
     1
 98
        1
 10
0.0
 20
0.0
450
        0
451
        0
460
0.0
461
0.0
452
        0
462
0.0
453
        0
470

  0
LWPOLYLINE
  5
345
330
258
100
AcDbEntity
  8
0
  6
Continuous
 62
     2
100
AcDbPolyline
 90
       18
 70
     0
 43
0.0
 10
778.5813486000002
 20
57.41088340000001
 10
778.5813486000002
 20
58.7951834
 10
781.1610361
 20
58.7951834
 10
781.9373485503001
 20
58.6524712382
 10
782.6121504694
 20
58.2429957793
 10
783.0972048324
 20
57.6202999896
 10
783.3290859838
 20
56.8658075024
 10
783.2774731696
 20
56.0781756728
 10
783.1747134023999
 20
55.8535459
 10
781.1308736
 20
55.8535459
 10
781.5202079749998
 20
55.9578677314
 10
781.8052205186
 20
56.242880275
 10
781.90954235
 20
56.63221465
 10
781.8052205186
 20
57.021549025
 10
781.5202079749998
 20
57.3065615686
 10
781.1308736
 20
57.41088340000001
 10
780.2831486
 20
57.41088340000001
 10
778.5813486000002
 20
57.41088340000001
  0
HATCH
  5
346
330
258
100
AcDbEntity
  8
0
  6
Continuous
 62
     2
100
AcDbHatch
 10
0.0
 20
0.0
 30
0.0
210
0.0
220
0.0
230
1.0
  2
SOLID
 70
     1
 71
     1
 91
        1
 92
        1
 93
       17
 72
     1
 10
778.5813486000002
 20
57.41088340000001
 11
778.5813486000002
 21
58.7951834
 72
     1
 10
778.5813486000002
 20
58.7951834
 11
781.1610361
 21
58.7951834
 72
     1
 10
781.1610361
 20
58.7951834
 11
781.9373485503001
 21
58.6524712382
 72
     1
 10
781.9373485503001
 20
58.6524712382
 11
782.6121504694
 21
58.2429957793
 72
     1
 10
782.6121504694
 20
58.2429957793
 11
783.0972048324
 21
57.6202999896
 72
     1
 10
783.0972048324
 20
57.6202999896
 11
783.3290859838
 21
56.8658075024
 72
     1
 10
783.3290859838
 20
56.8658075024
 11
783.2774731696
 21
56.0781756728
 72
     1
 10
783.2774731696
 20
56.0781756728
 11
783.1747134023999
 21
55.8535459
 72
     1
 10
783.1747134023999
 20
55.8535459
 11
781.1308736
 21
55.8535459
 72
     1
 10
781.1308736
 20
55.8535459
 11
781.5202079749998
 21
55.9578677314
 72
     1
 10
781.5202079749998
 20
55.9578677314
 11
781.8052205186
 21
56.242880275
 72
     1
 10
781.8052205186
 20
56.242880275
 11
781.90954235
 21
56.63221465
 72
     1
 10
781.90954235
 20
56.63221465
 11
781.8052205186
 21
57.021549025
 72
     1
 10
781.8052205186
 20
57.021549025
 11
781.5202079749998
 21
57.3065615686
 72
     1
 10
781.5202079749998
 20
57.3065615686
 11
781.1308736
 21
57.41088340000001
 72
     1
 10
781.1308736
 20
57.41088340000001
 11
780.2831486
 21
57.41088340000001
 72
     1
 10
780.2831486
 20
57.41088340000001
 11
778.5813486000002
 21
57.41088340000001
 97
        1
330
345
 75
     0
 76
     1
 98
        1
 10
0.0
 20
0.0
450
        0
451
        0
460
0.0
461
0.0
452
        0
462
0.0
453
        0
470

  0
LWPOLYLINE
  5
347
330
258
100
AcDbEntity
  8
0
  6
Continuous
 62
     2
100
AcDbPolyline
 90
       12
 70
     0
 43
0.0
 10
751.0826736
 20
51.6514334
 10
749.3808736
 20
51.6514334
 10
749.3808736
 20
58.7951834
 10
751.0826736
 20
58.7951834
 10
751.0826736
 20
56.55369204100001
 10
753.3241649589999
 20
58.7951834
 10
755.7308736
 20
58.7951834
 10
752.5558736
 20
55.6201834
 10
755.7308736
 20
51.6514334
 10
753.5515062341
 20
51.6514334
 10
751.0826736
 20
54.7374741926
 10
751.0826736
 20
51.6514334
  0
HATCH
  5
348
330
258
100
AcDbEntity
  8
0
  6
Continuous
 62
     2
100
AcDbHatch
 10
0.0
 20
0.0
 30
0.0
210
0.0
220
0.0
230
1.0
  2
SOLID
 70
     1
 71
     1
 91
        1
 92
        1
 93
       11
 72
     1
 10
751.0826736
 20
51.6514334
 11
749.3808736
 21
51.6514334
 72
     1
 10
749.3808736
 20
51.6514334
 11
749.3808736
 21
58.7951834
 72
     1
 10
749.3808736
 20
58.7951834
 11
751.0826736
 21
58.7951834
 72
     1
 10
751.0826736
 20
58.7951834
 11
751.0826736
 21
56.55369204100001
 72
     1
 10
751.0826736
 20
56.55369204100001
 11
753.3241649589999
 21
58.7951834
 72
     1
 10
753.3241649589999
 20
58.7951834
 11
755.7308736
 21
58.7951834
 72
     1
 10
755.7308736
 20
58.7951834
 11
752.5558736
 21
55.6201834
 72
     1
 10
752.5558736
 20
55.6201834
 11
755.7308736
 21
51.6514334
 72
     1
 10
755.7308736
 20
51.6514334
 11
753.5515062341
 21
51.6514334
 72
     1
 10
753.5515062341
 20
51.6514334
 11
751.0826736
 21
54.7374741926
 72
     1
 10
751.0826736
 20
54.7374741926
 11
751.0826736
 21
51.6514334
 97
        1
330
347
 75
     0
 76
     1
 98
        1
 10
0.0
 20
0.0
450
        0
451
        0
460
0.0
461
0.0
452
        0
462
0.0
453
        0
470

  0
LWPOLYLINE
  5
349
330
258
100
AcDbEntity
  8
0
  6
Continuous
 62
     2
100
AcDbPolyline
 90
       23
 70
     0
 43
0.0
 10
758.5089986
 20
51.6514334
 10
757.4052285232
 20
51.8262534059
 10
756.4095031519998
 20
52.33360082319999
 10
755.6192910232
 20
53.123812952
 10
755.1119436058997
 20
54.1195383232
 10
754.9371236
 20
55.2233084
 10
755.1119436058997
 20
56.3270784768
 10
755.4983307727998
 20
57.08540598969999
 10
758.6815473523
 20
57.08540598969999
 10
757.9972282838
 20
57.0219944897
 10
757.3820266324
 20
56.7156604663
 10
756.9190287899
 20
56.207776027
 10
756.6707651806
 20
55.5669337795
 10
756.6707651806
 20
54.8796830205
 10
756.9190287899
 20
54.238840773
 10
757.3820266324
 20
53.7309563337
 10
757.9972282838
 20
53.42462231029998
 10
758.6815473523
 20
53.36121081029999
 10
761.5196664272
 20
53.36121081029999
 10
761.3987061767999
 20
53.123812952
 10
760.608494048
 20
52.33360082319999
 10
759.6127686767998
 20
51.8262534059
 10
758.5089986
 20
51.6514334
  0
HATCH
  5
34A
330
258
100
AcDbEntity
  8
0
  6
Continuous
 62
     2
100
AcDbHatch
 10
0.0
 20
0.0
 30
0.0
210
0.0
220
0.0
230
1.0
  2
SOLID
 70
     1
 71
     1
 91
        1
 92
        1
 93
       22
 72
     1
 10
758.5089986
 20
51.6514334
 11
757.4052285232
 21
51.8262534059
 72
     1
 10
757.4052285232
 20
51.8262534059
 11
756.4095031519998
 21
52.33360082319999
 72
     1
 10
756.4095031519998
 20
52.33360082319999
 11
755.6192910232
 21
53.123812952
 72
     1
 10
755.6192910232
 20
53.123812952
 11
755.1119436058997
 21
54.1195383232
 72
     1
 10
755.1119436058997
 20
54.1195383232
 11
754.9371236
 21
55.2233084
 72
     1
 10
754.9371236
 20
55.2233084
 11
755.1119436058997
 21
56.3270784768
 72
     1
 10
755.1119436058997
 20
56.3270784768
 11
755.4983307727998
 21
57.08540598969999
 72
     1
 10
755.4983307727998
 20
57.08540598969999
 11
758.6815473523
 21
57.08540598969999
 72
     1
 10
758.6815473523
 20
57.08540598969999
 11
757.9972282838
 21
57.0219944897
 72
     1
 10
757.9972282838
 20
57.0219944897
 11
757.3820266324
 21
56.7156604663
 72
     1
 10
757.3820266324
 20
56.7156604663
 11
756.9190287899
 21
56.207776027
 72
     1
 10
756.9190287899
 20
56.207776027
 11
756.6707651806
 21
55.5669337795
 72
     1
 10
756.6707651806
 20
55.5669337795
 11
756.6707651806
 21
54.8796830205
 72
     1
 10
756.6707651806
 20
54.8796830205
 11
756.9190287899
 21
54.238840773
 72
     1
 10
756.9190287899
 20
54.238840773
 11
757.3820266324
 21
53.7309563337
 72
     1
 10
757.3820266324
 20
53.7309563337
 11
757.9972282838
 21
53.42462231029998
 72
     1
 10
757.9972282838
 20
53.42462231029998
 11
758.6815473523
 21
53.36121081029999
 72
     1
 10
758.6815473523
 20
53.36121081029999
 11
761.5196664272
 21
53.36121081029999
 72
     1
 10
761.5196664272
 20
53.36121081029999
 11
761.3987061767999
 21
53.123812952
 72
     1
 10
761.3987061767999
 20
53.123812952
 11
760.608494048
 21
52.33360082319999
 72
     1
 10
760.608494048
 20
52.33360082319999
 11
759.6127686767998
 21
51.8262534059
 72
     1
 10
759.6127686767998
 20
51.8262534059
 11
758.5089986
 21
51.6514334
 97
        1
330
349
 75
     0
 76
     1
 98
        1
 10
0.0
 20
0.0
450
        0
451
        0
460
0.0
461
0.0
452
        0
462
0.0
453
        0
470

  0
LWPOLYLINE
  5
34B
330
258
100
AcDbEntity
  8
0
  6
Continuous
 62
     2
100
AcDbPolyline
 90
       22
 70
     0
 43
0.0
 10
755.4983307727998
 20
57.08540598969999
 10
755.6192910232
 20
57.322803848
 10
756.4095031519998
 20
58.11301597679999
 10
757.4052285232
 20
58.6203633941
 10
758.5089986
 20
58.7951834
 10
759.6127686767998
 20
58.6203633941
 10
760.608494048
 20
58.11301597679999
 10
761.3987061767999
 20
57.322803848
 10
761.9060535941001
 20
56.3270784768
 10
762.0808736
 20
55.2233084
 10
761.9060535941001
 20
54.1195383232
 10
761.5196664272
 20
53.36121081029999
 10
758.6815473523
 20
53.36121081029999
 10
759.3425627557
 20
53.5492859079
 10
759.8910007009
 20
53.9634470192
 10
760.2527916044
 20
54.5477593911
 10
760.3790736
 20
55.2233084
 10
760.2527916044
 20
55.8988574089
 10
759.8910007009
 20
56.4831697808
 10
759.3425627557
 20
56.8973308921
 10
758.6815473523
 20
57.08540598969999
 10
755.4983307727998
 20
57.08540598969999
  0
HATCH
  5
34C
330
258
100
AcDbEntity
  8
0
  6
Continuous
 62
     2
100
AcDbHatch
 10
0.0
 20
0.0
 30
0.0
210
0.0
220
0.0
230
1.0
  2
SOLID
 70
     1
 71
     1
 91
        1
 92
        1
 93
       21
 72
     1
 10
755.4983307727998
 20
57.08540598969999
 11
755.6192910232
 21
57.322803848
 72
     1
 10
755.6192910232
 20
57.322803848
 11
756.4095031519998
 21
58.11301597679999
 72
     1
 10
756.4095031519998
 20
58.11301597679999
 11
757.4052285232
 21
58.6203633941
 72
     1
 10
757.4052285232
 20
58.6203633941
 11
758.5089986
 21
58.7951834
 72
     1
 10
758.5089986
 20
58.7951834
 11
759.6127686767998
 21
58.6203633941
 72
     1
 10
759.6127686767998
 20
58.6203633941
 11
760.608494048
 21
58.11301597679999
 72
     1
 10
760.608494048
 20
58.11301597679999
 11
761.3987061767999
 21
57.322803848
 72
     1
 10
761.3987061767999
 20
57.322803848
 11
761.9060535941001
 21
56.3270784768
 72
     1
 10
761.9060535941001
 20
56.3270784768
 11
762.0808736
 21
55.2233084
 72
     1
 10
762.0808736
 20
55.2233084
 11
761.9060535941001
 21
54.1195383232
 72
     1
 10
761.9060535941001
 20
54.1195383232
 11
761.5196664272
 21
53.36121081029999
 72
     1
 10
761.5196664272
 20
53.36121081029999
 11
758.6815473523
 21
53.36121081029999
 72
     1
 10
758.6815473523
 20
53.36121081029999
 11
759.3425627557
 21
53.5492859079
 72
     1
 10
759.3425627557
 20
53.5492859079
 11
759.8910007009
 21
53.9634470192
 72
     1
 10
759.8910007009
 20
53.9634470192
 11
760.2527916044
 21
54.5477593911
 72
     1
 10
760.2527916044
 20
54.5477593911
 11
760.3790736
 21
55.2233084
 72
     1
 10
760.3790736
 20
55.2233084
 11
760.2527916044
 21
55.8988574089
 72
     1
 10
760.2527916044
 20
55.8988574089
 11
759.8910007009
 21
56.4831697808
 72
     1
 10
759.8910007009
 20
56.4831697808
 11
759.3425627557
 21
56.8973308921
 72
     1
 10
759.3425627557
 20
56.8973308921
 11
758.6815473523
 21
57.08540598969999
 72
     1
 10
758.6815473523
 20
57.08540598969999
 11
755.4983307727998
 21
57.08540598969999
 97
        1
330
34B
 75
     0
 76
     1
 98
        1
 10
0.0
 20
0.0
450
        0
451
        0
460
0.0
461
0.0
452
        0
462
0.0
453
        0
470

  0
LWPOLYLINE
  5
34D
330
258
100
AcDbEntity
  8
0
  6
Continuous
 62
     2
100
AcDbPolyline
 90
       13
 70
     0
 43
0.0
 10
764.5764235999998
 20
51.6514334
 10
762.8746236
 20
51.6514334
 10
762.8746236
 20
58.7951834
 10
764.5764235999998
 20
58.7951834
 10
764.5764235999998
 20
56.4710834
 10
766.5607986
 20
56.4710834
 10
766.5607986
 20
58.7951834
 10
768.2625986
 20
58.7951834
 10
768.2625986
 20
51.6514334
 10
766.5607986
 20
51.6514334
 10
766.5607986
 20
54.7692834
 10
764.5764235999998
 20
54.7692834
 10
764.5764235999998
 20
51.6514334
  0
HATCH
  5
34E
330
258
100
AcDbEntity
  8
0
  6
Continuous
 62
     2
100
AcDbHatch
 10
0.0
 20
0.0
 30
0.0
210
0.0
220
0.0
230
1.0
  2
SOLID
 70
     1
 71
     1
 91
        1
 92
        1
 93
       12
 72
     1
 10
764.5764235999998
 20
51.6514334
 11
762.8746236
 21
51.6514334
 72
     1
 10
762.8746236
 20
51.6514334
 11
762.8746236
 21
58.7951834
 72
     1
 10
762.8746236
 20
58.7951834
 11
764.5764235999998
 21
58.7951834
 72
     1
 10
764.5764235999998
 20
58.7951834
 11
764.5764235999998
 21
56.4710834
 72
     1
 10
764.5764235999998
 20
56.4710834
 11
766.5607986
 21
56.4710834
 72
     1
 10
766.5607986
 20
56.4710834
 11
766.5607986
 21
58.7951834
 72
     1
 10
766.5607986
 20
58.7951834
 11
768.2625986
 21
58.7951834
 72
     1
 10
768.2625986
 20
58.7951834
 11
768.2625986
 21
51.6514334
 72
     1
 10
768.2625986
 20
51.6514334
 11
766.5607986
 21
51.6514334
 72
     1
 10
766.5607986
 20
51.6514334
 11
766.5607986
 21
54.7692834
 72
     1
 10
766.5607986
 20
54.7692834
 11
764.5764235999998
 21
54.7692834
 72
     1
 10
764.5764235999998
 20
54.7692834
 11
764.5764235999998
 21
51.6514334
 97
        1
330
34D
 75
     0
 76
     1
 98
        1
 10
0.0
 20
0.0
450
        0
451
        0
460
0.0
461
0.0
452
        0
462
0.0
453
        0
470

  0
LWPOLYLINE
  5
34F
330
258
100
AcDbEntity
  8
0
  6
Continuous
 62
     2
100
AcDbPolyline
 90
        7
 70
     0
 43
0.0
 10
773.0250986000002
 20
51.6514334
 10
769.0563486000002
 20
51.6514334
 10
769.0563486000002
 20
58.7951834
 10
770.7581486
 20
58.7951834
 10
770.7581486
 20
53.3532334
 10
773.0250986000002
 20
53.3532334
 10
773.0250986000002
 20
51.6514334
  0
HATCH
  5
350
330
258
100
AcDbEntity
  8
0
  6
Continuous
 62
     2
100
AcDbHatch
 10
0.0
 20
0.0
 30
0.0
210
0.0
220
0.0
230
1.0
  2
SOLID
 70
     1
 71
     1
 91
        1
 92
        1
 93
        6
 72
     1
 10
773.0250986000002
 20
51.6514334
 11
769.0563486000002
 21
51.6514334
 72
     1
 10
769.0563486000002
 20
51.6514334
 11
769.0563486000002
 21
58.7951834
 72
     1
 10
769.0563486000002
 20
58.7951834
 11
770.7581486
 21
58.7951834
 72
     1
 10
770.7581486
 20
58.7951834
 11
770.7581486
 21
53.3532334
 72
     1
 10
770.7581486
 20
53.3532334
 11
773.0250986000002
 21
53.3532334
 72
     1
 10
773.0250986000002
 20
53.3532334
 11
773.0250986000002
 21
51.6514334
 97
        1
330
34F
 75
     0
 76
     1
 98
        1
 10
0.0
 20
0.0
450
        0
451
        0
460
0.0
461
0.0
452
        0
462
0.0
453
        0
470

  0
LWPOLYLINE
  5
351
330
258
100
AcDbEntity
  8
0
  6
Continuous
 62
     2
100
AcDbPolyline
 90
       13
 70
     0
 43
0.0
 10
777.7875986
 20
51.6514334
 10
773.8188486
 20
51.6514334
 10
773.8188486
 20
58.7951834
 10
777.7875986
 20
58.7951834
 10
777.7875986
 20
57.0933834
 10
775.5206486
 20
57.0933834
 10
775.5206486
 20
55.8757709
 10
777.7875986
 20
55.8757709
 10
777.7875986
 20
54.5708459
 10
775.5206486
 20
54.5708459
 10
775.5206486
 20
53.3532334
 10
777.7875986
 20
53.3532334
 10
777.7875986
 20
51.6514334
  0
HATCH
  5
352
330
258
100
AcDbEntity
  8
0
  6
Continuous
 62
     2
100
AcDbHatch
 10
0.0
 20
0.0
 30
0.0
210
0.0
220
0.0
230
1.0
  2
SOLID
 70
     1
 71
     1
 91
        1
 92
        1
 93
       12
 72
     1
 10
777.7875986
 20
51.6514334
 11
773.8188486
 21
51.6514334
 72
     1
 10
773.8188486
 20
51.6514334
 11
773.8188486
 21
58.7951834
 72
     1
 10
773.8188486
 20
58.7951834
 11
777.7875986
 21
58.7951834
 72
     1
 10
777.7875986
 20
58.7951834
 11
777.7875986
 21
57.0933834
 72
     1
 10
777.7875986
 20
57.0933834
 11
775.5206486
 21
57.0933834
 72
     1
 10
775.5206486
 20
57.0933834
 11
775.5206486
 21
55.8757709
 72
     1
 10
775.5206486
 20
55.8757709
 11
777.7875986
 21
55.8757709
 72
     1
 10
777.7875986
 20
55.8757709
 11
777.7875986
 21
54.5708459
 72
     1
 10
777.7875986
 20
54.5708459
 11
775.5206486
 21
54.5708459
 72
     1
 10
775.5206486
 20
54.5708459
 11
775.5206486
 21
53.3532334
 72
     1
 10
775.5206486
 20
53.3532334
 11
777.7875986
 21
53.3532334
 72
     1
 10
777.7875986
 20
53.3532334
 11
777.7875986
 21
51.6514334
 97
        1
330
351
 75
     0
 76
     1
 98
        1
 10
0.0
 20
0.0
450
        0
451
        0
460
0.0
461
0.0
452
        0
462
0.0
453
        0
470

  0
ENDBLK
  5
353
330
258
100
AcDbEntity
  8
0
  6
ByBlock
 62
     0
100
AcDbBlockEnd
  0
BLOCK
  5
14BA
330
14B8
100
AcDbEntity
  8
0
100
AcDbBlockBegin
  2
GENAXEH
 70
     0
 10
0.0
 20
0.0
 30
0.0
  3
GENAXEH
  1

  0
LINE
  5
14B9
330
14B8
100
AcDbEntity
  8
0
100
AcDbLine
 10
-1.0
 20
0.0
 30
0.0
 11
1.0
 21
0.0
 31
0.0
  0
ENDBLK
  5
14BB
330
14B8
100
AcDbEntity
  8
0
100
AcDbBlockEnd
  0
BLOCK
  5
14DB
330
14DA
100
AcDbEntity
  8
0
100
AcDbBlockBegin
  2
$MODEL_SPACE
 70
     0
 10
0.0
 20
0.0
 30
0.0
  3
$MODEL_SPACE
  1

  0
ENDBLK
  5
14DC
330
14DA
100
AcDbEntity
  8
0
100
AcDbBlockEnd
  0
BLOCK
  5
14DE
330
14DD
100
AcDbEntity
  8
0
100
AcDbBlockBegin
  2
$PAPER_SPACE
 70
     0
 10
0.0
 20
0.0
 30
0.0
  3
$PAPER_SPACE
  1

  0
ENDBLK
  5
14DF
330
14DD
100
AcDbEntity
  8
0
100
AcDbBlockEnd
  0
BLOCK
  5
14E1
330
14E0
100
AcDbEntity
  8
DEFAULT_2
  6
HIDDEN
 62
     8
100
AcDbBlockBegin
  2
C_ARROW_BL0
 70
     0
 10
558.8
 20
855.6625
 30
0.0
  3
C_ARROW_BL0
  1

  0
LINE
  5
14E2
330
14E0
100
AcDbEntity
  8
DEFAULT_2
  6
HIDDEN
 62
     8
100
AcDbLine
 10
558.8
 20
850.9
 30
0.0
 11
561.18125
 21
855.6625
 31
0.0
  0
LINE
  5
14E3
330
14E0
100
AcDbEntity
  8
DEFAULT_2
  6
HIDDEN
 62
     8
100
AcDbLine
 10
558.8
 20
850.9
 30
0.0
 11
556.41875
 21
855.6625
 31
0.0
  0
LINE
  5
14E4
330
14E0
100
AcDbEntity
  8
DEFAULT_2
  6
HIDDEN
 62
     8
100
AcDbLine
 10
558.2046874999998
 20
855.6625
 30
0.0
 11
556.41875
 21
855.6625
 31
0.0
  0
LINE
  5
14E5
330
14E0
100
AcDbEntity
  8
DEFAULT_2
  6
HIDDEN
 62
     8
100
AcDbLine
 10
558.2046874999998
 20
860.4249999999996
 30
0.0
 11
558.2046874999998
 21
855.6625
 31
0.0
  0
LINE
  5
14E6
330
14E0
100
AcDbEntity
  8
DEFAULT_2
  6
HIDDEN
 62
     8
100
AcDbLine
 10
558.2046874999998
 20
860.4249999999996
 30
0.0
 11
559.3953125
 21
860.4249999999996
 31
0.0
  0
LINE
  5
14E7
330
14E0
100
AcDbEntity
  8
DEFAULT_2
  6
HIDDEN
 62
     8
100
AcDbLine
 10
559.3953125
 20
855.6625
 30
0.0
 11
559.3953125
 21
860.4249999999996
 31
0.0
  0
LINE
  5
14E8
330
14E0
100
AcDbEntity
  8
DEFAULT_2
  6
HIDDEN
 62
     8
100
AcDbLine
 10
561.18125
 20
855.6625
 30
0.0
 11
559.3953125
 21
855.6625
 31
0.0
  0
LWPOLYLINE
  5
14E9
330
14E0
100
AcDbEntity
  8
DEFAULT_2
  6
HIDDEN
 62
     8
100
AcDbPolyline
 90
        8
 70
     0
 43
0.0
 10
558.8
 20
850.9
 10
556.41875
 20
855.6625
 10
558.2046874999998
 20
855.6625
 10
558.2046874999998
 20
860.4249999999996
 10
559.3953125
 20
860.4249999999996
 10
559.3953125
 20
855.6625
 10
561.18125
 20
855.6625
 10
558.8
 20
850.9
  0
INSERT
  5
14EA
330
14E0
100
AcDbEntity
  8
DEFAULT_2
  6
Continuous
 62
     8
100
AcDbBlockReference
  2
*U69
 10
0.0
 20
0.0
 30
0.0
1001
ACAD
1002
{
1000
R14_HATCH_DATA
1000
21D
1011
1.0
1021
0.0
1031
0.0
1011
0.0
1021
1.0
1031
0.0
1011
0.0
1021
0.0
1031
1.0
1040
0.0
1010
0.0
1020
0.0
1030
1.0
1000
SOLID
1070
     1
1070
     1
1071
        1
1071
        1
1071
        7
1070
     1
1040
558.8
1040
850.9
1040
556.41875
1040
855.6625
1070
     1
1040
556.41875
1040
855.6625
1040
558.2046874999998
1040
855.6625
1070
     1
1040
558.2046874999998
1040
855.6625
1040
558.2046874999998
1040
860.4249999999996
1070
     1
1040
558.2046874999998
1040
860.4249999999996
1040
559.3953125
1040
860.4249999999996
1070
     1
1040
559.3953125
1040
860.4249999999996
1040
559.3953125
1040
855.6625
1070
     1
1040
559.3953125
1040
855.6625
1040
561.18125
1040
855.6625
1070
     1
1040
561.18125
1040
855.6625
1040
558.8
1040
850.9
1071
        1
1005
14E9
1070
     0
1070
     1
1071
        1
1040
0.0
1040
0.0
1040
0.0
1002
}
  0
ENDBLK
  5
14EB
330
14E0
100
AcDbEntity
  8
0
  6
ByBlock
 62
     0
100
AcDbBlockEnd
  0
BLOCK
  5
14ED
330
14EC
100
AcDbEntity
  8
0
100
AcDbBlockBegin
  2
*U69
 70
     1
 10
0.0
 20
0.0
 30
0.0
  3
*U69
  1

  0
SOLID
  5
14EE
330
14EC
100
AcDbEntity
  8
DEFAULT_2
  6
Continuous
 62
     8
100
AcDbTrace
 10
558.2046874999998
 20
860.4249999999996
 30
0.0
 11
558.2046874999998
 21
860.4249999999996
 31
0.0
 12
559.3953125
 22
860.4249999999996
 32
0.0
 13
559.3953125
 23
860.4249999999996
 33
0.0
  0
SOLID
  5
14EF
330
14EC
100
AcDbEntity
  8
DEFAULT_2
  6
Continuous
 62
     8
100
AcDbTrace
 10
558.2046874999998
 20
860.4249999999996
 30
0.0
 11
558.2046874999998
 21
855.6625
 31
0.0
 12
559.3953125
 22
855.6625
 32
0.0
 13
559.3953125
 23
855.6625
 33
0.0
  0
SOLID
  5
14F0
330
14EC
100
AcDbEntity
  8
DEFAULT_2
  6
Continuous
 62
     8
100
AcDbTrace
 10
-558.2046874999998
 20
860.4249999999996
 30
0.0
 11
-559.3953125
 21
860.4249999999996
 31
0.0
 12
-559.3953125
 22
855.6625
 32
0.0
 13
-559.3953125
 23
855.6625
 33
0.0
210
0.0
220
0.0
230
-1.0
  0
SOLID
  5
14F1
330
14EC
100
AcDbEntity
  8
DEFAULT_2
  6
Continuous
 62
     8
100
AcDbTrace
 10
556.41875
 20
855.6625
 30
0.0
 11
556.41875
 21
855.6625
 31
0.0
 12
558.2046874999998
 22
855.6625
 32
0.0
 13
558.2046874999998
 23
855.6625
 33
0.0
  0
SOLID
  5
14F2
330
14EC
100
AcDbEntity
  8
DEFAULT_2
  6
Continuous
 62
     8
100
AcDbTrace
 10
559.3953125
 20
855.6625
 30
0.0
 11
559.3953125
 21
855.6625
 31
0.0
 12
561.18125
 22
855.6625
 32
0.0
 13
561.18125
 23
855.6625
 33
0.0
  0
SOLID
  5
14F3
330
14EC
100
AcDbEntity
  8
DEFAULT_2
  6
Continuous
 62
     8
100
AcDbTrace
 10
-556.41875
 20
855.6625
 30
0.0
 11
-561.18125
 21
855.6625
 31
0.0
 12
-558.8
 22
850.9
 32
0.0
 13
-558.8
 23
850.9
 33
0.0
210
0.0
220
0.0
230
-1.0
  0
LINE
  5
14F4
330
14EC
100
AcDbEntity
  8
DEFAULT_2
  6
Continuous
 62
     8
100
AcDbLine
 10
558.2046874999998
 20
860.4249999999996
 30
0.0
 11
559.3953125
 21
860.4249999999996
 31
0.0
  0
LINE
  5
14F5
330
14EC
100
AcDbEntity
  8
DEFAULT_2
  6
Continuous
 62
     8
100
AcDbLine
 10
558.2046874999998
 20
860.4249999999996
 30
0.0
 11
558.2046874999998
 21
855.6625
 31
0.0
  0
LINE
  5
14F6
330
14EC
100
AcDbEntity
  8
DEFAULT_2
  6
Continuous
 62
     8
100
AcDbLine
 10
559.3953125
 20
860.4249999999996
 30
0.0
 11
559.3953125
 21
855.6625
 31
0.0
  0
LINE
  5
14F7
330
14EC
100
AcDbEntity
  8
DEFAULT_2
  6
Continuous
 62
     8
100
AcDbLine
 10
556.41875
 20
855.6625
 30
0.0
 11
558.2046874999998
 21
855.6625
 31
0.0
  0
LINE
  5
14F8
330
14EC
100
AcDbEntity
  8
DEFAULT_2
  6
Continuous
 62
     8
100
AcDbLine
 10
559.3953125
 20
855.6625
 30
0.0
 11
561.18125
 21
855.6625
 31
0.0
  0
LINE
  5
14F9
330
14EC
100
AcDbEntity
  8
DEFAULT_2
  6
Continuous
 62
     8
100
AcDbLine
 10
561.18125
 20
855.6625
 30
0.0
 11
558.8
 21
850.9
 31
0.0
  0
LINE
  5
14FA
330
14EC
100
AcDbEntity
  8
DEFAULT_2
  6
Continuous
 62
     8
100
AcDbLine
 10
558.8
 20
850.9
 30
0.0
 11
556.41875
 21
855.6625
 31
0.0
  0
ENDBLK
  5
14FB
330
14EC
100
AcDbEntity
  8
0
100
AcDbBlockEnd
  0
BLOCK
  5
14FD
330
14FC
100
AcDbEntity
  8
DEFAULT_2
  6
HIDDEN
 62
     8
100
AcDbBlockBegin
  2
C_ARROW_BL1
 70
     0
 10
7.925231411499998
 20
431.8
 30
0.0
  3
C_ARROW_BL1
  1

  0
LINE
  5
14FE
330
14FC
100
AcDbEntity
  8
DEFAULT_2
  6
HIDDEN
 62
     8
100
AcDbLine
 10
12.6877314115
 20
431.8
 30
0.0
 11
7.925231411499998
 21
434.1812499999998
 31
0.0
  0
LINE
  5
14FF
330
14FC
100
AcDbEntity
  8
DEFAULT_2
  6
HIDDEN
 62
     8
100
AcDbLine
 10
12.6877314115
 20
431.8
 30
0.0
 11
7.925231411499998
 21
429.4187499999998
 31
0.0
  0
LINE
  5
1500
330
14FC
100
AcDbEntity
  8
DEFAULT_2
  6
HIDDEN
 62
     8
100
AcDbLine
 10
7.925231411499998
 20
431.2046875
 30
0.0
 11
7.925231411499998
 21
429.4187499999998
 31
0.0
  0
LINE
  5
1501
330
14FC
100
AcDbEntity
  8
DEFAULT_2
  6
HIDDEN
 62
     8
100
AcDbLine
 10
3.162731411499998
 20
431.2046875
 30
0.0
 11
7.925231411499998
 21
431.2046875
 31
0.0
  0
LINE
  5
1502
330
14FC
100
AcDbEntity
  8
DEFAULT_2
  6
HIDDEN
 62
     8
100
AcDbLine
 10
3.162731411499998
 20
431.2046875
 30
0.0
 11
3.162731411499998
 21
432.3953125
 31
0.0
  0
LINE
  5
1503
330
14FC
100
AcDbEntity
  8
DEFAULT_2
  6
HIDDEN
 62
     8
100
AcDbLine
 10
7.925231411499998
 20
432.3953125
 30
0.0
 11
3.162731411499998
 21
432.3953125
 31
0.0
  0
LINE
  5
1504
330
14FC
100
AcDbEntity
  8
DEFAULT_2
  6
HIDDEN
 62
     8
100
AcDbLine
 10
7.925231411499998
 20
434.1812499999998
 30
0.0
 11
7.925231411499998
 21
432.3953125
 31
0.0
  0
LWPOLYLINE
  5
1505
330
14FC
100
AcDbEntity
  8
DEFAULT_2
  6
HIDDEN
 62
     8
100
AcDbPolyline
 90
        8
 70
     0
 43
0.0
 10
12.6877314115
 20
431.8
 10
7.925231411499998
 20
429.4187499999998
 10
7.925231411499998
 20
431.2046875
 10
3.162731411499998
 20
431.2046875
 10
3.162731411499998
 20
432.3953125
 10
7.925231411499998
 20
432.3953125
 10
7.925231411499998
 20
434.1812499999998
 10
12.6877314115
 20
431.8
  0
INSERT
  5
1506
330
14FC
100
AcDbEntity
  8
DEFAULT_2
  6
Continuous
 62
     8
100
AcDbBlockReference
  2
*U71
 10
0.0
 20
0.0
 30
0.0
1001
ACAD
1002
{
1000
R14_HATCH_DATA
1000
228
1011
1.0
1021
0.0
1031
0.0
1011
0.0
1021
1.0
1031
0.0
1011
0.0
1021
0.0
1031
1.0
1040
0.0
1010
0.0
1020
0.0
1030
1.0
1000
SOLID
1070
     1
1070
     1
1071
        1
1071
        1
1071
        7
1070
     1
1040
12.6877314115
1040
431.8
1040
7.925231411499998
1040
429.4187499999998
1070
     1
1040
7.925231411499998
1040
429.4187499999998
1040
7.925231411499998
1040
431.2046875
1070
     1
1040
7.925231411499998
1040
431.2046875
1040
3.162731411499998
1040
431.2046875
1070
     1
1040
3.162731411499998
1040
431.2046875
1040
3.162731411499998
1040
432.3953125
1070
     1
1040
3.162731411499998
1040
432.3953125
1040
7.925231411499998
1040
432.3953125
1070
     1
1040
7.925231411499998
1040
432.3953125
1040
7.925231411499998
1040
434.1812499999998
1070
     1
1040
7.925231411499998
1040
434.1812499999998
1040
12.6877314115
1040
431.8
1071
        1
1005
1505
1070
     0
1070
     1
1071
        1
1040
0.0
1040
0.0
1040
0.0
1002
}
  0
ENDBLK
  5
1507
330
14FC
100
AcDbEntity
  8
0
  6
ByBlock
 62
     0
100
AcDbBlockEnd
  0
BLOCK
  5
1509
330
1508
100
AcDbEntity
  8
0
100
AcDbBlockBegin
  2
*U71
 70
     1
 10
0.0
 20
0.0
 30
0.0
  3
*U71
  1

  0
SOLID
  5
150A
330
1508
100
AcDbEntity
  8
DEFAULT_2
  6
Continuous
 62
     8
100
AcDbTrace
 10
7.925231411499998
 20
434.1812499999998
 30
0.0
 11
7.925231411499998
 21
432.3953125
 31
0.0
 12
11.49710641150003
 22
432.3953125
 32
0.0
 13
11.49710641150003
 23
432.3953125
 33
0.0
  0
SOLID
  5
150B
330
1508
100
AcDbEntity
  8
DEFAULT_2
  6
Continuous
 62
     8
100
AcDbTrace
 10
3.162731411499998
 20
432.3953125
 30
0.0
 11
3.162731411499998
 21
432.3953125
 31
0.0
 12
7.925231411499998
 22
432.3953125
 32
0.0
 13
7.925231411499998
 23
432.3953125
 33
0.0
  0
SOLID
  5
150C
330
1508
100
AcDbEntity
  8
DEFAULT_2
  6
Continuous
 62
     8
100
AcDbTrace
 10
3.162731411499998
 20
432.3953125
 30
0.0
 11
3.162731411499998
 21
431.8
 31
0.0
 12
12.6877314115
 22
431.8
 32
0.0
 13
12.6877314115
 23
431.8
 33
0.0
  0
SOLID
  5
150D
330
1508
100
AcDbEntity
  8
DEFAULT_2
  6
Continuous
 62
     8
100
AcDbTrace
 10
-3.162731411499998
 20
432.3953125
 30
0.0
 11
-11.49710641150003
 21
432.3953125
 31
0.0
 12
-12.6877314115
 22
431.8
 32
0.0
 13
-12.6877314115
 23
431.8
 33
0.0
210
0.0
220
0.0
230
-1.0
  0
SOLID
  5
150E
330
1508
100
AcDbEntity
  8
DEFAULT_2
  6
Continuous
 62
     8
100
AcDbTrace
 10
3.162731411499998
 20
431.8
 30
0.0
 11
3.162731411499998
 21
431.2046875
 31
0.0
 12
11.49710641149994
 22
431.2046875
 32
0.0
 13
11.49710641149994
 23
431.2046875
 33
0.0
  0
SOLID
  5
150F
330
1508
100
AcDbEntity
  8
DEFAULT_2
  6
Continuous
 62
     8
100
AcDbTrace
 10
-3.162731411499998
 20
431.8
 30
0.0
 11
-12.6877314115
 21
431.8
 31
0.0
 12
-11.49710641149994
 22
431.2046875
 32
0.0
 13
-11.49710641149994
 23
431.2046875
 33
0.0
210
0.0
220
0.0
230
-1.0
  0
SOLID
  5
1510
330
1508
100
AcDbEntity
  8
DEFAULT_2
  6
Continuous
 62
     8
100
AcDbTrace
 10
3.162731411499998
 20
431.2046875
 30
0.0
 11
3.162731411499998
 21
431.2046875
 31
0.0
 12
7.925231411499998
 22
431.2046875
 32
0.0
 13
7.925231411499998
 23
431.2046875
 33
0.0
  0
SOLID
  5
1511
330
1508
100
AcDbEntity
  8
DEFAULT_2
  6
Continuous
 62
     8
100
AcDbTrace
 10
-7.925231411499998
 20
431.2046875
 30
0.0
 11
-11.49710641149994
 21
431.2046875
 31
0.0
 12
-7.925231411499998
 22
429.4187499999998
 32
0.0
 13
-7.925231411499998
 23
429.4187499999998
 33
0.0
210
0.0
220
0.0
230
-1.0
  0
LINE
  5
1512
330
1508
100
AcDbEntity
  8
DEFAULT_2
  6
Continuous
 62
     8
100
AcDbLine
 10
7.925231411499998
 20
434.1812499999998
 30
0.0
 11
7.925231411499998
 21
432.3953125
 31
0.0
  0
LINE
  5
1513
330
1508
100
AcDbEntity
  8
DEFAULT_2
  6
Continuous
 62
     8
100
AcDbLine
 10
11.49710641150003
 20
432.3953125
 30
0.0
 11
7.925231411499998
 21
434.1812499999998
 31
0.0
  0
LINE
  5
1514
330
1508
100
AcDbEntity
  8
DEFAULT_2
  6
Continuous
 62
     8
100
AcDbLine
 10
3.162731411499998
 20
432.3953125
 30
0.0
 11
7.925231411499998
 21
432.3953125
 31
0.0
  0
LINE
  5
1515
330
1508
100
AcDbEntity
  8
DEFAULT_2
  6
Continuous
 62
     8
100
AcDbLine
 10
3.162731411499998
 20
432.3953125
 30
0.0
 11
3.162731411499998
 21
431.8
 31
0.0
  0
LINE
  5
1516
330
1508
100
AcDbEntity
  8
DEFAULT_2
  6
Continuous
 62
     8
100
AcDbLine
 10
11.49710641150003
 20
432.3953125
 30
0.0
 11
12.6877314115
 21
431.8
 31
0.0
  0
LINE
  5
1517
330
1508
100
AcDbEntity
  8
DEFAULT_2
  6
Continuous
 62
     8
100
AcDbLine
 10
3.162731411499998
 20
431.8
 30
0.0
 11
3.162731411499998
 21
431.2046875
 31
0.0
  0
LINE
  5
1518
330
1508
100
AcDbEntity
  8
DEFAULT_2
  6
Continuous
 62
     8
100
AcDbLine
 10
12.6877314115
 20
431.8
 30
0.0
 11
11.49710641149994
 21
431.2046875
 31
0.0
  0
LINE
  5
1519
330
1508
100
AcDbEntity
  8
DEFAULT_2
  6
Continuous
 62
     8
100
AcDbLine
 10
3.162731411499998
 20
431.2046875
 30
0.0
 11
7.925231411499998
 21
431.2046875
 31
0.0
  0
LINE
  5
151A
330
1508
100
AcDbEntity
  8
DEFAULT_2
  6
Continuous
 62
     8
100
AcDbLine
 10
11.49710641149994
 20
431.2046875
 30
0.0
 11
7.925231411499998
 21
429.4187499999998
 31
0.0
  0
LINE
  5
151B
330
1508
100
AcDbEntity
  8
DEFAULT_2
  6
Continuous
 62
     8
100
AcDbLine
 10
7.925231411499998
 20
429.4187499999998
 30
0.0
 11
7.925231411499998
 21
431.2046875
 31
0.0
  0
ENDBLK
  5
151C
330
1508
100
AcDbEntity
  8
0
100
AcDbBlockEnd
  0
BLOCK
  5
151E
330
151D
100
AcDbEntity
  8
DEFAULT_2
  6
HIDDEN
 62
     8
100
AcDbBlockBegin
  2
C_ARROW_BL2
 70
     0
 10
558.8
 20
7.9375
 30
0.0
  3
C_ARROW_BL2
  1

  0
LINE
  5
151F
330
151D
100
AcDbEntity
  8
DEFAULT_2
  6
HIDDEN
 62
     8
100
AcDbLine
 10
558.8
 20
12.7
 30
0.0
 11
556.41875
 21
7.9375
 31
0.0
  0
LINE
  5
1520
330
151D
100
AcDbEntity
  8
DEFAULT_2
  6
HIDDEN
 62
     8
100
AcDbLine
 10
558.8
 20
12.7
 30
0.0
 11
561.18125
 21
7.9375
 31
0.0
  0
LINE
  5
1521
330
151D
100
AcDbEntity
  8
DEFAULT_2
  6
HIDDEN
 62
     8
100
AcDbLine
 10
559.3953125
 20
7.9375
 30
0.0
 11
561.18125
 21
7.9375
 31
0.0
  0
LINE
  5
1522
330
151D
100
AcDbEntity
  8
DEFAULT_2
  6
HIDDEN
 62
     8
100
AcDbLine
 10
559.3953125
 20
3.174999999999998
 30
0.0
 11
559.3953125
 21
7.9375
 31
0.0
  0
LINE
  5
1523
330
151D
100
AcDbEntity
  8
DEFAULT_2
  6
HIDDEN
 62
     8
100
AcDbLine
 10
559.3953125
 20
3.174999999999998
 30
0.0
 11
558.2046874999998
 21
3.174999999999998
 31
0.0
  0
LINE
  5
1524
330
151D
100
AcDbEntity
  8
DEFAULT_2
  6
HIDDEN
 62
     8
100
AcDbLine
 10
558.2046874999998
 20
7.9375
 30
0.0
 11
558.2046874999998
 21
3.174999999999998
 31
0.0
  0
LINE
  5
1525
330
151D
100
AcDbEntity
  8
DEFAULT_2
  6
HIDDEN
 62
     8
100
AcDbLine
 10
556.41875
 20
7.9375
 30
0.0
 11
558.2046874999998
 21
7.9375
 31
0.0
  0
LWPOLYLINE
  5
1526
330
151D
100
AcDbEntity
  8
DEFAULT_2
  6
HIDDEN
 62
     8
100
AcDbPolyline
 90
        8
 70
     0
 43
0.0
 10
558.8
 20
12.7
 10
561.18125
 20
7.9375
 10
559.3953125
 20
7.9375
 10
559.3953125
 20
3.174999999999998
 10
558.2046874999998
 20
3.174999999999998
 10
558.2046874999998
 20
7.9375
 10
556.41875
 20
7.9375
 10
558.8
 20
12.7
  0
INSERT
  5
1527
330
151D
100
AcDbEntity
  8
DEFAULT_2
  6
Continuous
 62
     8
100
AcDbBlockReference
  2
*U73
 10
0.0
 20
0.0
 30
0.0
1001
ACAD
1002
{
1000
R14_HATCH_DATA
1000
233
1011
1.0
1021
0.0
1031
0.0
1011
0.0
1021
1.0
1031
0.0
1011
0.0
1021
0.0
1031
1.0
1040
0.0
1010
0.0
1020
0.0
1030
1.0
1000
SOLID
1070
     1
1070
     1
1071
        1
1071
        1
1071
        7
1070
     1
1040
558.8
1040
12.7
1040
561.18125
1040
7.9375
1070
     1
1040
561.18125
1040
7.9375
1040
559.3953125
1040
7.9375
1070
     1
1040
559.3953125
1040
7.9375
1040
559.3953125
1040
3.174999999999998
1070
     1
1040
559.3953125
1040
3.174999999999998
1040
558.2046874999998
1040
3.174999999999998
1070
     1
1040
558.2046874999998
1040
3.174999999999998
1040
558.2046874999998
1040
7.9375
1070
     1
1040
558.2046874999998
1040
7.9375
1040
556.41875
1040
7.9375
1070
     1
1040
556.41875
1040
7.9375
1040
558.8
1040
12.7
1071
        1
1005
1526
1070
     0
1070
     1
1071
        1
1040
0.0
1040
0.0
1040
0.0
1002
}
  0
ENDBLK
  5
1528
330
151D
100
AcDbEntity
  8
0
  6
ByBlock
 62
     0
100
AcDbBlockEnd
  0
BLOCK
  5
152A
330
1529
100
AcDbEntity
  8
0
100
AcDbBlockBegin
  2
*U73
 70
     1
 10
0.0
 20
0.0
 30
0.0
  3
*U73
  1

  0
SOLID
  5
152B
330
1529
100
AcDbEntity
  8
DEFAULT_2
  6
Continuous
 62
     8
100
AcDbTrace
 10
558.8
 20
12.7
 30
0.0
 11
556.41875
 21
7.9375
 31
0.0
 12
561.18125
 22
7.9375
 32
0.0
 13
561.18125
 23
7.9375
 33
0.0
  0
SOLID
  5
152C
330
1529
100
AcDbEntity
  8
DEFAULT_2
  6
Continuous
 62
     8
100
AcDbTrace
 10
556.41875
 20
7.9375
 30
0.0
 11
556.41875
 21
7.9375
 31
0.0
 12
558.2046874999998
 22
7.9375
 32
0.0
 13
558.2046874999998
 23
7.9375
 33
0.0
  0
SOLID
  5
152D
330
1529
100
AcDbEntity
  8
DEFAULT_2
  6
Continuous
 62
     8
100
AcDbTrace
 10
559.3953125
 20
7.9375
 30
0.0
 11
559.3953125
 21
7.9375
 31
0.0
 12
561.18125
 22
7.9375
 32
0.0
 13
561.18125
 23
7.9375
 33
0.0
  0
SOLID
  5
152E
330
1529
100
AcDbEntity
  8
DEFAULT_2
  6
Continuous
 62
     8
100
AcDbTrace
 10
558.2046874999998
 20
7.9375
 30
0.0
 11
558.2046874999998
 21
3.174999999999998
 31
0.0
 12
559.3953125
 22
3.174999999999998
 32
0.0
 13
559.3953125
 23
3.174999999999998
 33
0.0
  0
SOLID
  5
152F
330
1529
100
AcDbEntity
  8
DEFAULT_2
  6
Continuous
 62
     8
100
AcDbTrace
 10
-558.2046874999998
 20
7.9375
 30
0.0
 11
-559.3953125
 21
7.9375
 31
0.0
 12
-559.3953125
 22
3.174999999999998
 32
0.0
 13
-559.3953125
 23
3.174999999999998
 33
0.0
210
0.0
220
0.0
230
-1.0
  0
SOLID
  5
1530
330
1529
100
AcDbEntity
  8
DEFAULT_2
  6
Continuous
 62
     8
100
AcDbTrace
 10
558.2046874999998
 20
3.174999999999998
 30
0.0
 11
558.2046874999998
 21
3.174999999999998
 31
0.0
 12
559.3953125
 22
3.174999999999998
 32
0.0
 13
559.3953125
 23
3.174999999999998
 33
0.0
  0
LINE
  5
1531
330
1529
100
AcDbEntity
  8
DEFAULT_2
  6
Continuous
 62
     8
100
AcDbLine
 10
558.8
 20
12.7
 30
0.0
 11
556.41875
 21
7.9375
 31
0.0
  0
LINE
  5
1532
330
1529
100
AcDbEntity
  8
DEFAULT_2
  6
Continuous
 62
     8
100
AcDbLine
 10
561.18125
 20
7.9375
 30
0.0
 11
558.8
 21
12.7
 31
0.0
  0
LINE
  5
1533
330
1529
100
AcDbEntity
  8
DEFAULT_2
  6
Continuous
 62
     8
100
AcDbLine
 10
556.41875
 20
7.9375
 30
0.0
 11
558.2046874999998
 21
7.9375
 31
0.0
  0
LINE
  5
1534
330
1529
100
AcDbEntity
  8
DEFAULT_2
  6
Continuous
 62
     8
100
AcDbLine
 10
559.3953125
 20
7.9375
 30
0.0
 11
561.18125
 21
7.9375
 31
0.0
  0
LINE
  5
1535
330
1529
100
AcDbEntity
  8
DEFAULT_2
  6
Continuous
 62
     8
100
AcDbLine
 10
558.2046874999998
 20
7.9375
 30
0.0
 11
558.2046874999998
 21
3.174999999999998
 31
0.0
  0
LINE
  5
1536
330
1529
100
AcDbEntity
  8
DEFAULT_2
  6
Continuous
 62
     8
100
AcDbLine
 10
559.3953125
 20
7.9375
 30
0.0
 11
559.3953125
 21
3.174999999999998
 31
0.0
  0
LINE
  5
1537
330
1529
100
AcDbEntity
  8
DEFAULT_2
  6
Continuous
 62
     8
100
AcDbLine
 10
558.2046874999998
 20
3.174999999999998
 30
0.0
 11
559.3953125
 21
3.174999999999998
 31
0.0
  0
ENDBLK
  5
1538
330
1529
100
AcDbEntity
  8
0
100
AcDbBlockEnd
  0
BLOCK
  5
153A
330
1539
100
AcDbEntity
  8
DEFAULT_2
  6
HIDDEN
 62
     8
100
AcDbBlockBegin
  2
C_ARROW_BL3
 70
     0
 10
1109.6718621486
 20
431.8
 30
0.0
  3
C_ARROW_BL3
  1

  0
LINE
  5
153B
330
1539
100
AcDbEntity
  8
DEFAULT_2
  6
HIDDEN
 62
     8
100
AcDbLine
 10
1104.9093621485
 20
431.8
 30
0.0
 11
1109.6718621486
 21
429.4187499999998
 31
0.0
  0
LINE
  5
153C
330
1539
100
AcDbEntity
  8
DEFAULT_2
  6
HIDDEN
 62
     8
100
AcDbLine
 10
1104.9093621485
 20
431.8
 30
0.0
 11
1109.6718621486
 21
434.1812499999998
 31
0.0
  0
LINE
  5
153D
330
1539
100
AcDbEntity
  8
DEFAULT_2
  6
HIDDEN
 62
     8
100
AcDbLine
 10
1109.6718621486
 20
432.3953125
 30
0.0
 11
1109.6718621486
 21
434.1812499999998
 31
0.0
  0
LINE
  5
153E
330
1539
100
AcDbEntity
  8
DEFAULT_2
  6
HIDDEN
 62
     8
100
AcDbLine
 10
1114.4343621486
 20
432.3953125
 30
0.0
 11
1109.6718621486
 21
432.3953125
 31
0.0
  0
LINE
  5
153F
330
1539
100
AcDbEntity
  8
DEFAULT_2
  6
HIDDEN
 62
     8
100
AcDbLine
 10
1114.4343621486
 20
432.3953125
 30
0.0
 11
1114.4343621486
 21
431.2046875
 31
0.0
  0
LINE
  5
1540
330
1539
100
AcDbEntity
  8
DEFAULT_2
  6
HIDDEN
 62
     8
100
AcDbLine
 10
1109.6718621486
 20
431.2046875
 30
0.0
 11
1114.4343621486
 21
431.2046875
 31
0.0
  0
LINE
  5
1541
330
1539
100
AcDbEntity
  8
DEFAULT_2
  6
HIDDEN
 62
     8
100
AcDbLine
 10
1109.6718621486
 20
429.4187499999998
 30
0.0
 11
1109.6718621486
 21
431.2046875
 31
0.0
  0
LWPOLYLINE
  5
1542
330
1539
100
AcDbEntity
  8
DEFAULT_2
  6
HIDDEN
 62
     8
100
AcDbPolyline
 90
        8
 70
     0
 43
0.0
 10
1104.9093621485
 20
431.8
 10
1109.6718621486
 20
434.1812499999998
 10
1109.6718621486
 20
432.3953125
 10
1114.4343621486
 20
432.3953125
 10
1114.4343621486
 20
431.2046875
 10
1109.6718621486
 20
431.2046875
 10
1109.6718621486
 20
429.4187499999998
 10
1104.9093621485
 20
431.8
  0
INSERT
  5
1543
330
1539
100
AcDbEntity
  8
DEFAULT_2
  6
Continuous
 62
     8
100
AcDbBlockReference
  2
*U75
 10
0.0
 20
0.0
 30
0.0
1001
ACAD
1002
{
1000
R14_HATCH_DATA
1000
23E
1011
1.0
1021
0.0
1031
0.0
1011
0.0
1021
1.0
1031
0.0
1011
0.0
1021
0.0
1031
1.0
1040
0.0
1010
0.0
1020
0.0
1030
1.0
1000
SOLID
1070
     1
1070
     1
1071
        1
1071
        1
1071
        7
1070
     1
1040
1104.9093621485
1040
431.8
1040
1109.6718621486
1040
434.1812499999998
1070
     1
1040
1109.6718621486
1040
434.1812499999998
1040
1109.6718621486
1040
432.3953125
1070
     1
1040
1109.6718621486
1040
432.3953125
1040
1114.4343621486
1040
432.3953125
1070
     1
1040
1114.4343621486
1040
432.3953125
1040
1114.4343621486
1040
431.2046875
1070
     1
1040
1114.4343621486
1040
431.2046875
1040
1109.6718621486
1040
431.2046875
1070
     1
1040
1109.6718621486
1040
431.2046875
1040
1109.6718621486
1040
429.4187499999998
1070
     1
1040
1109.6718621486
1040
429.4187499999998
1040
1104.9093621485
1040
431.8
1071
        1
1005
1542
1070
     0
1070
     1
1071
        1
1040
0.0
1040
0.0
1040
0.0
1002
}
  0
ENDBLK
  5
1544
330
1539
100
AcDbEntity
  8
0
  6
ByBlock
 62
     0
100
AcDbBlockEnd
  0
BLOCK
  5
1546
330
1545
100
AcDbEntity
  8
0
100
AcDbBlockBegin
  2
*U75
 70
     1
 10
0.0
 20
0.0
 30
0.0
  3
*U75
  1

  0
SOLID
  5
1547
330
1545
100
AcDbEntity
  8
DEFAULT_2
  6
Continuous
 62
     8
100
AcDbTrace
 10
1109.6718621486
 20
434.1812499999998
 30
0.0
 11
1106.099987148525
 21
432.3953125
 31
0.0
 12
1109.6718621486
 22
432.3953125
 32
0.0
 13
1109.6718621486
 23
432.3953125
 33
0.0
  0
SOLID
  5
1548
330
1545
100
AcDbEntity
  8
DEFAULT_2
  6
Continuous
 62
     8
100
AcDbTrace
 10
1109.6718621486
 20
432.3953125
 30
0.0
 11
1109.6718621486
 21
432.3953125
 31
0.0
 12
1114.4343621486
 22
432.3953125
 32
0.0
 13
1114.4343621486
 23
432.3953125
 33
0.0
  0
SOLID
  5
1549
330
1545
100
AcDbEntity
  8
DEFAULT_2
  6
Continuous
 62
     8
100
AcDbTrace
 10
1106.099987148525
 20
432.3953125
 30
0.0
 11
1104.9093621485
 21
431.8
 31
0.0
 12
1114.4343621486
 22
431.8
 32
0.0
 13
1114.4343621486
 23
431.8
 33
0.0
  0
SOLID
  5
154A
330
1545
100
AcDbEntity
  8
DEFAULT_2
  6
Continuous
 62
     8
100
AcDbTrace
 10
-1106.099987148525
 20
432.3953125
 30
0.0
 11
-1114.4343621486
 21
432.3953125
 31
0.0
 12
-1114.4343621486
 22
431.8
 32
0.0
 13
-1114.4343621486
 23
431.8
 33
0.0
210
0.0
220
0.0
230
-1.0
  0
SOLID
  5
154B
330
1545
100
AcDbEntity
  8
DEFAULT_2
  6
Continuous
 62
     8
100
AcDbTrace
 10
1104.9093621485
 20
431.8
 30
0.0
 11
1106.099987148525
 21
431.2046875
 31
0.0
 12
1114.4343621486
 22
431.2046875
 32
0.0
 13
1114.4343621486
 23
431.2046875
 33
0.0
  0
SOLID
  5
154C
330
1545
100
AcDbEntity
  8
DEFAULT_2
  6
Continuous
 62
     8
100
AcDbTrace
 10
-1104.9093621485
 20
431.8
 30
0.0
 11
-1114.4343621486
 21
431.8
 31
0.0
 12
-1114.4343621486
 22
431.2046875
 32
0.0
 13
-1114.4343621486
 23
431.2046875
 33
0.0
210
0.0
220
0.0
230
-1.0
  0
SOLID
  5
154D
330
1545
100
AcDbEntity
  8
DEFAULT_2
  6
Continuous
 62
     8
100
AcDbTrace
 10
1109.6718621486
 20
431.2046875
 30
0.0
 11
1109.6718621486
 21
431.2046875
 31
0.0
 12
1114.4343621486
 22
431.2046875
 32
0.0
 13
1114.4343621486
 23
431.2046875
 33
0.0
  0
SOLID
  5
154E
330
1545
100
AcDbEntity
  8
DEFAULT_2
  6
Continuous
 62
     8
100
AcDbTrace
 10
-1106.099987148525
 20
431.2046875
 30
0.0
 11
-1109.6718621486
 21
431.2046875
 31
0.0
 12
-1109.6718621486
 22
429.4187499999998
 32
0.0
 13
-1109.6718621486
 23
429.4187499999998
 33
0.0
210
0.0
220
0.0
230
-1.0
  0
LINE
  5
154F
330
1545
100
AcDbEntity
  8
DEFAULT_2
  6
Continuous
 62
     8
100
AcDbLine
 10
1109.6718621486
 20
434.1812499999998
 30
0.0
 11
1106.099987148525
 21
432.3953125
 31
0.0
  0
LINE
  5
1550
330
1545
100
AcDbEntity
  8
DEFAULT_2
  6
Continuous
 62
     8
100
AcDbLine
 10
1109.6718621486
 20
432.3953125
 30
0.0
 11
1109.6718621486
 21
434.1812499999998
 31
0.0
  0
LINE
  5
1551
330
1545
100
AcDbEntity
  8
DEFAULT_2
  6
Continuous
 62
     8
100
AcDbLine
 10
1109.6718621486
 20
432.3953125
 30
0.0
 11
1114.4343621486
 21
432.3953125
 31
0.0
  0
LINE
  5
1552
330
1545
100
AcDbEntity
  8
DEFAULT_2
  6
Continuous
 62
     8
100
AcDbLine
 10
1106.099987148525
 20
432.3953125
 30
0.0
 11
1104.9093621485
 21
431.8
 31
0.0
  0
LINE
  5
1553
330
1545
100
AcDbEntity
  8
DEFAULT_2
  6
Continuous
 62
     8
100
AcDbLine
 10
1114.4343621486
 20
432.3953125
 30
0.0
 11
1114.4343621486
 21
431.8
 31
0.0
  0
LINE
  5
1554
330
1545
100
AcDbEntity
  8
DEFAULT_2
  6
Continuous
 62
     8
100
AcDbLine
 10
1104.9093621485
 20
431.8
 30
0.0
 11
1106.099987148525
 21
431.2046875
 31
0.0
  0
LINE
  5
1555
330
1545
100
AcDbEntity
  8
DEFAULT_2
  6
Continuous
 62
     8
100
AcDbLine
 10
1114.4343621486
 20
431.8
 30
0.0
 11
1114.4343621486
 21
431.2046875
 31
0.0
  0
LINE
  5
1556
330
1545
100
AcDbEntity
  8
DEFAULT_2
  6
Continuous
 62
     8
100
AcDbLine
 10
1109.6718621486
 20
431.2046875
 30
0.0
 11
1114.4343621486
 21
431.2046875
 31
0.0
  0
LINE
  5
1557
330
1545
100
AcDbEntity
  8
DEFAULT_2
  6
Continuous
 62
     8
100
AcDbLine
 10
1109.6718621486
 20
431.2046875
 30
0.0
 11
1109.6718621486
 21
429.4187499999998
 31
0.0
  0
LINE
  5
1558
330
1545
100
AcDbEntity
  8
DEFAULT_2
  6
Continuous
 62
     8
100
AcDbLine
 10
1109.6718621486
 20
429.4187499999998
 30
0.0
 11
1106.099987148525
 21
431.2046875
 31
0.0
  0
ENDBLK
  5
1559
330
1545
100
AcDbEntity
  8
0
100
AcDbBlockEnd
  0
BLOCK
  5
155B
330
155A
100
AcDbEntity
  8
0
100
AcDbBlockBegin
  2
*U76
 70
     1
 10
0.0
 20
0.0
 30
0.0
  3
*U76
  1

  0
TEXT
  5
155C
330
155A
100
AcDbEntity
  8
0
 62
     0
100
AcDbText
 10
450.5740645623999
 20
486.4260652417851
 30
0.0
 40
3.5
  1
400.0000
 41
0.75
100
AcDbText
  0
ENDBLK
  5
155D
330
155A
100
AcDbEntity
  8
0
100
AcDbBlockEnd
  0
BLOCK
  5
15A3
330
157A
100
AcDbEntity
  8
0
100
AcDbBlockBegin
  2
3347T PLAN VIEW
 70
     0
 10
0.0
 20
0.0
 30
0.0
  3
3347T PLAN VIEW
  1

  0
TEXT
  5
157B
330
157A
100
AcDbEntity
  8
0
  6
Continuous
 62
     5
100
AcDbText
 10
1043.7780773816
 20
29.2544404314
 30
0.0
 40
6.096
  1
 
 41
0.8
 51
0.000018724
100
AcDbText
  0
TEXT
  5
157C
330
157A
100
AcDbEntity
  8
0
  6
Continuous
 62
     5
100
AcDbText
 10
972.7353333332999
 20
52.07
 30
0.0
 40
2.54
  1
 
 41
0.8
  7
TEXTSTYLE_1
100
AcDbText
  0
TEXT
  5
157D
330
157A
100
AcDbEntity
  8
0
  6
Continuous
 62
     5
100
AcDbText
 10
1027.4935
 20
89.53499999999998
 30
0.0
 40
2.54
  1
 
 41
0.95
 72
     1
 11
1028.7
 21
89.53499999999998
 31
0.0
100
AcDbText
  0
LINE
  5
157E
330
157A
100
AcDbEntity
  8
0
  6
Continuous
 62
     7
100
AcDbLine
 10
258.4490645624
 20
785.1088250543997
 30
0.0
 11
258.4490645624
 21
557.8088250543999
 31
0.0
  0
LINE
  5
157F
330
157A
100
AcDbEntity
  8
0
  6
Continuous
 62
     7
100
AcDbLine
 10
268.8178745055
 20
757.3325350536999
 30
0.0
 11
268.8178745055
 21
570.2218250543999
 31
0.0
  0
LINE
  5
1580
330
157A
100
AcDbEntity
  8
0
  6
Continuous
 62
     7
100
AcDbLine
 10
279.8616869727
 20
597.4588250544
 30
0.0
 11
279.8616869727
 21
708.9588250543997
 31
0.0
  0
LINE
  5
1581
330
157A
100
AcDbEntity
  8
0
  6
Continuous
 62
     7
100
AcDbLine
 10
264.7990645624
 20
551.4588250544
 30
0.0
 11
652.0990645624
 21
551.4588250544
 31
0.0
  0
LINE
  5
1582
330
157A
100
AcDbEntity
  8
0
  6
Continuous
 62
     7
100
AcDbLine
 10
277.2120645624
 20
561.8276349974999
 30
0.0
 11
639.6860645624
 21
561.8276349974999
 31
0.0
  0
LINE
  5
1583
330
157A
100
AcDbEntity
  8
0
  6
Continuous
 62
     7
100
AcDbLine
 10
612.1990645624001
 20
572.6214474647
 30
0.0
 11
509.6990645624
 21
572.6214474647
 31
0.0
  0
LINE
  5
1584
330
157A
100
AcDbEntity
  8
0
  6
Continuous
 62
     7
100
AcDbLine
 10
444.6990645624
 20
572.6214474647
 30
0.0
 11
304.6990645624
 21
572.6214474647
 31
0.0
  0
LINE
  5
1585
330
157A
100
AcDbEntity
  8
0
  6
Continuous
 62
     7
100
AcDbLine
 10
469.5364421520998
 20
708.9588250543997
 30
0.0
 11
469.5364421520998
 21
597.4588250544
 31
0.0
  0
LINE
  5
1586
330
157A
100
AcDbEntity
  8
0
  6
Continuous
 62
     7
100
AcDbLine
 10
484.8616869726998
 20
597.4588250544
 30
0.0
 11
484.8616869726998
 21
708.9588250543997
 31
0.0
  0
LINE
  5
1587
330
157A
100
AcDbEntity
  8
0
  6
Continuous
 62
     7
100
AcDbLine
 10
304.6990645624
 20
733.7962026441
 30
0.0
 11
444.6990645624
 21
733.7962026441
 31
0.0
  0
LINE
  5
1588
330
157A
100
AcDbEntity
  8
0
  6
Continuous
 62
     7
100
AcDbLine
 10
509.6990645624
 20
733.7962026441
 30
0.0
 11
612.1990645624001
 21
733.7962026441
 31
0.0
  0
LINE
  5
1589
330
157A
100
AcDbEntity
  8
0
  6
Continuous
 62
     7
100
AcDbLine
 10
652.0990645624
 20
791.4588250543999
 30
0.0
 11
264.7990645624
 21
791.4588250543999
 31
0.0
  0
LINE
  5
158A
330
157A
100
AcDbEntity
  8
0
  6
Continuous
 62
     7
100
AcDbLine
 10
637.0364421520998
 20
708.9588250543997
 30
0.0
 11
637.0364421520998
 21
597.4588250544
 31
0.0
  0
LINE
  5
158B
330
157A
100
AcDbEntity
  8
0
  6
Continuous
 62
     7
100
AcDbLine
 10
648.0802546193999
 20
570.2218250543999
 30
0.0
 11
648.0802546193999
 21
757.3325350536999
 31
0.0
  0
LINE
  5
158C
330
157A
100
AcDbEntity
  8
0
  6
Continuous
 62
     7
100
AcDbLine
 10
658.4490645624001
 20
557.8088250543999
 30
0.0
 11
658.4490645624001
 21
785.1088250543997
 31
0.0
  0
ARC
  5
158D
330
157A
100
AcDbEntity
  8
0
  6
Continuous
 62
     7
100
AcDbCircle
 10
652.0990645624
 20
785.1088250543997
 30
0.0
 40
6.349999999999997
100
AcDbArc
 50
0.0
 51
90.0
  0
ARC
  5
158E
330
157A
100
AcDbEntity
  8
0
  6
Continuous
 62
     7
100
AcDbCircle
 10
264.7990645624
 20
785.1088250543997
 30
0.0
 40
6.349999999999997
100
AcDbArc
 50
90.0
 51
180.0
  0
ARC
  5
158F
330
157A
100
AcDbEntity
  8
0
  6
Continuous
 62
     7
100
AcDbCircle
 10
264.7990645624
 20
557.8088250543999
 30
0.0
 40
6.349999999999997
100
AcDbArc
 50
180.0
 51
270.0
  0
ARC
  5
1590
330
157A
100
AcDbEntity
  8
0
  6
Continuous
 62
     7
100
AcDbCircle
 10
652.0990645624
 20
557.8088250543999
 30
0.0
 40
6.349999999999997
100
AcDbArc
 50
270.0
 51
0.0
  0
CIRCLE
  5
1591
330
157A
100
AcDbEntity
  8
0
  6
Continuous
 62
     7
100
AcDbCircle
 10
374.6990645624
 20
671.5578250544
 30
0.0
 40
22.5
  0
CIRCLE
  5
1592
330
157A
100
AcDbEntity
  8
0
  6
Continuous
 62
     7
100
AcDbCircle
 10
560.9490645623999
 20
671.5578250544
 30
0.0
 40
22.5
  0
ARC
  5
1593
330
157A
100
AcDbEntity
  8
0
  6
Continuous
 62
     7
100
AcDbCircle
 10
458.4490645624
 20
-303.9149249456
 30
0.0
 40
1085.0049401166
100
AcDbArc
 50
80.31567123450001
 51
99.69908833510002
  0
ARC
  5
1594
330
157A
100
AcDbEntity
  8
0
  6
Continuous
 62
     7
100
AcDbCircle
 10
304.6990645624
 20
708.9588250543997
 30
0.0
 40
24.8373775729
100
AcDbArc
 50
90.0
 51
180.0
  0
ARC
  5
1595
330
157A
100
AcDbEntity
  8
0
  6
Continuous
 62
     7
100
AcDbCircle
 10
304.6990645624
 20
597.4588250544
 30
0.0
 40
24.8373775729
100
AcDbArc
 50
180.0
 51
270.0
  0
ARC
  5
1596
330
157A
100
AcDbEntity
  8
0
  6
Continuous
 62
     7
100
AcDbCircle
 10
612.1990645624001
 20
597.4588250544
 30
0.0
 40
24.8373775741
100
AcDbArc
 50
270.0
 51
0.0
  0
ARC
  5
1597
330
157A
100
AcDbEntity
  8
0
  6
Continuous
 62
     7
100
AcDbCircle
 10
612.1990645624001
 20
708.9588250543997
 30
0.0
 40
24.8373775741
100
AcDbArc
 50
0.0
 51
90.0
  0
ARC
  5
1598
330
157A
100
AcDbEntity
  8
0
  6
Continuous
 62
     7
100
AcDbCircle
 10
444.6990645624
 20
597.4588250544
 30
0.0
 40
24.8373775729
100
AcDbArc
 50
270.0
 51
0.0
  0
ARC
  5
1599
330
157A
100
AcDbEntity
  8
0
  6
Continuous
 62
     7
100
AcDbCircle
 10
444.6990645624
 20
708.9588250543997
 30
0.0
 40
24.8373775729
100
AcDbArc
 50
0.0
 51
90.0
  0
ARC
  5
159A
330
157A
100
AcDbEntity
  8
0
  6
Continuous
 62
     7
100
AcDbCircle
 10
509.6990645624
 20
708.9588250543997
 30
0.0
 40
24.8373775741
100
AcDbArc
 50
90.0
 51
180.0
  0
ARC
  5
159B
330
157A
100
AcDbEntity
  8
0
  6
Continuous
 62
     7
100
AcDbCircle
 10
509.6990645624
 20
597.4588250544
 30
0.0
 40
24.8373775741
100
AcDbArc
 50
180.0
 51
270.0
  0
ARC
  5
159C
330
157A
100
AcDbEntity
  8
0
  6
Continuous
 62
     7
100
AcDbCircle
 10
639.6860645624
 20
757.3325350536999
 30
0.0
 40
8.394184993599996
100
AcDbArc
 50
0.0
 51
81.21316398029998
  0
ARC
  5
159D
330
157A
100
AcDbEntity
  8
0
  6
Continuous
 62
     7
100
AcDbCircle
 10
639.6860645624
 20
570.2218250543999
 30
0.0
 40
8.394185013999997
100
AcDbArc
 50
270.0
 51
0.0
  0
ARC
  5
159E
330
157A
100
AcDbEntity
  8
0
  6
Continuous
 62
     7
100
AcDbCircle
 10
277.2120645624
 20
570.2218250543999
 30
0.0
 40
8.394185013999997
100
AcDbArc
 50
180.0
 51
270.0
  0
ARC
  5
159F
330
157A
100
AcDbEntity
  8
0
  6
Continuous
 62
     7
100
AcDbCircle
 10
277.2120645624
 20
757.3325350536999
 30
0.0
 40
8.3941858381
100
AcDbArc
 50
100.6946951194
 51
180.0
  0
CIRCLE
  5
15A0
330
157A
100
AcDbEntity
  8
DATUM_AXIS
  6
Continuous
 62
     7
100
AcDbCircle
 10
290.4490645624
 20
747.4588250544
 30
0.0
 40
7.0
  0
CIRCLE
  5
15A1
330
157A
100
AcDbEntity
  8
DATUM_AXIS
  6
Continuous
 62
     7
100
AcDbCircle
 10
626.4490645623999
 20
747.4588250544
 30
0.0
 40
8.75
  0
CIRCLE
  5
15A2
330
157A
100
AcDbEntity
  8
DATUM_AXIS
  6
Continuous
 62
     7
100
AcDbCircle
 10
458.4490645624
 20
756.4588250544
 30
0.0
 40
8.75
  0
ENDBLK
  5
15A4
330
157A
100
AcDbEntity
  8
0
100
AcDbBlockEnd
  0
ENDSEC
  0
SECTION
  2
ENTITIES
  0
HATCH
  5
4EB
330
216
100
AcDbEntity
  8
0
  6
Continuous
 62
     2
100
AcDbHatch
 10
0.0
 20
0.0
 30
0.0
210
0.0
220
0.0
230
1.0
  2
A
 70
     0
 71
     0
 91
        1
 92
        1
 93
       14
 72
     4
 94
        3
 73
     0
 74
     0
 95
       11
 96
        7
 40
0.0
 40
0.0
 40
0.0
 40
0.0
 40
0.25
 40
0.5
 40
0.75
 40
1.0
 40
1.0
 40
1.0
 40
1.0
 10
616.2625630382
 20
439.0999339008998
 10
615.4885879265
 20
439.0906962113
 10
614.052641632
 20
438.8249474799
 10
612.1132631496
 20
437.6296078925999
 10
610.7528381076
 20
435.802241117
 10
610.3624829562
 20
434.3950499413998
 10
610.2855686066
 20
433.6248506222998
 72
     1
 10
610.2855686066
 20
433.6248506222998
 11
607.6797095089998
 21
403.9530861629
 72
     4
 94
        3
 73
     0
 74
     0
 95
        9
 96
        5
 40
0.0
 40
0.0
 40
0.0
 40
0.0
 40
0.5
 40
1.0
 40
1.0
 40
1.0
 40
1.0
 10
607.6797095089998
 20
403.9530861629
 10
605.0376404006
 20
404.8065809776
 10
599.9934149033
 20
406.8837454028998
 10
595.4290148451998
 20
409.7012594197
 10
593.2667711758998
 20
411.295103826
 72
     1
 10
593.2667711758998
 20
411.295103826
 11
596.0643387031998
 21
443.1497673435998
 72
     4
 94
        3
 73
     0
 74
     0
 95
       11
 96
        7
 40
0.0
 40
0.0
 40
0.0
 40
0.0
 40
0.25
 40
0.5
 40
0.75
 40
1.0
 40
1.0
 40
1.0
 40
1.0
 10
596.0643387031998
 20
443.1497673435998
 10
596.2181674024
 20
444.6901659818998
 10
596.9988777052999
 20
447.5045483330998
 10
599.7197277891999
 20
451.1592818841998
 10
603.5984847541
 20
453.5499610587999
 10
606.4703773430997
 20
454.0814585216
 10
608.0183275663999
 20
454.0999339008998
 72
     1
 10
608.0183275663999
 20
454.0999339008998
 11
641.526013604
 21
454.0999339008998
 72
     4
 94
        3
 73
     0
 74
     0
 95
       10
 96
        6
 40
0.0
 40
0.0
 40
0.0
 40
0.0
 40
0.3333333333
 40
0.6666666667
 40
1.0
 40
1.0
 40
1.0
 40
1.0
 10
641.526013604
 20
454.0999339008998
 10
642.9066285126999
 20
454.090203361
 10
645.5203299202
 20
453.6907902773
 10
649.2017006754998
 20
451.8502531765
 10
651.0896858615
 20
449.9987397202999
 10
651.9260136039998
 20
448.8999339008999
 72
     1
 10
651.9260136039998
 20
448.8999339008999
 11
656.0698584846
 21
443.3748073934999
 72
     4
 94
        3
 73
     0
 74
     0
 95
       10
 96
        6
 40
0.0
 40
0.0
 40
0.0
 40
0.0
 40
0.3333333333
 40
0.6666666667
 40
1.0
 40
1.0
 40
1.0
 40
1.0
 10
656.0698584846
 20
443.3748073936
 10
656.2291038994999
 20
443.1616513840999
 10
656.5003613717998
 20
442.7149602757999
 10
656.7717891193
 20
441.9665926428
 10
656.8499520870998
 20
441.4498476451
 10
656.8643766236
 20
441.1841512185
 72
     1
 10
656.8643766236
 20
441.1841512185
 11
657.0260136039999
 21
438.0999339008998
 72
     1
 10
657.0260136039999
 20
438.0999339008998
 11
637.3426383944
 21
438.0999339008998
 72
     4
 94
        3
 73
     0
 74
     0
 95
       10
 96
        6
 40
0.0
 40
0.0
 40
0.0
 40
0.0
 40
0.3333333333
 40
0.6666666667
 40
1.0
 40
1.0
 40
1.0
 40
1.0
 10
637.3426383944
 20
438.0999339008998
 10
637.0790705487999
 20
438.1004150637998
 10
636.5636527309
 20
438.1505026728
 10
635.8086628608
 20
438.3781406837
 10
635.3514610449
 20
438.6213089282
 10
635.1315552007998
 20
438.7666005676
 72
     4
 94
        3
 73
     0
 74
     0
 95
       10
 96
        6
 40
0.0
 40
0.0
 40
0.0
 40
0.0
 40
0.3333333333
 40
0.6666666667
 40
1.0
 40
1.0
 40
1.0
 40
1.0
 10
635.1315552007998
 20
438.7666005676
 10
635.0216022787999
 20
438.8392463873
 10
634.7930013707999
 20
438.9608305095998
 10
634.4155064356998
 20
439.074649515
 10
634.1577975267998
 20
439.0996933194998
 10
634.026013604
 20
439.0999339008998
 72
     1
 10
634.026013604
 20
439.0999339008998
 11
616.2625630382
 21
439.0999339008998
 97
        0
 75
     0
 76
     0
 52
45.0
 41
103.2437574522
 77
     0
 78
     1
 53
45.0
 43
0.0
 44
0.0
 45
-73.0043610096
 46
73.0043610096
 79
     0
 98
        1
 10
0.0
 20
0.0
  0
HATCH
  5
4EC
330
216
100
AcDbEntity
  8
0
  6
Continuous
 62
     2
100
AcDbHatch
 10
0.0
 20
0.0
 30
0.0
210
0.0
220
0.0
230
1.0
  2
A
 70
     0
 71
     0
 91
        2
 92
        1
 93
       16
 72
     1
 10
559.1847651452
 20
256.1296343711
 11
560.6694509049998
 21
254.4158396217
 72
     1
 10
560.6694509049998
 20
254.4158396217
 11
560.6694509049998
 21
243.0343258907
 72
     1
 10
560.6694509049998
 20
243.0343258907
 11
544.9194509049998
 21
243.0343258907
 72
     4
 94
        3
 73
     0
 74
     0
 95
       10
 96
        6
 40
0.0
 40
0.0
 40
0.0
 40
0.0
 40
0.3333333333
 40
0.6666666667
 40
1.0
 40
1.0
 40
1.0
 40
1.0
 10
544.9194509049998
 20
243.0343258907
 10
544.4361329208
 20
243.0351532053
 10
543.4900955975998
 20
243.1251293071
 10
542.1028800894
 20
243.5338845153
 10
541.2592076523999
 20
243.9712620809
 10
540.852663333
 20
244.2326404936
 72
     4
 94
        3
 73
     0
 74
     0
 95
       10
 96
        6
 40
0.0
 40
0.0
 40
0.0
 40
0.0
 40
0.3333333333
 40
0.6666666667
 40
1.0
 40
1.0
 40
1.0
 40
1.0
 10
540.852663333
 20
244.2326404936
 10
540.4470162169999
 20
244.4954091666
 10
539.7009207646
 20
245.083987022
 10
538.75699075
 20
246.1796346906
 10
538.2852791996
 20
247.0046016773
 10
538.0854200101
 20
247.4446621989
 72
     4
 94
        3
 73
     0
 74
     0
 95
       10
 96
        6
 40
0.0
 40
0.0
 40
0.0
 40
0.0
 40
0.3333333333
 40
0.6666666667
 40
1.0
 40
1.0
 40
1.0
 40
1.0
 10
538.0854200101
 20
247.4446621989
 10
537.8918476522
 20
247.8710499125
 10
537.4366438657
 20
248.6724341525
 10
536.5312677659999
 20
249.7420671268
 10
535.8160898360998
 20
250.3233998336
 10
535.4275368705998
 20
250.5847488974
 72
     4
 94
        3
 73
     0
 74
     0
 95
       10
 96
        6
 40
0.0
 40
0.0
 40
0.0
 40
0.0
 40
0.3333333333
 40
0.6666666667
 40
1.0
 40
1.0
 40
1.0
 40
1.0
 10
535.4275368705998
 20
250.5847488974
 10
535.0381694876999
 20
250.8448830574
 10
534.2287228807
 20
251.285590872
 10
532.8953288209
 20
251.7167299015
 10
531.9810939336998
 20
251.8333564781
 10
531.5131353406
 20
251.8504297097
 72
     1
 10
531.5131353406
 20
251.8504297097
 11
520.2166785091999
 21
252.2449106748
 72
     4
 94
        3
 73
     0
 74
     0
 95
        9
 96
        5
 40
0.0
 40
0.0
 40
0.0
 40
0.0
 40
0.5
 40
1.0
 40
1.0
 40
1.0
 40
1.0
 10
520.2166785091999
 20
252.2449106748
 10
519.8960653351998
 20
254.5109953073
 10
519.5601240744
 20
258.90391049
 10
519.8347529881998
 20
263.0183175082
 10
520.1247099887
 20
265.0058939761
 72
     1
 10
520.1247099887
 20
265.0058939761
 11
544.2456800682
 21
264.1635711401
 72
     2
 10
544.088632333
 20
259.6663124185
 40
4.5
 50
61.6210182793
 51
88.0
 73
     1
 72
     2
 10
544.088632333
 20
259.6663124185
 40
4.5
 50
35.2420365586
 51
61.6210182793
 73
     1
 72
     1
 10
547.7638802696
 20
262.2629549824
 11
550.1771349274998
 21
258.8472714666
 72
     2
 10
553.8523828641
 20
261.4439140305
 40
4.5
 50
215.2420365587
 51
238.523886612
 73
     1
 72
     2
 10
553.8523828641
 20
261.4439140305
 40
4.5
 50
238.523886612
 51
261.8057366654
 73
     1
 72
     1
 10
553.2109986158999
 20
256.9898567513
 11
559.1847651452
 21
256.1296343711
 97
        0
 92
        1
 93
       16
 72
     1
 10
709.1694509049998
 20
254.4158396217
 11
710.6541366646998
 21
256.1296343711
 72
     1
 10
710.6541366646998
 20
256.1296343711
 11
716.6279031939999
 21
256.9898567513
 72
     2
 10
715.9865189458002
 20
261.4439140305
 40
4.5
 50
278.1942633346
 51
301.476113388
 73
     1
 72
     2
 10
715.9865189458002
 20
261.4439140305
 40
4.5
 50
301.476113388
 51
324.7579634413
 73
     1
 72
     1
 10
719.6617668824
 20
258.8472714666
 11
722.0750215403
 21
262.2629549824
 72
     2
 10
725.7502694769
 20
259.6663124185
 40
4.5
 50
118.3789817207
 51
144.7579634414
 73
     1
 72
     2
 10
725.7502694769
 20
259.6663124185
 40
4.5
 50
92.0
 51
118.3789817207
 73
     1
 72
     1
 10
725.5932217416998
 20
264.1635711401
 11
739.4286942014
 21
264.6467164846
 72
     4
 94
        3
 73
     0
 74
     0
 95
        9
 96
        5
 40
0.0
 40
0.0
 40
0.0
 40
0.0
 40
0.5
 40
1.0
 40
1.0
 40
1.0
 40
1.0
 10
739.4286942014
 20
264.6467164846
 10
740.1470254872998
 20
262.5415365861
 10
741.3866250761
 20
258.3282644962
 10
742.2320986986
 20
254.1091678205
 10
742.5563040183
 20
251.9981633363
 72
     1
 10
742.5563040183
 20
251.9981633363
 11
738.3257664694
 21
251.8504297097
 72
     4
 94
        3
 73
     0
 74
     0
 95
       10
 96
        6
 40
0.0
 40
0.0
 40
0.0
 40
0.0
 40
0.3333333333
 40
0.6666666667
 40
1.0
 40
1.0
 40
1.0
 40
1.0
 10
738.3257664694
 20
251.8504297097
 10
737.8578078761997
 20
251.8333564781
 10
736.9435729889999
 20
251.7167299015
 10
735.6101789291998
 20
251.285590872
 10
734.8007323222
 20
250.8448830574
 10
734.4113649392999
 20
250.5847488974
 72
     4
 94
        3
 73
     0
 74
     0
 95
       10
 96
        6
 40
0.0
 40
0.0
 40
0.0
 40
0.0
 40
0.3333333333
 40
0.6666666667
 40
1.0
 40
1.0
 40
1.0
 40
1.0
 10
734.4113649392999
 20
250.5847488974
 10
734.0228119738
 20
250.3233998336
 10
733.3076340439999
 20
249.7420671268
 10
732.4022579442997
 20
248.6724341525
 10
731.9470541578
 20
247.8710499125
 10
731.7534817997998
 20
247.4446621989
 72
     4
 94
        3
 73
     0
 74
     0
 95
       10
 96
        6
 40
0.0
 40
0.0
 40
0.0
 40
0.0
 40
0.3333333333
 40
0.6666666667
 40
1.0
 40
1.0
 40
1.0
 40
1.0
 10
731.7534817997998
 20
247.4446621989
 10
731.5536226102998
 20
247.0046016773
 10
731.08191106
 20
246.1796346906
 10
730.1379810452998
 20
245.083987022
 10
729.391885593
 20
244.4954091666
 10
728.9862384769998
 20
244.2326404936
 72
     4
 94
        3
 73
     0
 74
     0
 95
       10
 96
        6
 40
0.0
 40
0.0
 40
0.0
 40
0.0
 40
0.3333333333
 40
0.6666666667
 40
1.0
 40
1.0
 40
1.0
 40
1.0
 10
728.9862384769998
 20
244.2326404936
 10
728.5796941574998
 20
243.9712620809
 10
727.7360217205
 20
243.5338845153
 10
726.3488062124
 20
243.1251293071
 10
725.4027688891
 20
243.0351532053
 10
724.9194509049998
 20
243.0343258907
 72
     1
 10
724.9194509049998
 20
243.0343258907
 11
709.1694509049998
 21
243.0343258907
 72
     1
 10
709.1694509049998
 20
243.0343258907
 11
709.1694509049998
 21
254.4158396217
 97
        0
 75
     0
 76
     0
 52
45.0
 41
77.43281808909999
 77
     0
 78
     1
 53
45.0
 43
0.0
 44
0.0
 45
-54.7532707572
 46
54.7532707572
 79
     0
 98
        1
 10
0.0
 20
0.0
  0
LINE
  5
FEE
330
216
100
AcDbEntity
  8
0
  6
Continuous
 62
     7
100
AcDbLine
 10
2161.1793806982
 20
-130.3665457787
 30
0.0
 11
2163.2513673245
 21
-127.6038969436
 31
0.0
  0
LINE
  5
FEF
330
216
100
AcDbEntity
  8
0
  6
Continuous
 62
     7
100
AcDbLine
 10
2167.2325785316
 20
-133.0038930884
 30
0.0
 11
2167.2325785316
 21
-131.4757947732
 31
0.0
  0
LINE
  5
FF0
330
216
100
AcDbEntity
  8
0
  6
Continuous
 62
     7
100
AcDbLine
 10
2169.0018170073
 20
-127.6037140701
 30
0.0
 11
2169.0018170073
 21
-125.0038930884
 31
0.0
  0
LINE
  5
FF1
330
216
100
AcDbEntity
  8
0
  6
Continuous
 62
     7
100
AcDbLine
 10
2160.7813455538
 20
-131.4778727335
 30
0.0
 11
2160.7013702159
 21
-133.0038930884
 31
0.0
  0
LINE
  5
FF2
330
216
100
AcDbEntity
  8
0
  6
Continuous
 62
     7
100
AcDbLine
 10
2205.8861967569
 20
-309.1187380419
 30
0.0
 11
2205.8861105506
 21
-309.1179234436
 31
0.0
  0
LINE
  5
FF3
330
216
100
AcDbEntity
  8
0
  6
Continuous
 62
     7
100
AcDbLine
 10
2203.4193158032
 20
-308.9519824429
 30
0.0
 11
2203.4193831049
 21
-308.9526488922
 31
0.0
  0
LINE
  5
FF4
330
216
100
AcDbEntity
  8
0
  6
Continuous
 62
     7
100
AcDbLine
 10
2189.2653550534
 20
-141.3268882316
 30
0.0
 11
2205.8861105506
 21
-309.1179234436
 31
0.0
  0
LINE
  5
FF5
330
216
100
AcDbEntity
  8
0
  6
Continuous
 62
     7
100
AcDbLine
 10
2189.1748419433
 20
-139.4260406158
 30
0.0
 11
2206.0215306195
 21
-308.9800133852
 31
0.0
  0
LINE
  5
FF6
330
216
100
AcDbEntity
  8
0
  6
Continuous
 62
     7
100
AcDbLine
 10
2187.8611963662
 20
-145.5117008506
 30
0.0
 11
2203.4193158032
 21
-308.9519824429
 31
0.0
  0
LINE
  5
FF7
330
216
100
AcDbEntity
  8
0
  6
Continuous
 62
     7
100
AcDbLine
 10
2185.6006592154
 20
-135.2219780432
 30
0.0
 11
2185.9829674327
 21
-139.4154379696999
 31
0.0
  0
LINE
  5
FF8
330
216
100
AcDbEntity
  8
0
  6
Continuous
 62
     7
100
AcDbLine
 10
2189.2392897845
 20
-141.0405859754
 30
0.0
 11
2189.2653550534
 21
-141.3268882316
 31
0.0
  0
LINE
  5
FF9
330
216
100
AcDbEntity
  8
0
  6
Continuous
 62
     7
100
AcDbLine
 10
2189.1757138963
 20
-139.4259659783
 30
0.0
 11
2189.2392897845
 21
-141.0405859754
 31
0.0
  0
LWPOLYLINE
  5
FFA
330
216
100
AcDbEntity
  8
0
  6
Continuous
 62
     7
100
AcDbPolyline
 90
       51
 70
     0
 43
0.0
 10
2203.4827993753
 20
-309.5302814568
 10
2203.5877159264
 20
-310.2341103532
 10
2203.7185850235
 20
-310.9250699123
 10
2203.8745779333
 20
-311.60430474
 10
2204.0544689621
 20
-312.2701406137
 10
2204.2569362287
 20
-312.9208291993
 10
2204.4817078819
 20
-313.5577508855
 10
2204.7278631396
 20
-314.1798127227
 10
2204.9943302355
 20
-314.7857170201
 10
2205.2811430519
 20
-315.376677094
 10
2205.587086463
 20
-315.9519858482
 10
2205.9103685497
 20
-316.5104247962
 10
2206.2502226616
 20
-317.0524438535
 10
2206.6052993476
 20
-317.5773103601
 10
2206.9742425818
 20
-318.0842859335
 10
2207.3566265643
 20
-318.5738139491
 10
2207.7513806584
 20
-319.0453376647
 10
2208.1573936686
 20
-319.4982676104
 10
2208.574448184
 20
-319.9329530391
 10
2209.0016705133
 20
-320.3489367365
 10
2209.4380671809
 20
-320.7458330301
 10
2209.8831702287
 20
-321.1243240302
 10
2210.3358109795
 20
-321.4845140411
 10
2210.7947908073
 20
-321.8264557802
 10
2211.2597020698
 20
-322.150724462
 10
2211.7296468316
 20
-322.4574467873
 10
2212.2035176187
 20
-322.7465934475
 10
2212.6807110539
 20
-323.0184234954
 10
2213.1606646486
 20
-323.27315647
 10
2213.6421884864
 20
-323.5106590188
 10
2214.1237826888
 20
-323.7307064485
 10
2214.6047217752
 20
-323.9334774849
 10
2215.0841614191
 20
-324.1191603445
 10
2215.5604926326
 20
-324.2879778414
 10
2216.03452978
 20
-324.441069725
 10
2216.504249227
 20
-324.5785868535
 10
2216.9638181548
 20
-324.6998741084
 10
2217.4155050081
 20
-324.806628178
 10
2217.8560986811
 20
-324.8991213856001
 10
2218.2717145565
 20
-324.9760208008
 10
2218.663866641501
 20
-325.039493747
 10
2219.0309047455
 20
-325.0909964151
 10
2219.3547613401
 20
-325.1301461998
 10
2219.6290508421
 20
-325.1587239197001
 10
2219.8615547403
 20
-325.1796866428
 10
2220.0557292641
 20
-325.1949285345
 10
2220.2058020288
 20
-325.2053226575
 10
2220.3187780435
 20
-325.212372602
 10
2220.416823115
 20
-325.2179716684
 10
2220.5045128539
 20
-325.2225910903
 10
2220.6459771883
 20
-325.2293363144
  0
LWPOLYLINE
  5
FFB
330
216
100
AcDbEntity
  8
0
  6
Continuous
 62
     7
100
AcDbPolyline
 90
       52
 70
     0
 43
0.0
 10
2205.9388078577
 20
-309.6029840923
 10
2206.0386869736
 20
-310.2798559927
 10
2206.162637534
 20
-310.9449683638
 10
2206.3099035987
 20
-311.5993086212
 10
2206.4793779574
 20
-312.2413560526
 10
2206.669872589
 20
-312.8695307343
 10
2206.8811101365
 20
-313.4850380121
 10
2207.1122360639
 20
-314.0868496671
 10
2207.3622839782
 20
-314.6738058617
 10
2207.6313173218
 20
-315.2470504102
 10
2207.9184635373
 20
-315.8059500315
 10
2208.2221298984
 20
-316.3493989357
 10
2208.5416246285
 20
-316.8778711154
 10
2208.8757243069
 20
-317.3907125505
 10
2209.2231663378
 20
-317.8872076766
 10
2209.583520288
 20
-318.3677460367
 10
2209.9557864568
 20
-318.8318010779
 10
2210.3389426244
 20
-319.2788306306
 10
2210.732766157001
 20
-319.7091685299
 10
2211.1364433782
 20
-320.1223893501
 10
2211.54912592
 20
-320.5180504261
 10
2211.9706079812
 20
-320.8965309083
 10
2212.3998351687
 20
-321.2578853553
 10
2212.8356910307
 20
-321.6021646394
 10
2213.2777826939
 20
-321.929926752
 10
2213.7251957284
 20
-322.2412468804
 10
2214.1769691142
 20
-322.5361515102
 10
2214.6327647453
 20
-322.8150324281001
 10
2215.0920507223
 20
-323.078081424
 10
2215.553738672801
 20
-323.3251529691
 10
2216.0167129377
 20
-323.5561270233
 10
2216.4803892125
 20
-323.7711647353
 10
2216.9438807462
 20
-323.9702764823
 10
2217.4056378434
 20
-324.1532643445
 10
2217.8652936972
 20
-324.3206791573
 10
2218.3220269074
 20
-324.4730092615
 10
2218.7736546547
 20
-324.6103579391
 10
2219.222138236
 20
-324.7340750432
 10
2219.6645429029
 20
-324.8440640964
 10
2220.0913969734
 20
-324.939096631
 10
2220.5048979368
 20
-325.0209652183
 10
2220.9022749927
 20
-325.0903360761
 10
2221.2669255443
 20
-325.1460668623
 10
2221.5973987177
 20
-325.190083573
 10
2221.895694501601
 20
-325.2245573735
 10
2222.150884425
 20
-325.2501216302
 10
2222.3545272987
 20
-325.267948668
 10
2222.5164711491
 20
-325.2805168904
 10
2222.6530544818
 20
-325.2900309641
 10
2222.7646977169
 20
-325.2970899001
 10
2222.8515586852
 20
-325.3021517185
 10
2223.000716895199
 20
-325.3100186938
  0
LWPOLYLINE
  5
FFC
330
216
100
AcDbEntity
  8
0
  6
Continuous
 62
     7
100
AcDbPolyline
 90
        9
 70
     0
 43
0.0
 10
2185.9769663715
 20
-139.414427714
 10
2186.1333862534
 20
-140.610666272
 10
2186.422249397
 20
-141.9460037046
 10
2186.8252866005
 20
-143.2443220614
 10
2187.3374182586
 20
-144.4955621046999
 10
2187.9594532646
 20
-145.7023209626
 10
2188.6855126875
 20
-146.851174267
 10
2189.505923011401
 20
-147.9278102143
 10
2189.9698742088
 20
-148.4372776495
  0
LINE
  5
FFD
330
216
100
AcDbEntity
  8
0
  6
Continuous
 62
     7
100
AcDbLine
 10
2205.883409162
 20
-309.1175831805
 30
0.0
 11
2205.9388078577
 21
-309.6029840923
 31
0.0
  0
LINE
  5
FFE
330
216
100
AcDbEntity
  8
0
  6
Continuous
 62
     7
100
AcDbLine
 10
2203.418374976
 20
-308.9568414596
 30
0.0
 11
2203.4827993753
 21
-309.5302814568
 31
0.0
  0
LINE
  5
FFF
330
216
100
AcDbEntity
  8
0
  6
Continuous
 62
     7
100
AcDbLine
 10
2214.5184918312
 20
-308.0115484929
 30
0.0
 11
2199.3994201648
 21
-135.2199587528
 31
0.0
  0
LINE
  5
1000
330
216
100
AcDbEntity
  8
0
  6
Continuous
 62
     7
100
AcDbLine
 10
2226.6834053983
 20
-135.2414347277
 30
0.0
 11
2241.8002524147
 21
-308.0000853575
 31
0.0
  0
LINE
  5
1001
330
216
100
AcDbEntity
  8
0
  6
Continuous
 62
     7
100
AcDbLine
 10
2226.6834053983
 20
-135.2414347277
 30
0.0
 11
2226.6834053983
 21
-133.0038930884
 31
0.0
  0
LWPOLYLINE
  5
1002
330
216
100
AcDbEntity
  8
0
  6
Continuous
 62
     7
100
AcDbPolyline
 90
       43
 70
     0
 43
0.0
 10
2547.704472599
 20
-330.3639896368
 10
2547.8525647613
 20
-330.3566030805
 10
2548.0142596762
 20
-330.3475152552
 10
2548.1921487986
 20
-330.3361778541
 10
2548.4034199823
 20
-330.3207635624
 10
2548.6510849288
 20
-330.2998536739
 10
2548.934389522
 20
-330.2720260105
 10
2549.2657496735
 20
-330.2340323097
 10
2549.6547966789
 20
-330.1817681015001
 10
2550.0942616647
 20
-330.1126039948
 10
2550.5709939339
 20
-330.0252110507
 10
2551.0860771765
 20
-329.9160399231
 10
2551.6383844486
 20
-329.7815535905
 10
2552.2105819538
 20
-329.6226451185
 10
2552.7995038077
 20
-329.4375395159998
 10
2553.4062182869
 20
-329.2229988231
 10
2554.0194044237
 20
-328.9803519127
 10
2554.6372429108
 20
-328.7084323685
 10
2555.258331720401
 20
-328.4063700555
 10
2555.8721930261
 20
-328.0783058251
 10
2556.473503049501
 20
-327.7269490489
 10
2557.0645112857
 20
-327.3507766902
 10
2557.6462260443
 20
-326.9483458024
 10
2558.2169636656
 20
-326.5196684453
 10
2558.7746360699
 20
-326.0650231638
 10
2559.319187615
 20
-325.582819019
 10
2559.8483670219
 20
-325.0731626548
 10
2560.3605356471
 20
-324.536749276
 10
2560.8560330402
 20
-323.9725312668
 10
2561.332973251901
 20
-323.3816027477
 10
2561.7895193157
 20
-322.7650423426
 10
2562.225369657
 20
-322.1215393203
 10
2562.637919386001
 20
-321.4526530976
 10
2563.024796265001
 20
-320.7595929929
 10
2563.385018976
 20
-320.0404316934
 10
2563.7153627909
 20
-319.2975004695
 10
2564.0142821022
 20
-318.5321085003
 10
2564.2819008955
 20
-317.7409154267
 10
2564.5157406232
 20
-316.9267670954
 10
2564.7136273323
 20
-316.0921242239
 10
2564.8743788054
 20
-315.2336505949
 10
2564.9950098722
 20
-314.3531970393
 10
2565.0160916382
 20
-314.1542515931
  0
LWPOLYLINE
  5
1003
330
216
100
AcDbEntity
  8
0
  6
Continuous
 62
     7
100
AcDbPolyline
 90
       41
 70
     0
 43
0.0
 10
2550.0481462961
 20
-330.2836554149
 10
2550.1816527323
 20
-330.2778396871
 10
2550.3223651601
 20
-330.2709883016
 10
2550.4827640074
 20
-330.2621819649
 10
2550.6595423954
 20
-330.2511411006
 10
2550.8576529067
 20
-330.2369915122
 10
2551.102757149
 20
-330.2167528675
 10
2551.4020025586
 20
-330.1877867917
 10
2551.7507239664
 20
-330.1479606612
 10
2552.1575298111
 20
-330.0930694527
 10
2552.635945239201
 20
-330.0166912957
 10
2553.1744197795
 20
-329.915155093
 10
2553.7432843697
 20
-329.789586205
 10
2554.3361019041
 20
-329.6381786975
 10
2554.957868481
 20
-329.4560833852
 10
2555.5951514607
 20
-329.2436751388
 10
2556.247413149601
 20
-328.9979218311
 10
2556.911856617
 20
-328.7165114975
 10
2557.571571742002
 20
-328.404880529
 10
2558.2197845483
 20
-328.0660734373
 10
2558.8595838448
 20
-327.69823122
 10
2559.4891508843
 20
-327.3016626816
 10
2560.1053934264
 20
-326.8775458365
 10
2560.7074089238
 20
-326.425606806
 10
2561.2963010859
 20
-325.9435484362
 10
2561.869799084
 20
-325.431197707
 10
2562.4252038758
 20
-324.8889624872
 10
2562.9628937764
 20
-324.3154612367
 10
2563.4808103962
 20
-323.7119348483
 10
2563.9769537862
 20
-323.0796155204
 10
2564.451183753901
 20
-322.4170038721
 10
2564.9006489642
 20
-321.7257689792
 10
2565.3226887037
 20
-321.0073251403
 10
2565.716271077902
 20
-320.2596337179
 10
2566.077414312
 20
-319.4854007583
 10
2566.403927951001
 20
-318.6860892391
 10
2566.696070081
 20
-317.8578606629
 10
2566.9509928255
 20
-317.0039860836
 10
2567.1662561343
 20
-316.1271804238
 10
2567.3405910358
 20
-315.2234243237
 10
2567.4705243047
 20
-314.294796526
  0
LINE
  5
1004
330
216
100
AcDbEntity
  8
0
  6
Continuous
 62
     7
100
AcDbLine
 10
2547.4431865224
 20
-330.3751053637
 30
0.0
 11
2547.704472599
 21
-330.3639896368
 31
0.0
  0
LINE
  5
1005
330
216
100
AcDbEntity
  8
0
  6
Continuous
 62
     7
100
AcDbLine
 10
2526.6389399728
 20
-331.1017221418
 30
0.0
 11
2547.4431865224
 21
-330.3751053637
 31
0.0
  0
LINE
  5
1006
330
216
100
AcDbEntity
  8
0
  6
Continuous
 62
     7
100
AcDbLine
 10
2547.3134444732
 20
-330.3797525358
 30
0.0
 11
2550.0481462961
 21
-330.2836554149
 31
0.0
  0
LINE
  5
1007
330
216
100
AcDbEntity
  8
0
  6
Continuous
 62
     7
100
AcDbLine
 10
2517.6990813717
 20
-336.9791246878
 30
0.0
 11
2397.7037111547
 21
-336.9791246878
 31
0.0
  0
LINE
  5
1008
330
216
100
AcDbEntity
  8
0
  6
Continuous
 62
     7
100
AcDbLine
 10
2393.1453756666
 20
-334.0389004823
 30
0.0
 11
2522.2574168597
 21
-334.0389004823
 31
0.0
  0
LINE
  5
1009
330
216
100
AcDbEntity
  8
0
  6
Continuous
 62
     7
100
AcDbLine
 10
2526.6389399728
 20
-331.1017221418
 30
0.0
 11
2388.7638525536
 21
-331.1017221418
 31
0.0
  0
LINE
  5
100A
330
216
100
AcDbEntity
  8
0
  6
Continuous
 62
     7
100
AcDbLine
 10
2388.7638525536
 20
-331.1017221418
 30
0.0
 11
2223.6955887469
 21
-325.337411351
 31
0.0
  0
LINE
  5
100B
330
216
100
AcDbEntity
  8
0
  6
Continuous
 62
     7
100
AcDbLine
 10
2223.5237526889
 20
-325.3314106586
 30
0.0
 11
2221.2381383672
 21
-325.2515952927
 31
0.0
  0
LINE
  5
100C
330
216
100
AcDbEntity
  8
0
  6
Continuous
 62
     7
100
AcDbLine
 10
2220.7706847541
 20
-325.2346571556
 30
0.0
 11
2220.9984371758
 21
-325.2432527069
 31
0.0
  0
LINE
  5
100D
330
216
100
AcDbEntity
  8
0
  6
Continuous
 62
     7
100
AcDbLine
 10
2220.6459771883
 20
-325.2293363144
 30
0.0
 11
2220.7706847541
 21
-325.2346571556
 31
0.0
  0
LINE
  5
100E
330
216
100
AcDbEntity
  8
0
  6
Continuous
 62
     7
100
AcDbLine
 10
2223.1226546907
 20
-325.3157510616
 30
0.0
 11
2223.2875597604
 21
-325.3226802609
 31
0.0
  0
LINE
  5
100F
330
216
100
AcDbEntity
  8
0
  6
Continuous
 62
     7
100
AcDbLine
 10
2223.000716895199
 20
-325.3100186938
 30
0.0
 11
2223.1226546907
 21
-325.3157510616
 31
0.0
  0
LWPOLYLINE
  5
1010
330
216
100
AcDbEntity
  8
0
  6
Continuous
 62
     7
100
AcDbPolyline
 90
       11
 70
     0
 43
0.0
 10
2184.2592008092
 20
-133.0038930884
 10
2184.4225083903
 20
-133.1123361609
 10
2184.6552439194
 20
-133.305859562
 10
2184.8609742155
 20
-133.5194130158
 10
2185.0408263322
 20
-133.7491355979
 10
2185.1948299321
 20
-133.989528486
 10
2185.3238266124
 20
-134.2365798199
 10
2185.4294737484
 20
-134.4894078141
 10
2185.5113638915
 20
-134.7442467079
 10
2185.5691272025
 20
-134.9974761935
 10
2185.6011238178
 20
-135.2311913031
  0
LINE
  5
1011
330
216
100
AcDbEntity
  8
0
  6
Continuous
 62
     7
100
AcDbLine
 10
2564.875935029701
 20
-314.0004398976
 30
0.0
 11
2565.0129108699
 21
-314.1507554166
 31
0.0
  0
LWPOLYLINE
  5
1012
330
216
100
AcDbEntity
  8
0
  6
Continuous
 62
     7
100
AcDbPolyline
 90
        9
 70
     0
 43
0.0
 10
2581.432474891
 20
-148.4380609289
 10
2581.8533533462
 20
-147.9797263393
 10
2582.6745897049
 20
-146.9121967713
 10
2583.4027386577
 20
-145.7727517008
 10
2584.0282219261
 20
-144.5754073644
 10
2584.5451588481
 20
-143.3333669482
 10
2584.9543451976
 20
-142.0441270237
 10
2585.2507361381
 20
-140.7175527206
 10
2585.425773622
 20
-139.4144276859
  0
LINE
  5
1013
330
216
100
AcDbEntity
  8
0
  6
Continuous
 62
     7
100
AcDbLine
 10
2585.425773622
 20
-139.4144276859
 30
0.0
 11
2582.2281111593
 21
-139.4293692074
 31
0.0
  0
LINE
  5
1014
330
216
100
AcDbEntity
  8
0
  6
Continuous
 62
     7
100
AcDbLine
 10
2185.6011238178
 20
-135.2311913031
 30
0.0
 11
2199.399394382
 21
-135.219636375
 31
0.0
  0
LINE
  5
1015
330
216
100
AcDbEntity
  8
0
  6
Continuous
 62
     7
100
AcDbLine
 10
2544.7180979986
 20
-135.2414347277
 30
0.0
 11
2226.6834053983
 21
-135.2414347277
 31
0.0
  0
LINE
  5
1016
330
216
100
AcDbEntity
  8
0
  6
Continuous
 62
     7
100
AcDbLine
 10
2160.7013702159
 20
-133.0038930884
 30
0.0
 11
2610.7013702159
 21
-133.0038930884
 31
0.0
  0
LINE
  5
1017
330
216
100
AcDbEntity
  8
0
  6
Continuous
 62
     7
100
AcDbLine
 10
2167.516925696
 20
-131.4617922634
 30
0.0
 11
2603.8858254089
 21
-131.4617870553
 31
0.0
  0
LINE
  5
1018
330
216
100
AcDbEntity
  8
0
  6
Continuous
 62
     7
100
AcDbLine
 10
2603.8848106649
 20
-130.366974091
 30
0.0
 11
2167.5185523326
 21
-130.3658100079
 31
0.0
  0
LINE
  5
1019
330
216
100
AcDbEntity
  8
0
  6
Continuous
 62
     7
100
AcDbLine
 10
2572.0033315796
 20
-135.2198594204
 30
0.0
 11
2585.800568762
 21
-135.2310341069
 31
0.0
  0
LINE
  5
101A
330
216
100
AcDbEntity
  8
0
  6
Continuous
 62
     7
100
AcDbLine
 10
2189.174628592001
 20
-139.4293692336
 30
0.0
 11
2185.9769663715
 21
-139.414427714
 31
0.0
  0
LINE
  5
101B
330
216
100
AcDbEntity
  8
0
  6
Continuous
 62
     7
100
AcDbLine
 10
2169.0018697305
 20
-127.6037140644
 30
0.0
 11
2602.4002958688
 21
-127.6026465229
 31
0.0
  0
LINE
  5
101C
330
216
100
AcDbEntity
  8
0
  6
Continuous
 62
     7
100
AcDbLine
 10
2168.4513702102
 20
-125.0038930884
 30
0.0
 11
2602.951370848801
 21
-125.0038930884
 31
0.0
  0
LINE
  5
101D
330
216
100
AcDbEntity
  8
0
  6
Continuous
 62
     7
100
AcDbLine
 10
2529.3006120785
 20
-311.4499674752
 30
0.0
 11
2529.5799464547
 21
-327.8642507664
 31
0.0
  0
LINE
  5
101E
330
216
100
AcDbEntity
  8
0
  6
Continuous
 62
     7
100
AcDbLine
 10
2544.7180979986
 20
-135.2414347277
 30
0.0
 11
2529.3018497489
 21
-311.449958534
 31
0.0
  0
LINE
  5
101F
330
216
100
AcDbEntity
  8
0
  6
Continuous
 62
     7
100
AcDbLine
 10
2544.7193350335
 20
-133.0038930884
 30
0.0
 11
2544.7193350335
 21
-135.2414347277
 31
0.0
  0
LINE
  5
1020
330
216
100
AcDbEntity
  8
0
  6
Continuous
 62
     7
100
AcDbLine
 10
2572.0033138745
 20
-135.2199638728
 30
0.0
 11
2556.5628186527
 21
-311.6850651992
 31
0.0
  0
LINE
  5
1021
330
216
100
AcDbEntity
  8
0
  6
Continuous
 62
     7
100
AcDbLine
 10
2582.1417002958
 20
-141.2818064593
 30
0.0
 11
2582.2269662338
 21
-139.4259595677
 31
0.0
  0
LINE
  5
1022
330
216
100
AcDbEntity
  8
0
  6
Continuous
 62
     7
100
AcDbLine
 10
2585.4197531509
 20
-139.4156556803
 30
0.0
 11
2585.8020828931
 21
-135.2219596514
 31
0.0
  0
LINE
  5
1023
330
216
100
AcDbEntity
  8
0
  6
Continuous
 62
     7
100
AcDbLine
 10
2567.501377659
 20
-313.9885549603
 30
0.0
 11
2583.5419435576
 21
-145.5062758303
 31
0.0
  0
LINE
  5
1024
330
216
100
AcDbEntity
  8
0
  6
Continuous
 62
     7
100
AcDbLine
 10
2565.0263259207
 20
-314.0153298026
 30
0.0
 11
2582.1417002958
 21
-141.2818064593
 31
0.0
  0
LINE
  5
1025
330
216
100
AcDbEntity
  8
0
  6
Continuous
 62
     7
100
AcDbLine
 10
2564.876954282301
 20
-314.0005332804
 30
0.0
 11
2582.2281942697
 21
-139.4227690417
 31
0.0
  0
LINE
  5
1026
330
216
100
AcDbEntity
  8
0
  6
Continuous
 62
     7
100
AcDbLine
 10
2567.4705243047
 20
-314.294796526
 30
0.0
 11
2567.5021188865
 21
-313.9925721405
 31
0.0
  0
LWPOLYLINE
  5
1027
330
216
100
AcDbEntity
  8
0
  6
Continuous
 62
     7
100
AcDbPolyline
 90
       11
 70
     0
 43
0.0
 10
2585.8005698646
 20
-135.2310294155
 10
2585.8306666763
 20
-135.0087653807
 10
2585.8861630185
 20
-134.7601975598
 10
2585.9651530828
 20
-134.5090965032
 10
2586.0677530357
 20
-134.2584320901
 10
2586.1936700012
 20
-134.0124003473
 10
2586.3446404402
 20
-133.7720499181
 10
2586.5215773869
 20
-133.5415129907
 10
2586.7247777945
 20
-133.3261933138
 10
2586.9558308689
 20
-133.1299881116
 10
2587.1418471798
 20
-133.0038930884
  0
LINE
  5
1028
330
216
100
AcDbEntity
  8
0
  6
Continuous
 62
     7
100
AcDbLine
 10
2602.4009234144
 20
-125.0038930884
 30
0.0
 11
2602.4009234144
 21
-127.6026466346
 31
0.0
  0
LINE
  5
1029
330
216
100
AcDbEntity
  8
0
  6
Continuous
 62
     7
100
AcDbLine
 10
2610.7013702159
 20
-133.0038930884
 30
0.0
 11
2610.6213948337
 21
-131.4778718899
 31
0.0
  0
LINE
  5
102A
330
216
100
AcDbEntity
  8
0
  6
Continuous
 62
     7
100
AcDbLine
 10
2604.1701619002
 20
-131.4757947751
 30
0.0
 11
2604.1701619002
 21
-133.0038930884
 31
0.0
  0
LINE
  5
102B
330
216
100
AcDbEntity
  8
0
  6
Continuous
 62
     7
100
AcDbLine
 10
2608.152083111401
 20
-127.6048436158
 30
0.0
 11
2610.2233262946
 21
-130.3665011933
 31
0.0
  0
ARC
  5
118F
330
216
100
AcDbEntity
  8
0
  6
Continuous
 62
     7
100
AcDbCircle
 10
2455.8938217471
 20
4283.6754145849
 30
0.0
 40
4612.128352272001
100
AcDbArc
 50
270.0224552281
 51
270.9154262643
  0
ARC
  5
1190
330
216
100
AcDbEntity
  8
0
  6
Continuous
 62
     7
100
AcDbCircle
 10
1953.7930198026
 20
-477.7021625587998
 30
0.0
 40
737.0624598325999
100
AcDbArc
 50
28.1149830057
 51
28.3588948829
  0
ARC
  5
1191
330
216
100
AcDbEntity
  8
0
  6
Continuous
 62
     7
100
AcDbCircle
 10
2811.8783830597
 20
-474.6244688837998
 30
0.0
 40
730.5570584599998
100
AcDbArc
 50
151.6401016774
 51
151.8859868996
  0
ARC
  5
1192
330
216
100
AcDbEntity
  8
0
  6
Continuous
 62
     7
100
AcDbCircle
 10
1819.6309883791
 20
-160.0722128873
 30
0.0
 40
348.8161022908
100
AcDbArc
 50
4.702930251799998
 51
4.888522041099998
  0
ARC
  5
1193
330
216
100
AcDbEntity
  8
0
  6
Continuous
 62
     7
100
AcDbCircle
 10
2951.7716649788
 20
-160.0722057638
 30
0.0
 40
348.816014933
100
AcDbArc
 50
175.1114779061
 51
175.2970697417
  0
ARC
  5
1194
330
216
100
AcDbEntity
  8
0
  6
Continuous
 62
     7
100
AcDbCircle
 10
2547.9214303455
 20
-130.9981923654
 30
0.0
 40
55.9663151803
100
AcDbArc
 50
359.5253928711
 51
0.6462263286
  0
ARC
  5
1195
330
216
100
AcDbEntity
  8
0
  6
Continuous
 62
     7
100
AcDbCircle
 10
2561.582024418501
 20
-279.7599711639
 30
0.0
 40
34.9359450748
100
AcDbArc
 50
275.6263243732
 51
276.7711401267
  0
ARC
  5
1196
330
216
100
AcDbEntity
  8
0
  6
Continuous
 62
     7
100
AcDbCircle
 10
2546.9609781675
 20
-312.3507107653
 30
0.0
 40
17.9912204593
100
AcDbArc
 50
272.0257413742
 51
354.7179674905
  0
ARC
  5
1197
330
216
100
AcDbEntity
  8
0
  6
Continuous
 62
     7
100
AcDbCircle
 10
2223.934004921
 20
-307.3344515677
 30
0.0
 40
17.9873245592
100
AcDbArc
 50
185.2488526204
 51
267.9642037561
  0
ARC
  5
1198
330
216
100
AcDbEntity
  8
0
  6
Continuous
 62
     7
100
AcDbCircle
 10
2206.883030199
 20
-139.5762644171
 30
0.0
 40
17.7041194131
100
AcDbArc
 50
185.6692654868
 51
187.7469249337
  0
ARC
  5
1199
330
216
100
AcDbEntity
  8
0
  6
Continuous
 62
     7
100
AcDbCircle
 10
2567.7502654106
 20
-139.8157508415
 30
0.0
 40
14.4875695944
100
AcDbArc
 50
350.4086068467
 51
351.7201553481
  0
ARC
  5
119A
330
216
100
AcDbEntity
  8
0
  6
Continuous
 62
     7
100
AcDbCircle
 10
2203.6313616043
 20
-139.8470163938
 30
0.0
 40
14.4655842421
100
AcDbArc
 50
186.5000707802
 51
187.9870702377
  0
ARC
  5
119B
330
216
100
AcDbEntity
  8
0
  6
Continuous
 62
     7
100
AcDbCircle
 10
2567.8304852451
 20
-139.8269728344
 30
0.0
 40
14.4065671634
100
AcDbArc
 50
352.2189653707
 51
353.426878414
  0
ARC
  5
119C
330
216
100
AcDbEntity
  8
0
  6
Continuous
 62
     7
100
AcDbCircle
 10
2203.2079134786
 20
-139.8842653052
 30
0.0
 40
14.0406456708
100
AcDbArc
 50
178.1298224611
 51
186.5446596384
  0
ARC
  5
119D
330
216
100
AcDbEntity
  8
0
  6
Continuous
 62
     7
100
AcDbCircle
 10
2568.3340644907
 20
-139.8723694157
 30
0.0
 40
13.9011072226
100
AcDbArc
 50
353.3751633372
 51
1.8262099573
  0
ARC
  5
119E
330
216
100
AcDbEntity
  8
0
  6
Continuous
 62
     7
100
AcDbCircle
 10
2602.9513702159
 20
-131.5038930884
 30
0.0
 40
6.5
100
AcDbArc
 50
36.8594243368
 51
89.99999442120001
  0
ARC
  5
119F
330
216
100
AcDbEntity
  8
0
  6
Continuous
 62
     7
100
AcDbCircle
 10
2168.4513702159
 20
-131.5038930884
 30
0.0
 40
6.5
100
AcDbArc
 50
90.0
 51
143.1301448566
  0
ARC
  5
11A0
330
216
100
AcDbEntity
  8
0
  6
Continuous
 62
     7
100
AcDbCircle
 10
2397.7013962632
 20
-331.9791246878
 30
0.0
 40
5.0
100
AcDbArc
 50
204.327714138
 51
270.0
  0
ARC
  5
11A1
330
216
100
AcDbEntity
  8
0
  6
Continuous
 62
     7
100
AcDbCircle
 10
2517.7013962632
 20
-331.9791246878
 30
0.0
 40
5.0
100
AcDbArc
 50
270.0
 51
335.672285862
  0
ARC
  5
11A2
330
216
100
AcDbEntity
  8
0
  6
Continuous
 62
     7
100
AcDbCircle
 10
2526.8134374563
 20
-336.0986762769
 30
0.0
 40
5.0
100
AcDbArc
 50
92.0
 51
155.672285862
  0
ARC
  5
11A3
330
216
100
AcDbEntity
  8
0
  6
Continuous
 62
     7
100
AcDbCircle
 10
2388.5893550701
 20
-336.0986762769
 30
0.0
 40
5.0
100
AcDbArc
 50
24.327714138
 51
88.0
  0
ARC
  5
11A4
330
216
100
AcDbEntity
  8
0
  6
Continuous
 62
     7
100
AcDbCircle
 10
2608.6232926562
 20
-131.5664563421
 30
0.0
 40
2.0
100
AcDbArc
 50
3.0000000005
 51
36.86829153010001
  0
ARC
  5
11A5
330
216
100
AcDbEntity
  8
0
  6
Continuous
 62
     7
100
AcDbCircle
 10
2162.7794477756
 20
-131.5664563421
 30
0.0
 40
2.0
100
AcDbArc
 50
143.1317245362
 51
176.9999999995
  0
LINE
  5
1391
330
216
100
AcDbEntity
  8
0
  6
Continuous
 62
     7
100
AcDbLine
 10
2223.1693764037
 20
-325.3137634333
 30
0.0
 11
2223.5181932448
 21
-325.3312263262
 31
0.0
  0
LINE
  5
1392
330
216
100
AcDbEntity
  8
0
  6
Continuous
 62
     7
100
AcDbLine
 10
2221.0233954389
 20
-325.2441284554
 30
0.0
 11
2220.7538863593
 21
-325.2328767941
 31
0.0
  0
LINE
  5
1393
330
216
100
AcDbEntity
  8
0
  6
Continuous
 62
     7
100
AcDbLine
 10
2222.6496547073
 20
-325.290690474
 30
0.0
 11
2221.1035540927
 21
-325.2468596654
 31
0.0
  0
LINE
  5
1394
330
216
100
AcDbEntity
  8
0
  6
Continuous
 62
     7
100
AcDbLine
 10
2221.1035540927
 20
-325.2468596654
 30
0.0
 11
2221.0254540248
 21
-325.2442002872
 31
0.0
  0
SPLINE
  5
1395
330
216
100
AcDbEntity
  8
0
  6
Continuous
 62
     7
100
AcDbSpline
210
0.0
220
0.0
230
1.0
 70
     8
 71
     3
 72
    10
 73
     6
 74
     0
 42
0.0000000001
 43
0.0000000001
 40
0.0
 40
0.0
 40
0.0
 40
0.0
 40
0.574097619
 40
0.8052740795
 40
1.0
 40
1.0
 40
1.0
 40
1.0
 10
2556.5621789099
 20
-311.691580131
 30
0.0
 10
2558.1392989072
 20
-312.1909346905
 30
0.0
 10
2560.3369977471
 20
-312.9388106311
 30
0.0
 10
2563.103840759501
 20
-313.7423680024
 30
0.0
 10
2564.3166656316
 20
-313.9680621069
 30
0.0
 10
2564.8764230827
 20
-314.0070100174
 30
0.0
  0
SPLINE
  5
1396
330
216
100
AcDbEntity
  8
0
  6
Continuous
 62
     7
100
AcDbSpline
210
0.0
220
0.0
230
1.0
 70
     8
 71
     3
 72
    15
 73
    11
 74
     0
 42
0.0000000001
 43
0.0000000001
 40
0.0
 40
0.0
 40
0.0
 40
0.0
 40
0.3624802715
 40
0.5280852951
 40
0.6757308276
 40
0.8003791723999999
 40
0.8978588779
 40
0.9650162542
 40
0.9865673784
 40
1.0
 40
1.0
 40
1.0
 40
1.0
 10
2529.3005887347
 20
-311.4499640279
 30
0.0
 10
2532.5947404076
 20
-311.6177395718001
 30
0.0
 10
2537.3957773069
 20
-311.8283940779
 30
0.0
 10
2543.5423609671
 20
-312.0034405642
 30
0.0
 10
2547.526359767601
 20
-312.070532099
 30
0.0
 10
2550.8920229733
 20
-312.0775247335
 30
0.0
 10
2553.522360736601
 20
-312.0207464531
 30
0.0
 10
2555.2181027705
 20
-311.9310531404
 30
0.0
 10
2556.1369477769
 20
-311.804043258
 30
0.0
 10
2556.451019362401
 20
-311.734475901
 30
0.0
 10
2556.5628186527
 20
-311.6850651992
 30
0.0
  0
SPLINE
  5
1397
330
216
100
AcDbEntity
  8
0
  6
Continuous
 62
     7
100
AcDbSpline
210
0.0
220
0.0
230
1.0
 70
     8
 71
     3
 72
     9
 73
     5
 74
     0
 42
0.0000000001
 43
0.0000000001
 40
0.0
 40
0.0
 40
0.0
 40
0.0
 40
0.4838096152000002
 40
1.0
 40
1.0
 40
1.0
 40
1.0
 10
2572.0033155206
 20
-135.2199633997
 30
0.0
 10
2572.0436955349
 20
-134.7938583534
 30
0.0
 10
2572.3202609586
 20
-133.9213883574
 30
0.0
 10
2572.9526722522
 20
-133.2512123042
 30
0.0
 10
2573.3337347905
 20
-132.9995574207
 30
0.0
  0
SPLINE
  5
1398
330
216
100
AcDbEntity
  8
0
  6
Continuous
 62
     7
100
AcDbSpline
210
0.0
220
0.0
230
1.0
 70
     8
 71
     3
 72
    14
 73
    10
 74
     0
 42
0.0000000001
 43
0.0000000001
 40
0.0
 40
0.0
 40
0.0
 40
0.0
 40
0.3634480558
 40
0.529627454
 40
0.6777605655
 40
0.8026027298999999
 40
0.8999011805
 40
0.9664276704
 40
1.0
 40
1.0
 40
1.0
 40
1.0
 10
2544.7193117154
 20
-135.241432703
 30
0.0
 10
2548.0247833545
 20
-135.2154371544
 30
0.0
 10
2552.8416980247
 20
-135.1862901719
 30
0.0
 10
2559.0058233093
 20
-135.1523024806
 30
0.0
 10
2562.9999808133
 20
-135.1296598993
 30
0.0
 10
2566.3674626598
 20
-135.1421777413
 30
0.0
 10
2568.9933061647
 20
-135.1577391114
 30
0.0
 10
2570.7875270316
 20
-135.1867591754
 30
0.0
 10
2571.6991503743
 20
-135.1931671373
 30
0.0
 10
2572.0033138745
 20
-135.2199638728
 30
0.0
  0
SPLINE
  5
1399
330
216
100
AcDbEntity
  8
0
  6
Continuous
 62
     7
100
AcDbSpline
210
0.0
220
0.0
230
1.0
 70
     8
 71
     3
 72
    11
 73
     7
 74
     0
 42
0.0000000001
 43
0.0000000001
 40
0.0
 40
0.0
 40
0.0
 40
0.0
 40
0.0824531387
 40
0.2718541403
 40
0.5771126614000001
 40
1.0
 40
1.0
 40
1.0
 40
1.0
 10
2203.418342413
 20
-308.9564897014
 30
0.0
 10
2203.424613067
 20
-309.026467608
 30
0.0
 10
2203.692488162801
 20
-309.1414928471
 30
0.0
 10
2204.124361988
 20
-309.2490252651
 30
0.0
 10
2204.9216612199
 20
-309.3815407728
 30
0.0
 10
2205.5294849761
 20
-309.4541850162
 30
0.0
 10
2205.8876556538
 20
-309.493685175
 30
0.0
  0
SPLINE
  5
139A
330
216
100
AcDbEntity
  8
0
  6
Continuous
 62
     7
100
AcDbSpline
210
0.0
220
0.0
230
1.0
 70
     8
 71
     3
 72
    14
 73
    10
 74
     0
 42
0.0000000001
 43
0.0000000001
 40
0.0
 40
0.0
 40
0.0
 40
0.0
 40
0.033588992
 40
0.1001388881
 40
0.1974632381
 40
0.3223284181
 40
0.4704682028000002
 40
0.6366457927
 40
1.0
 40
1.0
 40
1.0
 40
1.0
 10
2199.3994201648
 20
-135.2199587528
 30
0.0
 10
2199.7039136782
 20
-135.1952684978
 30
0.0
 10
2200.6155780695
 20
-135.1855332349
 30
0.0
 10
2202.410617508
 20
-135.1576720919
 30
0.0
 10
2205.0370210549
 20
-135.1428305051
 30
0.0
 10
2208.4050406035
 20
-135.1291789574
 30
0.0
 10
2212.39943614
 20
-135.1523971425
 30
0.0
 10
2218.5627413786
 20
-135.1876359667
 30
0.0
 10
2223.3788168033
 20
-135.2122502887
 30
0.0
 10
2226.6834053983
 20
-135.2414347277
 30
0.0
  0
SPLINE
  5
139B
330
216
100
AcDbEntity
  8
0
  6
Continuous
 62
     7
100
AcDbSpline
210
0.0
220
0.0
230
1.0
 70
     8
 71
     3
 72
     9
 73
     5
 74
     0
 42
0.0000000001
 43
0.0000000001
 40
0.0
 40
0.0
 40
0.0
 40
0.0
 40
0.2403274598
 40
1.0
 40
1.0
 40
1.0
 40
1.0
 10
2199.399394382
 20
-135.219636375
 30
0.0
 10
2199.3794597994
 20
-135.0093848104
 30
0.0
 10
2199.193440514
 20
-134.1484817741
 30
0.0
 10
2198.6250713235
 20
-133.3611102868
 30
0.0
 10
2198.0639778873
 20
-132.9993895617
 30
0.0
  0
SPLINE
  5
139C
330
216
100
AcDbEntity
  8
0
  6
Continuous
 62
     7
100
AcDbSpline
210
0.0
220
0.0
230
1.0
 70
     8
 71
     3
 72
    11
 73
     7
 74
     0
 42
0.0000000001
 43
0.0000000001
 40
0.0
 40
0.0
 40
0.0
 40
0.0
 40
0.250005768
 40
0.499992363
 40
0.7499713833000002
 40
1.0
 40
1.0
 40
1.0
 40
1.0
 10
2241.800208941
 20
-308.0015694614
 30
0.0
 10
2265.7530252852
 20
-308.6978433107
 30
0.0
 10
2313.6581522827
 20
-310.0496037652
 30
0.0
 10
2385.5269674161
 20
-311.5859448688
 30
0.0
 10
2457.413477337
 20
-312.2615893018001
 30
0.0
 10
2505.3396533173
 20
-311.8245362743
 30
0.0
 10
2529.3018727045
 20
-311.4514214991999
 30
0.0
  0
SPLINE
  5
139D
330
216
100
AcDbEntity
  8
0
  6
Continuous
 62
     7
100
AcDbSpline
210
0.0
220
0.0
230
1.0
 70
     8
 71
     3
 72
    15
 73
    11
 74
     0
 42
0.0000000001
 43
0.0000000001
 40
0.0
 40
0.0
 40
0.0
 40
0.0
 40
0.0137205295
 40
0.0354362592
 40
0.1026658563
 40
0.2007074077
 40
0.3252162127
 40
0.4734328594
 40
0.6386084456000001
 40
1.0
 40
1.0
 40
1.0
 40
1.0
 10
2214.5186439428
 20
-308.0132370741
 30
0.0
 10
2214.6308822739
 20
-308.0681735194
 30
0.0
 10
2214.947924785
 20
-308.1468603135
 30
0.0
 10
2215.869732866099
 20
-308.2904910241
 30
0.0
 10
2217.573400135
 20
-308.4026074893
 30
0.0
 10
2220.2096800721
 20
-308.487319867
 30
0.0
 10
2223.5874191953
 20
-308.5090562714
 30
0.0
 10
2227.5753525371
 20
-308.4719011066
 30
0.0
 10
2233.7197717213
 20
-308.3362614772
 30
0.0
 10
2238.5124824924
 20
-308.1547575102
 30
0.0
 10
2241.8003547411
 20
-308.001788404
 30
0.0
  0
SPLINE
  5
139E
330
216
100
AcDbEntity
  8
0
  6
Continuous
 62
     7
100
AcDbSpline
210
0.0
220
0.0
230
1.0
 70
     8
 71
     3
 72
     9
 73
     5
 74
     0
 42
0.0000000001
 43
0.0000000001
 40
0.0
 40
0.0
 40
0.0
 40
0.0
 40
0.4284142309
 40
1.0
 40
1.0
 40
1.0
 40
1.0
 10
2206.0215306195
 20
-308.9800133852
 30
0.0
 10
2207.2435926342
 20
-308.9676410511
 30
0.0
 10
2210.0919846794
 20
-308.7230233318
 30
0.0
 10
2212.9116082431
 20
-308.2882963728
 30
0.0
 10
2214.518497569
 20
-308.0115536762
 30
0.0
  0
SPLINE
  5
139F
330
216
100
AcDbEntity
  8
0
  6
Continuous
 62
     7
100
AcDbSpline
210
0.0
220
0.0
230
1.0
 70
     8
 71
     3
 72
    11
 73
     7
 74
     0
 42
0.0000000001
 43
0.0000000001
 40
0.0
 40
0.0
 40
0.0
 40
0.0
 40
0.2418769343
 40
0.5005763172
 40
0.7589246079000001
 40
1.0
 40
1.0
 40
1.0
 40
1.0
 10
2556.5621785403
 20
-311.691580014
 30
0.0
 10
2556.3584280681
 20
-313.7790351034
 30
0.0
 10
2555.1669953158
 20
-318.0606221437
 30
0.0
 10
2551.1730825486
 20
-323.4818034798
 30
0.0
 10
2545.4789309448
 20
-327.0641458113
 30
0.0
 10
2541.1284019816
 20
-327.9280078704
 30
0.0
 10
2539.0384170123
 20
-327.9708921279
 30
0.0
  0
SPLINE
  5
13A0
330
216
100
AcDbEntity
  8
0
  6
Continuous
 62
     7
100
AcDbSpline
210
0.0
220
0.0
230
1.0
 70
     8
 71
     3
 72
    13
 73
     9
 74
     0
 42
0.0000000001
 43
0.0000000001
 40
0.0
 40
0.0
 40
0.0
 40
0.0
 40
0.3630466011
 40
0.6772546368000001
 40
0.8018763234999999
 40
0.8988348434
 40
0.9657205006999999
 40
1.0
 40
1.0
 40
1.0
 40
1.0
 10
2529.5795944962
 20
-327.8642546774
 30
0.0
 10
2530.724758652
 20
-327.8464791711
 30
0.0
 10
2532.861042482901
 20
-327.825324077
 30
0.0
 10
2535.3913874788
 20
-327.825471246
 30
0.0
 10
2537.0806085838
 20
-327.8536982409999
 30
0.0
 10
2537.991958316601
 20
-327.8762408126
 30
0.0
 10
2538.612584373201
 20
-327.9188875317
 30
0.0
 10
2538.9353302679
 20
-327.9382165333
 30
0.0
 10
2539.0384170123
 20
-327.9708921279
 30
0.0
  0
SPLINE
  5
13A1
330
216
100
AcDbEntity
  8
0
  6
Continuous
 62
     7
100
AcDbSpline
210
0.0
220
0.0
230
1.0
 70
     8
 71
     3
 72
    10
 73
     6
 74
     0
 42
0.0000000001
 43
0.0000000001
 40
0.0
 40
0.0
 40
0.0
 40
0.0
 40
0.1950314335
 40
0.42825352
 40
1.0
 40
1.0
 40
1.0
 40
1.0
 10
2547.6089953003
 20
-330.3296219196
 30
0.0
 10
2547.032510972301
 20
-330.287231864
 30
0.0
 10
2545.7787517109
 20
-330.0539354031
 30
0.0
 10
2542.927496901
 20
-329.2461563807
 30
0.0
 10
2540.665909569201
 20
-328.4826387756
 30
0.0
 10
2539.050547627601
 20
-327.9706383128
 30
0.0
  0
SPLINE
  5
13A2
330
216
100
AcDbEntity
  8
0
  6
Continuous
 62
     7
100
AcDbSpline
210
0.0
220
0.0
230
1.0
 70
     8
 71
     3
 72
     9
 73
     5
 74
     0
 42
0.0000000001
 43
0.0000000001
 40
0.0
 40
0.0
 40
0.0
 40
0.0
 40
0.5005147707000001
 40
1.0
 40
1.0
 40
1.0
 40
1.0
 10
2457.701396283801
 20
-328.4526093313
 30
0.0
 10
2421.5865227512
 20
-328.4502794325
 30
0.0
 10
2349.4313808881
 20
-327.4585860586
 30
0.0
 10
2277.3036171447
 20
-325.4608301950999
 30
0.0
 10
2241.2782252425
 20
-324.4143986631
 30
0.0
  0
SPLINE
  5
13A3
330
216
100
AcDbEntity
  8
0
  6
Continuous
 62
     7
100
AcDbSpline
210
0.0
220
0.0
230
1.0
 70
     8
 71
     3
 72
     9
 73
     5
 74
     0
 42
0.0000000001
 43
0.0000000001
 40
0.0
 40
0.0
 40
0.0
 40
0.0
 40
0.5729879781000001
 40
1.0
 40
1.0
 40
1.0
 40
1.0
 10
2231.827202821
 20
-324.2973654463
 30
0.0
 10
2230.2088645371
 20
-324.5739858219
 30
0.0
 10
2227.3811677551
 20
-325.0307546443
 30
0.0
 10
2224.5206931318
 20
-325.3035500439
 30
0.0
 10
2223.2971719131
 20
-325.3098660258
 30
0.0
  0
SPLINE
  5
13A4
330
216
100
AcDbEntity
  8
0
  6
Continuous
 62
     7
100
AcDbSpline
210
0.0
220
0.0
230
1.0
 70
     8
 71
     3
 72
    15
 73
    11
 74
     0
 42
0.0000000001
 43
0.0000000001
 40
0.0
 40
0.0
 40
0.0
 40
0.0
 40
0.006173928
 40
0.0210479958
 40
0.078188604
 40
0.1699584273
 40
0.2935355213
 40
0.4451782501000002
 40
0.618270774
 40
1.0
 40
1.0
 40
1.0
 40
1.0
 10
2610.6212393745
 20
-131.4749055779
 30
0.0
 10
2610.6219399118
 20
-131.4882726281
 30
0.0
 10
2610.565328846901
 20
-131.5113963653
 30
0.0
 10
2610.4155415961
 20
-131.5307769345
 30
0.0
 10
2610.0424651857
 20
-131.5515416895
 30
0.0
 10
2609.4619441536
 20
-131.5560524744
 30
0.0
 10
2608.661999288
 20
-131.556998198
 30
0.0
 10
2607.6915888143
 20
-131.5532429883
 30
0.0
 10
2606.159372203201
 20
-131.5370294775
 30
0.0
 10
2604.9569567554
 20
-131.506932316
 30
0.0
 10
2604.1300455603
 20
-131.472962361
 30
0.0
  0
SPLINE
  5
13A5
330
216
100
AcDbEntity
  8
0
  6
Continuous
 62
     7
100
AcDbSpline
210
0.0
220
0.0
230
1.0
 70
     8
 71
     3
 72
    13
 73
     9
 74
     0
 42
0.0000000001
 43
0.0000000001
 40
0.0
 40
0.0
 40
0.0
 40
0.0
 40
0.0340241988
 40
0.1008170121
 40
0.1978011084
 40
0.3225180185
 40
0.6369103601
 40
1.0
 40
1.0
 40
1.0
 40
1.0
 10
2231.827202821
 20
-324.2973654463
 30
0.0
 10
2231.9328857625
 20
-324.2793012106
 30
0.0
 10
2232.2521436434
 20
-324.2744331097
 30
0.0
 10
2232.874148404
 20
-324.2599190191
 30
0.0
 10
2233.7838517636
 20
-324.263741447
 30
0.0
 10
2235.472794291601
 20
-324.2785696335
 30
0.0
 10
2238.0004482815
 20
-324.3268887846
 30
0.0
 10
2240.1345572381
 20
-324.3811498962
 30
0.0
 10
2241.2782282001
 20
-324.4143700799
 30
0.0
  0
SPLINE
  5
13A6
330
216
100
AcDbEntity
  8
0
  6
Continuous
 62
     7
100
AcDbSpline
210
0.0
220
0.0
230
1.0
 70
     8
 71
     3
 72
    11
 73
     7
 74
     0
 42
0.0000000001
 43
0.0000000001
 40
0.0
 40
0.0
 40
0.0
 40
0.0
 40
0.2420522571
 40
0.5006015928
 40
0.7587842595000001
 40
1.0
 40
1.0
 40
1.0
 40
1.0
 10
2214.5184968818
 20
-308.0115479642
 30
0.0
 10
2214.7176877108
 20
-310.0852672365
 30
0.0
 10
2215.8882389618
 20
-314.3371406279
 30
0.0
 10
2219.8225337877
 20
-319.7357156683001
 30
0.0
 10
2225.4440725833
 20
-323.3323393613
 30
0.0
 10
2229.7521254838
 20
-324.2320079347
 30
0.0
 10
2231.8271607026
 20
-324.2973673585
 30
0.0
  0
SPLINE
  5
13A7
330
216
100
AcDbEntity
  8
0
  6
Continuous
 62
     7
100
AcDbSpline
210
0.0
220
0.0
230
1.0
 70
     8
 71
     3
 72
    14
 73
    10
 74
     0
 42
0.0000000001
 43
0.0000000001
 40
0.0
 40
0.0
 40
0.0
 40
0.0
 40
0.3718368137
 40
0.5484340411000001
 40
0.7051169944
 40
0.8323540837999999
 40
0.9249431809
 40
0.9800516287999998
 40
1.0
 40
1.0
 40
1.0
 40
1.0
 10
2241.800208941
 20
-308.0015694614
 30
0.0
 10
2241.7406133681
 20
-310.0360317082
 30
0.0
 10
2241.6517675689
 20
-313.0367244601
 30
0.0
 10
2241.5331686392
 20
-316.8944579111
 30
0.0
 10
2241.4562191733
 20
-319.4141906585
 30
0.0
 10
2241.3849198396
 20
-321.4734426676
 30
0.0
 10
2241.3454090891
 20
-322.9788675374
 30
0.0
 10
2241.2919773883
 20
-323.8934957576
 30
0.0
 10
2241.2955667538
 20
-324.3065487409
 30
0.0
 10
2241.2782305043
 20
-324.4143557629
 30
0.0
  0
SPLINE
  5
13A8
330
216
100
AcDbEntity
  8
0
  6
Continuous
 62
     7
100
AcDbSpline
210
0.0
220
0.0
230
1.0
 70
     8
 71
     3
 72
     8
 73
     4
 74
     0
 42
0.0000000001
 43
0.0000000001
 40
0.0
 40
0.0
 40
0.0
 40
0.0
 40
1.0
 40
1.0
 40
1.0
 40
1.0
 10
2610.195989156701
 20
-130.3472565481
 30
0.0
 10
2610.444960451
 20
-130.6625253555
 30
0.0
 10
2610.600212439101
 20
-131.0737335759
 30
0.0
 10
2610.6212393758
 20
-131.4749056016
 30
0.0
  0
SPLINE
  5
13A9
330
216
100
AcDbEntity
  8
0
  6
Continuous
 62
     7
100
AcDbSpline
210
0.0
220
0.0
230
1.0
 70
     8
 71
     3
 72
    14
 73
    10
 74
     0
 42
0.0000000001
 43
0.0000000001
 40
0.0
 40
0.0
 40
0.0
 40
0.0
 40
0.4731499043
 40
0.6230495754
 40
0.7153956269
 40
0.7511540973999999
 40
0.7777547845
 40
0.8602147723999998
 40
1.0
 40
1.0
 40
1.0
 40
1.0
 10
2547.3232041024
 20
-330.3795054309
 30
0.0
 10
2547.409144005
 20
-330.3764861073
 30
0.0
 10
2547.5170390152
 20
-330.3730993485
 30
0.0
 10
2547.656669359
 20
-330.3624764756
 30
0.0
 10
2547.6945468783
 20
-330.3594299722
 30
0.0
 10
2547.7392307385
 20
-330.3508987114
 30
0.0
 10
2547.7034096079
 20
-330.3374220022
 30
0.0
 10
2547.6662140308
 20
-330.337492392
 30
0.0
 10
2547.6227911334
 20
-330.3318906122
 30
0.0
 10
2547.5974542037
 20
-330.330027287
 30
0.0
  0
SPLINE
  5
13AA
330
216
100
AcDbEntity
  8
0
  6
Continuous
 62
     7
100
AcDbSpline
210
0.0
220
0.0
230
1.0
 70
     8
 71
     3
 72
    11
 73
     7
 74
     0
 42
0.0000000001
 43
0.0000000001
 40
0.0
 40
0.0
 40
0.0
 40
0.0
 40
0.3734301582
 40
0.6896567787000001
 40
0.9071527223
 40
1.0
 40
1.0
 40
1.0
 40
1.0
 10
2604.2245075275
 20
-130.3470375972
 30
0.0
 10
2604.9677573526
 20
-130.3355733097
 30
0.0
 10
2606.3403198714
 20
-130.3287970082
 30
0.0
 10
2608.1470103009
 20
-130.3231406855
 30
0.0
 10
2609.392273859401
 20
-130.345563234
 30
0.0
 10
2610.0124606819
 20
-130.3254550472
 30
0.0
 10
2610.195989156701
 20
-130.3472565479
 30
0.0
  0
SPLINE
  5
13AB
330
216
100
AcDbEntity
  8
0
  6
Continuous
 62
     7
100
AcDbSpline
210
0.0
220
0.0
230
1.0
 70
     8
 71
     3
 72
     8
 73
     4
 74
     0
 42
0.0000000001
 43
0.0000000001
 40
0.0
 40
0.0
 40
0.0
 40
0.0
 40
1.0
 40
1.0
 40
1.0
 40
1.0
 10
2603.8841755269
 20
-130.3657788323
 30
0.0
 10
2603.9973503305
 20
-130.3557772636
 30
0.0
 10
2604.1109075018
 20
-130.3489351981
 30
0.0
 10
2604.2245075305
 20
-130.3470375589
 30
0.0
  0
SPLINE
  5
13AC
330
216
100
AcDbEntity
  8
0
  6
Continuous
 62
     7
100
AcDbSpline
210
0.0
220
0.0
230
1.0
 70
     8
 71
     3
 72
     9
 73
     5
 74
     0
 42
0.0000000001
 43
0.0000000001
 40
0.0
 40
0.0
 40
0.0
 40
0.0
 40
0.1718681044
 40
1.0
 40
1.0
 40
1.0
 40
1.0
 10
2205.8833479377
 20
-309.1169003804
 30
0.0
 10
2205.8823726153
 20
-309.1054163719
 30
0.0
 10
2205.8992531114
 20
-309.0368874968
 30
0.0
 10
2205.9713284441
 20
-309.004655896
 30
0.0
 10
2206.021551607
 20
-308.9809567245
 30
0.0
  0
SPLINE
  5
13AD
330
216
100
AcDbEntity
  8
0
  6
Continuous
 62
     7
100
AcDbSpline
210
0.0
220
0.0
230
1.0
 70
     8
 71
     3
 72
     9
 73
     5
 74
     0
 42
0.0000000001
 43
0.0000000001
 40
0.0
 40
0.0
 40
0.0
 40
0.0
 40
0.2270251318
 40
1.0
 40
1.0
 40
1.0
 40
1.0
 10
2167.5185644249
 20
-130.3658101085
 30
0.0
 10
2167.5161106039
 20
-130.448718077
 30
0.0
 10
2167.5067935899
 20
-130.8139905863
 30
0.0
 10
2167.515634179
 20
-131.1793866158
 30
0.0
 10
2167.5169150217
 20
-131.4617922634
 30
0.0
  0
SPLINE
  5
13AE
330
216
100
AcDbEntity
  8
0
  6
Continuous
 62
     7
100
AcDbSpline
210
0.0
220
0.0
230
1.0
 70
     8
 71
     3
 72
     8
 73
     4
 74
     0
 42
0.0000000001
 43
0.0000000001
 40
0.0
 40
0.0
 40
0.0
 40
0.0
 40
1.0
 40
1.0
 40
1.0
 40
1.0
 10
2167.516925696
 20
-131.4617922634
 30
0.0
 10
2167.4220309309
 20
-131.4624780063
 30
0.0
 10
2167.3271562045
 20
-131.4680133546
 30
0.0
 10
2167.2325785316
 20
-131.4757947732
 30
0.0
  0
SPLINE
  5
13AF
330
216
100
AcDbEntity
  8
0
  6
Continuous
 62
     7
100
AcDbSpline
210
0.0
220
0.0
230
1.0
 70
     8
 71
     3
 72
     8
 73
     4
 74
     0
 42
0.0000000001
 43
0.0000000001
 40
0.0
 40
0.0
 40
0.0
 40
0.0
 40
1.0
 40
1.0
 40
1.0
 40
1.0
 10
2604.1701619002
 20
-131.4757947751
 30
0.0
 10
2604.0755876835
 20
-131.468013641
 30
0.0
 10
2603.9807167061
 20
-131.4624727731
 30
0.0
 10
2603.8858254089
 20
-131.4617870553
 30
0.0
  0
SPLINE
  5
13B0
330
216
100
AcDbEntity
  8
0
  6
Continuous
 62
     7
100
AcDbSpline
210
0.0
220
0.0
230
1.0
 70
     8
 71
     3
 72
    15
 73
    11
 74
     0
 42
0.0000000001
 43
0.0000000001
 40
0.0
 40
0.0
 40
0.0
 40
0.0
 40
0.3817288924
 40
0.5548210521
 40
0.7064639455
 40
0.8300415549
 40
0.9218116993
 40
0.9789525512
 40
0.9938266564999999
 40
1.0
 40
1.0
 40
1.0
 40
1.0
 10
2167.2726824716
 20
-131.4726612189
 30
0.0
 10
2166.4457762264
 20
-131.5066165975
 30
0.0
 10
2165.2433692895
 20
-131.5367014479
 30
0.0
 10
2163.7111623663
 20
-131.5529092451
 30
0.0
 10
2162.7407576397
 20
-131.5566628863
 30
0.0
 10
2161.9408131087
 20
-131.5557197681
 30
0.0
 10
2161.3602982505
 20
-131.5512078309
 30
0.0
 10
2160.9872133363
 20
-131.5304580382
 30
0.0
 10
2160.837435888
 20
-131.5110784479
 30
0.0
 10
2160.7808177265
 20
-131.4879695963
 30
0.0
 10
2160.7815168969
 20
-131.4746038217
 30
0.0
  0
SPLINE
  5
13B1
330
216
100
AcDbEntity
  8
0
  6
Continuous
 62
     7
100
AcDbSpline
210
0.0
220
0.0
230
1.0
 70
     8
 71
     3
 72
     8
 73
     4
 74
     0
 42
0.0000000001
 43
0.0000000001
 40
0.0
 40
0.0
 40
0.0
 40
0.0
 40
1.0
 40
1.0
 40
1.0
 40
1.0
 10
2161.2067512752
 20
-130.3472565479
 30
0.0
 10
2160.957779985499
 20
-130.6625253495
 30
0.0
 10
2160.8025279984
 20
-131.07373356
 30
0.0
 10
2160.7815010572
 20
-131.474905578
 30
0.0
  0
SPLINE
  5
13B2
330
216
100
AcDbEntity
  8
0
  6
Continuous
 62
     7
100
AcDbSpline
210
0.0
220
0.0
230
1.0
 70
     8
 71
     3
 72
    11
 73
     7
 74
     0
 42
0.0000000001
 43
0.0000000001
 40
0.0
 40
0.0
 40
0.0
 40
0.0
 40
0.3723311868
 40
0.6876294629000002
 40
0.9056293828000001
 40
1.0
 40
1.0
 40
1.0
 40
1.0
 10
2167.178232896
 20
-130.3470375971
 30
0.0
 10
2166.4371201198
 20
-130.33610583
 30
0.0
 10
2165.0687634899
 20
-130.3313859468
 30
0.0
 10
2163.2642257662
 20
-130.3073875583
 30
0.0
 10
2162.0183789046
 20
-130.3359793746
 30
0.0
 10
2161.3920126681
 20
-130.3161062005
 30
0.0
 10
2161.2067512752
 20
-130.3472565479
 30
0.0
  0
LINE
  5
13B3
330
216
100
AcDbEntity
  8
0
  6
Continuous
 62
     7
100
AcDbLine
 10
2582.1044069546
 20
-141.7774436661
 30
0.0
 11
2582.0868239546
 21
-141.9020782048
 31
0.0
  0
SPLINE
  5
13B4
330
216
100
AcDbEntity
  8
0
  6
Continuous
 62
     7
100
AcDbSpline
210
0.0
220
0.0
230
1.0
 70
     8
 71
     3
 72
     8
 73
     4
 74
     0
 42
0.0000000001
 43
0.0000000001
 40
0.0
 40
0.0
 40
0.0
 40
0.0
 40
1.0
 40
1.0
 40
1.0
 40
1.0
 10
2167.1782329013
 20
-130.347037559
 30
0.0
 10
2167.2918329448
 20
-130.3489343137
 30
0.0
 10
2167.4053900573
 20
-130.355777761
 30
0.0
 10
2167.5185649049
 20
-130.3657788323
 30
0.0
  0
SPLINE
  5
13B5
330
216
100
AcDbEntity
  8
0
  6
Continuous
 62
     7
100
AcDbSpline
210
0.0
220
0.0
230
1.0
 70
     8
 71
     3
 72
    11
 73
     7
 74
     0
 42
0.0000000001
 43
0.0000000001
 40
0.0
 40
0.0
 40
0.0
 40
0.0
 40
0.1402148841
 40
0.3612066557
 40
0.6547245592000001
 40
1.0
 40
1.0
 40
1.0
 40
1.0
 10
2163.2513640367
 20
-127.6039013274
 30
0.0
 10
2163.4175248698
 20
-127.3823547951
 30
0.0
 10
2164.1325486317
 20
-127.0904389296
 30
0.0
 10
2165.406659224501
 20
-126.9548771571
 30
0.0
 10
2167.1080983431
 20
-127.181155374
 30
0.0
 10
2168.343019302
 20
-127.4276360909
 30
0.0
 10
2169.0018348162
 20
-127.6037240465
 30
0.0
  0
SPLINE
  5
13B6
330
216
100
AcDbEntity
  8
0
  6
Continuous
 62
     7
100
AcDbSpline
210
0.0
220
0.0
230
1.0
 70
     8
 71
     3
 72
    12
 73
     8
 74
     0
 42
0.0000000001
 43
0.0000000001
 40
0.0
 40
0.0
 40
0.0
 40
0.0
 40
0.1771650036
 40
0.344998382
 40
0.638232963
 40
0.8574287660999997
 40
1.0
 40
1.0
 40
1.0
 40
1.0
 10
2602.4009234202
 20
-127.6037188143
 30
0.0
 10
2602.7349711597
 20
-127.4987886311
 30
0.0
 10
2603.406559659501
 20
-127.3676436384
 30
0.0
 10
2604.6421630212
 20
-127.1282287842
 30
0.0
 10
2605.9905039393
 20
-126.962769848
 30
0.0
 10
2607.2704802222
 20
-127.0746772741
 30
0.0
 10
2607.9823152511
 20
-127.3784846759
 30
0.0
 10
2608.1513769079
 20
-127.6039020112
 30
0.0
  0
SPLINE
  5
13B7
330
216
100
AcDbEntity
  8
0
  6
Continuous
 62
     7
100
AcDbSpline
210
0.0
220
0.0
230
1.0
 70
     8
 71
     3
 72
    10
 73
     6
 74
     0
 42
0.0000000001
 43
0.0000000001
 40
0.0
 40
0.0
 40
0.0
 40
0.0
 40
0.6767578533
 40
0.8810987284999999
 40
1.0
 40
1.0
 40
1.0
 40
1.0
 10
2565.7011049865
 20
-314.4522387972001
 30
0.0
 10
2566.1099430792
 20
-314.403178578
 30
0.0
 10
2566.6472698762
 20
-314.3350752983
 30
0.0
 10
2567.2299192707
 20
-314.1819686393
 30
0.0
 10
2567.4192891454
 20
-314.1040351178
 30
0.0
 10
2567.4700295895
 20
-314.0524674836
 30
0.0
  0
SPLINE
  5
13B8
330
216
100
AcDbEntity
  8
0
  6
Continuous
 62
     7
100
AcDbSpline
210
0.0
220
0.0
230
1.0
 70
     8
 71
     3
 72
     9
 73
     5
 74
     0
 42
0.0000000001
 43
0.0000000001
 40
0.0
 40
0.0
 40
0.0
 40
0.0
 40
0.542886051
 40
1.0
 40
1.0
 40
1.0
 40
1.0
 10
2567.4700295895
 20
-314.0524674836
 30
0.0
 10
2567.4788416545
 20
-314.0435117609
 30
0.0
 10
2567.493635797601
 20
-314.0252845733
 30
0.0
 10
2567.5012342253
 20
-314.0026365737
 30
0.0
 10
2567.5021622418
 20
-313.9920982651
 30
0.0
  0
SPLINE
  5
13B9
330
216
100
AcDbEntity
  8
0
  6
Continuous
 62
     7
100
AcDbSpline
210
0.0
220
0.0
230
1.0
 70
     8
 71
     3
 72
     9
 73
     5
 74
     0
 42
0.0000000001
 43
0.0000000001
 40
0.0
 40
0.0
 40
0.0
 40
0.0
 40
0.1804128653
 40
1.0
 40
1.0
 40
1.0
 40
1.0
 10
2549.8364112632
 20
-330.2916884759
 30
0.0
 10
2549.7510293412
 20
-330.2946633647
 30
0.0
 10
2549.2776704625
 20
-330.308200077
 30
0.0
 10
2548.8041622511
 20
-330.3154687789
 30
0.0
 10
2548.4160888188
 20
-330.3209360601
 30
0.0
  0
ENDSEC
  0
SECTION
  2
OBJECTS
  0
DICTIONARY
  5
C
330
0
100
AcDbDictionary
281
     1
  3
ACAD_COLOR
350
1417
  3
ACAD_GROUP
350
D
  3
ACAD_LAYOUT
350
1A
  3
ACAD_MATERIAL
350
13ED
  3
ACAD_MLEADERSTYLE
350
142A
  3
ACAD_MLINESTYLE
350
17
  3
ACAD_PLOTSETTINGS
350
19
  3
ACAD_PLOTSTYLENAME
350
E
  3
ACAD_SCALELIST
350
1418
  3
ACAD_TABLESTYLE
350
13E6
  3
ACAD_VISUALSTYLE
350
1406
  3
ACDB_RECOMPOSE_DATA
350
15C0
  3
AcDbVariableDictionary
350
15B8
  3
AcmDictionary
350
1489
  3
AMG
350
1430
  3
AMGSNAPSETTINGS
350
14CA
  0
DICTIONARY
  5
155F
330
155E
100
AcDbDictionary
280
     1
281
     1
  0
DICTIONARY
  5
1561
330
1560
100
AcDbDictionary
280
     1
281
     1
  0
DICTIONARY
  5
1563
330
1562
100
AcDbDictionary
280
     1
281
     1
  0
DICTIONARY
  5
1565
330
1564
100
AcDbDictionary
280
     1
281
     1
  0
DICTIONARY
  5
1567
330
1566
100
AcDbDictionary
280
     1
281
     1
  0
DICTIONARY
  5
1569
330
1568
100
AcDbDictionary
280
     1
281
     1
  0
DICTIONARY
  5
156B
330
156A
100
AcDbDictionary
280
     1
281
     1
  0
DICTIONARY
  5
156D
330
156C
100
AcDbDictionary
280
     1
281
     1
  0
DICTIONARY
  5
156F
330
156E
100
AcDbDictionary
280
     1
281
     1
  0
DICTIONARY
  5
1571
330
1570
100
AcDbDictionary
280
     1
281
     1
  0
DICTIONARY
  5
1417
102
{ACAD_REACTORS
330
C
102
}
330
C
100
AcDbDictionary
281
     1
  0
DICTIONARY
  5
D
102
{ACAD_REACTORS
330
C
102
}
330
C
100
AcDbDictionary
281
     1
  0
DICTIONARY
  5
1A
102
{ACAD_REACTORS
330
C
102
}
330
C
100
AcDbDictionary
281
     1
  3
Layout1
350
13E8
  3
Model
350
13E7
  0
DICTIONARY
  5
13ED
102
{ACAD_REACTORS
330
C
102
}
330
C
100
AcDbDictionary
281
     1
  3
ByBlock
350
13F6
  3
ByLayer
350
13EE
  3
Global
350
13FE
  0
DICTIONARY
  5
142A
102
{ACAD_REACTORS
330
C
102
}
330
C
100
AcDbDictionary
281
     1
  3
Standard
350
142B
  0
DICTIONARY
  5
17
102
{ACAD_REACTORS
330
C
102
}
330
C
100
AcDbDictionary
281
     1
  3
Standard
350
18
  0
DICTIONARY
  5
19
102
{ACAD_REACTORS
330
C
102
}
330
C
100
AcDbDictionary
281
     1
  0
ACDBDICTIONARYWDFLT
  5
E
102
{ACAD_REACTORS
330
C
102
}
330
C
100
AcDbDictionary
281
     1
  3
Normal
350
F
100
AcDbDictionaryWithDefault
340
F
  0
DICTIONARY
  5
1418
102
{ACAD_REACTORS
330
C
102
}
330
C
100
AcDbDictionary
281
     1
  3
A0
350
1419
  3
A1
350
141A
  3
A2
350
141B
  3
A3
350
141C
  3
A4
350
141D
  3
A5
350
141E
  3
A6
350
141F
  3
A7
350
1420
  3
A8
350
1421
  3
A9
350
1422
  3
B0
350
1423
  3
B1
350
1424
  3
B2
350
1425
  3
B3
350
1426
  3
B4
350
1427
  3
B5
350
1428
  3
B6
350
1429
  0
DICTIONARY
  5
13E6
330
C
100
AcDbDictionary
281
     1
  3
Standard
350
13E9
  3
Standard1
350
13EA
  0
DICTIONARY
  5
1406
102
{ACAD_REACTORS
330
C
102
}
330
C
100
AcDbDictionary
281
     1
  3
2dWireframe
350
140C
  3
3D Hidden
350
140E
  3
3dWireframe
350
140D
  3
Basic
350
140B
  3
Brighten
350
1412
  3
ColorChange
350
1416
  3
Conceptual
350
140F
  3
Dim
350
1411
  3
Facepattern
350
1415
  3
Flat
350
1407
  3
FlatWithEdges
350
1408
  3
Gouraud
350
1409
  3
GouraudWithEdges
350
140A
  3
Linepattern
350
1414
  3
Realistic
350
1410
  3
Thicken
350
1413
  0
XRECORD
  5
15C0
102
{ACAD_REACTORS
330
C
102
}
330
C
100
AcDbXrecord
280
     1
 90
        1
330
13E9
330
13EA
  0
DICTIONARY
  5
15B8
102
{ACAD_REACTORS
330
C
102
}
330
C
100
AcDbDictionary
281
     1
  3
CANNOSCALE
350
15BB
  3
CMLEADERSTYLE
350
15BA
  3
CTABLESTYLE
350
15B9
  0
DICTIONARY
  5
1489
102
{ACAD_REACTORS
330
C
102
}
330
C
100
AcDbDictionary
281
     1
  3
AcmStdDictionary
350
1496
  0
DICTIONARY
  5
1430
102
{ACAD_REACTORS
330
C
102
}
330
C
100
AcDbDictionary
281
     1
  0
DICTIONARY
  5
14CA
102
{ACAD_REACTORS
330
C
102
}
330
C
100
AcDbDictionary
281
     1
  0
LAYOUT
  5
13E8
102
{ACAD_REACTORS
330
1A
102
}
330
1A
100
AcDbPlotSettings
  1

  2
none_device
  4
ANSI_D_(34.00_x_22.00_Inches)
  6

 40
0.0
 41
0.0
 42
0.0
 43
0.0
 44
863.6000000000001
 45
558.8
 46
0.0
 47
0.0
 48
0.0
 49
0.0
140
0.0
141
0.0
142
1.0
143
1.0
 70
     0
 72
     1
 73
     0
 74
     0
  7

 75
     0
147
1.0
 76
     0
 77
     2
 78
   300
148
0.0
149
0.0
100
AcDbLayout
  1
Layout1
 70
     1
 71
     1
 10
0.0
 20
0.0
 11
12.0
 21
9.0
 12
0.0
 22
0.0
 32
0.0
 14
1.000000000000000E+20
 24
1.000000000000000E+20
 34
1.000000000000000E+20
 15
-1.000000000000000E+20
 25
-1.000000000000000E+20
 35
-1.000000000000000E+20
146
0.0
 13
0.0
 23
0.0
 33
0.0
 16
1.0
 26
0.0
 36
0.0
 17
0.0
 27
1.0
 37
0.0
 76
     0
330
217
  0
LAYOUT
  5
13E7
102
{ACAD_REACTORS
330
1A
102
}
330
1A
100
AcDbPlotSettings
  1

  2
none_device
  4
ANSI_D_(34.00_x_22.00_Inches)
  6

 40
0.0
 41
0.0
 42
0.0
 43
0.0
 44
863.6000000000001
 45
558.8
 46
0.0
 47
0.0
 48
0.0
 49
0.0
140
0.0
141
0.0
142
1.0
143
1.0
 70
  1024
 72
     1
 73
     0
 74
     0
  7

 75
     0
147
1.0
 76
     0
 77
     2
 78
   300
148
0.0
149
0.0
100
AcDbLayout
  1
Model
 70
     0
 71
     0
 10
0.0
 20
0.0
 11
863.6000000000001
 21
558.8
 12
0.0
 22
0.0
 32
0.0
 14
0.0
 24
0.0
 34
0.0
 15
0.0
 25
0.0
 35
0.0
146
0.0
 13
0.0
 23
0.0
 33
0.0
 16
1.0
 26
0.0
 36
0.0
 17
0.0
 27
1.0
 37
0.0
 76
     0
330
216
331
1F4
  0
MATERIAL
  5
13F6
102
{ACAD_XDICTIONARY
360
13F7
102
}
102
{ACAD_REACTORS
330
13ED
102
}
330
13ED
100
AcDbMaterial
  1
ByBlock
 72
     0
 43
0.0008202099737533
 43
0.0
 43
0.0
 43
0.0
 43
0.0
 43
0.0008202099737533
 43
0.0
 43
0.0
 43
0.0
 43
0.0
 43
1.0
 43
0.0
 43
0.0
 43
0.0
 43
0.0
 43
1.0
 77
     0
 47
0.0008202099737533
 47
0.0
 47
0.0
 47
0.0
 47
0.0
 47
0.0008202099737533
 47
0.0
 47
0.0
 47
0.0
 47
0.0
 47
1.0
 47
0.0
 47
0.0
 47
0.0
 47
0.0
 47
1.0
171
     0
 49
0.0008202099737533
 49
0.0
 49
0.0
 49
0.0
 49
0.0
 49
0.0008202099737533
 49
0.0
 49
0.0
 49
0.0
 49
0.0
 49
1.0
 49
0.0
 49
0.0
 49
0.0
 49
0.0
 49
1.0
175
     0
142
0.0008202099737533
142
0.0
142
0.0
142
0.0
142
0.0
142
0.0008202099737533
142
0.0
142
0.0
142
0.0
142
0.0
142
1.0
142
0.0
142
0.0
142
0.0
142
0.0
142
1.0
179
     0
144
0.0008202099737533
144
0.0
144
0.0
144
0.0
144
0.0
144
0.0008202099737533
144
0.0
144
0.0
144
0.0
144
0.0
144
1.0
144
0.0
144
0.0
144
0.0
144
0.0
144
1.0
147
0.0008202099737533
147
0.0
147
0.0
147
0.0
147
0.0
147
0.0008202099737533
147
0.0
147
0.0
147
0.0
147
0.0
147
1.0
147
0.0
147
0.0
147
0.0
147
0.0
147
1.0
  0
MATERIAL
  5
13EE
102
{ACAD_XDICTIONARY
360
13EF
102
}
102
{ACAD_REACTORS
330
13ED
102
}
330
13ED
100
AcDbMaterial
  1
ByLayer
 72
     0
 43
0.0008202099737533
 43
0.0
 43
0.0
 43
0.0
 43
0.0
 43
0.0008202099737533
 43
0.0
 43
0.0
 43
0.0
 43
0.0
 43
1.0
 43
0.0
 43
0.0
 43
0.0
 43
0.0
 43
1.0
 77
     0
 47
0.0008202099737533
 47
0.0
 47
0.0
 47
0.0
 47
0.0
 47
0.0008202099737533
 47
0.0
 47
0.0
 47
0.0
 47
0.0
 47
1.0
 47
0.0
 47
0.0
 47
0.0
 47
0.0
 47
1.0
171
     0
 49
0.0008202099737533
 49
0.0
 49
0.0
 49
0.0
 49
0.0
 49
0.0008202099737533
 49
0.0
 49
0.0
 49
0.0
 49
0.0
 49
1.0
 49
0.0
 49
0.0
 49
0.0
 49
0.0
 49
1.0
175
     0
142
0.0008202099737533
142
0.0
142
0.0
142
0.0
142
0.0
142
0.0008202099737533
142
0.0
142
0.0
142
0.0
142
0.0
142
1.0
142
0.0
142
0.0
142
0.0
142
0.0
142
1.0
179
     0
144
0.0008202099737533
144
0.0
144
0.0
144
0.0
144
0.0
144
0.0008202099737533
144
0.0
144
0.0
144
0.0
144
0.0
144
1.0
144
0.0
144
0.0
144
0.0
144
0.0
144
1.0
147
0.0008202099737533
147
0.0
147
0.0
147
0.0
147
0.0
147
0.0008202099737533
147
0.0
147
0.0
147
0.0
147
0.0
147
1.0
147
0.0
147
0.0
147
0.0
147
0.0
147
1.0
  0
MATERIAL
  5
13FE
102
{ACAD_XDICTIONARY
360
13FF
102
}
102
{ACAD_REACTORS
330
13ED
102
}
330
13ED
100
AcDbMaterial
  1
Global
 72
     0
 43
0.0008202099737533
 43
0.0
 43
0.0
 43
0.0
 43
0.0
 43
0.0008202099737533
 43
0.0
 43
0.0
 43
0.0
 43
0.0
 43
1.0
 43
0.0
 43
0.0
 43
0.0
 43
0.0
 43
1.0
 77
     0
 47
0.0008202099737533
 47
0.0
 47
0.0
 47
0.0
 47
0.0
 47
0.0008202099737533
 47
0.0
 47
0.0
 47
0.0
 47
0.0
 47
1.0
 47
0.0
 47
0.0
 47
0.0
 47
0.0
 47
1.0
171
     0
 49
0.0008202099737533
 49
0.0
 49
0.0
 49
0.0
 49
0.0
 49
0.0008202099737533
 49
0.0
 49
0.0
 49
0.0
 49
0.0
 49
1.0
 49
0.0
 49
0.0
 49
0.0
 49
0.0
 49
1.0
175
     0
142
0.0008202099737533
142
0.0
142
0.0
142
0.0
142
0.0
142
0.0008202099737533
142
0.0
142
0.0
142
0.0
142
0.0
142
1.0
142
0.0
142
0.0
142
0.0
142
0.0
142
1.0
179
     0
144
0.0008202099737533
144
0.0
144
0.0
144
0.0
144
0.0
144
0.0008202099737533
144
0.0
144
0.0
144
0.0
144
0.0
144
1.0
144
0.0
144
0.0
144
0.0
144
0.0
144
1.0
147
0.0008202099737533
147
0.0
147
0.0
147
0.0
147
0.0
147
0.0008202099737533
147
0.0
147
0.0
147
0.0
147
0.0
147
1.0
147
0.0
147
0.0
147
0.0
147
0.0
147
1.0
  0
MLEADERSTYLE
  5
142B
102
{ACAD_REACTORS
330
142A
102
}
330
142A
100
AcDbMLeaderStyle
170
     2
171
     1
172
     0
 90
        2
 40
0.0
 41
0.0
173
     1
 91
-1056964608
340
14
 92
       -2
290
     1
 42
2.0
291
     1
 43
0.36
  3
Standard
 44
4.0
300

342
11
174
     1
178
     6
175
     1
176
     0
 93
-1056964608
 45
4.0
292
     0
297
     0
 46
4.0
 94
-1056964608
 47
1.0
 49
1.0
140
1.0
293
     1
141
0.0
294
     1
177
     0
142
1.0
295
     0
296
     0
143
0.125
1001
ACAD_MLEADERVER
1070
     2
  0
MLINESTYLE
  5
18
102
{ACAD_REACTORS
330
17
102
}
330
17
100
AcDbMlineStyle
  2
STANDARD
 70
     0
  3

 62
   256
 51
90.0
 52
90.0
 71
     2
 49
0.5
 62
   256
  6
BYLAYER
 49
-0.5
 62
   256
  6
BYLAYER
  0
ACDBPLACEHOLDER
  5
F
102
{ACAD_REACTORS
330
E
102
}
330
E
  0
SCALE
  5
1419
102
{ACAD_REACTORS
330
1418
102
}
330
1418
100
AcDbScale
 70
     0
300
1:1
140
1.0
141
1.0
290
     1
  0
SCALE
  5
141A
102
{ACAD_REACTORS
330
1418
102
}
330
1418
100
AcDbScale
 70
     0
300
1:2
140
1.0
141
2.0
290
     0
  0
SCALE
  5
141B
102
{ACAD_REACTORS
330
1418
102
}
330
1418
100
AcDbScale
 70
     0
300
1:4
140
1.0
141
4.0
290
     0
  0
SCALE
  5
141C
102
{ACAD_REACTORS
330
1418
102
}
330
1418
100
AcDbScale
 70
     0
300
1:5
140
1.0
141
5.0
290
     0
  0
SCALE
  5
141D
102
{ACAD_REACTORS
330
1418
102
}
330
1418
100
AcDbScale
 70
     0
300
1:8
140
1.0
141
8.0
290
     0
  0
SCALE
  5
141E
102
{ACAD_REACTORS
330
1418
102
}
330
1418
100
AcDbScale
 70
     0
300
1:10
140
1.0
141
10.0
290
     0
  0
SCALE
  5
141F
102
{ACAD_REACTORS
330
1418
102
}
330
1418
100
AcDbScale
 70
     0
300
1:16
140
1.0
141
16.0
290
     0
  0
SCALE
  5
1420
102
{ACAD_REACTORS
330
1418
102
}
330
1418
100
AcDbScale
 70
     0
300
1:20
140
1.0
141
20.0
290
     0
  0
SCALE
  5
1421
102
{ACAD_REACTORS
330
1418
102
}
330
1418
100
AcDbScale
 70
     0
300
1:30
140
1.0
141
30.0
290
     0
  0
SCALE
  5
1422
102
{ACAD_REACTORS
330
1418
102
}
330
1418
100
AcDbScale
 70
     0
300
1:40
140
1.0
141
40.0
290
     0
  0
SCALE
  5
1423
102
{ACAD_REACTORS
330
1418
102
}
330
1418
100
AcDbScale
 70
     0
300
1:50
140
1.0
141
50.0
290
     0
  0
SCALE
  5
1424
102
{ACAD_REACTORS
330
1418
102
}
330
1418
100
AcDbScale
 70
     0
300
1:100
140
1.0
141
100.0
290
     0
  0
SCALE
  5
1425
102
{ACAD_REACTORS
330
1418
102
}
330
1418
100
AcDbScale
 70
     0
300
2:1
140
2.0
141
1.0
290
     0
  0
SCALE
  5
1426
102
{ACAD_REACTORS
330
1418
102
}
330
1418
100
AcDbScale
 70
     0
300
4:1
140
4.0
141
1.0
290
     0
  0
SCALE
  5
1427
102
{ACAD_REACTORS
330
1418
102
}
330
1418
100
AcDbScale
 70
     0
300
8:1
140
8.0
141
1.0
290
     0
  0
SCALE
  5
1428
102
{ACAD_REACTORS
330
1418
102
}
330
1418
100
AcDbScale
 70
     0
300
10:1
140
10.0
141
1.0
290
     0
  0
SCALE
  5
1429
102
{ACAD_REACTORS
330
1418
102
}
330
1418
100
AcDbScale
 70
     0
300
100:1
140
100.0
141
1.0
290
     0
  0
TABLESTYLE
  5
13E9
102
{ACAD_XDICTIONARY
360
15BC
102
}
102
{ACAD_REACTORS
330
13E6
102
}
330
13E6
100
AcDbTableStyle
  3
Standard
 70
     0
 71
     0
 40
0.06
 41
0.06
280
     1
281
     1
  7
STANDARD
140
0.18
170
     1
 62
     0
 63
     7
283
     0
 90
      512
 91
        0
  1

274
    -2
284
     1
 64
     0
275
    -2
285
     1
 65
     0
276
    -2
286
     1
 66
     0
277
    -2
287
     1
 67
     0
278
    -2
288
     1
 68
     0
279
    -2
289
     1
 69
     0
  7
STANDARD
140
0.18
170
     1
 62
     0
 63
     7
283
     0
 90
      512
 91
        0
  1

274
    -2
284
     1
 64
     0
275
    -2
285
     1
 65
     0
276
    -2
286
     1
 66
     0
277
    -2
287
     1
 67
     0
278
    -2
288
     1
 68
     0
279
    -2
289
     1
 69
     0
  7
STANDARD
140
0.18
170
     1
 62
     0
 63
     7
283
     0
 90
      512
 91
        0
  1

274
    -2
284
     1
 64
     0
275
    -2
285
     1
 65
     0
276
    -2
286
     1
 66
     0
277
    -2
287
     1
 67
     0
278
    -2
288
     1
 68
     0
279
    -2
289
     1
 69
     0
  0
TABLESTYLE
  5
13EA
102
{ACAD_XDICTIONARY
360
15BE
102
}
102
{ACAD_REACTORS
330
13E6
102
}
330
13E6
100
AcDbTableStyle
  3
Standard1
 70
     1
 71
     0
 40
0.06
 41
0.06
280
     1
281
     1
  7
STANDARD
140
0.18
170
     1
 62
     0
 63
     7
283
     0
 90
      512
 91
        0
  1

274
    -2
284
     1
 64
     0
275
    -2
285
     1
 65
     0
276
    -2
286
     1
 66
     0
277
    -2
287
     1
 67
     0
278
    -2
288
     1
 68
     0
279
    -2
289
     1
 69
     0
  7
STANDARD
140
0.18
170
     1
 62
     0
 63
     7
283
     0
 90
      512
 91
        0
  1

274
    -2
284
     1
 64
     0
275
    -2
285
     1
 65
     0
276
    -2
286
     1
 66
     0
277
    -2
287
     1
 67
     0
278
    -2
288
     1
 68
     0
279
    -2
289
     1
 69
     0
  7
STANDARD
140
0.18
170
     1
 62
     0
 63
     7
283
     0
 90
      512
 91
        0
  1

274
    -2
284
     1
 64
     0
275
    -2
285
     1
 65
     0
276
    -2
286
     1
 66
     0
277
    -2
287
     1
 67
     0
278
    -2
288
     1
 68
     0
279
    -2
289
     1
 69
     0
  0
VISUALSTYLE
  5
140C
102
{ACAD_REACTORS
330
1406
102
}
330
1406
100
AcDbVisualStyle
  2
2dWireframe
 70
     4
 71
     0
 72
     2
 73
     0
 90
        0
 40
-0.6
 41
-30.0
 62
     5
 63
     7
421
 16777215
 74
     1
 91
        4
 64
     7
 65
   257
 75
     1
175
     1
 42
1.0
 92
        0
 66
   257
 43
1.0
 76
     1
 77
     6
 78
     2
 67
     7
 79
     5
170
     0
171
     0
290
     0
174
     0
 93
        1
 44
0.0
173
     0
291
     0
 45
0.0
  0
VISUALSTYLE
  5
140E
102
{ACAD_REACTORS
330
1406
102
}
330
1406
100
AcDbVisualStyle
  2
3D Hidden
 70
     6
 71
     1
 72
     2
 73
     2
 90
        0
 40
-0.6
 41
-30.0
 62
     5
 63
     7
421
 16777215
 74
     2
 91
        2
 64
     7
 65
   257
 75
     2
175
     1
 42
40.0
 92
        0
 66
   257
 43
1.0
 76
     1
 77
     6
 78
     2
 67
     7
 79
     3
170
     0
171
     0
290
     0
174
     0
 93
        1
 44
0.0
173
     0
291
     0
 45
0.0
  0
VISUALSTYLE
  5
140D
102
{ACAD_REACTORS
330
1406
102
}
330
1406
100
AcDbVisualStyle
  2
3dWireframe
 70
     5
 71
     0
 72
     2
 73
     0
 90
        0
 40
-0.6
 41
-30.0
 62
     5
 63
     7
421
 16777215
 74
     1
 91
        4
 64
     7
 65
   257
 75
     1
175
     1
 42
1.0
 92
        0
 66
   257
 43
1.0
 76
     1
 77
     6
 78
     2
 67
     7
 79
     5
170
     0
171
     0
290
     0
174
     0
 93
        1
 44
0.0
173
     0
291
     0
 45
0.0
  0
VISUALSTYLE
  5
140B
102
{ACAD_REACTORS
330
1406
102
}
330
1406
100
AcDbVisualStyle
  2
Basic
 70
     7
 71
     1
 72
     0
 73
     1
 90
        0
 40
-0.6
 41
-30.0
 62
     5
 63
     7
421
 16777215
 74
     0
 91
        4
 64
     7
 65
   257
 75
     1
175
     1
 42
1.0
 92
        8
 66
     7
 43
1.0
 76
     1
 77
     6
 78
     2
 67
     7
 79
     5
170
     0
171
     0
290
     0
174
     0
 93
        1
 44
0.0
173
     0
291
     1
 45
0.0
  0
VISUALSTYLE
  5
1412
102
{ACAD_REACTORS
330
1406
102
}
330
1406
100
AcDbVisualStyle
  2
Brighten
 70
    12
 71
     2
 72
     2
 73
     0
 90
        0
 40
-0.6
 41
-30.0
 62
     5
 63
     7
421
 16777215
 74
     1
 91
        4
 64
     7
 65
   257
 75
     1
175
     1
 42
1.0
 92
        8
 66
     7
 43
1.0
 76
     1
 77
     6
 78
     2
 67
     7
 79
     5
170
     0
171
     0
290
     0
174
     0
 93
        1
 44
50.0
173
     0
291
     1
 45
0.0
  0
VISUALSTYLE
  5
1416
102
{ACAD_REACTORS
330
1406
102
}
330
1406
100
AcDbVisualStyle
  2
ColorChange
 70
    16
 71
     2
 72
     2
 73
     3
 90
        0
 40
-0.6
 41
-30.0
 62
     5
 63
     8
421
  8421504
 74
     1
 91
        4
 64
     7
 65
   257
 75
     1
175
     1
 42
1.0
 92
        8
 66
     8
424
  8421504
 43
1.0
 76
     1
 77
     6
 78
     2
 67
     7
 79
     5
170
     0
171
     0
290
     0
174
     0
 93
        1
 44
0.0
173
     0
291
     1
 45
0.0
  0
VISUALSTYLE
  5
140F
102
{ACAD_REACTORS
330
1406
102
}
330
1406
100
AcDbVisualStyle
  2
Conceptual
 70
     9
 71
     3
 72
     2
 73
     0
 90
        0
 40
-0.6
 41
-30.0
 62
     5
 63
     7
421
 16777215
 74
     2
 91
        2
 64
     7
 65
   257
 75
     1
175
     1
 42
40.0
 92
        8
 66
     7
 43
1.0
 76
     1
 77
     6
 78
     2
 67
     7
 79
     3
170
     0
171
     0
290
     0
174
     0
 93
        1
 44
0.0
173
     0
291
     0
 45
0.0
  0
VISUALSTYLE
  5
1411
102
{ACAD_REACTORS
330
1406
102
}
330
1406
100
AcDbVisualStyle
  2
Dim
 70
    11
 71
     2
 72
     2
 73
     0
 90
        0
 40
-0.6
 41
-30.0
 62
     5
 63
     7
421
 16777215
 74
     1
 91
        4
 64
     7
 65
   257
 75
     1
175
     1
 42
1.0
 92
        8
 66
     7
 43
1.0
 76
     1
 77
     6
 78
     2
 67
     7
 79
     5
170
     0
171
     0
290
     0
174
     0
 93
        1
 44
-50.0
173
     0
291
     1
 45
0.0
  0
VISUALSTYLE
  5
1415
102
{ACAD_REACTORS
330
1406
102
}
330
1406
100
AcDbVisualStyle
  2
Facepattern
 70
    15
 71
     2
 72
     2
 73
     0
 90
        0
 40
-0.6
 41
-30.0
 62
     5
 63
     7
421
 16777215
 74
     1
 91
        4
 64
     7
 65
   257
 75
     1
175
     1
 42
1.0
 92
        8
 66
     7
 43
1.0
 76
     1
 77
     6
 78
     2
 67
     7
 79
     5
170
     0
171
     0
290
     0
174
     0
 93
        1
 44
0.0
173
     0
291
     1
 45
0.0
  0
VISUALSTYLE
  5
1407
102
{ACAD_REACTORS
330
1406
102
}
330
1406
100
AcDbVisualStyle
  2
Flat
 70
     0
 71
     2
 72
     1
 73
     1
 90
        2
 40
-0.6
 41
30.0
 62
     5
 63
     7
421
 16777215
 74
     0
 91
        4
 64
     7
 65
   257
 75
     1
175
     1
 42
1.0
 92
        8
 66
     7
 43
1.0
 76
     1
 77
     6
 78
     2
 67
     7
 79
     5
170
     0
171
     0
290
     0
174
     0
 93
       13
 44
0.0
173
     0
291
     1
 45
0.0
  0
VISUALSTYLE
  5
1408
102
{ACAD_REACTORS
330
1406
102
}
330
1406
100
AcDbVisualStyle
  2
FlatWithEdges
 70
     1
 71
     2
 72
     1
 73
     1
 90
        2
 40
-0.6
 41
30.0
 62
     5
 63
     7
421
 16777215
 74
     1
 91
        4
 64
     7
 65
   257
 75
     1
175
     1
 42
1.0
 92
        0
 66
   257
 43
1.0
 76
     1
 77
     6
 78
     2
 67
     7
 79
     5
170
     0
171
     0
290
     0
174
     0
 93
       13
 44
0.0
173
     0
291
     1
 45
0.0
  0
VISUALSTYLE
  5
1409
102
{ACAD_REACTORS
330
1406
102
}
330
1406
100
AcDbVisualStyle
  2
Gouraud
 70
     2
 71
     2
 72
     2
 73
     1
 90
        2
 40
-0.6
 41
30.0
 62
     5
 63
     7
421
 16777215
 74
     0
 91
        4
 64
     7
 65
   257
 75
     1
175
     1
 42
1.0
 92
        0
 66
     7
 43
1.0
 76
     1
 77
     6
 78
     2
 67
     7
 79
     5
170
     0
171
     0
290
     0
174
     0
 93
       13
 44
0.0
173
     0
291
     1
 45
0.0
  0
VISUALSTYLE
  5
140A
102
{ACAD_REACTORS
330
1406
102
}
330
1406
100
AcDbVisualStyle
  2
GouraudWithEdges
 70
     3
 71
     2
 72
     2
 73
     1
 90
        2
 40
-0.6
 41
30.0
 62
     5
 63
     7
421
 16777215
 74
     1
 91
        4
 64
     7
 65
   257
 75
     1
175
     1
 42
1.0
 92
        0
 66
   257
 43
1.0
 76
     1
 77
     6
 78
     2
 67
     7
 79
     5
170
     0
171
     0
290
     0
174
     0
 93
       13
 44
0.0
173
     0
291
     1
 45
0.0
  0
VISUALSTYLE
  5
1414
102
{ACAD_REACTORS
330
1406
102
}
330
1406
100
AcDbVisualStyle
  2
Linepattern
 70
    14
 71
     2
 72
     2
 73
     0
 90
        0
 40
-0.6
 41
-30.0
 62
     5
 63
     7
421
 16777215
 74
     1
 91
        4
 64
     7
 65
   257
 75
     7
175
     7
 42
1.0
 92
        8
 66
     7
 43
1.0
 76
     1
 77
     6
 78
     2
 67
     7
 79
     5
170
     0
171
     0
290
     0
174
     0
 93
        1
 44
0.0
173
     0
291
     1
 45
0.0
  0
VISUALSTYLE
  5
1410
102
{ACAD_REACTORS
330
1406
102
}
330
1406
100
AcDbVisualStyle
  2
Realistic
 70
     8
 71
     2
 72
     2
 73
     0
 90
        0
 40
-0.6
 41
-30.0
 62
     5
 63
     7
421
 16777215
 74
     1
 91
        0
 64
     7
 65
   257
 75
     1
175
     1
 42
1.0
 92
        8
 66
     8
424
  7895160
 43
1.0
 76
     1
 77
     6
 78
     2
 67
     7
 79
     5
170
     0
171
     0
290
     0
174
     0
 93
       13
 44
0.0
173
     0
291
     0
 45
0.0
  0
VISUALSTYLE
  5
1413
102
{ACAD_REACTORS
330
1406
102
}
330
1406
100
AcDbVisualStyle
  2
Thicken
 70
    13
 71
     2
 72
     2
 73
     0
 90
        0
 40
-0.6
 41
-30.0
 62
     5
 63
     7
421
 16777215
 74
     1
 91
        4
 64
     7
 65
   257
 75
     1
175
     1
 42
1.0
 92
       12
 66
     7
 43
1.0
 76
     1
 77
     6
 78
     2
 67
     7
 79
     5
170
     0
171
     0
290
     0
174
     0
 93
        1
 44
0.0
173
     0
291
     1
 45
0.0
  0
DICTIONARYVAR
  5
15BB
102
{ACAD_REACTORS
330
15B8
102
}
330
15B8
100
DictionaryVariables
280
     0
  1
1:1
  0
DICTIONARYVAR
  5
15BA
102
{ACAD_REACTORS
330
15B8
102
}
330
15B8
100
DictionaryVariables
280
     0
  1
STANDARD
  0
DICTIONARYVAR
  5
15B9
102
{ACAD_REACTORS
330
15B8
102
}
330
15B8
100
DictionaryVariables
280
     0
  1
STANDARD
  0
DICTIONARY
  5
1496
102
{ACAD_REACTORS
330
1489
102
}
330
1489
100
AcDbDictionary
281
     1
  0
DICTIONARY
  5
13F7
330
13F6
100
AcDbDictionary
280
     1
281
     1
  3
BUMPTILE
360
13F9
  3
DIFFUSETILE
360
13F8
  3
OPACITYTILE
360
13FC
  3
REFLECTIONTILE
360
13FB
  3
REFRACTIONTILE
360
13FD
  3
SPECULARTILE
360
13FA
  0
DICTIONARY
  5
13EF
330
13EE
100
AcDbDictionary
280
     1
281
     1
  3
BUMPTILE
360
13F1
  3
DIFFUSETILE
360
13F0
  3
OPACITYTILE
360
13F4
  3
REFLECTIONTILE
360
13F3
  3
REFRACTIONTILE
360
13F5
  3
SPECULARTILE
360
13F2
  0
DICTIONARY
  5
13FF
330
13FE
100
AcDbDictionary
280
     1
281
     1
  3
BUMPTILE
360
1401
  3
DIFFUSETILE
360
1400
  3
OPACITYTILE
360
1404
  3
REFLECTIONTILE
360
1403
  3
REFRACTIONTILE
360
1405
  3
SPECULARTILE
360
1402
  0
DICTIONARY
  5
15BC
330
13E9
100
AcDbDictionary
280
     1
281
     1
  3
ACAD_ROUNDTRIP_2008_TABLESTYLE_CELLSTYLEMAP
360
1640
  0
DICTIONARY
  5
15BE
330
13EA
100
AcDbDictionary
280
     1
281
     1
  3
ACAD_ROUNDTRIP_2008_TABLESTYLE_CELLSTYLEMAP
360
1641
  0
XRECORD
  5
13F9
102
{ACAD_REACTORS
330
13F7
102
}
330
13F7
100
AcDbXrecord
280
     1
270
     1
271
     1
  0
XRECORD
  5
13F8
102
{ACAD_REACTORS
330
13F7
102
}
330
13F7
100
AcDbXrecord
280
     1
270
     1
271
     1
  0
XRECORD
  5
13FC
102
{ACAD_REACTORS
330
13F7
102
}
330
13F7
100
AcDbXrecord
280
     1
270
     1
271
     1
  0
XRECORD
  5
13FB
102
{ACAD_REACTORS
330
13F7
102
}
330
13F7
100
AcDbXrecord
280
     1
270
     1
271
     1
  0
XRECORD
  5
13FD
102
{ACAD_REACTORS
330
13F7
102
}
330
13F7
100
AcDbXrecord
280
     1
270
     1
271
     1
  0
XRECORD
  5
13FA
102
{ACAD_REACTORS
330
13F7
102
}
330
13F7
100
AcDbXrecord
280
     1
270
     1
271
     1
  0
XRECORD
  5
13F1
102
{ACAD_REACTORS
330
13EF
102
}
330
13EF
100
AcDbXrecord
280
     1
270
     1
271
     1
  0
XRECORD
  5
13F0
102
{ACAD_REACTORS
330
13EF
102
}
330
13EF
100
AcDbXrecord
280
     1
270
     1
271
     1
  0
XRECORD
  5
13F4
102
{ACAD_REACTORS
330
13EF
102
}
330
13EF
100
AcDbXrecord
280
     1
270
     1
271
     1
  0
XRECORD
  5
13F3
102
{ACAD_REACTORS
330
13EF
102
}
330
13EF
100
AcDbXrecord
280
     1
270
     1
271
     1
  0
XRECORD
  5
13F5
102
{ACAD_REACTORS
330
13EF
102
}
330
13EF
100
AcDbXrecord
280
     1
270
     1
271
     1
  0
XRECORD
  5
13F2
102
{ACAD_REACTORS
330
13EF
102
}
330
13EF
100
AcDbXrecord
280
     1
270
     1
271
     1
  0
XRECORD
  5
1401
102
{ACAD_REACTORS
330
13FF
102
}
330
13FF
100
AcDbXrecord
280
     1
270
     1
271
     1
  0
XRECORD
  5
1400
102
{ACAD_REACTORS
330
13FF
102
}
330
13FF
100
AcDbXrecord
280
     1
270
     1
271
     1
  0
XRECORD
  5
1404
102
{ACAD_REACTORS
330
13FF
102
}
330
13FF
100
AcDbXrecord
280
     1
270
     1
271
     1
  0
XRECORD
  5
1403
102
{ACAD_REACTORS
330
13FF
102
}
330
13FF
100
AcDbXrecord
280
     1
270
     1
271
     1
  0
XRECORD
  5
1405
102
{ACAD_REACTORS
330
13FF
102
}
330
13FF
100
AcDbXrecord
280
     1
270
     1
271
     1
  0
XRECORD
  5
1402
102
{ACAD_REACTORS
330
13FF
102
}
330
13FF
100
AcDbXrecord
280
     1
270
     1
271
     1
  0
CELLSTYLEMAP
  5
1640
102
{ACAD_REACTORS
330
15BC
102
}
330
15BC
100
AcDbCellStyleMap
 90
        3
300
CELLSTYLE
  1
TABLEFORMAT_BEGIN
 90
        5
170
     1
 91
        0
 92
    32768
 62
   257
 93
        1
300
CONTENTFORMAT
  1
CONTENTFORMAT_BEGIN
 90
        0
 91
        0
 92
      512
 93
        0
300

 40
0.0
140
1.0
 94
        1
 62
     0
340
11
144
0.18
309
CONTENTFORMAT_END
171
     1
301
MARGIN
  1
CELLMARGIN_BEGIN
 40
0.06
 40
0.06
 40
0.06
 40
0.06
 40
0.18
 40
0.18
309
CELLMARGIN_END
 94
        6
 95
        1
302
GRIDFORMAT
  1
GRIDFORMAT_BEGIN
 90
        0
 91
        1
 62
     0
 92
       -2
340
0
 93
        0
 40
0.045
309
GRIDFORMAT_END
 95
        2
302
GRIDFORMAT
  1
GRIDFORMAT_BEGIN
 90
        0
 91
        1
 62
     0
 92
       -2
340
0
 93
        0
 40
0.045
309
GRIDFORMAT_END
 95
        4
302
GRIDFORMAT
  1
GRIDFORMAT_BEGIN
 90
        0
 91
        1
 62
     0
 92
       -2
340
0
 93
        0
 40
0.045
309
GRIDFORMAT_END
 95
        8
302
GRIDFORMAT
  1
GRIDFORMAT_BEGIN
 90
        0
 91
        1
 62
     0
 92
       -2
340
0
 93
        0
 40
0.045
309
GRIDFORMAT_END
 95
       16
302
GRIDFORMAT
  1
GRIDFORMAT_BEGIN
 90
        0
 91
        1
 62
     0
 92
       -2
340
0
 93
        0
 40
0.045
309
GRIDFORMAT_END
 95
       32
302
GRIDFORMAT
  1
GRIDFORMAT_BEGIN
 90
        0
 91
        1
 62
     0
 92
       -2
340
0
 93
        0
 40
0.045
309
GRIDFORMAT_END
309
TABLEFORMAT_END
  1
CELLSTYLE_BEGIN
 90
        1
 91
        1
300
_TITLE
309
CELLSTYLE_END
300
CELLSTYLE
  1
TABLEFORMAT_BEGIN
 90
        5
170
     1
 91
        0
 92
        0
 62
   257
 93
        1
300
CONTENTFORMAT
  1
CONTENTFORMAT_BEGIN
 90
        0
 91
        0
 92
      512
 93
        0
300

 40
0.0
140
1.0
 94
        1
 62
     0
340
11
144
0.18
309
CONTENTFORMAT_END
171
     1
301
MARGIN
  1
CELLMARGIN_BEGIN
 40
0.06
 40
0.06
 40
0.06
 40
0.06
 40
0.18
 40
0.18
309
CELLMARGIN_END
 94
        6
 95
        1
302
GRIDFORMAT
  1
GRIDFORMAT_BEGIN
 90
        0
 91
        1
 62
     0
 92
       -2
340
0
 93
        0
 40
0.045
309
GRIDFORMAT_END
 95
        2
302
GRIDFORMAT
  1
GRIDFORMAT_BEGIN
 90
        0
 91
        1
 62
     0
 92
       -2
340
0
 93
        0
 40
0.045
309
GRIDFORMAT_END
 95
        4
302
GRIDFORMAT
  1
GRIDFORMAT_BEGIN
 90
        0
 91
        1
 62
     0
 92
       -2
340
0
 93
        0
 40
0.045
309
GRIDFORMAT_END
 95
        8
302
GRIDFORMAT
  1
GRIDFORMAT_BEGIN
 90
        0
 91
        1
 62
     0
 92
       -2
340
0
 93
        0
 40
0.045
309
GRIDFORMAT_END
 95
       16
302
GRIDFORMAT
  1
GRIDFORMAT_BEGIN
 90
        0
 91
        1
 62
     0
 92
       -2
340
0
 93
        0
 40
0.045
309
GRIDFORMAT_END
 95
       32
302
GRIDFORMAT
  1
GRIDFORMAT_BEGIN
 90
        0
 91
        1
 62
     0
 92
       -2
340
0
 93
        0
 40
0.045
309
GRIDFORMAT_END
309
TABLEFORMAT_END
  1
CELLSTYLE_BEGIN
 90
        2
 91
        1
300
_HEADER
309
CELLSTYLE_END
300
CELLSTYLE
  1
TABLEFORMAT_BEGIN
 90
        5
170
     1
 91
        0
 92
        0
 62
   257
 93
        1
300
CONTENTFORMAT
  1
CONTENTFORMAT_BEGIN
 90
        0
 91
        0
 92
      512
 93
        0
300

 40
0.0
140
1.0
 94
        1
 62
     0
340
11
144
0.18
309
CONTENTFORMAT_END
171
     1
301
MARGIN
  1
CELLMARGIN_BEGIN
 40
0.06
 40
0.06
 40
0.06
 40
0.06
 40
0.18
 40
0.18
309
CELLMARGIN_END
 94
        6
 95
        1
302
GRIDFORMAT
  1
GRIDFORMAT_BEGIN
 90
        0
 91
        1
 62
     0
 92
       -2
340
0
 93
        0
 40
0.045
309
GRIDFORMAT_END
 95
        2
302
GRIDFORMAT
  1
GRIDFORMAT_BEGIN
 90
        0
 91
        1
 62
     0
 92
       -2
340
0
 93
        0
 40
0.045
309
GRIDFORMAT_END
 95
        4
302
GRIDFORMAT
  1
GRIDFORMAT_BEGIN
 90
        0
 91
        1
 62
     0
 92
       -2
340
0
 93
        0
 40
0.045
309
GRIDFORMAT_END
 95
        8
302
GRIDFORMAT
  1
GRIDFORMAT_BEGIN
 90
        0
 91
        1
 62
     0
 92
       -2
340
0
 93
        0
 40
0.045
309
GRIDFORMAT_END
 95
       16
302
GRIDFORMAT
  1
GRIDFORMAT_BEGIN
 90
        0
 91
        1
 62
     0
 92
       -2
340
0
 93
        0
 40
0.045
309
GRIDFORMAT_END
 95
       32
302
GRIDFORMAT
  1
GRIDFORMAT_BEGIN
 90
        0
 91
        1
 62
     0
 92
       -2
340
0
 93
        0
 40
0.045
309
GRIDFORMAT_END
309
TABLEFORMAT_END
  1
CELLSTYLE_BEGIN
 90
        3
 91
        2
300
_DATA
309
CELLSTYLE_END
  0
CELLSTYLEMAP
  5
1641
102
{ACAD_REACTORS
330
15BE
102
}
330
15BE
100
AcDbCellStyleMap
 90
        3
300
CELLSTYLE
  1
TABLEFORMAT_BEGIN
 90
        5
170
     1
 91
        0
 92
    32768
 62
   257
 93
        1
300
CONTENTFORMAT
  1
CONTENTFORMAT_BEGIN
 90
        0
 91
        0
 92
      512
 93
        0
300

 40
0.0
140
1.0
 94
        1
 62
     0
340
11
144
0.18
309
CONTENTFORMAT_END
171
     1
301
MARGIN
  1
CELLMARGIN_BEGIN
 40
0.06
 40
0.06
 40
0.06
 40
0.06
 40
0.18
 40
0.18
309
CELLMARGIN_END
 94
        6
 95
        1
302
GRIDFORMAT
  1
GRIDFORMAT_BEGIN
 90
        0
 91
        1
 62
     0
 92
       -2
340
0
 93
        0
 40
0.045
309
GRIDFORMAT_END
 95
        2
302
GRIDFORMAT
  1
GRIDFORMAT_BEGIN
 90
        0
 91
        1
 62
     0
 92
       -2
340
0
 93
        0
 40
0.045
309
GRIDFORMAT_END
 95
        4
302
GRIDFORMAT
  1
GRIDFORMAT_BEGIN
 90
        0
 91
        1
 62
     0
 92
       -2
340
0
 93
        0
 40
0.045
309
GRIDFORMAT_END
 95
        8
302
GRIDFORMAT
  1
GRIDFORMAT_BEGIN
 90
        0
 91
        1
 62
     0
 92
       -2
340
0
 93
        0
 40
0.045
309
GRIDFORMAT_END
 95
       16
302
GRIDFORMAT
  1
GRIDFORMAT_BEGIN
 90
        0
 91
        1
 62
     0
 92
       -2
340
0
 93
        0
 40
0.045
309
GRIDFORMAT_END
 95
       32
302
GRIDFORMAT
  1
GRIDFORMAT_BEGIN
 90
        0
 91
        1
 62
     0
 92
       -2
340
0
 93
        0
 40
0.045
309
GRIDFORMAT_END
309
TABLEFORMAT_END
  1
CELLSTYLE_BEGIN
 90
        1
 91
        1
300
_TITLE
309
CELLSTYLE_END
300
CELLSTYLE
  1
TABLEFORMAT_BEGIN
 90
        5
170
     1
 91
        0
 92
        0
 62
   257
 93
        1
300
CONTENTFORMAT
  1
CONTENTFORMAT_BEGIN
 90
        0
 91
        0
 92
      512
 93
        0
300

 40
0.0
140
1.0
 94
        1
 62
     0
340
11
144
0.18
309
CONTENTFORMAT_END
171
     1
301
MARGIN
  1
CELLMARGIN_BEGIN
 40
0.06
 40
0.06
 40
0.06
 40
0.06
 40
0.18
 40
0.18
309
CELLMARGIN_END
 94
        6
 95
        1
302
GRIDFORMAT
  1
GRIDFORMAT_BEGIN
 90
        0
 91
        1
 62
     0
 92
       -2
340
0
 93
        0
 40
0.045
309
GRIDFORMAT_END
 95
        2
302
GRIDFORMAT
  1
GRIDFORMAT_BEGIN
 90
        0
 91
        1
 62
     0
 92
       -2
340
0
 93
        0
 40
0.045
309
GRIDFORMAT_END
 95
        4
302
GRIDFORMAT
  1
GRIDFORMAT_BEGIN
 90
        0
 91
        1
 62
     0
 92
       -2
340
0
 93
        0
 40
0.045
309
GRIDFORMAT_END
 95
        8
302
GRIDFORMAT
  1
GRIDFORMAT_BEGIN
 90
        0
 91
        1
 62
     0
 92
       -2
340
0
 93
        0
 40
0.045
309
GRIDFORMAT_END
 95
       16
302
GRIDFORMAT
  1
GRIDFORMAT_BEGIN
 90
        0
 91
        1
 62
     0
 92
       -2
340
0
 93
        0
 40
0.045
309
GRIDFORMAT_END
 95
       32
302
GRIDFORMAT
  1
GRIDFORMAT_BEGIN
 90
        0
 91
        1
 62
     0
 92
       -2
340
0
 93
        0
 40
0.045
309
GRIDFORMAT_END
309
TABLEFORMAT_END
  1
CELLSTYLE_BEGIN
 90
        2
 91
        1
300
_HEADER
309
CELLSTYLE_END
300
CELLSTYLE
  1
TABLEFORMAT_BEGIN
 90
        5
170
     1
 91
        0
 92
        0
 62
   257
 93
        1
300
CONTENTFORMAT
  1
CONTENTFORMAT_BEGIN
 90
        0
 91
        0
 92
      512
 93
        0
300

 40
0.0
140
1.0
 94
        1
 62
     0
340
11
144
0.18
309
CONTENTFORMAT_END
171
     1
301
MARGIN
  1
CELLMARGIN_BEGIN
 40
0.06
 40
0.06
 40
0.06
 40
0.06
 40
0.18
 40
0.18
309
CELLMARGIN_END
 94
        6
 95
        1
302
GRIDFORMAT
  1
GRIDFORMAT_BEGIN
 90
        0
 91
        1
 62
     0
 92
       -2
340
0
 93
        0
 40
0.045
309
GRIDFORMAT_END
 95
        2
302
GRIDFORMAT
  1
GRIDFORMAT_BEGIN
 90
        0
 91
        1
 62
     0
 92
       -2
340
0
 93
        0
 40
0.045
309
GRIDFORMAT_END
 95
        4
302
GRIDFORMAT
  1
GRIDFORMAT_BEGIN
 90
        0
 91
        1
 62
     0
 92
       -2
340
0
 93
        0
 40
0.045
309
GRIDFORMAT_END
 95
        8
302
GRIDFORMAT
  1
GRIDFORMAT_BEGIN
 90
        0
 91
        1
 62
     0
 92
       -2
340
0
 93
        0
 40
0.045
309
GRIDFORMAT_END
 95
       16
302
GRIDFORMAT
  1
GRIDFORMAT_BEGIN
 90
        0
 91
        1
 62
     0
 92
       -2
340
0
 93
        0
 40
0.045
309
GRIDFORMAT_END
 95
       32
302
GRIDFORMAT
  1
GRIDFORMAT_BEGIN
 90
        0
 91
        1
 62
     0
 92
       -2
340
0
 93
        0
 40
0.045
309
GRIDFORMAT_END
309
TABLEFORMAT_END
  1
CELLSTYLE_BEGIN
 90
        3
 91
        2
300
_DATA
309
CELLSTYLE_END
  0
ENDSEC
  0
EOF
