  0
SECTION
  2
HEADER
  9
$ACADVER
  1
AC1009
  9
$INSBASE
 10
3825.6633231734190304
 20
108.5155893060832
 30
0.0
  9
$EXTMIN
 10
3821.2735308827341214
 20
107.1692558948830936
 30
0.0
  9
$EXTMAX
 10
3825.6742246874591729
 20
109.8619227172830932
 30
0.0
  9
$LIMMIN
 10
0.0
 20
0.0
  9
$LIMMAX
 10
11.6929133858000007
 20
8.2677165353999982
  9
$ORTHOMODE
 70
     0
  9
$REGENMODE
 70
     1
  9
$FILLMODE
 70
     1
  9
$QTEXTMODE
 70
     0
  9
$MIRRTEXT
 70
     0
  9
$DRAGMODE
 70
     2
  9
$LTSCALE
 40
0.6431102362
  9
$OSMODE
 70
  4095
  9
$ATTMODE
 70
     1
  9
$TEXTSIZE
 40
0.2
  9
$TRACEWID
 40
0.05
  9
$TEXTSTYLE
  7
STANDARD
  9
$CLAYER
  8
0
  9
$CELTYPE
  6
BYLAYER
  9
$CECOLOR
 62
   256
  9
$DIMSCALE
 40
1.0
  9
$DIMASZ
 40
0.1875
  9
$DIMEXO
 40
0.0625
  9
$DIMDLI
 40
0.4443307087
  9
$DIMRND
 40
0.0
  9
$DIMDLE
 40
0.0
  9
$DIMEXE
 40
0.125
  9
$DIMTP
 40
0.01
  9
$DIMTM
 40
0.01
  9
$DIMTXT
 40
2.0
  9
$DIMCEN
 40
0.1052362205
  9
$DIMTSZ
 40
0.0
  9
$DIMTOL
 70
     1
  9
$DIMLIM
 70
     0
  9
$DIMTIH
 70
     1
  9
$DIMTOH
 70
     1
  9
$DIMSE1
 70
     0
  9
$DIMSE2
 70
     0
  9
$DIMTAD
 70
     0
  9
$DIMZIN
 70
     0
  9
$DIMBLK
  1

  9
$DIMASO
 70
     1
  9
$DIMSHO
 70
     1
  9
$DIMPOST
  1
\X
  9
$DIMAPOST
  1

  9
$DIMALT
 70
     1
  9
$DIMALTD
 70
     2
  9
$DIMALTF
 40
25.3999999999999986
  9
$DIMLFAC
 40
1.0
  9
$DIMTOFL
 70
     0
  9
$DIMTVP
 40
0.0
  9
$DIMTIX
 70
     0
  9
$DIMSOXD
 70
     0
  9
$DIMSAH
 70
     0
  9
$DIMBLK1
  1

  9
$DIMBLK2
  1

  9
$DIMSTYLE
  2
STANDARD
  9
$DIMCLRD
 70
     0
  9
$DIMCLRE
 70
     0
  9
$DIMCLRT
 70
     0
  9
$DIMTFAC
 40
1.0
  9
$DIMGAP
 40
0.09
  9
$LUNITS
 70
     2
  9
$LUPREC
 70
     4
  9
$SKETCHINC
 40
0.1
  9
$FILLETRAD
 40
0.0
  9
$AUNITS
 70
     0
  9
$AUPREC
 70
     0
  9
$MENU
  1
.
  9
$ELEVATION
 40
0.0
  9
$PELEVATION
 40
0.0
  9
$THICKNESS
 40
0.0
  9
$LIMCHECK
 70
     0
  9
$BLIPMODE
 70
     0
  9
$CHAMFERA
 40
0.0
  9
$CHAMFERB
 40
0.0
  9
$SKPOLY
 70
     0
  9
$TDCREATE
 40
2458060.468368056230247
  9
$TDUPDATE
 40
2459040.9775694450363517
  9
$TDINDWG
 40
0.401696875
  9
$TDUSRTIMER
 40
0.401696875
  9
$USRTIMER
 70
     1
  9
$ANGBASE
 50
0.0
  9
$ANGDIR
 70
     0
  9
$PDMODE
 70
     0
  9
$PDSIZE
 40
0.3125
  9
$PLINEWID
 40
0.0
  9
$COORDS
 70
     1
  9
$SPLFRAME
 70
     0
  9
$SPLINETYPE
 70
     6
  9
$SPLINESEGS
 70
     8
  9
$ATTDIA
 70
     1
  9
$ATTREQ
 70
     1
  9
$HANDLING
 70
     1
  9
$HANDSEED
  5
6CD3
  9
$SURFTAB1
 70
     6
  9
$SURFTAB2
 70
     6
  9
$SURFTYPE
 70
     6
  9
$SURFU
 70
     6
  9
$SURFV
 70
     6
  9
$UCSNAME
  2

  9
$UCSORG
 10
0.0
 20
0.0
 30
0.0
  9
$UCSXDIR
 10
1.0
 20
0.0
 30
0.0
  9
$UCSYDIR
 10
0.0
 20
1.0
 30
0.0
  9
$PUCSNAME
  2

  9
$PUCSORG
 10
0.0
 20
0.0
 30
0.0
  9
$PUCSXDIR
 10
1.0
 20
0.0
 30
0.0
  9
$PUCSYDIR
 10
0.0
 20
1.0
 30
0.0
  9
$USERI1
 70
     0
  9
$USERI2
 70
     0
  9
$USERI3
 70
     0
  9
$USERI4
 70
     0
  9
$USERI5
 70
     0
  9
$USERR1
 40
0.0
  9
$USERR2
 40
0.0
  9
$USERR3
 40
0.0
  9
$USERR4
 40
0.0
  9
$USERR5
 40
0.0
  9
$WORLDVIEW
 70
     1
  9
$SHADEDGE
 70
     3
  9
$SHADEDIF
 70
    70
  9
$TILEMODE
 70
     1
  9
$MAXACTVP
 70
    64
  9
$PLIMCHECK
 70
     0
  9
$PEXTMIN
 10
1.0000000000000000E+20
 20
1.0000000000000000E+20
 30
1.0000000000000000E+20
  9
$PEXTMAX
 10
-1.0000000000000000E+20
 20
-1.0000000000000000E+20
 30
-1.0000000000000000E+20
  9
$PLIMMIN
 10
0.0
 20
0.0
  9
$PLIMMAX
 10
12.0
 20
9.0
  9
$UNITMODE
 70
     0
  9
$VISRETAIN
 70
     1
  9
$PLINEGEN
 70
     0
  9
$PSLTSCALE
 70
     1
  0
ENDSEC
  0
SECTION
  2
TABLES
  0
TABLE
  2
VPORT
 70
     1
  0
VPORT
  2
*ACTIVE
 70
     0
 10
0.0
 20
0.0
 11
1.0
 21
1.0
 12
74.8530188268045009
 22
-23.0236998551638301
 13
0.0
 23
0.0
 14
1.0
 24
1.0
 15
0.0
 25
0.0
 16
0.0
 26
0.0
 36
57.9818139787255973
 17
3750.841064453125
 27
131.5351943969725994
 37
0.0
 40
0.0959939901182523
 41
2.005224660397074
 42
50.0
 43
0.0
 44
0.0
 50
0.0
 51
0.0
 71
     0
 72
   100
 73
     1
 74
     1
 75
     0
 76
     0
 77
     0
 78
     0
  0
ENDTAB
  0
TABLE
  2
LTYPE
 70
     2
  0
LTYPE
  2
CONTINUOUS
 70
     0
  3
Solid line
 72
    65
 73
     0
 40
0.0
  0
LTYPE
  2
PHANTOM2
 70
     0
  3
___ _ _ ___ _ _ ___ _ _ ___ _ _
 72
    65
 73
     6
 40
1.25
 49
0.625
 49
-0.125
 49
0.125
 49
-0.125
 49
0.125
 49
-0.125
  0
ENDTAB
  0
TABLE
  2
LAYER
 70
     2
  0
LAYER
  2
0
 70
     0
 62
   255
  6
CONTINUOUS
  0
LAYER
  2
DEFPOINTS
 70
     0
 62
     7
  6
CONTINUOUS
  0
ENDTAB
  0
TABLE
  2
STYLE
 70
     1
  0
STYLE
  2
STANDARD
 70
     0
 40
0.0
 41
0.8
 50
0.0
 71
     0
 42
0.2
  3
txt
  4

  0
ENDTAB
  0
TABLE
  2
VIEW
 70
     0
  0
ENDTAB
  0
TABLE
  2
UCS
 70
     0
  0
ENDTAB
  0
TABLE
  2
APPID
 70
     9
  0
APPID
  2
ACAD
 70
     0
  0
APPID
  2
ACAD_MLEADERVER
 70
     0
  0
APPID
  2
ACAD_EXEMPT_FROM_CAD_STANDARDS
 70
     0
  0
APPID
  2
ACAD_NAV_VCDISPLAY
 70
     0
  0
APPID
  2
ACAECLAYERSTANDARD
 70
     0
  0
APPID
  2
ACCMTRANSPARENCY
 70
     0
  0
APPID
  2
ACAD_DSTYLE_DIMJAG
 70
     0
  0
APPID
  2
ACAD_DSTYLE_DIMTALN
 70
     0
  0
APPID
  2
ACDBATTR
 70
     0
  0
ENDTAB
  0
TABLE
  2
DIMSTYLE
 70
     1
  0
DIMSTYLE
  2
STANDARD
 70
     0
  3

  4

  5

  6

  7

 40
1.0
 41
0.1875
 42
0.0625
 43
0.38
 44
0.125
 45
0.0
 46
0.0
 47
0.01
 48
0.01
140
0.15625
141
0.09
142
0.0
143
25.3999999999999986
144
1.0
145
0.0
146
1.0
147
0.09
 71
     1
 72
     0
 73
     1
 74
     1
 75
     0
 76
     0
 77
     0
 78
     4
170
     0
171
     2
172
     0
173
     0
174
     0
175
     0
176
     0
177
     0
178
     0
  0
ENDTAB
  0
ENDSEC
  0
SECTION
  2
BLOCKS
  0
BLOCK
  8
0
  2
$MODEL_SPACE
 70
     0
 10
0.0
 20
0.0
 30
0.0
  3
$MODEL_SPACE
  1

  0
ENDBLK
  5
21
  8
0
  0
BLOCK
 67
     1
  8
0
  2
$PAPER_SPACE
 70
     0
 10
0.0
 20
0.0
 30
0.0
  3
$PAPER_SPACE
  1

  0
ENDBLK
  5
1D
 67
     1
  8
0
  0
BLOCK
  8
0
  2
_FILLED
 70
     0
 10
0.0
 20
0.0
 30
0.0
  3
_FILLED
  1

  0
SOLID
  5
635C
  8
0
  6
BYBLOCK
 62
     0
 10
0.0
 20
0.0
 30
0.0
 11
-1.0
 21
0.1666666667
 31
0.0
 12
-1.0
 22
-0.1666666667
 32
0.0
 13
-1.0
 23
-0.1666666667
 33
0.0
  0
ENDBLK
  5
635D
  8
0
  6
BYBLOCK
 62
     0
  0
BLOCK
  8
0
  2
A$C389C6A6F
 70
     0
 10
0.0
 20
0.0
 30
0.0
  3
A$C389C6A6F
  1

  0
LINE
  5
65E7
  8
0
 10
2.1259842907416409
 20
1.3761042435488371
 30
0.0
 11
2.1259842907416409
 21
0.395646962715908
 31
0.0
  0
LINE
  5
65E8
  8
0
 10
23.6614173615416483
 20
1.3760037655198469
 30
0.0
 11
23.6614173615416412
 21
0.3956469627159009
 31
0.0
  0
LINE
  5
65E9
  8
0
 10
0.8876524923260618
 20
1.376003740032004
 30
0.0
 11
24.9015820721394796
 21
1.3760037669078069
 31
0.0
  0
LINE
  5
65EA
  8
0
 10
24.9026135717382111
 20
0.3956469627159009
 30
0.0
 11
0.8866137625287819
 21
0.3956469627159009
 31
0.0
  0
ARC
  5
65EB
  8
0
 10
0.8858268103416406
 20
0.8858267354725911
 30
0.0
 40
0.4901804044569147
 50
89.7866007835059747
 51
270.0919846203599946
  0
ARC
  5
65EC
  8
0
 10
24.9034005239260701
 20
0.8858267354725911
 30
0.0
 40
0.8858267717000002
 50
213.5977265379464995
 51
146.4024863976835036
  0
ARC
  5
65ED
  8
0
 10
24.9034005239260701
 20
0.8858267354725911
 30
0.0
 40
0.4901804044569147
 50
269.9080153796404034
 51
90.2133992164940111
  0
CIRCLE
  5
65EE
  8
0
 10
0.8858268103416406
 20
0.8858267354725911
 30
0.0
 40
0.8858267717000032
  0
LINE
  5
65EF
  8
0
 62
     4
 10
12.8946172822327707
 20
0.8858267354725911
 30
0.0
 11
16.8974798135066884
 21
4.5887724949441369
 31
0.0
  0
ENDBLK
  5
65F1
  8
0
  0
ENDSEC
  0
SECTION
  2
ENTITIES
  0
ATTDEF
  5
3930
  8
DEFPOINTS
 10
3825.6635580207907879
 20
108.5172559727497941
 30
0.0
 40
0.001
  1
K-45403T
  3

  2
MODELNUMBER
 70
     0
1001
ACDBATTR
1070
     0
1070
     1
  0
ATTDEF
  5
3931
  8
DEFPOINTS
 10
3825.6635580207907879
 20
108.5155893060832
 30
0.0
 40
0.001
  1
JULY
  3

  2
TRADENAME
 70
     0
1001
ACDBATTR
1070
     0
1070
     1
  0
ATTDEF
  5
3932
  8
DEFPOINTS
 10
3825.6635580207907879
 20
108.5139226394165064
 30
0.0
 40
0.001
  1
TOILET TISSUE HOLDER
  3

  2
PRODUCT
 70
     0
1001
ACDBATTR
1070
     0
1070
     1
  0
LINE
  5
6BFC
  8
0
 10
3825.6633231734190304
 20
107.1692558948830936
 30
0.0
 11
3825.6633231734190304
 21
109.6453872841832009
 31
0.0
  0
ARC
  5
6BFD
  8
0
 10
3823.0278709990188872
 20
107.7991460603830944
 30
0.0
 40
0.6299291783999932
 50
18.2118938564516917
 51
269.362326856855077
  0
LINE
  5
6BFE
  8
0
 10
3822.4294967404930503
 20
107.9960191579188944
 30
0.0
 11
3824.5443596307241023
 21
107.9960191579188944
 31
0.0
  0
LINE
  5
6BFF
  8
0
 10
3824.4659804763009561
 20
107.9960191579188944
 30
0.0
 11
3824.4660024431291276
 21
107.9960191579188944
 31
0.0
  0
LINE
  5
6C00
  8
0
 10
3825.6633231734190304
 20
108.4290752387831986
 30
0.0
 11
3825.0494514678189262
 21
108.4290752387831986
 31
0.0
  0
ARC
  5
6C01
  8
0
 10
3825.0500907844188987
 20
108.3684713535808015
 30
0.0
 40
0.0606072572167416
 50
90.604396635179782
 51
182.1604683623812093
  0
ARC
  5
6C02
  8
0
 10
3824.5882075593581249
 20
108.4182347495801935
 30
0.0
 40
0.4046801127396574
 50
296.8974445590152982
 51
352.6103975162122879
  0
ARC
  5
6C03
  8
0
 10
3824.5014943705641599
 20
108.6052356515877051
 30
0.0
 40
0.6107226593852987
 50
274.0247720424648037
 51
296.2157678319845218
  0
LINE
  5
6C04
  8
0
 10
3825.4467877403199054
 20
109.8619227172830932
 30
0.0
 11
3823.0062966341301944
 21
109.8619227172830932
 31
0.0
  0
ARC
  5
6C05
  8
0
 10
3825.4467877403199054
 20
109.6453872841832009
 30
0.0
 40
0.2165354330999616
 50
359.9999999999968168
 51
90.0000000001302709
  0
LINE
  5
6C06
  8
0
 10
3823.0078282375188792
 20
109.8304266542831016
 30
0.0
 11
3825.4467877403199054
 21
109.8304266542831016
 31
0.0
  0
ARC
  5
6C07
  8
0
 10
3825.4467877403199054
 20
109.6453872841832009
 30
0.0
 40
0.1850393701000019
 50
0.0
 51
90.0
  0
LINE
  5
6C08
  8
0
 10
3825.6318271104191808
 20
109.6453872841832009
 30
0.0
 11
3825.6318271104191808
 21
108.4290752387831986
 31
0.0
  0
LINE
  5
6C09
  8
0
 10
3821.2735308827341214
 20
109.0531038196544955
 30
0.0
 11
3821.2976602373191781
 21
109.0328608890830964
 31
0.0
  0
ARC
  5
6C0B
  8
0
 10
3823.0078307196499736
 20
107.5981393222571967
 30
0.0
 40
2.2637839148235059
 50
90.038827306737204
 51
140.0055422882464882
  0
ARC
  5
6C0C
  8
0
 10
3823.0078282374010996
 20
107.5981431902172005
 30
0.0
 40
2.232283464065949
 50
89.9999999969515443
 51
140.0055769094346942
  0
LINE
  5
6C0D
  8
0
 10
3825.6633231734190304
 20
107.1692558948830936
 30
0.0
 11
3823.0208603495439093
 21
107.1692558948830936
 31
0.0
  0
ENDSEC
  0
EOF
