  0
SECTION
  2
HEADER
  9
$ACADVER
  1
AC1009
  9
$INSBASE
 10
0.0
 20
0.0
 30
0.0
  9
$EXTMIN
 10
632.4272915653271
 20
155.6362380545076
 30
-0.0000000000112498
  9
$EXTMAX
 10
845.50730789786599
 20
625.66568741405581
 30
0.0000000000002956
  9
$LIMMIN
 10
0.0
 20
0.0
  9
$LIMMAX
 10
863.60000000000014
 20
558.79999999999995
  9
$ORTHOMODE
 70
     0
  9
$REGENMODE
 70
     1
  9
$FILLMODE
 70
     1
  9
$QTEXTMODE
 70
     0
  9
$MIRRTEXT
 70
     1
  9
$DRAGMODE
 70
     2
  9
$LTSCALE
 40
47.49799999999999
  9
$OSMODE
 70
    39
  9
$ATTMODE
 70
     1
  9
$TEXTSIZE
 40
0.2
  9
$TRACEWID
 40
0.05
  9
$TEXTSTYLE
  7
STANDARD
  9
$CLAYER
  8
0
  9
$CELTYPE
  6
BYLAYER
  9
$CECOLOR
 62
   256
  9
$DIMSCALE
 40
1.0
  9
$DIMASZ
 40
6.0
  9
$DIMEXO
 40
5.3974999999999991
  9
$DIMDLI
 40
32.816800000000001
  9
$DIMRND
 40
0.0
  9
$DIMDLE
 40
0.0
  9
$DIMEXE
 40
15.5448
  9
$DIMTP
 40
0.0
  9
$DIMTM
 40
0.0
  9
$DIMTXT
 40
7.0
  9
$DIMCEN
 40
7.7724000000000002
  9
$DIMTSZ
 40
0.0
  9
$DIMTOL
 70
     0
  9
$DIMLIM
 70
     0
  9
$DIMTIH
 70
     1
  9
$DIMTOH
 70
     1
  9
$DIMSE1
 70
     0
  9
$DIMSE2
 70
     0
  9
$DIMTAD
 70
     0
  9
$DIMZIN
 70
     0
  9
$DIMBLK
  1

  9
$DIMASO
 70
     1
  9
$DIMSHO
 70
     1
  9
$DIMPOST
  1

  9
$DIMAPOST
  1

  9
$DIMALT
 70
     0
  9
$DIMALTD
 70
     2
  9
$DIMALTF
 40
25.399999999999999
  9
$DIMLFAC
 40
1.0
  9
$DIMTOFL
 70
     0
  9
$DIMTVP
 40
0.0
  9
$DIMTIX
 70
     0
  9
$DIMSOXD
 70
     0
  9
$DIMSAH
 70
     0
  9
$DIMBLK1
  1

  9
$DIMBLK2
  1

  9
$DIMSTYLE
  2
STANDARD
  9
$DIMCLRD
 70
     0
  9
$DIMCLRE
 70
     0
  9
$DIMCLRT
 70
     0
  9
$DIMTFAC
 40
1.0
  9
$DIMGAP
 40
0.09
  9
$LUNITS
 70
     2
  9
$LUPREC
 70
     4
  9
$SKETCHINC
 40
0.1
  9
$FILLETRAD
 40
0.0
  9
$AUNITS
 70
     0
  9
$AUPREC
 70
     0
  9
$MENU
  1
acad
  9
$ELEVATION
 40
0.0
  9
$PELEVATION
 40
0.0
  9
$THICKNESS
 40
0.0
  9
$LIMCHECK
 70
     0
  9
$BLIPMODE
 70
     0
  9
$CHAMFERA
 40
0.0
  9
$CHAMFERB
 40
0.0
  9
$SKPOLY
 70
     0
  9
$TDCREATE
 40
2454355.442924757
  9
$TDUPDATE
 40
2454455.5846073148
  9
$TDINDWG
 40
0.0021260764
  9
$TDUSRTIMER
 40
0.0021260764
  9
$USRTIMER
 70
     1
  9
$ANGBASE
 50
0.0
  9
$ANGDIR
 70
     0
  9
$PDMODE
 70
     3
  9
$PDSIZE
 40
0.5
  9
$PLINEWID
 40
0.0
  9
$COORDS
 70
     1
  9
$SPLFRAME
 70
     0
  9
$SPLINETYPE
 70
     6
  9
$SPLINESEGS
 70
     8
  9
$ATTDIA
 70
     0
  9
$ATTREQ
 70
     1
  9
$HANDLING
 70
     1
  9
$HANDSEED
  5
DBB
  9
$SURFTAB1
 70
     6
  9
$SURFTAB2
 70
     6
  9
$SURFTYPE
 70
     6
  9
$SURFU
 70
     6
  9
$SURFV
 70
     6
  9
$UCSNAME
  2

  9
$UCSORG
 10
0.0
 20
0.0
 30
0.0
  9
$UCSXDIR
 10
1.0
 20
0.0
 30
0.0
  9
$UCSYDIR
 10
0.0
 20
1.0
 30
0.0
  9
$PUCSNAME
  2

  9
$PUCSORG
 10
0.0
 20
0.0
 30
0.0
  9
$PUCSXDIR
 10
1.0
 20
0.0
 30
0.0
  9
$PUCSYDIR
 10
0.0
 20
1.0
 30
0.0
  9
$USERI1
 70
     0
  9
$USERI2
 70
     0
  9
$USERI3
 70
     0
  9
$USERI4
 70
     0
  9
$USERI5
 70
     0
  9
$USERR1
 40
0.0
  9
$USERR2
 40
0.0
  9
$USERR3
 40
0.0
  9
$USERR4
 40
0.0
  9
$USERR5
 40
0.0
  9
$WORLDVIEW
 70
     1
  9
$SHADEDGE
 70
     3
  9
$SHADEDIF
 70
    70
  9
$TILEMODE
 70
     1
  9
$MAXACTVP
 70
    16
  9
$PLIMCHECK
 70
     0
  9
$PEXTMIN
 10
1.0000000000000000E+020
 20
1.0000000000000000E+020
 30
1.0000000000000000E+020
  9
$PEXTMAX
 10
-1.0000000000000000E+020
 20
-1.0000000000000000E+020
 30
-1.0000000000000000E+020
  9
$PLIMMIN
 10
0.0
 20
0.0
  9
$PLIMMAX
 10
12.0
 20
9.0
  9
$UNITMODE
 70
     0
  9
$VISRETAIN
 70
     0
  9
$PLINEGEN
 70
     1
  9
$PSLTSCALE
 70
     0
  0
ENDSEC
  0
SECTION
  2
TABLES
  0
TABLE
  2
VPORT
 70
     1
  0
VPORT
  2
*ACTIVE
 70
     0
 10
0.0
 20
0.0
 11
1.0
 21
1.0
 12
738.96729973159654
 22
390.65096273428168
 13
0.0
 23
0.0
 14
1.0
 24
1.0
 15
0.0
 25
0.0
 16
0.0
 26
0.0
 36
1.0
 17
0.0
 27
0.0
 37
0.0
 40
473.6543551386705
 41
1.5250965250965249
 42
50.0
 43
0.0
 44
0.0
 50
0.0
 51
0.0
 71
     0
 72
   100
 73
     1
 74
     1
 75
     0
 76
     0
 77
     0
 78
     0
  0
ENDTAB
  0
TABLE
  2
LTYPE
 70
    17
  0
LTYPE
  2
CONTINUOUS
 70
     0
  3
Solid line
 72
    65
 73
     0
 40
0.0
  0
LTYPE
  2
CENTER
 70
     0
  3
____ _ ____ _ ____ _ ____ _ ____ _ ____ _ ____
 72
    65
 73
     4
 40
0.6
 49
0.375
 49
-0.075
 49
0.075
 49
-0.075
  0
LTYPE
  2
HIDDEN
 70
     0
  3
- - - - - - - - - - - - - - - - - - - -
 72
    65
 73
     2
 40
0.2
 49
0.1
 49
-0.1
  0
LTYPE
  2
PHANTOM
 70
     0
  3
_____ _ _ _____ _ _ _____ _ _ _____
 72
    65
 73
     6
 40
0.8
 49
0.45
 49
-0.05
 49
0.1
 49
-0.05
 49
0.1
 49
-0.05
  0
LTYPE
  2
DOT
 70
     0
  3
. . . . . . . . . . . . . . . . . . . .
 72
    65
 73
     2
 40
0.2
 49
0.1
 49
-0.1
  0
LTYPE
  2
DASHED
 70
     0
  3
- - - - - - - - - - - - - - - - - - - -
 72
    65
 73
     2
 40
0.2
 49
0.1
 49
-0.1
  0
LTYPE
  2
PHANTOM2
 70
     0
  3
Phantom (.5x) ___ _ _ ___ _ _ ___ _ _ ___ _ _
 72
    65
 73
     6
 40
31.75
 49
15.875
 49
-3.1749999999999989
 49
3.1749999999999989
 49
-3.1749999999999989
 49
3.1749999999999989
 49
-3.1749999999999989
  0
LTYPE
  2
AM_ISO02W050
 70
     0
  3
__ __ __ __ __ __ __ __ __ __ __ __ __ __ __
 72
    65
 73
     2
 40
7.5
 49
6.0
 49
-1.5
  0
LTYPE
  2
AM_ISO08W050
 70
     0
  3
____ . ____ . ____ . ____ . ____ . ____ . ____
 72
    65
 73
     4
 40
18.0
 49
12.0
 49
-1.5
 49
3.0
 49
-1.5
  0
LTYPE
  2
AM_ISO09W050
 70
     0
  3
_____ . . _____ . . _____ . . ____ .. ____
 72
    65
 73
     6
 40
22.5
 49
12.0
 49
-1.5
 49
3.0
 49
-1.5
 49
3.0
 49
-1.5
  0
LTYPE
  2
AMCONSTR
 70
     0
  3
_______________________
 72
    65
 73
     2
 40
9999.0
 49
9999.0
 49
0.0
  0
LTYPE
  2
AM_ISO08W050X2
 70
     0
  3
__ . __ . __ . __ . __ . __
 72
    65
 73
     4
 40
9.0
 49
6.0
 49
-0.75
 49
1.5
 49
-0.75
  0
LTYPE
  2
AM_ISO02W050X2
 70
     0
  3
 _ _ _ _ _ _ _ _ _ _ _ _
 72
    65
 73
     2
 40
3.75
 49
3.0
 49
-0.75
  0
LTYPE
  2
AMZIGZAG
 70
     0
  3
/\/-/\/-/\/-/\/-/\/-/\/
 72
    65
 73
     2
 40
11.0001
 49
0.0001
 49
-11.0
  0
LTYPE
  2
ACISOWELD
 70
     0
  3
_ _ _ _ _
 72
    65
 73
     2
 40
2.0
 49
2.0
 49
-1.0
  0
LTYPE
  2
ACISOTGB
 70
     0
  3
__ . . __ . .
 72
    65
 73
     6
 40
9.0
 49
4.0
 49
-1.0
 49
1.0
 49
-1.0
 49
1.0
 49
-1.0
  0
LTYPE
  2
ACISOTGL
 70
     0
  3
_ _ _ _ _
 72
    65
 73
     2
 40
3.0
 49
2.0
 49
-1.0
  0
ENDTAB
  0
TABLE
  2
LAYER
 70
    21
  0
LAYER
  2
0
 70
     0
 62
     7
  6
CONTINUOUS
  0
LAYER
  2
DEFAULT_1
 70
     0
 62
     7
  6
CENTER
  0
LAYER
  2
DEFAULT_2
 70
     0
 62
     8
  6
HIDDEN
  0
LAYER
  2
DEFAULT_3
 70
     0
 62
     7
  6
PHANTOM
  0
LAYER
  2
_2D_DELETED_OBJS
 70
     0
 62
     7
  6
CONTINUOUS
  0
LAYER
  2
_BLACK_HOLE
 70
     0
 62
     7
  6
CONTINUOUS
  0
LAYER
  2
COSM_SKETCH
 70
     0
 62
     7
  6
CONTINUOUS
  0
LAYER
  2
DATUMS
 70
     0
 62
     7
  6
CONTINUOUS
  0
LAYER
  2
DATUM_AXIS
 70
     0
 62
     7
  6
CONTINUOUS
  0
LAYER
  2
DATUM_CSYS
 70
     0
 62
     7
  6
CONTINUOUS
  0
LAYER
  2
DATUM_PLANE
 70
     0
 62
     7
  6
CONTINUOUS
  0
LAYER
  2
DATUM_PLN
 70
     0
 62
     7
  6
CONTINUOUS
  0
LAYER
  2
DATUM_POINT
 70
     0
 62
     7
  6
CONTINUOUS
  0
LAYER
  2
GEO_TOL_DATUMS
 70
     0
 62
     7
  6
CONTINUOUS
  0
LAYER
  2
_CURVE
 70
     0
 62
     7
  6
CONTINUOUS
  0
LAYER
  2
_SURFACE
 70
     0
 62
     7
  6
CONTINUOUS
  0
LAYER
  2
__REF_CURVE
 70
     0
 62
     7
  6
CONTINUOUS
  0
LAYER
  2
__REF_SURFACE
 70
     0
 62
     7
  6
CONTINUOUS
  0
LAYER
  2
___COSMETIC_SKETCH
 70
     0
 62
     7
  6
CONTINUOUS
  0
LAYER
  2
___NOTE
 70
     0
 62
     7
  6
CONTINUOUS
  0
LAYER
  2
___SYMBOL
 70
     0
 62
     7
  6
CONTINUOUS
  0
ENDTAB
  0
TABLE
  2
STYLE
 70
     7
  0
STYLE
  2
STANDARD
 70
     0
 40
0.0
 41
0.75
 50
0.0
 71
     0
 42
0.2
  3
txt
  4

  0
STYLE
  2
TEXTSTYLE_1
 70
     0
 40
0.0
 41
0.925
 50
0.0
 71
     0
 42
0.2
  3
txt
  4

  0
STYLE
  2
TEXTSTYLE_2
 70
     0
 40
0.0
 41
1.2299999999999991
 50
0.0
 71
     0
 42
0.2
  3
txt
  4

  0
STYLE
  2
TEXTSTYLE_3
 70
     0
 40
0.0
 41
0.8
 50
0.0
 71
     0
 42
0.2
  3
txt
  4

  0
STYLE
  2

 70
     1
 40
0.0
 41
1.0
 50
0.0
 71
     0
 42
0.2
  3
genltshp.shx
  4

  0
STYLE
  2
ACISOTS
 70
     0
 40
1.0
 41
1.0
 50
0.0
 71
     0
 42
0.2
  3
isocp.shx
  4

  0
STYLE
  2
ACISOGDT
 70
     0
 40
0.0
 41
1.0
 50
0.0
 71
     0
 42
0.2
  3
AMGDT
  4

  0
ENDTAB
  0
TABLE
  2
VIEW
 70
     0
  0
ENDTAB
  0
TABLE
  2
UCS
 70
     0
  0
ENDTAB
  0
TABLE
  2
APPID
 70
    12
  0
APPID
  2
ACAD
 70
     0
  0
APPID
  2
DCO15
 70
     0
  0
APPID
  2
MCAD_NO_VIS
 70
     0
  0
APPID
  2
ACAD_TEMP_GRAPHIC
 70
     0
  0
APPID
  2
AD_DRAW
 70
     0
  0
APPID
  2
ACATTRIBSERVICES
 70
     0
  0
APPID
  2
DESIGNERASSEMBLIES
 70
     0
  0
APPID
  2
ACADM_DIM_EDIT
 70
     0
  0
APPID
  2
AMDT_DM_ADJ
 70
     0
  0
APPID
  2
ACAD_DSTYLE_DIMARC_LENGTH_
 70
     0
  0
APPID
  2
ACAD_DSTYLE_DIMJOGGED_JOGA
 70
     0
  0
APPID
  2
ACAD_EXEMPT_FROM_CAD_STANDARDS
 70
     0
  0
ENDTAB
  0
TABLE
  2
DIMSTYLE
 70
     8
  0
DIMSTYLE
  2
STANDARD
 70
     0
  3

  4

  5

  6

  7

 40
1.0
 41
6.0
 42
0.0625
 43
0.38
 44
0.18
 45
0.0
 46
0.0
 47
0.01
 48
0.01
140
7.0
141
0.09
142
0.0
143
25.399999999999999
144
1.0
145
0.0
146
1.0
147
0.09
 71
     0
 72
     0
 73
     0
 74
     0
 75
     0
 76
     0
 77
     1
 78
     8
170
     0
171
     2
172
     0
173
     0
174
     0
175
     0
176
     0
177
     0
178
     5
  0
DIMSTYLE
  2
AM_ISO
 70
     0
  3

  4
"
  5

  6

  7

 40
1.0
 41
2.5
 42
1.0
 43
10.0
 44
1.0
 45
0.0
 46
0.0
 47
0.1
 48
0.1
140
3.5
141
0.0
142
0.0
143
0.0393701
144
1.0
145
0.0
146
0.71
147
1.5
 71
     0
 72
     0
 73
     0
 74
     0
 75
     0
 76
     0
 77
     1
 78
     8
170
     0
171
     2
172
     1
173
     0
174
     0
175
     0
176
   256
177
   256
178
     2
  0
DIMSTYLE
  2
AM_ISO$3
 70
     0
  3

  4
"
  5

  6

  7

 40
1.0
 41
2.5
 42
1.0
 43
10.0
 44
1.0
 45
0.0
 46
0.0
 47
0.1
 48
0.1
140
3.5
141
0.0
142
0.0
143
0.0393701
144
1.0
145
0.0
146
0.71
147
1.5
 71
     0
 72
     0
 73
     0
 74
     1
 75
     0
 76
     0
 77
     1
 78
     8
170
     0
171
     2
172
     0
173
     0
174
     0
175
     0
176
   256
177
   256
178
     2
  0
DIMSTYLE
  2
AM_ISO$4
 70
     0
  3

  4
"
  5

  6

  7

 40
1.0
 41
2.5
 42
1.0
 43
10.0
 44
1.0
 45
0.0
 46
0.0
 47
0.1
 48
0.1
140
3.5
141
0.0
142
0.0
143
0.0393701
144
1.0
145
0.0
146
0.71
147
1.5
 71
     0
 72
     0
 73
     0
 74
     1
 75
     0
 76
     0
 77
     1
 78
     8
170
     0
171
     2
172
     0
173
     0
174
     0
175
     0
176
   256
177
   256
178
     2
  0
DIMSTYLE
  2
AM_ISO$6
 70
     0
  3

  4
"
  5

  6

  7

 40
1.0
 41
2.5
 42
1.0
 43
10.0
 44
1.0
 45
0.0
 46
0.0
 47
0.1
 48
0.1
140
3.5
141
0.0
142
0.0
143
0.0393701
144
1.0
145
0.0
146
0.71
147
1.5
 71
     0
 72
     0
 73
     0
 74
     0
 75
     0
 76
     0
 77
     0
 78
     8
170
     0
171
     2
172
     1
173
     0
174
     0
175
     0
176
   256
177
   256
178
     2
  0
DIMSTYLE
  2
AM_ISO$7
 70
     0
  3

  4
"
  5

  6

  7

 40
1.0
 41
2.5
 42
1.0
 43
10.0
 44
1.0
 45
0.0
 46
0.0
 47
0.1
 48
0.1
140
5.0
141
0.0
142
0.0
143
0.0393701
144
1.0
145
0.0
146
0.71
147
1.5
 71
     0
 72
     0
 73
     0
 74
     0
 75
     0
 76
     0
 77
     1
 78
     8
170
     0
171
     2
172
     1
173
     0
174
     0
175
     0
176
   256
177
   256
178
     2
  0
DIMSTYLE
  2
AM_ISO$SF
 70
     0
  3

  4
"
  5

  6

  7

 40
1.0
 41
2.5
 42
1.0
 43
10.0
 44
1.0
 45
0.0
 46
0.0
 47
0.1
 48
0.1
140
3.5
141
0.0
142
0.0
143
0.0393701
144
1.0
145
0.0
146
0.71
147
1.5
 71
     0
 72
     0
 73
     0
 74
     0
 75
     1
 76
     1
 77
     1
 78
     8
170
     0
171
     2
172
     1
173
     0
174
     0
175
     0
176
   256
177
   256
178
     2
  0
DIMSTYLE
  2
AM_ISO$SH
 70
     0
  3

  4
"
  5

  6
GENAXEH
  7

 40
1.0
 41
2.5
 42
1.0
 43
10.0
 44
1.0
 45
0.0
 46
0.0
 47
0.1
 48
0.1
140
3.5
141
0.0
142
0.0
143
0.0393701
144
2.0
145
0.0
146
0.71
147
1.5
 71
     0
 72
     0
 73
     0
 74
     0
 75
     1
 76
     1
 77
     1
 78
     8
170
     0
171
     2
172
     1
173
     1
174
     0
175
     0
176
   256
177
   256
178
     2
  0
ENDTAB
  0
ENDSEC
  0
SECTION
  2
BLOCKS
  0
BLOCK
  8
0
  2
$MODEL_SPACE
 70
     0
 10
0.0
 20
0.0
 30
0.0
  3
$MODEL_SPACE
  1

  0
ENDBLK
  5
21
  8
0
  0
BLOCK
 67
     1
  8
0
  2
$PAPER_SPACE
 70
     0
 10
0.0
 20
0.0
 30
0.0
  3
$PAPER_SPACE
  1

  0
ENDBLK
  5
1D
 67
     1
  8
0
  0
BLOCK
  8
0
  6
CONTINUOUS
 62
     2
  2
KOHLER_BL0
 70
     0
 10
766.75923609999995
 20
55.223308400000001
 30
0.0
  3
KOHLER_BL0
  1

  0
ARC
  5
219
  8
0
  6
CONTINUOUS
 62
     2
 10
781.13087359999986
 20
56.632214650000002
 30
0.0
 40
0.7786687500000001
 50
270.0
 51
90.0
  0
LINE
  5
21A
  8
0
  6
CONTINUOUS
 62
     2
 10
749.38087359999997
 20
51.651433400000002
 30
0.0
 11
749.38087359999997
 21
58.795183399999999
 31
0.0
  0
LINE
  5
21B
  8
0
  6
CONTINUOUS
 62
     2
 10
749.38087359999997
 20
58.795183399999999
 30
0.0
 11
751.08267360000002
 21
58.795183399999999
 31
0.0
  0
LINE
  5
21C
  8
0
  6
CONTINUOUS
 62
     2
 10
749.38087359999997
 20
51.651433400000002
 30
0.0
 11
751.08267360000002
 21
51.651433400000002
 31
0.0
  0
LINE
  5
21D
  8
0
  6
CONTINUOUS
 62
     2
 10
755.7308736
 20
58.795183399999999
 30
0.0
 11
752.55587360000004
 21
55.620183400000002
 31
0.0
  0
LINE
  5
21E
  8
0
  6
CONTINUOUS
 62
     2
 10
752.55587360000004
 20
55.620183400000002
 30
0.0
 11
755.7308736
 21
51.651433400000002
 31
0.0
  0
CIRCLE
  5
21F
  8
0
  6
CONTINUOUS
 62
     2
 10
758.50899860000004
 20
55.223308400000001
 30
0.0
 40
1.870074999999999
  0
LINE
  5
220
  8
0
  6
CONTINUOUS
 62
     2
 10
753.55150623409997
 20
51.651433400000002
 30
0.0
 11
755.7308736
 21
51.651433400000002
 31
0.0
  0
CIRCLE
  5
221
  8
0
  6
CONTINUOUS
 62
     2
 10
758.50899860000004
 20
55.223308400000001
 30
0.0
 40
3.571874999999999
  0
LINE
  5
222
  8
0
  6
CONTINUOUS
 62
     2
 10
751.08267360000002
 20
51.651433400000002
 30
0.0
 11
751.08267360000002
 21
54.737474192599997
 31
0.0
  0
LINE
  5
223
  8
0
  6
CONTINUOUS
 62
     2
 10
753.32416495899986
 20
58.795183399999999
 30
0.0
 11
751.08267360000002
 21
56.553692040999998
 31
0.0
  0
LINE
  5
224
  8
0
  6
CONTINUOUS
 62
     2
 10
751.08267360000002
 20
54.737474192599997
 30
0.0
 11
753.55150623409997
 21
51.651433400000002
 31
0.0
  0
LINE
  5
225
  8
0
  6
CONTINUOUS
 62
     2
 10
753.32416495899986
 20
58.795183399999999
 30
0.0
 11
755.7308736
 21
58.795183399999999
 31
0.0
  0
LINE
  5
226
  8
0
  6
CONTINUOUS
 62
     2
 10
751.08267360000002
 20
58.795183399999999
 30
0.0
 11
751.08267360000002
 21
56.553692040999998
 31
0.0
  0
LINE
  5
227
  8
0
  6
CONTINUOUS
 62
     2
 10
762.87462359999995
 20
58.795183399999999
 30
0.0
 11
762.87462359999995
 21
51.651433400000002
 31
0.0
  0
LINE
  5
228
  8
0
  6
CONTINUOUS
 62
     2
 10
764.57642359999988
 20
51.651433400000002
 30
0.0
 11
764.57642359999988
 21
54.769283399999999
 31
0.0
  0
LINE
  5
229
  8
0
  6
CONTINUOUS
 62
     2
 10
764.57642359999988
 20
56.471083399999991
 30
0.0
 11
764.57642359999988
 21
58.795183399999999
 31
0.0
  0
LINE
  5
22A
  8
0
  6
CONTINUOUS
 62
     2
 10
766.5607986
 20
51.651433400000002
 30
0.0
 11
766.5607986
 21
54.769283399999999
 31
0.0
  0
LINE
  5
22B
  8
0
  6
CONTINUOUS
 62
     2
 10
766.5607986
 20
56.471083399999991
 30
0.0
 11
766.5607986
 21
58.795183399999999
 31
0.0
  0
LINE
  5
22C
  8
0
  6
CONTINUOUS
 62
     2
 10
768.26259860000005
 20
58.795183399999999
 30
0.0
 11
768.26259860000005
 21
51.651433400000002
 31
0.0
  0
LINE
  5
22D
  8
0
  6
CONTINUOUS
 62
     2
 10
764.57642359999988
 20
56.471083399999991
 30
0.0
 11
766.5607986
 21
56.471083399999991
 31
0.0
  0
LINE
  5
22E
  8
0
  6
CONTINUOUS
 62
     2
 10
764.57642359999988
 20
54.769283399999999
 30
0.0
 11
766.5607986
 21
54.769283399999999
 31
0.0
  0
LINE
  5
22F
  8
0
  6
CONTINUOUS
 62
     2
 10
766.5607986
 20
51.651433400000002
 30
0.0
 11
768.26259860000005
 21
51.651433400000002
 31
0.0
  0
LINE
  5
230
  8
0
  6
CONTINUOUS
 62
     2
 10
762.87462359999995
 20
51.651433400000002
 30
0.0
 11
764.57642359999988
 21
51.651433400000002
 31
0.0
  0
LINE
  5
231
  8
0
  6
CONTINUOUS
 62
     2
 10
766.5607986
 20
58.795183399999999
 30
0.0
 11
768.26259860000005
 21
58.795183399999999
 31
0.0
  0
LINE
  5
232
  8
0
  6
CONTINUOUS
 62
     2
 10
762.87462359999995
 20
58.795183399999999
 30
0.0
 11
764.57642359999988
 21
58.795183399999999
 31
0.0
  0
LINE
  5
233
  8
0
  6
CONTINUOUS
 62
     2
 10
769.05634859999998
 20
58.795183399999999
 30
0.0
 11
769.05634859999998
 21
51.651433400000002
 31
0.0
  0
LINE
  5
234
  8
0
  6
CONTINUOUS
 62
     2
 10
773.02509859999986
 20
53.353233400000001
 30
0.0
 11
773.02509859999986
 21
51.651433400000002
 31
0.0
  0
LINE
  5
235
  8
0
  6
CONTINUOUS
 62
     2
 10
769.05634859999998
 20
51.651433400000002
 30
0.0
 11
773.02509859999986
 21
51.651433400000002
 31
0.0
  0
LINE
  5
236
  8
0
  6
CONTINUOUS
 62
     2
 10
770.75814860000003
 20
53.353233400000001
 30
0.0
 11
770.75814860000003
 21
58.795183399999999
 31
0.0
  0
LINE
  5
237
  8
0
  6
CONTINUOUS
 62
     2
 10
770.75814860000003
 20
53.353233400000001
 30
0.0
 11
773.02509859999986
 21
53.353233400000001
 31
0.0
  0
LINE
  5
238
  8
0
  6
CONTINUOUS
 62
     2
 10
769.05634859999998
 20
58.795183399999999
 30
0.0
 11
770.75814860000003
 21
58.795183399999999
 31
0.0
  0
LINE
  5
239
  8
0
  6
CONTINUOUS
 62
     2
 10
773.81884860000002
 20
51.651433400000002
 30
0.0
 11
777.78759860000002
 21
51.651433400000002
 31
0.0
  0
LINE
  5
23A
  8
0
  6
CONTINUOUS
 62
     2
 10
777.78759860000002
 20
53.353233400000001
 30
0.0
 11
777.78759860000002
 21
51.651433400000002
 31
0.0
  0
LINE
  5
23B
  8
0
  6
CONTINUOUS
 62
     2
 10
775.52064859999984
 20
53.353233400000001
 30
0.0
 11
777.78759860000002
 21
53.353233400000001
 31
0.0
  0
LINE
  5
23C
  8
0
  6
CONTINUOUS
 62
     2
 10
775.52064859999984
 20
54.570845900000002
 30
0.0
 11
775.52064859999984
 21
53.353233400000001
 31
0.0
  0
LINE
  5
23D
  8
0
  6
CONTINUOUS
 62
     2
 10
775.52064859999984
 20
57.0933834
 30
0.0
 11
777.78759860000002
 21
57.0933834
 31
0.0
  0
LINE
  5
23E
  8
0
  6
CONTINUOUS
 62
     2
 10
773.81884860000002
 20
58.795183399999999
 30
0.0
 11
773.81884860000002
 21
51.651433400000002
 31
0.0
  0
LINE
  5
23F
  8
0
  6
CONTINUOUS
 62
     2
 10
777.78759860000002
 20
57.0933834
 30
0.0
 11
777.78759860000002
 21
58.795183399999999
 31
0.0
  0
LINE
  5
240
  8
0
  6
CONTINUOUS
 62
     2
 10
773.81884860000002
 20
58.795183399999999
 30
0.0
 11
777.78759860000002
 21
58.795183399999999
 31
0.0
  0
LINE
  5
241
  8
0
  6
CONTINUOUS
 62
     2
 10
775.52064859999984
 20
55.875770899999992
 30
0.0
 11
777.78759860000002
 21
55.875770899999992
 31
0.0
  0
LINE
  5
242
  8
0
  6
CONTINUOUS
 62
     2
 10
777.78759860000002
 20
55.875770899999992
 30
0.0
 11
777.78759860000002
 21
54.570845900000002
 31
0.0
  0
LINE
  5
243
  8
0
  6
CONTINUOUS
 62
     2
 10
775.52064859999984
 20
54.570845900000002
 30
0.0
 11
777.78759860000002
 21
54.570845900000002
 31
0.0
  0
LINE
  5
244
  8
0
  6
CONTINUOUS
 62
     2
 10
775.52064859999984
 20
55.875770899999992
 30
0.0
 11
775.52064859999984
 21
57.0933834
 31
0.0
  0
LINE
  5
245
  8
0
  6
CONTINUOUS
 62
     2
 10
778.58134859999996
 20
51.651433400000002
 30
0.0
 11
778.58134859999996
 21
58.795183399999999
 31
0.0
  0
LINE
  5
246
  8
0
  6
CONTINUOUS
 62
     2
 10
780.2831486
 20
54.429558399999991
 30
0.0
 11
780.2831486
 21
51.651433400000002
 31
0.0
  0
ARC
  5
247
  8
0
  6
CONTINUOUS
 62
     2
 10
781.16103610000005
 20
56.612370900000002
 30
0.0
 40
2.1828124999999989
 50
304.16794025310003
 51
90.0
  0
LINE
  5
248
  8
0
  6
CONTINUOUS
 62
     2
 10
781.16103610000005
 20
58.795183399999999
 30
0.0
 11
778.58134859999996
 21
58.795183399999999
 31
0.0
  0
LINE
  5
249
  8
0
  6
CONTINUOUS
 62
     2
 10
781.13087359999986
 20
57.41088340000001
 30
0.0
 11
780.2831486
 21
57.41088340000001
 31
0.0
  0
LINE
  5
24A
  8
0
  6
CONTINUOUS
 62
     2
 10
782.38694834459989
 20
54.806322843300002
 30
0.0
 11
784.13759860000005
 21
51.651433400000002
 31
0.0
  0
LINE
  5
24B
  8
0
  6
CONTINUOUS
 62
     2
 10
782.19135033600003
 20
51.651433400000002
 30
0.0
 11
780.64976692189987
 21
54.429558399999991
 31
0.0
  0
LINE
  5
24C
  8
0
  6
CONTINUOUS
 62
     2
 10
778.58134859999996
 20
51.651433400000002
 30
0.0
 11
780.2831486
 21
51.651433400000002
 31
0.0
  0
LINE
  5
24D
  8
0
  6
CONTINUOUS
 62
     2
 10
782.19135033600003
 20
51.651433400000002
 30
0.0
 11
784.13759860000005
 21
51.651433400000002
 31
0.0
  0
LINE
  5
24E
  8
0
  6
CONTINUOUS
 62
     2
 10
781.13087359999986
 20
55.8535459
 30
0.0
 11
780.2831486
 21
55.8535459
 31
0.0
  0
LINE
  5
24F
  8
0
  6
CONTINUOUS
 62
     2
 10
780.2831486
 20
57.41088340000001
 30
0.0
 11
780.2831486
 21
55.8535459
 31
0.0
  0
LINE
  5
250
  8
0
  6
CONTINUOUS
 62
     2
 10
780.2831486
 20
54.429558399999991
 30
0.0
 11
780.64976692189987
 21
54.429558399999991
 31
0.0
  0
POLYLINE
  5
251
  8
0
  6
CONTINUOUS
 62
     2
 66
     1
 10
0.0
 20
0.0
 30
0.0
  0
VERTEX
  5
87D
  8
0
  6
CONTINUOUS
 62
     2
 10
784.13759860000005
 20
51.651433400000002
 30
0.0
  0
VERTEX
  5
87E
  8
0
  6
CONTINUOUS
 62
     2
 10
782.19135033600003
 20
51.651433400000002
 30
0.0
  0
VERTEX
  5
87F
  8
0
  6
CONTINUOUS
 62
     2
 10
780.64976692189987
 20
54.429558399999991
 30
0.0
  0
VERTEX
  5
880
  8
0
  6
CONTINUOUS
 62
     2
 10
780.2831486
 20
54.429558399999991
 30
0.0
  0
VERTEX
  5
881
  8
0
  6
CONTINUOUS
 62
     2
 10
780.2831486
 20
51.651433400000002
 30
0.0
  0
VERTEX
  5
882
  8
0
  6
CONTINUOUS
 62
     2
 10
778.58134859999996
 20
51.651433400000002
 30
0.0
  0
VERTEX
  5
883
  8
0
  6
CONTINUOUS
 62
     2
 10
778.58134859999996
 20
57.41088340000001
 30
0.0
  0
VERTEX
  5
884
  8
0
  6
CONTINUOUS
 62
     2
 10
780.2831486
 20
57.41088340000001
 30
0.0
  0
VERTEX
  5
885
  8
0
  6
CONTINUOUS
 62
     2
 10
780.2831486
 20
55.8535459
 30
0.0
  0
VERTEX
  5
886
  8
0
  6
CONTINUOUS
 62
     2
 10
781.13087359999986
 20
55.8535459
 30
0.0
  0
VERTEX
  5
887
  8
0
  6
CONTINUOUS
 62
     2
 10
783.1747134023999
 20
55.8535459
 30
0.0
  0
VERTEX
  5
888
  8
0
  6
CONTINUOUS
 62
     2
 10
782.94911527570002
 20
55.360395152700001
 30
0.0
  0
VERTEX
  5
889
  8
0
  6
CONTINUOUS
 62
     2
 10
782.38694834440003
 20
54.8063228444
 30
0.0
  0
VERTEX
  5
88A
  8
0
  6
CONTINUOUS
 62
     2
 10
784.13759860000005
 20
51.651433400000002
 30
0.0
  0
SEQEND
  5
88B
  8
0
  6
CONTINUOUS
 62
     2
  0
INSERT
  5
252
  8
0
  6
CONTINUOUS
 62
     2
  2
*U6
 10
0.0
 20
0.0
 30
0.0
1001
ACAD
1002
{
1000
R14_HATCH_DATA
1000
252
1011
1.0
1021
0.0
1031
0.0
1021
0.0
1031
0.0
1011
0.0
1021
0.0
1031
0.0
1021
1.0
1031
0.0
1011
0.0
1021
0.0
1031
0.0
1021
0.0
1031
1.0
1040
0.0
1010
0.0
1020
0.0
1030
1.0
1000
SOLID
1070
     1
1070
     1
1071
        1
1071
        1
1071
       13
1070
     1
1040
784.13759860000005
1040
51.651433400000002
1040
782.19135033600003
1040
51.651433400000002
1070
     1
1040
782.19135033600003
1040
51.651433400000002
1040
780.64976692189987
1040
54.429558399999991
1070
     1
1040
780.64976692189987
1040
54.429558399999991
1040
780.2831486
1040
54.429558399999991
1070
     1
1040
780.2831486
1040
54.429558399999991
1040
780.2831486
1040
51.651433400000002
1070
     1
1040
780.2831486
1040
51.651433400000002
1040
778.58134859999996
1040
51.651433400000002
1070
     1
1040
778.58134859999996
1040
51.651433400000002
1040
778.58134859999996
1040
57.41088340000001
1070
     1
1040
778.58134859999996
1040
57.41088340000001
1040
780.2831486
1040
57.41088340000001
1070
     1
1040
780.2831486
1040
57.41088340000001
1040
780.2831486
1040
55.8535459
1070
     1
1040
780.2831486
1040
55.8535459
1040
781.13087359999986
1040
55.8535459
1070
     1
1040
781.13087359999986
1040
55.8535459
1040
783.1747134023999
1040
55.8535459
1070
     1
1040
783.1747134023999
1040
55.8535459
1040
782.94911527570002
1040
55.360395152700001
1070
     1
1040
782.94911527570002
1040
55.360395152700001
1040
782.38694834440003
1040
54.8063228444
1070
     1
1040
782.38694834440003
1040
54.8063228444
1040
784.13759860000005
1040
51.651433400000002
1071
        1
1005
251
1070
     0
1070
     1
1071
        1
1040
0.0
1040
0.0
1040
0.0
1002
}
  0
POLYLINE
  5
253
  8
0
  6
CONTINUOUS
 62
     2
 66
     1
 10
0.0
 20
0.0
 30
0.0
  0
VERTEX
  5
8B3
  8
0
  6
CONTINUOUS
 62
     2
 10
778.58134859999996
 20
57.41088340000001
 30
0.0
  0
VERTEX
  5
8B4
  8
0
  6
CONTINUOUS
 62
     2
 10
778.58134859999996
 20
58.795183399999999
 30
0.0
  0
VERTEX
  5
8B5
  8
0
  6
CONTINUOUS
 62
     2
 10
781.16103610000005
 20
58.795183399999999
 30
0.0
  0
VERTEX
  5
8B6
  8
0
  6
CONTINUOUS
 62
     2
 10
781.93734855030004
 20
58.6524712382
 30
0.0
  0
VERTEX
  5
8B7
  8
0
  6
CONTINUOUS
 62
     2
 10
782.61215046940004
 20
58.242995779300003
 30
0.0
  0
VERTEX
  5
8B8
  8
0
  6
CONTINUOUS
 62
     2
 10
783.09720483240005
 20
57.620299989599999
 30
0.0
  0
VERTEX
  5
8B9
  8
0
  6
CONTINUOUS
 62
     2
 10
783.32908598380004
 20
56.865807502400003
 30
0.0
  0
VERTEX
  5
8BA
  8
0
  6
CONTINUOUS
 62
     2
 10
783.27747316959994
 20
56.0781756728
 30
0.0
  0
VERTEX
  5
8BB
  8
0
  6
CONTINUOUS
 62
     2
 10
783.1747134023999
 20
55.8535459
 30
0.0
  0
VERTEX
  5
8BC
  8
0
  6
CONTINUOUS
 62
     2
 10
781.13087359999986
 20
55.8535459
 30
0.0
  0
VERTEX
  5
8BD
  8
0
  6
CONTINUOUS
 62
     2
 10
781.52020797499995
 20
55.9578677314
 30
0.0
  0
VERTEX
  5
8BE
  8
0
  6
CONTINUOUS
 62
     2
 10
781.80522051859998
 20
56.242880274999997
 30
0.0
  0
VERTEX
  5
8BF
  8
0
  6
CONTINUOUS
 62
     2
 10
781.90954235000004
 20
56.632214650000002
 30
0.0
  0
VERTEX
  5
8C0
  8
0
  6
CONTINUOUS
 62
     2
 10
781.80522051859998
 20
57.021549024999999
 30
0.0
  0
VERTEX
  5
8C1
  8
0
  6
CONTINUOUS
 62
     2
 10
781.52020797499995
 20
57.306561568600003
 30
0.0
  0
VERTEX
  5
8C2
  8
0
  6
CONTINUOUS
 62
     2
 10
781.13087359999986
 20
57.41088340000001
 30
0.0
  0
VERTEX
  5
8C3
  8
0
  6
CONTINUOUS
 62
     2
 10
780.2831486
 20
57.41088340000001
 30
0.0
  0
VERTEX
  5
8C4
  8
0
  6
CONTINUOUS
 62
     2
 10
778.58134859999996
 20
57.41088340000001
 30
0.0
  0
SEQEND
  5
8C5
  8
0
  6
CONTINUOUS
 62
     2
  0
INSERT
  5
254
  8
0
  6
CONTINUOUS
 62
     2
  2
*U7
 10
0.0
 20
0.0
 30
0.0
1001
ACAD
1002
{
1000
R14_HATCH_DATA
1000
254
1011
1.0
1021
0.0
1031
0.0
1021
0.0
1031
0.0
1011
0.0
1021
0.0
1031
0.0
1021
1.0
1031
0.0
1011
0.0
1021
0.0
1031
0.0
1021
0.0
1031
1.0
1040
0.0
1010
0.0
1020
0.0
1030
1.0
1000
SOLID
1070
     1
1070
     1
1071
        1
1071
        1
1071
       17
1070
     1
1040
778.58134859999996
1040
57.41088340000001
1040
778.58134859999996
1040
58.795183399999999
1070
     1
1040
778.58134859999996
1040
58.795183399999999
1040
781.16103610000005
1040
58.795183399999999
1070
     1
1040
781.16103610000005
1040
58.795183399999999
1040
781.93734855030004
1040
58.6524712382
1070
     1
1040
781.93734855030004
1040
58.6524712382
1040
782.61215046940004
1040
58.242995779300003
1070
     1
1040
782.61215046940004
1040
58.242995779300003
1040
783.09720483240005
1040
57.620299989599999
1070
     1
1040
783.09720483240005
1040
57.620299989599999
1040
783.32908598380004
1040
56.865807502400003
1070
     1
1040
783.32908598380004
1040
56.865807502400003
1040
783.27747316959994
1040
56.0781756728
1070
     1
1040
783.27747316959994
1040
56.0781756728
1040
783.1747134023999
1040
55.8535459
1070
     1
1040
783.1747134023999
1040
55.8535459
1040
781.13087359999986
1040
55.8535459
1070
     1
1040
781.13087359999986
1040
55.8535459
1040
781.52020797499995
1040
55.9578677314
1070
     1
1040
781.52020797499995
1040
55.9578677314
1040
781.80522051859998
1040
56.242880274999997
1070
     1
1040
781.80522051859998
1040
56.242880274999997
1040
781.90954235000004
1040
56.632214650000002
1070
     1
1040
781.90954235000004
1040
56.632214650000002
1040
781.80522051859998
1040
57.021549024999999
1070
     1
1040
781.80522051859998
1040
57.021549024999999
1040
781.52020797499995
1040
57.306561568600003
1070
     1
1040
781.52020797499995
1040
57.306561568600003
1040
781.13087359999986
1040
57.41088340000001
1070
     1
1040
781.13087359999986
1040
57.41088340000001
1040
780.2831486
1040
57.41088340000001
1070
     1
1040
780.2831486
1040
57.41088340000001
1040
778.58134859999996
1040
57.41088340000001
1071
        1
1005
253
1070
     0
1070
     1
1071
        1
1040
0.0
1040
0.0
1040
0.0
1002
}
  0
POLYLINE
  5
255
  8
0
  6
CONTINUOUS
 62
     2
 66
     1
 10
0.0
 20
0.0
 30
0.0
  0
VERTEX
  5
901
  8
0
  6
CONTINUOUS
 62
     2
 10
751.08267360000002
 20
51.651433400000002
 30
0.0
  0
VERTEX
  5
902
  8
0
  6
CONTINUOUS
 62
     2
 10
749.38087359999997
 20
51.651433400000002
 30
0.0
  0
VERTEX
  5
903
  8
0
  6
CONTINUOUS
 62
     2
 10
749.38087359999997
 20
58.795183399999999
 30
0.0
  0
VERTEX
  5
904
  8
0
  6
CONTINUOUS
 62
     2
 10
751.08267360000002
 20
58.795183399999999
 30
0.0
  0
VERTEX
  5
905
  8
0
  6
CONTINUOUS
 62
     2
 10
751.08267360000002
 20
56.553692040999998
 30
0.0
  0
VERTEX
  5
906
  8
0
  6
CONTINUOUS
 62
     2
 10
753.32416495899986
 20
58.795183399999999
 30
0.0
  0
VERTEX
  5
907
  8
0
  6
CONTINUOUS
 62
     2
 10
755.7308736
 20
58.795183399999999
 30
0.0
  0
VERTEX
  5
908
  8
0
  6
CONTINUOUS
 62
     2
 10
752.55587360000004
 20
55.620183400000002
 30
0.0
  0
VERTEX
  5
909
  8
0
  6
CONTINUOUS
 62
     2
 10
755.7308736
 20
51.651433400000002
 30
0.0
  0
VERTEX
  5
90A
  8
0
  6
CONTINUOUS
 62
     2
 10
753.55150623409997
 20
51.651433400000002
 30
0.0
  0
VERTEX
  5
90B
  8
0
  6
CONTINUOUS
 62
     2
 10
751.08267360000002
 20
54.737474192599997
 30
0.0
  0
VERTEX
  5
90C
  8
0
  6
CONTINUOUS
 62
     2
 10
751.08267360000002
 20
51.651433400000002
 30
0.0
  0
SEQEND
  5
90D
  8
0
  6
CONTINUOUS
 62
     2
  0
INSERT
  5
256
  8
0
  6
CONTINUOUS
 62
     2
  2
*U8
 10
0.0
 20
0.0
 30
0.0
1001
ACAD
1002
{
1000
R14_HATCH_DATA
1000
256
1011
1.0
1021
0.0
1031
0.0
1021
0.0
1031
0.0
1011
0.0
1021
0.0
1031
0.0
1021
1.0
1031
0.0
1011
0.0
1021
0.0
1031
0.0
1021
0.0
1031
1.0
1040
0.0
1010
0.0
1020
0.0
1030
1.0
1000
SOLID
1070
     1
1070
     1
1071
        1
1071
        1
1071
       11
1070
     1
1040
751.08267360000002
1040
51.651433400000002
1040
749.38087359999997
1040
51.651433400000002
1070
     1
1040
749.38087359999997
1040
51.651433400000002
1040
749.38087359999997
1040
58.795183399999999
1070
     1
1040
749.38087359999997
1040
58.795183399999999
1040
751.08267360000002
1040
58.795183399999999
1070
     1
1040
751.08267360000002
1040
58.795183399999999
1040
751.08267360000002
1040
56.553692040999998
1070
     1
1040
751.08267360000002
1040
56.553692040999998
1040
753.32416495899986
1040
58.795183399999999
1070
     1
1040
753.32416495899986
1040
58.795183399999999
1040
755.7308736
1040
58.795183399999999
1070
     1
1040
755.7308736
1040
58.795183399999999
1040
752.55587360000004
1040
55.620183400000002
1070
     1
1040
752.55587360000004
1040
55.620183400000002
1040
755.7308736
1040
51.651433400000002
1070
     1
1040
755.7308736
1040
51.651433400000002
1040
753.55150623409997
1040
51.651433400000002
1070
     1
1040
753.55150623409997
1040
51.651433400000002
1040
751.08267360000002
1040
54.737474192599997
1070
     1
1040
751.08267360000002
1040
54.737474192599997
1040
751.08267360000002
1040
51.651433400000002
1071
        1
1005
255
1070
     0
1070
     1
1071
        1
1040
0.0
1040
0.0
1040
0.0
1002
}
  0
POLYLINE
  5
257
  8
0
  6
CONTINUOUS
 62
     2
 66
     1
 10
0.0
 20
0.0
 30
0.0
  0
VERTEX
  5
92F
  8
0
  6
CONTINUOUS
 62
     2
 10
758.50899860000004
 20
51.651433400000002
 30
0.0
  0
VERTEX
  5
930
  8
0
  6
CONTINUOUS
 62
     2
 10
757.40522852319987
 20
51.826253405899998
 30
0.0
  0
VERTEX
  5
931
  8
0
  6
CONTINUOUS
 62
     2
 10
756.40950315199996
 20
52.333600823200001
 30
0.0
  0
VERTEX
  5
932
  8
0
  6
CONTINUOUS
 62
     2
 10
755.61929102320005
 20
53.123812952000002
 30
0.0
  0
VERTEX
  5
933
  8
0
  6
CONTINUOUS
 62
     2
 10
755.11194360590002
 20
54.119538323199997
 30
0.0
  0
VERTEX
  5
934
  8
0
  6
CONTINUOUS
 62
     2
 10
754.93712359999995
 20
55.223308400000001
 30
0.0
  0
VERTEX
  5
935
  8
0
  6
CONTINUOUS
 62
     2
 10
755.11194360590002
 20
56.32707847679999
 30
0.0
  0
VERTEX
  5
936
  8
0
  6
CONTINUOUS
 62
     2
 10
755.49833077280005
 20
57.085405989699993
 30
0.0
  0
VERTEX
  5
937
  8
0
  6
CONTINUOUS
 62
     2
 10
758.68154735229996
 20
57.085405989699993
 30
0.0
  0
VERTEX
  5
938
  8
0
  6
CONTINUOUS
 62
     2
 10
757.99722828380004
 20
57.021994489699999
 30
0.0
  0
VERTEX
  5
939
  8
0
  6
CONTINUOUS
 62
     2
 10
757.38202663239986
 20
56.715660466300001
 30
0.0
  0
VERTEX
  5
93A
  8
0
  6
CONTINUOUS
 62
     2
 10
756.91902878990004
 20
56.207776027000001
 30
0.0
  0
VERTEX
  5
93B
  8
0
  6
CONTINUOUS
 62
     2
 10
756.67076518060003
 20
55.566933779499998
 30
0.0
  0
VERTEX
  5
93C
  8
0
  6
CONTINUOUS
 62
     2
 10
756.67076518060003
 20
54.879683020500003
 30
0.0
  0
VERTEX
  5
93D
  8
0
  6
CONTINUOUS
 62
     2
 10
756.91902878990004
 20
54.238840773
 30
0.0
  0
VERTEX
  5
93E
  8
0
  6
CONTINUOUS
 62
     2
 10
757.38202663239986
 20
53.7309563337
 30
0.0
  0
VERTEX
  5
93F
  8
0
  6
CONTINUOUS
 62
     2
 10
757.99722828380004
 20
53.424622310300002
 30
0.0
  0
VERTEX
  5
940
  8
0
  6
CONTINUOUS
 62
     2
 10
758.68154735229996
 20
53.361210810300001
 30
0.0
  0
VERTEX
  5
941
  8
0
  6
CONTINUOUS
 62
     2
 10
761.51966642720004
 20
53.361210810300001
 30
0.0
  0
VERTEX
  5
942
  8
0
  6
CONTINUOUS
 62
     2
 10
761.39870617680003
 20
53.123812952000002
 30
0.0
  0
VERTEX
  5
943
  8
0
  6
CONTINUOUS
 62
     2
 10
760.60849404800001
 20
52.333600823200001
 30
0.0
  0
VERTEX
  5
944
  8
0
  6
CONTINUOUS
 62
     2
 10
759.61276867679987
 20
51.826253405899998
 30
0.0
  0
VERTEX
  5
945
  8
0
  6
CONTINUOUS
 62
     2
 10
758.50899860000004
 20
51.651433400000002
 30
0.0
  0
SEQEND
  5
946
  8
0
  6
CONTINUOUS
 62
     2
  0
INSERT
  5
258
  8
0
  6
CONTINUOUS
 62
     2
  2
*U9
 10
0.0
 20
0.0
 30
0.0
1001
ACAD
1002
{
1000
R14_HATCH_DATA
1000
258
1011
1.0
1021
0.0
1031
0.0
1021
0.0
1031
0.0
1011
0.0
1021
0.0
1031
0.0
1021
1.0
1031
0.0
1011
0.0
1021
0.0
1031
0.0
1021
0.0
1031
1.0
1040
0.0
1010
0.0
1020
0.0
1030
1.0
1000
SOLID
1070
     1
1070
     1
1071
        1
1071
        1
1071
       22
1070
     1
1040
758.50899860000004
1040
51.651433400000002
1040
757.40522852319987
1040
51.826253405899998
1070
     1
1040
757.40522852319987
1040
51.826253405899998
1040
756.40950315199996
1040
52.333600823200001
1070
     1
1040
756.40950315199996
1040
52.333600823200001
1040
755.61929102320005
1040
53.123812952000002
1070
     1
1040
755.61929102320005
1040
53.123812952000002
1040
755.11194360590002
1040
54.119538323199997
1070
     1
1040
755.11194360590002
1040
54.119538323199997
1040
754.93712359999995
1040
55.223308400000001
1070
     1
1040
754.93712359999995
1040
55.223308400000001
1040
755.11194360590002
1040
56.32707847679999
1070
     1
1040
755.11194360590002
1040
56.32707847679999
1040
755.49833077280005
1040
57.085405989699993
1070
     1
1040
755.49833077280005
1040
57.085405989699993
1040
758.68154735229996
1040
57.085405989699993
1070
     1
1040
758.68154735229996
1040
57.085405989699993
1040
757.99722828380004
1040
57.021994489699999
1070
     1
1040
757.99722828380004
1040
57.021994489699999
1040
757.38202663239986
1040
56.715660466300001
1070
     1
1040
757.38202663239986
1040
56.715660466300001
1040
756.91902878990004
1040
56.207776027000001
1070
     1
1040
756.91902878990004
1040
56.207776027000001
1040
756.67076518060003
1040
55.566933779499998
1070
     1
1040
756.67076518060003
1040
55.566933779499998
1040
756.67076518060003
1040
54.879683020500003
1070
     1
1040
756.67076518060003
1040
54.879683020500003
1040
756.91902878990004
1040
54.238840773
1070
     1
1040
756.91902878990004
1040
54.238840773
1040
757.38202663239986
1040
53.7309563337
1070
     1
1040
757.38202663239986
1040
53.7309563337
1040
757.99722828380004
1040
53.424622310300002
1070
     1
1040
757.99722828380004
1040
53.424622310300002
1040
758.68154735229996
1040
53.361210810300001
1070
     1
1040
758.68154735229996
1040
53.361210810300001
1040
761.51966642720004
1040
53.361210810300001
1070
     1
1040
761.51966642720004
1040
53.361210810300001
1040
761.39870617680003
1040
53.123812952000002
1070
     1
1040
761.39870617680003
1040
53.123812952000002
1040
760.60849404800001
1040
52.333600823200001
1070
     1
1040
760.60849404800001
1040
52.333600823200001
1040
759.61276867679987
1040
51.826253405899998
1070
     1
1040
759.61276867679987
1040
51.826253405899998
1040
758.50899860000004
1040
51.651433400000002
1071
        1
1005
257
1070
     0
1070
     1
1071
        1
1040
0.0
1040
0.0
1040
0.0
1002
}
  0
POLYLINE
  5
259
  8
0
  6
CONTINUOUS
 62
     2
 66
     1
 10
0.0
 20
0.0
 30
0.0
  0
VERTEX
  5
98D
  8
0
  6
CONTINUOUS
 62
     2
 10
755.49833077280005
 20
57.085405989699993
 30
0.0
  0
VERTEX
  5
98E
  8
0
  6
CONTINUOUS
 62
     2
 10
755.61929102320005
 20
57.322803848
 30
0.0
  0
VERTEX
  5
98F
  8
0
  6
CONTINUOUS
 62
     2
 10
756.40950315199996
 20
58.113015976799993
 30
0.0
  0
VERTEX
  5
990
  8
0
  6
CONTINUOUS
 62
     2
 10
757.40522852319987
 20
58.620363394100004
 30
0.0
  0
VERTEX
  5
991
  8
0
  6
CONTINUOUS
 62
     2
 10
758.50899860000004
 20
58.795183399999999
 30
0.0
  0
VERTEX
  5
992
  8
0
  6
CONTINUOUS
 62
     2
 10
759.61276867679987
 20
58.620363394100004
 30
0.0
  0
VERTEX
  5
993
  8
0
  6
CONTINUOUS
 62
     2
 10
760.60849404800001
 20
58.113015976799993
 30
0.0
  0
VERTEX
  5
994
  8
0
  6
CONTINUOUS
 62
     2
 10
761.39870617680003
 20
57.322803848
 30
0.0
  0
VERTEX
  5
995
  8
0
  6
CONTINUOUS
 62
     2
 10
761.90605359409994
 20
56.32707847679999
 30
0.0
  0
VERTEX
  5
996
  8
0
  6
CONTINUOUS
 62
     2
 10
762.08087360000002
 20
55.223308400000001
 30
0.0
  0
VERTEX
  5
997
  8
0
  6
CONTINUOUS
 62
     2
 10
761.90605359409994
 20
54.119538323199997
 30
0.0
  0
VERTEX
  5
998
  8
0
  6
CONTINUOUS
 62
     2
 10
761.51966642720004
 20
53.361210810300001
 30
0.0
  0
VERTEX
  5
999
  8
0
  6
CONTINUOUS
 62
     2
 10
758.68154735229996
 20
53.361210810300001
 30
0.0
  0
VERTEX
  5
99A
  8
0
  6
CONTINUOUS
 62
     2
 10
759.34256275569999
 20
53.5492859079
 30
0.0
  0
VERTEX
  5
99B
  8
0
  6
CONTINUOUS
 62
     2
 10
759.89100070090001
 20
53.963447019199997
 30
0.0
  0
VERTEX
  5
99C
  8
0
  6
CONTINUOUS
 62
     2
 10
760.25279160440004
 20
54.547759391100001
 30
0.0
  0
VERTEX
  5
99D
  8
0
  6
CONTINUOUS
 62
     2
 10
760.37907359999986
 20
55.223308400000001
 30
0.0
  0
VERTEX
  5
99E
  8
0
  6
CONTINUOUS
 62
     2
 10
760.25279160440004
 20
55.8988574089
 30
0.0
  0
VERTEX
  5
99F
  8
0
  6
CONTINUOUS
 62
     2
 10
759.89100070090001
 20
56.483169780799997
 30
0.0
  0
VERTEX
  5
9A0
  8
0
  6
CONTINUOUS
 62
     2
 10
759.34256275569999
 20
56.897330892100001
 30
0.0
  0
VERTEX
  5
9A1
  8
0
  6
CONTINUOUS
 62
     2
 10
758.68154735229996
 20
57.085405989699993
 30
0.0
  0
VERTEX
  5
9A2
  8
0
  6
CONTINUOUS
 62
     2
 10
755.49833077280005
 20
57.085405989699993
 30
0.0
  0
SEQEND
  5
9A3
  8
0
  6
CONTINUOUS
 62
     2
  0
INSERT
  5
25A
  8
0
  6
CONTINUOUS
 62
     2
  2
*U10
 10
0.0
 20
0.0
 30
0.0
1001
ACAD
1002
{
1000
R14_HATCH_DATA
1000
25A
1011
1.0
1021
0.0
1031
0.0
1021
0.0
1031
0.0
1011
0.0
1021
0.0
1031
0.0
1021
1.0
1031
0.0
1011
0.0
1021
0.0
1031
0.0
1021
0.0
1031
1.0
1040
0.0
1010
0.0
1020
0.0
1030
1.0
1000
SOLID
1070
     1
1070
     1
1071
        1
1071
        1
1071
       21
1070
     1
1040
755.49833077280005
1040
57.085405989699993
1040
755.61929102320005
1040
57.322803848
1070
     1
1040
755.61929102320005
1040
57.322803848
1040
756.40950315199996
1040
58.113015976799993
1070
     1
1040
756.40950315199996
1040
58.113015976799993
1040
757.40522852319987
1040
58.620363394100004
1070
     1
1040
757.40522852319987
1040
58.620363394100004
1040
758.50899860000004
1040
58.795183399999999
1070
     1
1040
758.50899860000004
1040
58.795183399999999
1040
759.61276867679987
1040
58.620363394100004
1070
     1
1040
759.61276867679987
1040
58.620363394100004
1040
760.60849404800001
1040
58.113015976799993
1070
     1
1040
760.60849404800001
1040
58.113015976799993
1040
761.39870617680003
1040
57.322803848
1070
     1
1040
761.39870617680003
1040
57.322803848
1040
761.90605359409994
1040
56.32707847679999
1070
     1
1040
761.90605359409994
1040
56.32707847679999
1040
762.08087360000002
1040
55.223308400000001
1070
     1
1040
762.08087360000002
1040
55.223308400000001
1040
761.90605359409994
1040
54.119538323199997
1070
     1
1040
761.90605359409994
1040
54.119538323199997
1040
761.51966642720004
1040
53.361210810300001
1070
     1
1040
761.51966642720004
1040
53.361210810300001
1040
758.68154735229996
1040
53.361210810300001
1070
     1
1040
758.68154735229996
1040
53.361210810300001
1040
759.34256275569999
1040
53.5492859079
1070
     1
1040
759.34256275569999
1040
53.5492859079
1040
759.89100070090001
1040
53.963447019199997
1070
     1
1040
759.89100070090001
1040
53.963447019199997
1040
760.25279160440004
1040
54.547759391100001
1070
     1
1040
760.25279160440004
1040
54.547759391100001
1040
760.37907359999986
1040
55.223308400000001
1070
     1
1040
760.37907359999986
1040
55.223308400000001
1040
760.25279160440004
1040
55.8988574089
1070
     1
1040
760.25279160440004
1040
55.8988574089
1040
759.89100070090001
1040
56.483169780799997
1070
     1
1040
759.89100070090001
1040
56.483169780799997
1040
759.34256275569999
1040
56.897330892100001
1070
     1
1040
759.34256275569999
1040
56.897330892100001
1040
758.68154735229996
1040
57.085405989699993
1070
     1
1040
758.68154735229996
1040
57.085405989699993
1040
755.49833077280005
1040
57.085405989699993
1071
        1
1005
259
1070
     0
1070
     1
1071
        1
1040
0.0
1040
0.0
1040
0.0
1002
}
  0
POLYLINE
  5
25B
  8
0
  6
CONTINUOUS
 62
     2
 66
     1
 10
0.0
 20
0.0
 30
0.0
  0
VERTEX
  5
9E2
  8
0
  6
CONTINUOUS
 62
     2
 10
764.57642359999988
 20
51.651433400000002
 30
0.0
  0
VERTEX
  5
9E3
  8
0
  6
CONTINUOUS
 62
     2
 10
762.87462359999995
 20
51.651433400000002
 30
0.0
  0
VERTEX
  5
9E4
  8
0
  6
CONTINUOUS
 62
     2
 10
762.87462359999995
 20
58.795183399999999
 30
0.0
  0
VERTEX
  5
9E5
  8
0
  6
CONTINUOUS
 62
     2
 10
764.57642359999988
 20
58.795183399999999
 30
0.0
  0
VERTEX
  5
9E6
  8
0
  6
CONTINUOUS
 62
     2
 10
764.57642359999988
 20
56.471083399999991
 30
0.0
  0
VERTEX
  5
9E7
  8
0
  6
CONTINUOUS
 62
     2
 10
766.5607986
 20
56.471083399999991
 30
0.0
  0
VERTEX
  5
9E8
  8
0
  6
CONTINUOUS
 62
     2
 10
766.5607986
 20
58.795183399999999
 30
0.0
  0
VERTEX
  5
9E9
  8
0
  6
CONTINUOUS
 62
     2
 10
768.26259860000005
 20
58.795183399999999
 30
0.0
  0
VERTEX
  5
9EA
  8
0
  6
CONTINUOUS
 62
     2
 10
768.26259860000005
 20
51.651433400000002
 30
0.0
  0
VERTEX
  5
9EB
  8
0
  6
CONTINUOUS
 62
     2
 10
766.5607986
 20
51.651433400000002
 30
0.0
  0
VERTEX
  5
9EC
  8
0
  6
CONTINUOUS
 62
     2
 10
766.5607986
 20
54.769283399999999
 30
0.0
  0
VERTEX
  5
9ED
  8
0
  6
CONTINUOUS
 62
     2
 10
764.57642359999988
 20
54.769283399999999
 30
0.0
  0
VERTEX
  5
9EE
  8
0
  6
CONTINUOUS
 62
     2
 10
764.57642359999988
 20
51.651433400000002
 30
0.0
  0
SEQEND
  5
9EF
  8
0
  6
CONTINUOUS
 62
     2
  0
INSERT
  5
25C
  8
0
  6
CONTINUOUS
 62
     2
  2
*U11
 10
0.0
 20
0.0
 30
0.0
1001
ACAD
1002
{
1000
R14_HATCH_DATA
1000
25C
1011
1.0
1021
0.0
1031
0.0
1021
0.0
1031
0.0
1011
0.0
1021
0.0
1031
0.0
1021
1.0
1031
0.0
1011
0.0
1021
0.0
1031
0.0
1021
0.0
1031
1.0
1040
0.0
1010
0.0
1020
0.0
1030
1.0
1000
SOLID
1070
     1
1070
     1
1071
        1
1071
        1
1071
       12
1070
     1
1040
764.57642359999988
1040
51.651433400000002
1040
762.87462359999995
1040
51.651433400000002
1070
     1
1040
762.87462359999995
1040
51.651433400000002
1040
762.87462359999995
1040
58.795183399999999
1070
     1
1040
762.87462359999995
1040
58.795183399999999
1040
764.57642359999988
1040
58.795183399999999
1070
     1
1040
764.57642359999988
1040
58.795183399999999
1040
764.57642359999988
1040
56.471083399999991
1070
     1
1040
764.57642359999988
1040
56.471083399999991
1040
766.5607986
1040
56.471083399999991
1070
     1
1040
766.5607986
1040
56.471083399999991
1040
766.5607986
1040
58.795183399999999
1070
     1
1040
766.5607986
1040
58.795183399999999
1040
768.26259860000005
1040
58.795183399999999
1070
     1
1040
768.26259860000005
1040
58.795183399999999
1040
768.26259860000005
1040
51.651433400000002
1070
     1
1040
768.26259860000005
1040
51.651433400000002
1040
766.5607986
1040
51.651433400000002
1070
     1
1040
766.5607986
1040
51.651433400000002
1040
766.5607986
1040
54.769283399999999
1070
     1
1040
766.5607986
1040
54.769283399999999
1040
764.57642359999988
1040
54.769283399999999
1070
     1
1040
764.57642359999988
1040
54.769283399999999
1040
764.57642359999988
1040
51.651433400000002
1071
        1
1005
25B
1070
     0
1070
     1
1071
        1
1040
0.0
1040
0.0
1040
0.0
1002
}
  0
POLYLINE
  5
25D
  8
0
  6
CONTINUOUS
 62
     2
 66
     1
 10
0.0
 20
0.0
 30
0.0
  0
VERTEX
  5
A13
  8
0
  6
CONTINUOUS
 62
     2
 10
773.02509859999986
 20
51.651433400000002
 30
0.0
  0
VERTEX
  5
A14
  8
0
  6
CONTINUOUS
 62
     2
 10
769.05634859999998
 20
51.651433400000002
 30
0.0
  0
VERTEX
  5
A15
  8
0
  6
CONTINUOUS
 62
     2
 10
769.05634859999998
 20
58.795183399999999
 30
0.0
  0
VERTEX
  5
A16
  8
0
  6
CONTINUOUS
 62
     2
 10
770.75814860000003
 20
58.795183399999999
 30
0.0
  0
VERTEX
  5
A17
  8
0
  6
CONTINUOUS
 62
     2
 10
770.75814860000003
 20
53.353233400000001
 30
0.0
  0
VERTEX
  5
A18
  8
0
  6
CONTINUOUS
 62
     2
 10
773.02509859999986
 20
53.353233400000001
 30
0.0
  0
VERTEX
  5
A19
  8
0
  6
CONTINUOUS
 62
     2
 10
773.02509859999986
 20
51.651433400000002
 30
0.0
  0
SEQEND
  5
A1A
  8
0
  6
CONTINUOUS
 62
     2
  0
INSERT
  5
25E
  8
0
  6
CONTINUOUS
 62
     2
  2
*U12
 10
0.0
 20
0.0
 30
0.0
1001
ACAD
1002
{
1000
R14_HATCH_DATA
1000
25E
1011
1.0
1021
0.0
1031
0.0
1021
0.0
1031
0.0
1011
0.0
1021
0.0
1031
0.0
1021
1.0
1031
0.0
1011
0.0
1021
0.0
1031
0.0
1021
0.0
1031
1.0
1040
0.0
1010
0.0
1020
0.0
1030
1.0
1000
SOLID
1070
     1
1070
     1
1071
        1
1071
        1
1071
        6
1070
     1
1040
773.02509859999986
1040
51.651433400000002
1040
769.05634859999998
1040
51.651433400000002
1070
     1
1040
769.05634859999998
1040
51.651433400000002
1040
769.05634859999998
1040
58.795183399999999
1070
     1
1040
769.05634859999998
1040
58.795183399999999
1040
770.75814860000003
1040
58.795183399999999
1070
     1
1040
770.75814860000003
1040
58.795183399999999
1040
770.75814860000003
1040
53.353233400000001
1070
     1
1040
770.75814860000003
1040
53.353233400000001
1040
773.02509859999986
1040
53.353233400000001
1070
     1
1040
773.02509859999986
1040
53.353233400000001
1040
773.02509859999986
1040
51.651433400000002
1071
        1
1005
25D
1070
     0
1070
     1
1071
        1
1040
0.0
1040
0.0
1040
0.0
1002
}
  0
POLYLINE
  5
25F
  8
0
  6
CONTINUOUS
 62
     2
 66
     1
 10
0.0
 20
0.0
 30
0.0
  0
VERTEX
  5
A2C
  8
0
  6
CONTINUOUS
 62
     2
 10
777.78759860000002
 20
51.651433400000002
 30
0.0
  0
VERTEX
  5
A2D
  8
0
  6
CONTINUOUS
 62
     2
 10
773.81884860000002
 20
51.651433400000002
 30
0.0
  0
VERTEX
  5
A2E
  8
0
  6
CONTINUOUS
 62
     2
 10
773.81884860000002
 20
58.795183399999999
 30
0.0
  0
VERTEX
  5
A2F
  8
0
  6
CONTINUOUS
 62
     2
 10
777.78759860000002
 20
58.795183399999999
 30
0.0
  0
VERTEX
  5
A30
  8
0
  6
CONTINUOUS
 62
     2
 10
777.78759860000002
 20
57.0933834
 30
0.0
  0
VERTEX
  5
A31
  8
0
  6
CONTINUOUS
 62
     2
 10
775.52064859999984
 20
57.0933834
 30
0.0
  0
VERTEX
  5
A32
  8
0
  6
CONTINUOUS
 62
     2
 10
775.52064859999984
 20
55.875770899999992
 30
0.0
  0
VERTEX
  5
A33
  8
0
  6
CONTINUOUS
 62
     2
 10
777.78759860000002
 20
55.875770899999992
 30
0.0
  0
VERTEX
  5
A34
  8
0
  6
CONTINUOUS
 62
     2
 10
777.78759860000002
 20
54.570845900000002
 30
0.0
  0
VERTEX
  5
A35
  8
0
  6
CONTINUOUS
 62
     2
 10
775.52064859999984
 20
54.570845900000002
 30
0.0
  0
VERTEX
  5
A36
  8
0
  6
CONTINUOUS
 62
     2
 10
775.52064859999984
 20
53.353233400000001
 30
0.0
  0
VERTEX
  5
A37
  8
0
  6
CONTINUOUS
 62
     2
 10
777.78759860000002
 20
53.353233400000001
 30
0.0
  0
VERTEX
  5
A38
  8
0
  6
CONTINUOUS
 62
     2
 10
777.78759860000002
 20
51.651433400000002
 30
0.0
  0
SEQEND
  5
A39
  8
0
  6
CONTINUOUS
 62
     2
  0
INSERT
  5
260
  8
0
  6
CONTINUOUS
 62
     2
  2
*U13
 10
0.0
 20
0.0
 30
0.0
1001
ACAD
1002
{
1000
R14_HATCH_DATA
1000
260
1011
1.0
1021
0.0
1031
0.0
1021
0.0
1031
0.0
1011
0.0
1021
0.0
1031
0.0
1021
1.0
1031
0.0
1011
0.0
1021
0.0
1031
0.0
1021
0.0
1031
1.0
1040
0.0
1010
0.0
1020
0.0
1030
1.0
1000
SOLID
1070
     1
1070
     1
1071
        1
1071
        1
1071
       12
1070
     1
1040
777.78759860000002
1040
51.651433400000002
1040
773.81884860000002
1040
51.651433400000002
1070
     1
1040
773.81884860000002
1040
51.651433400000002
1040
773.81884860000002
1040
58.795183399999999
1070
     1
1040
773.81884860000002
1040
58.795183399999999
1040
777.78759860000002
1040
58.795183399999999
1070
     1
1040
777.78759860000002
1040
58.795183399999999
1040
777.78759860000002
1040
57.0933834
1070
     1
1040
777.78759860000002
1040
57.0933834
1040
775.52064859999984
1040
57.0933834
1070
     1
1040
775.52064859999984
1040
57.0933834
1040
775.52064859999984
1040
55.875770899999992
1070
     1
1040
775.52064859999984
1040
55.875770899999992
1040
777.78759860000002
1040
55.875770899999992
1070
     1
1040
777.78759860000002
1040
55.875770899999992
1040
777.78759860000002
1040
54.570845900000002
1070
     1
1040
777.78759860000002
1040
54.570845900000002
1040
775.52064859999984
1040
54.570845900000002
1070
     1
1040
775.52064859999984
1040
54.570845900000002
1040
775.52064859999984
1040
53.353233400000001
1070
     1
1040
775.52064859999984
1040
53.353233400000001
1040
777.78759860000002
1040
53.353233400000001
1070
     1
1040
777.78759860000002
1040
53.353233400000001
1040
777.78759860000002
1040
51.651433400000002
1071
        1
1005
25F
1070
     0
1070
     1
1071
        1
1040
0.0
1040
0.0
1040
0.0
1002
}
  0
ENDBLK
  5
261
  8
0
  6
BYBLOCK
 62
     0
  0
BLOCK
  8
0
  6
CONTINUOUS
 62
     2
  2
C_ARROW_BL1
 70
     0
 10
431.80000000000001
 20
7.9375
 30
0.0
  3
C_ARROW_BL1
  1

  0
LINE
  5
263
  8
0
  6
CONTINUOUS
 10
431.80000000000001
 20
12.699999999999999
 30
0.0
 11
429.41874999999987
 21
7.9375
 31
0.0
  0
LINE
  5
264
  8
0
  6
CONTINUOUS
 10
431.80000000000001
 20
12.699999999999999
 30
0.0
 11
434.18124999999992
 21
7.9375
 31
0.0
  0
LINE
  5
265
  8
0
  6
CONTINUOUS
 10
432.39531249999999
 20
7.9375
 30
0.0
 11
434.18124999999992
 21
7.9375
 31
0.0
  0
LINE
  5
266
  8
0
  6
CONTINUOUS
 10
432.39531249999999
 20
3.1749999999999989
 30
0.0
 11
432.39531249999999
 21
7.9375
 31
0.0
  0
LINE
  5
267
  8
0
  6
CONTINUOUS
 10
432.39531249999999
 20
3.1749999999999989
 30
0.0
 11
431.20468749999998
 21
3.1749999999999989
 31
0.0
  0
LINE
  5
268
  8
0
  6
CONTINUOUS
 10
431.20468749999998
 20
7.9375
 30
0.0
 11
431.20468749999998
 21
3.1749999999999989
 31
0.0
  0
LINE
  5
269
  8
0
  6
CONTINUOUS
 10
429.41874999999987
 20
7.9375
 30
0.0
 11
431.20468749999998
 21
7.9375
 31
0.0
  0
POLYLINE
  5
26A
  8
0
  6
CONTINUOUS
 62
     7
 66
     1
 10
0.0
 20
0.0
 30
0.0
  0
VERTEX
  5
A5D
  8
0
  6
CONTINUOUS
 62
     7
 10
431.80000000000001
 20
12.699999999999999
 30
0.0
  0
VERTEX
  5
A5E
  8
0
  6
CONTINUOUS
 62
     7
 10
434.18124999999992
 20
7.9375
 30
0.0
  0
VERTEX
  5
A5F
  8
0
  6
CONTINUOUS
 62
     7
 10
432.39531249999999
 20
7.9375
 30
0.0
  0
VERTEX
  5
A60
  8
0
  6
CONTINUOUS
 62
     7
 10
432.39531249999999
 20
3.1749999999999989
 30
0.0
  0
VERTEX
  5
A61
  8
0
  6
CONTINUOUS
 62
     7
 10
431.20468749999998
 20
3.1749999999999989
 30
0.0
  0
VERTEX
  5
A62
  8
0
  6
CONTINUOUS
 62
     7
 10
431.20468749999998
 20
7.9375
 30
0.0
  0
VERTEX
  5
A63
  8
0
  6
CONTINUOUS
 62
     7
 10
429.41874999999987
 20
7.9375
 30
0.0
  0
VERTEX
  5
A64
  8
0
  6
CONTINUOUS
 62
     7
 10
431.80000000000001
 20
12.699999999999999
 30
0.0
  0
SEQEND
  5
A65
  8
0
  6
CONTINUOUS
 62
     7
  0
INSERT
  5
26B
  8
0
  6
CONTINUOUS
 62
     7
  2
*U14
 10
0.0
 20
0.0
 30
0.0
1001
ACAD
1002
{
1000
R14_HATCH_DATA
1000
26B
1011
1.0
1021
0.0
1031
0.0
1021
0.0
1031
0.0
1011
0.0
1021
0.0
1031
0.0
1021
1.0
1031
0.0
1011
0.0
1021
0.0
1031
0.0
1021
0.0
1031
1.0
1040
0.0
1010
0.0
1020
0.0
1030
1.0
1000
SOLID
1070
     1
1070
     1
1071
        1
1071
        1
1071
        7
1070
     1
1040
431.80000000000001
1040
12.699999999999999
1040
434.18124999999992
1040
7.9375
1070
     1
1040
434.18124999999992
1040
7.9375
1040
432.39531249999999
1040
7.9375
1070
     1
1040
432.39531249999999
1040
7.9375
1040
432.39531249999999
1040
3.1749999999999989
1070
     1
1040
432.39531249999999
1040
3.1749999999999989
1040
431.20468749999998
1040
3.1749999999999989
1070
     1
1040
431.20468749999998
1040
3.1749999999999989
1040
431.20468749999998
1040
7.9375
1070
     1
1040
431.20468749999998
1040
7.9375
1040
429.41874999999987
1040
7.9375
1070
     1
1040
429.41874999999987
1040
7.9375
1040
431.80000000000001
1040
12.699999999999999
1071
        1
1005
26A
1070
     0
1070
     1
1071
        1
1040
0.0
1040
0.0
1040
0.0
1002
}
  0
ENDBLK
  5
26C
  8
0
  6
BYBLOCK
 62
     0
  0
BLOCK
  8
0
  6
CONTINUOUS
 62
     2
  2
C_ARROW_BL2
 70
     0
 10
431.80000000000001
 20
550.86249999999995
 30
0.0
  3
C_ARROW_BL2
  1

  0
LINE
  5
26E
  8
0
  6
CONTINUOUS
 10
431.80000000000001
 20
546.10000000000002
 30
0.0
 11
434.18124999999992
 21
550.86249999999995
 31
0.0
  0
LINE
  5
26F
  8
0
  6
CONTINUOUS
 10
431.80000000000001
 20
546.10000000000002
 30
0.0
 11
429.41874999999987
 21
550.86249999999995
 31
0.0
  0
LINE
  5
270
  8
0
  6
CONTINUOUS
 10
431.20468749999998
 20
550.86249999999995
 30
0.0
 11
429.41874999999987
 21
550.86249999999995
 31
0.0
  0
LINE
  5
271
  8
0
  6
CONTINUOUS
 10
431.20468749999998
 20
555.625
 30
0.0
 11
431.20468749999998
 21
550.86249999999995
 31
0.0
  0
LINE
  5
272
  8
0
  6
CONTINUOUS
 10
431.20468749999998
 20
555.625
 30
0.0
 11
432.39531249999999
 21
555.625
 31
0.0
  0
LINE
  5
273
  8
0
  6
CONTINUOUS
 10
432.39531249999999
 20
550.86249999999995
 30
0.0
 11
432.39531249999999
 21
555.625
 31
0.0
  0
LINE
  5
274
  8
0
  6
CONTINUOUS
 10
434.18124999999992
 20
550.86249999999995
 30
0.0
 11
432.39531249999999
 21
550.86249999999995
 31
0.0
  0
POLYLINE
  5
275
  8
0
  6
CONTINUOUS
 62
     7
 66
     1
 10
0.0
 20
0.0
 30
0.0
  0
VERTEX
  5
A76
  8
0
  6
CONTINUOUS
 62
     7
 10
431.80000000000001
 20
546.10000000000002
 30
0.0
  0
VERTEX
  5
A77
  8
0
  6
CONTINUOUS
 62
     7
 10
429.41874999999987
 20
550.86249999999995
 30
0.0
  0
VERTEX
  5
A78
  8
0
  6
CONTINUOUS
 62
     7
 10
431.20468749999998
 20
550.86249999999995
 30
0.0
  0
VERTEX
  5
A79
  8
0
  6
CONTINUOUS
 62
     7
 10
431.20468749999998
 20
555.625
 30
0.0
  0
VERTEX
  5
A7A
  8
0
  6
CONTINUOUS
 62
     7
 10
432.39531249999999
 20
555.625
 30
0.0
  0
VERTEX
  5
A7B
  8
0
  6
CONTINUOUS
 62
     7
 10
432.39531249999999
 20
550.86249999999995
 30
0.0
  0
VERTEX
  5
A7C
  8
0
  6
CONTINUOUS
 62
     7
 10
434.18124999999992
 20
550.86249999999995
 30
0.0
  0
VERTEX
  5
A7D
  8
0
  6
CONTINUOUS
 62
     7
 10
431.80000000000001
 20
546.10000000000002
 30
0.0
  0
SEQEND
  5
A7E
  8
0
  6
CONTINUOUS
 62
     7
  0
INSERT
  5
276
  8
0
  6
CONTINUOUS
 62
     7
  2
*U15
 10
0.0
 20
0.0
 30
0.0
1001
ACAD
1002
{
1000
R14_HATCH_DATA
1000
276
1011
1.0
1021
0.0
1031
0.0
1021
0.0
1031
0.0
1011
0.0
1021
0.0
1031
0.0
1021
1.0
1031
0.0
1011
0.0
1021
0.0
1031
0.0
1021
0.0
1031
1.0
1040
0.0
1010
0.0
1020
0.0
1030
1.0
1000
SOLID
1070
     1
1070
     1
1071
        1
1071
        1
1071
        7
1070
     1
1040
431.80000000000001
1040
546.10000000000002
1040
429.41874999999987
1040
550.86249999999995
1070
     1
1040
429.41874999999987
1040
550.86249999999995
1040
431.20468749999998
1040
550.86249999999995
1070
     1
1040
431.20468749999998
1040
550.86249999999995
1040
431.20468749999998
1040
555.625
1070
     1
1040
431.20468749999998
1040
555.625
1040
432.39531249999999
1040
555.625
1070
     1
1040
432.39531249999999
1040
555.625
1040
432.39531249999999
1040
550.86249999999995
1070
     1
1040
432.39531249999999
1040
550.86249999999995
1040
434.18124999999992
1040
550.86249999999995
1070
     1
1040
434.18124999999992
1040
550.86249999999995
1040
431.80000000000001
1040
546.10000000000002
1071
        1
1005
275
1070
     0
1070
     1
1071
        1
1040
0.0
1040
0.0
1040
0.0
1002
}
  0
ENDBLK
  5
277
  8
0
  6
BYBLOCK
 62
     0
  0
BLOCK
  8
0
  6
CONTINUOUS
 62
     2
  2
C_ARROW_BL3
 70
     0
 10
7.9375
 20
279.39999999999998
 30
0.0
  3
C_ARROW_BL3
  1

  0
LINE
  5
279
  8
0
  6
CONTINUOUS
 10
12.699999999999999
 20
279.39999999999998
 30
0.0
 11
7.9375
 21
281.78125
 31
0.0
  0
LINE
  5
27A
  8
0
  6
CONTINUOUS
 10
12.699999999999999
 20
279.39999999999998
 30
0.0
 11
7.9375
 21
277.01875000000001
 31
0.0
  0
LINE
  5
27B
  8
0
  6
CONTINUOUS
 10
7.9375
 20
278.8046875
 30
0.0
 11
7.9375
 21
277.01875000000001
 31
0.0
  0
LINE
  5
27C
  8
0
  6
CONTINUOUS
 10
3.1749999999999989
 20
278.8046875
 30
0.0
 11
7.9375
 21
278.8046875
 31
0.0
  0
LINE
  5
27D
  8
0
  6
CONTINUOUS
 10
3.1749999999999989
 20
278.8046875
 30
0.0
 11
3.1749999999999989
 21
279.99531250000001
 31
0.0
  0
LINE
  5
27E
  8
0
  6
CONTINUOUS
 10
7.9375
 20
279.99531250000001
 30
0.0
 11
3.1749999999999989
 21
279.99531250000001
 31
0.0
  0
LINE
  5
27F
  8
0
  6
CONTINUOUS
 10
7.9375
 20
281.78125
 30
0.0
 11
7.9375
 21
279.99531250000001
 31
0.0
  0
POLYLINE
  5
280
  8
0
  6
CONTINUOUS
 62
     7
 66
     1
 10
0.0
 20
0.0
 30
0.0
  0
VERTEX
  5
A8F
  8
0
  6
CONTINUOUS
 62
     7
 10
12.699999999999999
 20
279.39999999999998
 30
0.0
  0
VERTEX
  5
A90
  8
0
  6
CONTINUOUS
 62
     7
 10
7.9375
 20
277.01875000000001
 30
0.0
  0
VERTEX
  5
A91
  8
0
  6
CONTINUOUS
 62
     7
 10
7.9375
 20
278.8046875
 30
0.0
  0
VERTEX
  5
A92
  8
0
  6
CONTINUOUS
 62
     7
 10
3.1749999999999989
 20
278.8046875
 30
0.0
  0
VERTEX
  5
A93
  8
0
  6
CONTINUOUS
 62
     7
 10
3.1749999999999989
 20
279.99531250000001
 30
0.0
  0
VERTEX
  5
A94
  8
0
  6
CONTINUOUS
 62
     7
 10
7.9375
 20
279.99531250000001
 30
0.0
  0
VERTEX
  5
A95
  8
0
  6
CONTINUOUS
 62
     7
 10
7.9375
 20
281.78125
 30
0.0
  0
VERTEX
  5
A96
  8
0
  6
CONTINUOUS
 62
     7
 10
12.699999999999999
 20
279.39999999999998
 30
0.0
  0
SEQEND
  5
A97
  8
0
  6
CONTINUOUS
 62
     7
  0
INSERT
  5
281
  8
0
  6
CONTINUOUS
 62
     7
  2
*U16
 10
0.0
 20
0.0
 30
0.0
1001
ACAD
1002
{
1000
R14_HATCH_DATA
1000
281
1011
1.0
1021
0.0
1031
0.0
1021
0.0
1031
0.0
1011
0.0
1021
0.0
1031
0.0
1021
1.0
1031
0.0
1011
0.0
1021
0.0
1031
0.0
1021
0.0
1031
1.0
1040
0.0
1010
0.0
1020
0.0
1030
1.0
1000
SOLID
1070
     1
1070
     1
1071
        1
1071
        1
1071
        7
1070
     1
1040
12.699999999999999
1040
279.39999999999998
1040
7.9375
1040
277.01875000000001
1070
     1
1040
7.9375
1040
277.01875000000001
1040
7.9375
1040
278.8046875
1070
     1
1040
7.9375
1040
278.8046875
1040
3.1749999999999989
1040
278.8046875
1070
     1
1040
3.1749999999999989
1040
278.8046875
1040
3.1749999999999989
1040
279.99531250000001
1070
     1
1040
3.1749999999999989
1040
279.99531250000001
1040
7.9375
1040
279.99531250000001
1070
     1
1040
7.9375
1040
279.99531250000001
1040
7.9375
1040
281.78125
1070
     1
1040
7.9375
1040
281.78125
1040
12.699999999999999
1040
279.39999999999998
1071
        1
1005
280
1070
     0
1070
     1
1071
        1
1040
0.0
1040
0.0
1040
0.0
1002
}
  0
ENDBLK
  5
282
  8
0
  6
BYBLOCK
 62
     0
  0
BLOCK
  8
0
  6
CONTINUOUS
 62
     2
  2
C_ARROW_BL4
 70
     0
 10
855.66250000000002
 20
279.39999999999998
 30
0.0
  3
C_ARROW_BL4
  1

  0
LINE
  5
284
  8
0
  6
CONTINUOUS
 10
850.89999999999998
 20
279.39999999999998
 30
0.0
 11
855.66250000000002
 21
277.01875000000001
 31
0.0
  0
LINE
  5
285
  8
0
  6
CONTINUOUS
 10
850.89999999999998
 20
279.39999999999998
 30
0.0
 11
855.66250000000002
 21
281.78125
 31
0.0
  0
LINE
  5
286
  8
0
  6
CONTINUOUS
 10
855.66250000000002
 20
279.99531250000001
 30
0.0
 11
855.66250000000002
 21
281.78125
 31
0.0
  0
LINE
  5
287
  8
0
  6
CONTINUOUS
 10
860.42499999999995
 20
279.99531250000001
 30
0.0
 11
855.66250000000002
 21
279.99531250000001
 31
0.0
  0
LINE
  5
288
  8
0
  6
CONTINUOUS
 10
860.42499999999995
 20
279.99531250000001
 30
0.0
 11
860.42499999999995
 21
278.8046875
 31
0.0
  0
LINE
  5
289
  8
0
  6
CONTINUOUS
 10
855.66250000000002
 20
278.8046875
 30
0.0
 11
860.42499999999995
 21
278.8046875
 31
0.0
  0
LINE
  5
28A
  8
0
  6
CONTINUOUS
 10
855.66250000000002
 20
277.01875000000001
 30
0.0
 11
855.66250000000002
 21
278.8046875
 31
0.0
  0
POLYLINE
  5
28B
  8
0
  6
CONTINUOUS
 62
     7
 66
     1
 10
0.0
 20
0.0
 30
0.0
  0
VERTEX
  5
AAD
  8
0
  6
CONTINUOUS
 62
     7
 10
850.89999999999998
 20
279.39999999999998
 30
0.0
  0
VERTEX
  5
AAE
  8
0
  6
CONTINUOUS
 62
     7
 10
855.66250000000002
 20
281.78125
 30
0.0
  0
VERTEX
  5
AAF
  8
0
  6
CONTINUOUS
 62
     7
 10
855.66250000000002
 20
279.99531250000001
 30
0.0
  0
VERTEX
  5
AB0
  8
0
  6
CONTINUOUS
 62
     7
 10
860.42499999999995
 20
279.99531250000001
 30
0.0
  0
VERTEX
  5
AB1
  8
0
  6
CONTINUOUS
 62
     7
 10
860.42499999999995
 20
278.8046875
 30
0.0
  0
VERTEX
  5
AB2
  8
0
  6
CONTINUOUS
 62
     7
 10
855.66250000000002
 20
278.8046875
 30
0.0
  0
VERTEX
  5
AB3
  8
0
  6
CONTINUOUS
 62
     7
 10
855.66250000000002
 20
277.01875000000001
 30
0.0
  0
VERTEX
  5
AB4
  8
0
  6
CONTINUOUS
 62
     7
 10
850.89999999999998
 20
279.39999999999998
 30
0.0
  0
SEQEND
  5
AB5
  8
0
  6
CONTINUOUS
 62
     7
  0
INSERT
  5
28C
  8
0
  6
CONTINUOUS
 62
     7
  2
*U17
 10
0.0
 20
0.0
 30
0.0
1001
ACAD
1002
{
1000
R14_HATCH_DATA
1000
28C
1011
1.0
1021
0.0
1031
0.0
1021
0.0
1031
0.0
1011
0.0
1021
0.0
1031
0.0
1021
1.0
1031
0.0
1011
0.0
1021
0.0
1031
0.0
1021
0.0
1031
1.0
1040
0.0
1010
0.0
1020
0.0
1030
1.0
1000
SOLID
1070
     1
1070
     1
1071
        1
1071
        1
1071
        7
1070
     1
1040
850.89999999999998
1040
279.39999999999998
1040
855.66250000000002
1040
281.78125
1070
     1
1040
855.66250000000002
1040
281.78125
1040
855.66250000000002
1040
279.99531250000001
1070
     1
1040
855.66250000000002
1040
279.99531250000001
1040
860.42499999999995
1040
279.99531250000001
1070
     1
1040
860.42499999999995
1040
279.99531250000001
1040
860.42499999999995
1040
278.8046875
1070
     1
1040
860.42499999999995
1040
278.8046875
1040
855.66250000000002
1040
278.8046875
1070
     1
1040
855.66250000000002
1040
278.8046875
1040
855.66250000000002
1040
277.01875000000001
1070
     1
1040
855.66250000000002
1040
277.01875000000001
1040
850.89999999999998
1040
279.39999999999998
1071
        1
1005
28B
1070
     0
1070
     1
1071
        1
1040
0.0
1040
0.0
1040
0.0
1002
}
  0
ENDBLK
  5
28D
  8
0
  6
BYBLOCK
 62
     0
  0
BLOCK
  8
0
  2
GENAXEH
 70
     0
 10
0.0
 20
0.0
 30
0.0
  3
GENAXEH
  1

  0
LINE
  5
7A4
  8
0
 10
-1.0
 20
0.0
 30
0.0
 11
1.0
 21
0.0
 31
0.0
  0
ENDBLK
  5
7A6
  8
0
  0
BLOCK
  8
0
  2
*U6
 70
     1
 10
0.0
 20
0.0
 30
0.0
  3
*U6
  1

  0
SOLID
  5
88D
  8
0
  6
CONTINUOUS
 62
     2
 10
778.58134859999996
 20
57.41088340000001
 30
0.0
 11
778.58134859999996
 21
57.41088340000001
 31
0.0
 12
780.2831486
 22
57.41088340000001
 32
0.0
 13
780.2831486
 23
57.41088340000001
 33
0.0
210
0.0
220
0.0
230
1.0
  0
SOLID
  5
88E
  8
0
  6
CONTINUOUS
 62
     2
 10
778.58134859999996
 20
57.41088340000001
 30
0.0
 11
778.58134859999996
 21
55.8535459
 31
0.0
 12
780.2831486
 22
55.8535459
 32
0.0
 13
780.2831486
 23
55.8535459
 33
0.0
  0
SOLID
  5
88F
  8
0
  6
CONTINUOUS
 62
     2
 10
-778.58134859999996
 20
57.41088340000001
 30
0.0
 11
-780.2831486
 21
57.41088340000001
 31
0.0
 12
-780.2831486
 22
55.8535459
 32
0.0
 13
-780.2831486
 23
55.8535459
 33
0.0
210
0.0
220
0.0
230
-1.0
  0
SOLID
  5
890
  8
0
  6
CONTINUOUS
 62
     2
 10
780.2831486
 20
55.8535459
 30
0.0
 11
780.2831486
 21
55.8535459
 31
0.0
 12
781.13087359999986
 22
55.8535459
 32
0.0
 13
781.13087359999986
 23
55.8535459
 33
0.0
210
0.0
220
0.0
230
1.0
  0
SOLID
  5
891
  8
0
  6
CONTINUOUS
 62
     2
 10
781.13087359999986
 20
55.8535459
 30
0.0
 11
781.13087359999986
 21
55.8535459
 31
0.0
 12
783.1747134023999
 22
55.8535459
 32
0.0
 13
783.1747134023999
 23
55.8535459
 33
0.0
210
0.0
220
0.0
230
1.0
  0
SOLID
  5
892
  8
0
  6
CONTINUOUS
 62
     2
 10
778.58134859999996
 20
55.8535459
 30
0.0
 11
778.58134859999996
 21
55.360395152700001
 31
0.0
 12
782.94911527570002
 22
55.360395152700001
 32
0.0
 13
782.94911527570002
 23
55.360395152700001
 33
0.0
  0
SOLID
  5
893
  8
0
  6
CONTINUOUS
 62
     2
 10
-778.58134859999996
 20
55.8535459
 30
0.0
 11
-783.1747134023999
 21
55.8535459
 31
0.0
 12
-782.94911527570002
 22
55.360395152700001
 32
0.0
 13
-782.94911527570002
 23
55.360395152700001
 33
0.0
210
0.0
220
0.0
230
-1.0
  0
SOLID
  5
894
  8
0
  6
CONTINUOUS
 62
     2
 10
778.58134859999996
 20
55.360395152700001
 30
0.0
 11
778.58134859999996
 21
54.8063228444
 31
0.0
 12
782.38694834440003
 22
54.8063228444
 32
0.0
 13
782.38694834440003
 23
54.8063228444
 33
0.0
210
0.0
220
0.0
230
1.0
  0
SOLID
  5
895
  8
0
  6
CONTINUOUS
 62
     2
 10
-778.58134859999996
 20
55.360395152700001
 30
0.0
 11
-782.94911527570002
 21
55.360395152700001
 31
0.0
 12
-782.38694834440003
 22
54.8063228444
 32
0.0
 13
-782.38694834440003
 23
54.8063228444
 33
0.0
210
0.0
220
0.0
230
-1.0
  0
SOLID
  5
896
  8
0
  6
CONTINUOUS
 62
     2
 10
778.58134859999996
 20
54.8063228444
 30
0.0
 11
778.58134859999996
 21
54.429558399999991
 31
0.0
 12
782.59601518573106
 22
54.429558399999991
 32
0.0
 13
782.59601518573106
 23
54.429558399999991
 33
0.0
210
0.0
220
0.0
230
1.0
  0
SOLID
  5
897
  8
0
  6
CONTINUOUS
 62
     2
 10
-778.58134859999996
 20
54.8063228444
 30
0.0
 11
-782.38694834440003
 21
54.8063228444
 31
0.0
 12
-782.59601518573106
 22
54.429558399999991
 32
0.0
 13
-782.59601518573106
 23
54.429558399999991
 33
0.0
210
0.0
220
0.0
230
-1.0
  0
SOLID
  5
898
  8
0
  6
CONTINUOUS
 62
     2
 10
780.2831486
 20
54.429558399999991
 30
0.0
 11
780.2831486
 21
54.429558399999991
 31
0.0
 12
780.64976692189987
 22
54.429558399999991
 32
0.0
 13
780.64976692189987
 23
54.429558399999991
 33
0.0
210
0.0
220
0.0
230
1.0
  0
SOLID
  5
899
  8
0
  6
CONTINUOUS
 62
     2
 10
778.58134859999996
 20
54.429558399999991
 30
0.0
 11
778.58134859999996
 21
51.651433400000002
 31
0.0
 12
780.2831486
 22
51.651433400000002
 32
0.0
 13
780.2831486
 23
51.651433400000002
 33
0.0
210
0.0
220
0.0
230
1.0
  0
SOLID
  5
89A
  8
0
  6
CONTINUOUS
 62
     2
 10
-778.58134859999996
 20
54.429558399999991
 30
0.0
 11
-780.2831486
 21
54.429558399999991
 31
0.0
 12
-780.2831486
 22
51.651433400000002
 32
0.0
 13
-780.2831486
 23
51.651433400000002
 33
0.0
210
0.0
220
0.0
230
-1.0
  0
SOLID
  5
89B
  8
0
  6
CONTINUOUS
 62
     2
 10
780.64976692189987
 20
54.429558399999991
 30
0.0
 11
782.19135033600003
 21
51.651433400000002
 31
0.0
 12
784.13759860000005
 22
51.651433400000002
 32
0.0
 13
784.13759860000005
 23
51.651433400000002
 33
0.0
210
0.0
220
0.0
230
1.0
  0
SOLID
  5
89C
  8
0
  6
CONTINUOUS
 62
     2
 10
-780.64976692189987
 20
54.429558399999991
 30
0.0
 11
-782.59601518573106
 21
54.429558399999991
 31
0.0
 12
-784.13759860000005
 22
51.651433400000002
 32
0.0
 13
-784.13759860000005
 23
51.651433400000002
 33
0.0
210
0.0
220
0.0
230
-1.0
  0
SOLID
  5
89D
  8
0
  6
CONTINUOUS
 62
     2
 10
778.58134859999996
 20
51.651433400000002
 30
0.0
 11
778.58134859999996
 21
51.651433400000002
 31
0.0
 12
780.2831486
 22
51.651433400000002
 32
0.0
 13
780.2831486
 23
51.651433400000002
 33
0.0
210
0.0
220
0.0
230
1.0
  0
SOLID
  5
89E
  8
0
  6
CONTINUOUS
 62
     2
 10
782.19135033600003
 20
51.651433400000002
 30
0.0
 11
782.19135033600003
 21
51.651433400000002
 31
0.0
 12
784.13759860000005
 22
51.651433400000002
 32
0.0
 13
784.13759860000005
 23
51.651433400000002
 33
0.0
210
0.0
220
0.0
230
1.0
  0
LINE
  5
89F
  8
0
  6
CONTINUOUS
 62
     2
 10
778.58134859999996
 20
57.41088340000001
 30
0.0
 11
780.2831486
 21
57.41088340000001
 31
0.0
  0
LINE
  5
8A0
  8
0
  6
CONTINUOUS
 62
     2
 10
778.58134859999996
 20
57.41088340000001
 30
0.0
 11
778.58134859999996
 21
55.8535459
 31
0.0
  0
LINE
  5
8A1
  8
0
  6
CONTINUOUS
 62
     2
 10
780.2831486
 20
57.41088340000001
 30
0.0
 11
780.2831486
 21
55.8535459
 31
0.0
  0
LINE
  5
8A2
  8
0
  6
CONTINUOUS
 62
     2
 10
780.2831486
 20
55.8535459
 30
0.0
 11
781.13087359999986
 21
55.8535459
 31
0.0
  0
LINE
  5
8A3
  8
0
  6
CONTINUOUS
 62
     2
 10
781.13087359999986
 20
55.8535459
 30
0.0
 11
783.1747134023999
 21
55.8535459
 31
0.0
  0
LINE
  5
8A4
  8
0
  6
CONTINUOUS
 62
     2
 10
778.58134859999996
 20
55.8535459
 30
0.0
 11
778.58134859999996
 21
55.360395152700001
 31
0.0
  0
LINE
  5
8A5
  8
0
  6
CONTINUOUS
 62
     2
 10
783.1747134023999
 20
55.8535459
 30
0.0
 11
782.94911527570002
 21
55.360395152700001
 31
0.0
  0
LINE
  5
8A6
  8
0
  6
CONTINUOUS
 62
     2
 10
778.58134859999996
 20
55.360395152700001
 30
0.0
 11
778.58134859999996
 21
54.8063228444
 31
0.0
  0
LINE
  5
8A7
  8
0
  6
CONTINUOUS
 62
     2
 10
782.94911527570002
 20
55.360395152700001
 30
0.0
 11
782.38694834440003
 21
54.8063228444
 31
0.0
  0
LINE
  5
8A8
  8
0
  6
CONTINUOUS
 62
     2
 10
778.58134859999996
 20
54.8063228444
 30
0.0
 11
778.58134859999996
 21
54.429558399999991
 31
0.0
  0
LINE
  5
8A9
  8
0
  6
CONTINUOUS
 62
     2
 10
782.38694834440003
 20
54.8063228444
 30
0.0
 11
782.59601518573106
 21
54.429558399999991
 31
0.0
  0
LINE
  5
8AA
  8
0
  6
CONTINUOUS
 62
     2
 10
780.2831486
 20
54.429558399999991
 30
0.0
 11
780.64976692189987
 21
54.429558399999991
 31
0.0
  0
LINE
  5
8AB
  8
0
  6
CONTINUOUS
 62
     2
 10
778.58134859999996
 20
54.429558399999991
 30
0.0
 11
778.58134859999996
 21
51.651433400000002
 31
0.0
  0
LINE
  5
8AC
  8
0
  6
CONTINUOUS
 62
     2
 10
780.2831486
 20
54.429558399999991
 30
0.0
 11
780.2831486
 21
51.651433400000002
 31
0.0
  0
LINE
  5
8AD
  8
0
  6
CONTINUOUS
 62
     2
 10
780.64976692189987
 20
54.429558399999991
 30
0.0
 11
782.19135033600003
 21
51.651433400000002
 31
0.0
  0
LINE
  5
8AE
  8
0
  6
CONTINUOUS
 62
     2
 10
782.59601518573106
 20
54.429558399999991
 30
0.0
 11
784.13759860000005
 21
51.651433400000002
 31
0.0
  0
LINE
  5
8AF
  8
0
  6
CONTINUOUS
 62
     2
 10
778.58134859999996
 20
51.651433400000002
 30
0.0
 11
780.2831486
 21
51.651433400000002
 31
0.0
  0
LINE
  5
8B0
  8
0
  6
CONTINUOUS
 62
     2
 10
782.19135033600003
 20
51.651433400000002
 30
0.0
 11
784.13759860000005
 21
51.651433400000002
 31
0.0
  0
ENDBLK
  5
8B2
  8
0
  0
BLOCK
  8
0
  2
*U7
 70
     1
 10
0.0
 20
0.0
 30
0.0
  3
*U7
  1

  0
SOLID
  5
8C7
  8
0
  6
CONTINUOUS
 62
     2
 10
778.58134859999996
 20
58.795183399999999
 30
0.0
 11
778.58134859999996
 21
58.795183399999999
 31
0.0
 12
781.16103610000005
 22
58.795183399999999
 32
0.0
 13
781.16103610000005
 23
58.795183399999999
 33
0.0
210
0.0
220
0.0
230
1.0
  0
SOLID
  5
8C8
  8
0
  6
CONTINUOUS
 62
     2
 10
778.58134859999996
 20
58.795183399999999
 30
0.0
 11
778.58134859999996
 21
58.6524712382
 31
0.0
 12
781.93734855030004
 22
58.6524712382
 32
0.0
 13
781.93734855030004
 23
58.6524712382
 33
0.0
  0
SOLID
  5
8C9
  8
0
  6
CONTINUOUS
 62
     2
 10
-778.58134859999996
 20
58.795183399999999
 30
0.0
 11
-781.16103610000005
 21
58.795183399999999
 31
0.0
 12
-781.93734855030004
 22
58.6524712382
 32
0.0
 13
-781.93734855030004
 23
58.6524712382
 33
0.0
210
0.0
220
0.0
230
-1.0
  0
SOLID
  5
8CA
  8
0
  6
CONTINUOUS
 62
     2
 10
778.58134859999996
 20
58.6524712382
 30
0.0
 11
778.58134859999996
 21
58.242995779300003
 31
0.0
 12
782.61215046940004
 22
58.242995779300003
 32
0.0
 13
782.61215046940004
 23
58.242995779300003
 33
0.0
  0
SOLID
  5
8CB
  8
0
  6
CONTINUOUS
 62
     2
 10
-778.58134859999996
 20
58.6524712382
 30
0.0
 11
-781.93734855030004
 21
58.6524712382
 31
0.0
 12
-782.61215046940004
 22
58.242995779300003
 32
0.0
 13
-782.61215046940004
 23
58.242995779300003
 33
0.0
210
0.0
220
0.0
230
-1.0
  0
SOLID
  5
8CC
  8
0
  6
CONTINUOUS
 62
     2
 10
778.58134859999996
 20
58.242995779300003
 30
0.0
 11
778.58134859999996
 21
57.620299989599999
 31
0.0
 12
783.09720483240005
 22
57.620299989599999
 32
0.0
 13
783.09720483240005
 23
57.620299989599999
 33
0.0
210
0.0
220
0.0
230
1.0
  0
SOLID
  5
8CD
  8
0
  6
CONTINUOUS
 62
     2
 10
-778.58134859999996
 20
58.242995779300003
 30
0.0
 11
-782.61215046940004
 21
58.242995779300003
 31
0.0
 12
-783.09720483240005
 22
57.620299989599999
 32
0.0
 13
-783.09720483240005
 23
57.620299989599999
 33
0.0
210
0.0
220
0.0
230
-1.0
  0
SOLID
  5
8CE
  8
0
  6
CONTINUOUS
 62
     2
 10
778.58134859999996
 20
57.620299989599999
 30
0.0
 11
778.58134859999996
 21
57.41088340000001
 31
0.0
 12
783.16156565870722
 22
57.41088340000001
 32
0.0
 13
783.16156565870722
 23
57.41088340000001
 33
0.0
  0
SOLID
  5
8CF
  8
0
  6
CONTINUOUS
 62
     2
 10
-778.58134859999996
 20
57.620299989599999
 30
0.0
 11
-783.09720483240005
 21
57.620299989599999
 31
0.0
 12
-783.16156565870722
 22
57.41088340000001
 32
0.0
 13
-783.16156565870722
 23
57.41088340000001
 33
0.0
210
0.0
220
0.0
230
-1.0
  0
SOLID
  5
8D0
  8
0
  6
CONTINUOUS
 62
     2
 10
778.58134859999996
 20
57.41088340000001
 30
0.0
 11
778.58134859999996
 21
57.41088340000001
 31
0.0
 12
780.2831486
 22
57.41088340000001
 32
0.0
 13
780.2831486
 23
57.41088340000001
 33
0.0
210
0.0
220
0.0
230
1.0
  0
SOLID
  5
8D1
  8
0
  6
CONTINUOUS
 62
     2
 10
780.2831486
 20
57.41088340000001
 30
0.0
 11
780.2831486
 21
57.41088340000001
 31
0.0
 12
781.13087359999986
 22
57.41088340000001
 32
0.0
 13
781.13087359999986
 23
57.41088340000001
 33
0.0
210
0.0
220
0.0
230
1.0
  0
SOLID
  5
8D2
  8
0
  6
CONTINUOUS
 62
     2
 10
781.13087359999986
 20
57.41088340000001
 30
0.0
 11
781.52020797499995
 21
57.306561568600003
 31
0.0
 12
783.19362729854004
 22
57.306561568600003
 32
0.0
 13
783.19362729854004
 23
57.306561568600003
 33
0.0
  0
SOLID
  5
8D3
  8
0
  6
CONTINUOUS
 62
     2
 10
-781.13087359999986
 20
57.41088340000001
 30
0.0
 11
-783.16156565870722
 21
57.41088340000001
 31
0.0
 12
-783.19362729854004
 22
57.306561568600003
 32
0.0
 13
-783.19362729854004
 23
57.306561568600003
 33
0.0
210
0.0
220
0.0
230
-1.0
  0
SOLID
  5
8D4
  8
0
  6
CONTINUOUS
 62
     2
 10
781.52020797499995
 20
57.306561568600003
 30
0.0
 11
781.80522051859998
 21
57.021549024999999
 31
0.0
 12
783.28122132749934
 22
57.021549024999999
 32
0.0
 13
783.28122132749934
 23
57.021549024999999
 33
0.0
  0
SOLID
  5
8D5
  8
0
  6
CONTINUOUS
 62
     2
 10
-781.52020797499995
 20
57.306561568600003
 30
0.0
 11
-783.19362729854004
 21
57.306561568600003
 31
0.0
 12
-783.28122132749934
 22
57.021549024999999
 32
0.0
 13
-783.28122132749934
 23
57.021549024999999
 33
0.0
210
0.0
220
0.0
230
-1.0
  0
SOLID
  5
8D6
  8
0
  6
CONTINUOUS
 62
     2
 10
781.80522051859998
 20
57.021549024999999
 30
0.0
 11
781.84695133382195
 21
56.865807502400003
 31
0.0
 12
783.32908598380004
 22
56.865807502400003
 32
0.0
 13
783.32908598380004
 23
56.865807502400003
 33
0.0
210
0.0
220
0.0
230
1.0
  0
SOLID
  5
8D7
  8
0
  6
CONTINUOUS
 62
     2
 10
-781.80522051859998
 20
57.021549024999999
 30
0.0
 11
-783.28122132749934
 21
57.021549024999999
 31
0.0
 12
-783.32908598380004
 22
56.865807502400003
 32
0.0
 13
-783.32908598380004
 23
56.865807502400003
 33
0.0
210
0.0
220
0.0
230
-1.0
  0
SOLID
  5
8D8
  8
0
  6
CONTINUOUS
 62
     2
 10
781.84695133382195
 20
56.865807502400003
 30
0.0
 11
781.90954235000004
 21
56.632214650000002
 31
0.0
 12
783.31377885166512
 22
56.632214650000002
 32
0.0
 13
783.31377885166512
 23
56.632214650000002
 33
0.0
210
0.0
220
0.0
230
1.0
  0
SOLID
  5
8D9
  8
0
  6
CONTINUOUS
 62
     2
 10
-781.84695133382195
 20
56.865807502400003
 30
0.0
 11
-783.32908598380004
 21
56.865807502400003
 31
0.0
 12
-783.31377885166512
 22
56.632214650000002
 32
0.0
 13
-783.31377885166512
 23
56.632214650000002
 33
0.0
210
0.0
220
0.0
230
-1.0
  0
SOLID
  5
8DA
  8
0
  6
CONTINUOUS
 62
     2
 10
781.90954235000004
 20
56.632214650000002
 30
0.0
 11
781.80522051859998
 21
56.242880274999997
 31
0.0
 12
783.28826611588738
 22
56.242880274999997
 32
0.0
 13
783.28826611588738
 23
56.242880274999997
 33
0.0
210
0.0
220
0.0
230
1.0
  0
SOLID
  5
8DB
  8
0
  6
CONTINUOUS
 62
     2
 10
-781.90954235000004
 20
56.632214650000002
 30
0.0
 11
-783.31377885166512
 21
56.632214650000002
 31
0.0
 12
-783.28826611588738
 22
56.242880274999997
 32
0.0
 13
-783.28826611588738
 23
56.242880274999997
 33
0.0
210
0.0
220
0.0
230
-1.0
  0
SOLID
  5
8DC
  8
0
  6
CONTINUOUS
 62
     2
 10
781.80522051859998
 20
56.242880274999997
 30
0.0
 11
781.64051591639986
 21
56.0781756728
 31
0.0
 12
783.27747316959994
 22
56.0781756728
 32
0.0
 13
783.27747316959994
 23
56.0781756728
 33
0.0
210
0.0
220
0.0
230
1.0
  0
SOLID
  5
8DD
  8
0
  6
CONTINUOUS
 62
     2
 10
-781.80522051859998
 20
56.242880274999997
 30
0.0
 11
-783.28826611588738
 21
56.242880274999997
 31
0.0
 12
-783.27747316959994
 22
56.0781756728
 32
0.0
 13
-783.27747316959994
 23
56.0781756728
 33
0.0
210
0.0
220
0.0
230
-1.0
  0
SOLID
  5
8DE
  8
0
  6
CONTINUOUS
 62
     2
 10
781.64051591639986
 20
56.0781756728
 30
0.0
 11
781.52020797499995
 21
55.9578677314
 31
0.0
 12
783.22243676059475
 22
55.9578677314
 32
0.0
 13
783.22243676059475
 23
55.9578677314
 33
0.0
210
0.0
220
0.0
230
1.0
  0
SOLID
  5
8DF
  8
0
  6
CONTINUOUS
 62
     2
 10
-781.64051591639986
 20
56.0781756728
 30
0.0
 11
-783.27747316959994
 21
56.0781756728
 31
0.0
 12
-783.22243676059475
 22
55.9578677314
 32
0.0
 13
-783.22243676059475
 23
55.9578677314
 33
0.0
210
0.0
220
0.0
230
-1.0
  0
SOLID
  5
8E0
  8
0
  6
CONTINUOUS
 62
     2
 10
781.52020797499995
 20
55.9578677314
 30
0.0
 11
781.13087359999986
 21
55.8535459
 31
0.0
 12
783.1747134023999
 22
55.8535459
 32
0.0
 13
783.1747134023999
 23
55.8535459
 33
0.0
  0
SOLID
  5
8E1
  8
0
  6
CONTINUOUS
 62
     2
 10
-781.52020797499995
 20
55.9578677314
 30
0.0
 11
-783.22243676059475
 21
55.9578677314
 31
0.0
 12
-783.1747134023999
 22
55.8535459
 32
0.0
 13
-783.1747134023999
 23
55.8535459
 33
0.0
210
0.0
220
0.0
230
-1.0
  0
SOLID
  5
8E2
  8
0
  6
CONTINUOUS
 62
     2
 10
781.13087359999986
 20
55.8535459
 30
0.0
 11
781.13087359999986
 21
55.8535459
 31
0.0
 12
783.1747134023999
 22
55.8535459
 32
0.0
 13
783.1747134023999
 23
55.8535459
 33
0.0
210
0.0
220
0.0
230
1.0
  0
LINE
  5
8E3
  8
0
  6
CONTINUOUS
 62
     2
 10
778.58134859999996
 20
58.795183399999999
 30
0.0
 11
781.16103610000005
 21
58.795183399999999
 31
0.0
  0
LINE
  5
8E4
  8
0
  6
CONTINUOUS
 62
     2
 10
778.58134859999996
 20
58.795183399999999
 30
0.0
 11
778.58134859999996
 21
58.6524712382
 31
0.0
  0
LINE
  5
8E5
  8
0
  6
CONTINUOUS
 62
     2
 10
781.16103610000005
 20
58.795183399999999
 30
0.0
 11
781.93734855030004
 21
58.6524712382
 31
0.0
  0
LINE
  5
8E6
  8
0
  6
CONTINUOUS
 62
     2
 10
778.58134859999996
 20
58.6524712382
 30
0.0
 11
778.58134859999996
 21
58.242995779300003
 31
0.0
  0
LINE
  5
8E7
  8
0
  6
CONTINUOUS
 62
     2
 10
781.93734855030004
 20
58.6524712382
 30
0.0
 11
782.61215046940004
 21
58.242995779300003
 31
0.0
  0
LINE
  5
8E8
  8
0
  6
CONTINUOUS
 62
     2
 10
778.58134859999996
 20
58.242995779300003
 30
0.0
 11
778.58134859999996
 21
57.620299989599999
 31
0.0
  0
LINE
  5
8E9
  8
0
  6
CONTINUOUS
 62
     2
 10
782.61215046940004
 20
58.242995779300003
 30
0.0
 11
783.09720483240005
 21
57.620299989599999
 31
0.0
  0
LINE
  5
8EA
  8
0
  6
CONTINUOUS
 62
     2
 10
778.58134859999996
 20
57.620299989599999
 30
0.0
 11
778.58134859999996
 21
57.41088340000001
 31
0.0
  0
LINE
  5
8EB
  8
0
  6
CONTINUOUS
 62
     2
 10
783.09720483240005
 20
57.620299989599999
 30
0.0
 11
783.16156565870722
 21
57.41088340000001
 31
0.0
  0
LINE
  5
8EC
  8
0
  6
CONTINUOUS
 62
     2
 10
778.58134859999996
 20
57.41088340000001
 30
0.0
 11
780.2831486
 21
57.41088340000001
 31
0.0
  0
LINE
  5
8ED
  8
0
  6
CONTINUOUS
 62
     2
 10
780.2831486
 20
57.41088340000001
 30
0.0
 11
781.13087359999986
 21
57.41088340000001
 31
0.0
  0
LINE
  5
8EE
  8
0
  6
CONTINUOUS
 62
     2
 10
781.13087359999986
 20
57.41088340000001
 30
0.0
 11
781.52020797499995
 21
57.306561568600003
 31
0.0
  0
LINE
  5
8EF
  8
0
  6
CONTINUOUS
 62
     2
 10
783.16156565870722
 20
57.41088340000001
 30
0.0
 11
783.19362729854004
 21
57.306561568600003
 31
0.0
  0
LINE
  5
8F0
  8
0
  6
CONTINUOUS
 62
     2
 10
781.52020797499995
 20
57.306561568600003
 30
0.0
 11
781.80522051859998
 21
57.021549024999999
 31
0.0
  0
LINE
  5
8F1
  8
0
  6
CONTINUOUS
 62
     2
 10
783.19362729854004
 20
57.306561568600003
 30
0.0
 11
783.28122132749934
 21
57.021549024999999
 31
0.0
  0
LINE
  5
8F2
  8
0
  6
CONTINUOUS
 62
     2
 10
781.80522051859998
 20
57.021549024999999
 30
0.0
 11
781.84695133382195
 21
56.865807502400003
 31
0.0
  0
LINE
  5
8F3
  8
0
  6
CONTINUOUS
 62
     2
 10
783.28122132749934
 20
57.021549024999999
 30
0.0
 11
783.32908598380004
 21
56.865807502400003
 31
0.0
  0
LINE
  5
8F4
  8
0
  6
CONTINUOUS
 62
     2
 10
781.84695133382195
 20
56.865807502400003
 30
0.0
 11
781.90954235000004
 21
56.632214650000002
 31
0.0
  0
LINE
  5
8F5
  8
0
  6
CONTINUOUS
 62
     2
 10
783.32908598380004
 20
56.865807502400003
 30
0.0
 11
783.31377885166512
 21
56.632214650000002
 31
0.0
  0
LINE
  5
8F6
  8
0
  6
CONTINUOUS
 62
     2
 10
781.90954235000004
 20
56.632214650000002
 30
0.0
 11
781.80522051859998
 21
56.242880274999997
 31
0.0
  0
LINE
  5
8F7
  8
0
  6
CONTINUOUS
 62
     2
 10
783.31377885166512
 20
56.632214650000002
 30
0.0
 11
783.28826611588738
 21
56.242880274999997
 31
0.0
  0
LINE
  5
8F8
  8
0
  6
CONTINUOUS
 62
     2
 10
781.80522051859998
 20
56.242880274999997
 30
0.0
 11
781.64051591639986
 21
56.0781756728
 31
0.0
  0
LINE
  5
8F9
  8
0
  6
CONTINUOUS
 62
     2
 10
783.28826611588738
 20
56.242880274999997
 30
0.0
 11
783.27747316959994
 21
56.0781756728
 31
0.0
  0
LINE
  5
8FA
  8
0
  6
CONTINUOUS
 62
     2
 10
781.64051591639986
 20
56.0781756728
 30
0.0
 11
781.52020797499995
 21
55.9578677314
 31
0.0
  0
LINE
  5
8FB
  8
0
  6
CONTINUOUS
 62
     2
 10
783.27747316959994
 20
56.0781756728
 30
0.0
 11
783.22243676059475
 21
55.9578677314
 31
0.0
  0
LINE
  5
8FC
  8
0
  6
CONTINUOUS
 62
     2
 10
781.52020797499995
 20
55.9578677314
 30
0.0
 11
781.13087359999986
 21
55.8535459
 31
0.0
  0
LINE
  5
8FD
  8
0
  6
CONTINUOUS
 62
     2
 10
783.22243676059475
 20
55.9578677314
 30
0.0
 11
783.1747134023999
 21
55.8535459
 31
0.0
  0
LINE
  5
8FE
  8
0
  6
CONTINUOUS
 62
     2
 10
781.13087359999986
 20
55.8535459
 30
0.0
 11
783.1747134023999
 21
55.8535459
 31
0.0
  0
ENDBLK
  5
900
  8
0
  0
BLOCK
  8
0
  2
*U8
 70
     1
 10
0.0
 20
0.0
 30
0.0
  3
*U8
  1

  0
SOLID
  5
90F
  8
0
  6
CONTINUOUS
 62
     2
 10
749.38087359999997
 20
58.795183399999999
 30
0.0
 11
749.38087359999997
 21
58.795183399999999
 31
0.0
 12
751.08267360000002
 22
58.795183399999999
 32
0.0
 13
751.08267360000002
 23
58.795183399999999
 33
0.0
210
0.0
220
0.0
230
1.0
  0
SOLID
  5
910
  8
0
  6
CONTINUOUS
 62
     2
 10
753.32416495899986
 20
58.795183399999999
 30
0.0
 11
753.32416495899986
 21
58.795183399999999
 31
0.0
 12
755.7308736
 22
58.795183399999999
 32
0.0
 13
755.7308736
 23
58.795183399999999
 33
0.0
210
0.0
220
0.0
230
1.0
  0
SOLID
  5
911
  8
0
  6
CONTINUOUS
 62
     2
 10
749.38087359999997
 20
58.795183399999999
 30
0.0
 11
749.38087359999997
 21
56.553692040999998
 31
0.0
 12
751.08267360000002
 22
56.553692040999998
 32
0.0
 13
751.08267360000002
 23
56.553692040999998
 33
0.0
210
0.0
220
0.0
230
1.0
  0
SOLID
  5
912
  8
0
  6
CONTINUOUS
 62
     2
 10
-749.38087359999997
 20
58.795183399999999
 30
0.0
 11
-751.08267360000002
 21
58.795183399999999
 31
0.0
 12
-751.08267360000002
 22
56.553692040999998
 32
0.0
 13
-751.08267360000002
 23
56.553692040999998
 33
0.0
210
0.0
220
0.0
230
-1.0
  0
SOLID
  5
913
  8
0
  6
CONTINUOUS
 62
     2
 10
753.32416495899986
 20
58.795183399999999
 30
0.0
 11
751.08267360000002
 21
56.553692040999998
 31
0.0
 12
753.48938224100004
 22
56.553692040999998
 32
0.0
 13
753.48938224100004
 23
56.553692040999998
 33
0.0
  0
SOLID
  5
914
  8
0
  6
CONTINUOUS
 62
     2
 10
-753.32416495899986
 20
58.795183399999999
 30
0.0
 11
-755.7308736
 21
58.795183399999999
 31
0.0
 12
-753.48938224100004
 22
56.553692040999998
 32
0.0
 13
-753.48938224100004
 23
56.553692040999998
 33
0.0
210
0.0
220
0.0
230
-1.0
  0
SOLID
  5
915
  8
0
  6
CONTINUOUS
 62
     2
 10
749.38087359999997
 20
56.553692040999998
 30
0.0
 11
749.38087359999997
 21
55.620183400000002
 31
0.0
 12
752.55587360000004
 22
55.620183400000002
 32
0.0
 13
752.55587360000004
 23
55.620183400000002
 33
0.0
210
0.0
220
0.0
230
1.0
  0
SOLID
  5
916
  8
0
  6
CONTINUOUS
 62
     2
 10
-749.38087359999997
 20
56.553692040999998
 30
0.0
 11
-753.48938224100004
 21
56.553692040999998
 31
0.0
 12
-752.55587360000004
 22
55.620183400000002
 32
0.0
 13
-752.55587360000004
 23
55.620183400000002
 33
0.0
210
0.0
220
0.0
230
-1.0
  0
SOLID
  5
917
  8
0
  6
CONTINUOUS
 62
     2
 10
749.38087359999997
 20
55.620183400000002
 30
0.0
 11
749.38087359999997
 21
54.737474192599997
 31
0.0
 12
753.26204096592005
 22
54.737474192599997
 32
0.0
 13
753.26204096592005
 23
54.737474192599997
 33
0.0
210
0.0
220
0.0
230
1.0
  0
SOLID
  5
918
  8
0
  6
CONTINUOUS
 62
     2
 10
-749.38087359999997
 20
55.620183400000002
 30
0.0
 11
-752.55587360000004
 21
55.620183400000002
 31
0.0
 12
-753.26204096592005
 22
54.737474192599997
 32
0.0
 13
-753.26204096592005
 23
54.737474192599997
 33
0.0
210
0.0
220
0.0
230
-1.0
  0
SOLID
  5
919
  8
0
  6
CONTINUOUS
 62
     2
 10
749.38087359999997
 20
54.737474192599997
 30
0.0
 11
749.38087359999997
 21
51.651433400000002
 31
0.0
 12
751.08267360000002
 22
51.651433400000002
 32
0.0
 13
751.08267360000002
 23
51.651433400000002
 33
0.0
210
0.0
220
0.0
230
1.0
  0
SOLID
  5
91A
  8
0
  6
CONTINUOUS
 62
     2
 10
-749.38087359999997
 20
54.737474192599997
 30
0.0
 11
-751.08267360000002
 21
54.737474192599997
 31
0.0
 12
-751.08267360000002
 22
51.651433400000002
 32
0.0
 13
-751.08267360000002
 23
51.651433400000002
 33
0.0
210
0.0
220
0.0
230
-1.0
  0
SOLID
  5
91B
  8
0
  6
CONTINUOUS
 62
     2
 10
751.08267360000002
 20
54.737474192599997
 30
0.0
 11
753.55150623409997
 21
51.651433400000002
 31
0.0
 12
755.7308736
 22
51.651433400000002
 32
0.0
 13
755.7308736
 23
51.651433400000002
 33
0.0
210
0.0
220
0.0
230
1.0
  0
SOLID
  5
91C
  8
0
  6
CONTINUOUS
 62
     2
 10
-751.08267360000002
 20
54.737474192599997
 30
0.0
 11
-753.26204096592005
 21
54.737474192599997
 31
0.0
 12
-755.7308736
 22
51.651433400000002
 32
0.0
 13
-755.7308736
 23
51.651433400000002
 33
0.0
210
0.0
220
0.0
230
-1.0
  0
SOLID
  5
91D
  8
0
  6
CONTINUOUS
 62
     2
 10
749.38087359999997
 20
51.651433400000002
 30
0.0
 11
749.38087359999997
 21
51.651433400000002
 31
0.0
 12
751.08267360000002
 22
51.651433400000002
 32
0.0
 13
751.08267360000002
 23
51.651433400000002
 33
0.0
210
0.0
220
0.0
230
1.0
  0
SOLID
  5
91E
  8
0
  6
CONTINUOUS
 62
     2
 10
753.55150623409997
 20
51.651433400000002
 30
0.0
 11
753.55150623409997
 21
51.651433400000002
 31
0.0
 12
755.7308736
 22
51.651433400000002
 32
0.0
 13
755.7308736
 23
51.651433400000002
 33
0.0
210
0.0
220
0.0
230
1.0
  0
LINE
  5
91F
  8
0
  6
CONTINUOUS
 62
     2
 10
749.38087359999997
 20
58.795183399999999
 30
0.0
 11
751.08267360000002
 21
58.795183399999999
 31
0.0
  0
LINE
  5
920
  8
0
  6
CONTINUOUS
 62
     2
 10
753.32416495899986
 20
58.795183399999999
 30
0.0
 11
755.7308736
 21
58.795183399999999
 31
0.0
  0
LINE
  5
921
  8
0
  6
CONTINUOUS
 62
     2
 10
749.38087359999997
 20
58.795183399999999
 30
0.0
 11
749.38087359999997
 21
56.553692040999998
 31
0.0
  0
LINE
  5
922
  8
0
  6
CONTINUOUS
 62
     2
 10
751.08267360000002
 20
58.795183399999999
 30
0.0
 11
751.08267360000002
 21
56.553692040999998
 31
0.0
  0
LINE
  5
923
  8
0
  6
CONTINUOUS
 62
     2
 10
753.32416495899986
 20
58.795183399999999
 30
0.0
 11
751.08267360000002
 21
56.553692040999998
 31
0.0
  0
LINE
  5
924
  8
0
  6
CONTINUOUS
 62
     2
 10
755.7308736
 20
58.795183399999999
 30
0.0
 11
753.48938224100004
 21
56.553692040999998
 31
0.0
  0
LINE
  5
925
  8
0
  6
CONTINUOUS
 62
     2
 10
749.38087359999997
 20
56.553692040999998
 30
0.0
 11
749.38087359999997
 21
55.620183400000002
 31
0.0
  0
LINE
  5
926
  8
0
  6
CONTINUOUS
 62
     2
 10
753.48938224100004
 20
56.553692040999998
 30
0.0
 11
752.55587360000004
 21
55.620183400000002
 31
0.0
  0
LINE
  5
927
  8
0
  6
CONTINUOUS
 62
     2
 10
749.38087359999997
 20
55.620183400000002
 30
0.0
 11
749.38087359999997
 21
54.737474192599997
 31
0.0
  0
LINE
  5
928
  8
0
  6
CONTINUOUS
 62
     2
 10
752.55587360000004
 20
55.620183400000002
 30
0.0
 11
753.26204096592005
 21
54.737474192599997
 31
0.0
  0
LINE
  5
929
  8
0
  6
CONTINUOUS
 62
     2
 10
749.38087359999997
 20
54.737474192599997
 30
0.0
 11
749.38087359999997
 21
51.651433400000002
 31
0.0
  0
LINE
  5
92A
  8
0
  6
CONTINUOUS
 62
     2
 10
753.26204096592005
 20
54.737474192599997
 30
0.0
 11
755.7308736
 21
51.651433400000002
 31
0.0
  0
LINE
  5
92B
  8
0
  6
CONTINUOUS
 62
     2
 10
749.38087359999997
 20
51.651433400000002
 30
0.0
 11
751.08267360000002
 21
51.651433400000002
 31
0.0
  0
LINE
  5
92C
  8
0
  6
CONTINUOUS
 62
     2
 10
753.55150623409997
 20
51.651433400000002
 30
0.0
 11
755.7308736
 21
51.651433400000002
 31
0.0
  0
ENDBLK
  5
92E
  8
0
  0
BLOCK
  8
0
  2
*U9
 70
     1
 10
0.0
 20
0.0
 30
0.0
  3
*U9
  1

  0
SOLID
  5
948
  8
0
  6
CONTINUOUS
 62
     2
 10
755.49833077280005
 20
57.085405989699993
 30
0.0
 11
755.49833077280005
 21
57.085405989699993
 31
0.0
 12
758.68154735229996
 22
57.085405989699993
 32
0.0
 13
758.68154735229996
 23
57.085405989699993
 33
0.0
210
0.0
220
0.0
230
1.0
  0
SOLID
  5
949
  8
0
  6
CONTINUOUS
 62
     2
 10
755.49833077280005
 20
57.085405989699993
 30
0.0
 11
755.46602099975723
 21
57.021994489699999
 31
0.0
 12
757.99722828380004
 22
57.021994489699999
 32
0.0
 13
757.99722828380004
 23
57.021994489699999
 33
0.0
  0
SOLID
  5
94A
  8
0
  6
CONTINUOUS
 62
     2
 10
-755.49833077280005
 20
57.085405989699993
 30
0.0
 11
-758.68154735229996
 21
57.085405989699993
 31
0.0
 12
-757.99722828380004
 22
57.021994489699999
 32
0.0
 13
-757.99722828380004
 23
57.021994489699999
 33
0.0
210
0.0
220
0.0
230
-1.0
  0
SOLID
  5
94B
  8
0
  6
CONTINUOUS
 62
     2
 10
755.46602099975723
 20
57.021994489699999
 30
0.0
 11
755.30993601877844
 21
56.715660466300001
 31
0.0
 12
757.38202663239986
 22
56.715660466300001
 32
0.0
 13
757.38202663239986
 23
56.715660466300001
 33
0.0
210
0.0
220
0.0
230
1.0
  0
SOLID
  5
94C
  8
0
  6
CONTINUOUS
 62
     2
 10
-755.46602099975723
 20
57.021994489699999
 30
0.0
 11
-757.99722828380004
 21
57.021994489699999
 31
0.0
 12
-757.38202663239986
 22
56.715660466300001
 32
0.0
 13
-757.38202663239986
 23
56.715660466300001
 33
0.0
210
0.0
220
0.0
230
-1.0
  0
SOLID
  5
94D
  8
0
  6
CONTINUOUS
 62
     2
 10
755.30993601877844
 20
56.715660466300001
 30
0.0
 11
755.11194360590002
 21
56.32707847679999
 31
0.0
 12
757.027787343201
 22
56.32707847679999
 32
0.0
 13
757.027787343201
 23
56.32707847679999
 33
0.0
210
0.0
220
0.0
230
1.0
  0
SOLID
  5
94E
  8
0
  6
CONTINUOUS
 62
     2
 10
-755.30993601877844
 20
56.715660466300001
 30
0.0
 11
-757.38202663239986
 21
56.715660466300001
 31
0.0
 12
-757.027787343201
 22
56.32707847679999
 32
0.0
 13
-757.027787343201
 23
56.32707847679999
 33
0.0
210
0.0
220
0.0
230
-1.0
  0
SOLID
  5
94F
  8
0
  6
CONTINUOUS
 62
     2
 10
755.11194360590002
 20
56.32707847679999
 30
0.0
 11
755.09304795415483
 21
56.207776027000001
 31
0.0
 12
756.91902878990004
 22
56.207776027000001
 32
0.0
 13
756.91902878990004
 23
56.207776027000001
 33
0.0
210
0.0
220
0.0
230
1.0
  0
SOLID
  5
950
  8
0
  6
CONTINUOUS
 62
     2
 10
-755.11194360590002
 20
56.32707847679999
 30
0.0
 11
-757.027787343201
 21
56.32707847679999
 31
0.0
 12
-756.91902878990004
 22
56.207776027000001
 32
0.0
 13
-756.91902878990004
 23
56.207776027000001
 33
0.0
210
0.0
220
0.0
230
-1.0
  0
SOLID
  5
951
  8
0
  6
CONTINUOUS
 62
     2
 10
755.09304795415483
 20
56.207776027000001
 30
0.0
 11
754.99154851342553
 21
55.566933779499998
 31
0.0
 12
756.67076518060003
 22
55.566933779499998
 32
0.0
 13
756.67076518060003
 23
55.566933779499998
 33
0.0
210
0.0
220
0.0
230
1.0
  0
SOLID
  5
952
  8
0
  6
CONTINUOUS
 62
     2
 10
-755.09304795415483
 20
56.207776027000001
 30
0.0
 11
-756.91902878990004
 21
56.207776027000001
 31
0.0
 12
-756.67076518060003
 22
55.566933779499998
 32
0.0
 13
-756.67076518060003
 23
55.566933779499998
 33
0.0
210
0.0
220
0.0
230
-1.0
  0
SOLID
  5
953
  8
0
  6
CONTINUOUS
 62
     2
 10
754.99154851342553
 20
55.566933779499998
 30
0.0
 11
754.93712359999995
 21
55.223308400000001
 31
0.0
 12
756.67076518060003
 22
55.223308400000001
 32
0.0
 13
756.67076518060003
 23
55.223308400000001
 33
0.0
  0
SOLID
  5
954
  8
0
  6
CONTINUOUS
 62
     2
 10
-754.99154851342553
 20
55.566933779499998
 30
0.0
 11
-756.67076518060003
 21
55.566933779499998
 31
0.0
 12
-756.67076518060003
 22
55.223308400000001
 32
0.0
 13
-756.67076518060003
 23
55.223308400000001
 33
0.0
210
0.0
220
0.0
230
-1.0
  0
SOLID
  5
955
  8
0
  6
CONTINUOUS
 62
     2
 10
754.93712359999995
 20
55.223308400000001
 30
0.0
 11
754.99154851342553
 21
54.879683020500003
 31
0.0
 12
756.67076518060003
 22
54.879683020500003
 32
0.0
 13
756.67076518060003
 23
54.879683020500003
 33
0.0
210
0.0
220
0.0
230
1.0
  0
SOLID
  5
956
  8
0
  6
CONTINUOUS
 62
     2
 10
-754.93712359999995
 20
55.223308400000001
 30
0.0
 11
-756.67076518060003
 21
55.223308400000001
 31
0.0
 12
-756.67076518060003
 22
54.879683020500003
 32
0.0
 13
-756.67076518060003
 23
54.879683020500003
 33
0.0
210
0.0
220
0.0
230
-1.0
  0
SOLID
  5
957
  8
0
  6
CONTINUOUS
 62
     2
 10
754.99154851342553
 20
54.879683020500003
 30
0.0
 11
755.09304795415483
 21
54.238840773
 31
0.0
 12
756.91902878990004
 22
54.238840773
 32
0.0
 13
756.91902878990004
 23
54.238840773
 33
0.0
210
0.0
220
0.0
230
1.0
  0
SOLID
  5
958
  8
0
  6
CONTINUOUS
 62
     2
 10
-754.99154851342553
 20
54.879683020500003
 30
0.0
 11
-756.67076518060003
 21
54.879683020500003
 31
0.0
 12
-756.91902878990004
 22
54.238840773
 32
0.0
 13
-756.91902878990004
 23
54.238840773
 33
0.0
210
0.0
220
0.0
230
-1.0
  0
SOLID
  5
959
  8
0
  6
CONTINUOUS
 62
     2
 10
755.09304795415483
 20
54.238840773
 30
0.0
 11
755.11194360590002
 21
54.119538323199997
 31
0.0
 12
757.027787343201
 22
54.119538323199997
 32
0.0
 13
757.027787343201
 23
54.119538323199997
 33
0.0
  0
SOLID
  5
95A
  8
0
  6
CONTINUOUS
 62
     2
 10
-755.09304795415483
 20
54.238840773
 30
0.0
 11
-756.91902878990004
 21
54.238840773
 31
0.0
 12
-757.027787343201
 22
54.119538323199997
 32
0.0
 13
-757.027787343201
 23
54.119538323199997
 33
0.0
210
0.0
220
0.0
230
-1.0
  0
SOLID
  5
95B
  8
0
  6
CONTINUOUS
 62
     2
 10
755.11194360590002
 20
54.119538323199997
 30
0.0
 11
755.30993601875218
 21
53.7309563337
 31
0.0
 12
757.38202663239986
 22
53.7309563337
 32
0.0
 13
757.38202663239986
 23
53.7309563337
 33
0.0
  0
SOLID
  5
95C
  8
0
  6
CONTINUOUS
 62
     2
 10
-755.11194360590002
 20
54.119538323199997
 30
0.0
 11
-757.027787343201
 21
54.119538323199997
 31
0.0
 12
-757.38202663239986
 22
53.7309563337
 32
0.0
 13
-757.38202663239986
 23
53.7309563337
 33
0.0
210
0.0
220
0.0
230
-1.0
  0
SOLID
  5
95D
  8
0
  6
CONTINUOUS
 62
     2
 10
755.30993601875218
 20
53.7309563337
 30
0.0
 11
755.46602099971017
 21
53.424622310300002
 31
0.0
 12
757.99722828380004
 22
53.424622310300002
 32
0.0
 13
757.99722828380004
 23
53.424622310300002
 33
0.0
210
0.0
220
0.0
230
1.0
  0
SOLID
  5
95E
  8
0
  6
CONTINUOUS
 62
     2
 10
-755.30993601875218
 20
53.7309563337
 30
0.0
 11
-757.38202663239986
 21
53.7309563337
 31
0.0
 12
-757.99722828380004
 22
53.424622310300002
 32
0.0
 13
-757.99722828380004
 23
53.424622310300002
 33
0.0
210
0.0
220
0.0
230
-1.0
  0
SOLID
  5
95F
  8
0
  6
CONTINUOUS
 62
     2
 10
755.46602099971017
 20
53.424622310300002
 30
0.0
 11
755.49833077274866
 21
53.361210810300001
 31
0.0
 12
758.68154735229996
 22
53.361210810300001
 32
0.0
 13
758.68154735229996
 23
53.361210810300001
 33
0.0
210
0.0
220
0.0
230
1.0
  0
SOLID
  5
960
  8
0
  6
CONTINUOUS
 62
     2
 10
-755.46602099971017
 20
53.424622310300002
 30
0.0
 11
-757.99722828380004
 21
53.424622310300002
 31
0.0
 12
-758.68154735229996
 22
53.361210810300001
 32
0.0
 13
-758.68154735229996
 23
53.361210810300001
 33
0.0
210
0.0
220
0.0
230
-1.0
  0
SOLID
  5
961
  8
0
  6
CONTINUOUS
 62
     2
 10
758.68154735229996
 20
53.361210810300001
 30
0.0
 11
758.68154735229996
 21
53.361210810300001
 31
0.0
 12
761.51966642720004
 22
53.361210810300001
 32
0.0
 13
761.51966642720004
 23
53.361210810300001
 33
0.0
210
0.0
220
0.0
230
1.0
  0
SOLID
  5
962
  8
0
  6
CONTINUOUS
 62
     2
 10
755.49833077274866
 20
53.361210810300001
 30
0.0
 11
755.61929102320005
 21
53.123812952000002
 31
0.0
 12
761.39870617680003
 22
53.123812952000002
 32
0.0
 13
761.39870617680003
 23
53.123812952000002
 33
0.0
210
0.0
220
0.0
230
1.0
  0
SOLID
  5
963
  8
0
  6
CONTINUOUS
 62
     2
 10
-755.49833077274866
 20
53.361210810300001
 30
0.0
 11
-761.51966642720004
 21
53.361210810300001
 31
0.0
 12
-761.39870617680003
 22
53.123812952000002
 32
0.0
 13
-761.39870617680003
 23
53.123812952000002
 33
0.0
210
0.0
220
0.0
230
-1.0
  0
SOLID
  5
964
  8
0
  6
CONTINUOUS
 62
     2
 10
755.61929102320005
 20
53.123812952000002
 30
0.0
 11
756.40950315199996
 21
52.333600823200001
 31
0.0
 12
760.60849404800001
 22
52.333600823200001
 32
0.0
 13
760.60849404800001
 23
52.333600823200001
 33
0.0
210
0.0
220
0.0
230
1.0
  0
SOLID
  5
965
  8
0
  6
CONTINUOUS
 62
     2
 10
-755.61929102320005
 20
53.123812952000002
 30
0.0
 11
-761.39870617680003
 21
53.123812952000002
 31
0.0
 12
-760.60849404800001
 22
52.333600823200001
 32
0.0
 13
-760.60849404800001
 23
52.333600823200001
 33
0.0
210
0.0
220
0.0
230
-1.0
  0
SOLID
  5
966
  8
0
  6
CONTINUOUS
 62
     2
 10
756.40950315199996
 20
52.333600823200001
 30
0.0
 11
757.40522852319987
 21
51.826253405899998
 31
0.0
 12
759.61276867679987
 22
51.826253405899998
 32
0.0
 13
759.61276867679987
 23
51.826253405899998
 33
0.0
  0
SOLID
  5
967
  8
0
  6
CONTINUOUS
 62
     2
 10
-756.40950315199996
 20
52.333600823200001
 30
0.0
 11
-760.60849404800001
 21
52.333600823200001
 31
0.0
 12
-759.61276867679987
 22
51.826253405899998
 32
0.0
 13
-759.61276867679987
 23
51.826253405899998
 33
0.0
210
0.0
220
0.0
230
-1.0
  0
SOLID
  5
968
  8
0
  6
CONTINUOUS
 62
     2
 10
-757.40522852319987
 20
51.826253405899998
 30
0.0
 11
-759.61276867679987
 21
51.826253405899998
 31
0.0
 12
-758.50899860000004
 22
51.651433400000002
 32
0.0
 13
-758.50899860000004
 23
51.651433400000002
 33
0.0
210
0.0
220
0.0
230
-1.0
  0
LINE
  5
969
  8
0
  6
CONTINUOUS
 62
     2
 10
755.49833077280005
 20
57.085405989699993
 30
0.0
 11
758.68154735229996
 21
57.085405989699993
 31
0.0
  0
LINE
  5
96A
  8
0
  6
CONTINUOUS
 62
     2
 10
755.49833077280005
 20
57.085405989699993
 30
0.0
 11
755.46602099975723
 21
57.021994489699999
 31
0.0
  0
LINE
  5
96B
  8
0
  6
CONTINUOUS
 62
     2
 10
758.68154735229996
 20
57.085405989699993
 30
0.0
 11
757.99722828380004
 21
57.021994489699999
 31
0.0
  0
LINE
  5
96C
  8
0
  6
CONTINUOUS
 62
     2
 10
755.46602099975723
 20
57.021994489699999
 30
0.0
 11
755.30993601877844
 21
56.715660466300001
 31
0.0
  0
LINE
  5
96D
  8
0
  6
CONTINUOUS
 62
     2
 10
757.99722828380004
 20
57.021994489699999
 30
0.0
 11
757.38202663239986
 21
56.715660466300001
 31
0.0
  0
LINE
  5
96E
  8
0
  6
CONTINUOUS
 62
     2
 10
755.30993601877844
 20
56.715660466300001
 30
0.0
 11
755.11194360590002
 21
56.32707847679999
 31
0.0
  0
LINE
  5
96F
  8
0
  6
CONTINUOUS
 62
     2
 10
757.38202663239986
 20
56.715660466300001
 30
0.0
 11
757.027787343201
 21
56.32707847679999
 31
0.0
  0
LINE
  5
970
  8
0
  6
CONTINUOUS
 62
     2
 10
755.11194360590002
 20
56.32707847679999
 30
0.0
 11
755.09304795415483
 21
56.207776027000001
 31
0.0
  0
LINE
  5
971
  8
0
  6
CONTINUOUS
 62
     2
 10
757.027787343201
 20
56.32707847679999
 30
0.0
 11
756.91902878990004
 21
56.207776027000001
 31
0.0
  0
LINE
  5
972
  8
0
  6
CONTINUOUS
 62
     2
 10
755.09304795415483
 20
56.207776027000001
 30
0.0
 11
754.99154851342553
 21
55.566933779499998
 31
0.0
  0
LINE
  5
973
  8
0
  6
CONTINUOUS
 62
     2
 10
756.91902878990004
 20
56.207776027000001
 30
0.0
 11
756.67076518060003
 21
55.566933779499998
 31
0.0
  0
LINE
  5
974
  8
0
  6
CONTINUOUS
 62
     2
 10
754.99154851342553
 20
55.566933779499998
 30
0.0
 11
754.93712359999995
 21
55.223308400000001
 31
0.0
  0
LINE
  5
975
  8
0
  6
CONTINUOUS
 62
     2
 10
756.67076518060003
 20
55.566933779499998
 30
0.0
 11
756.67076518060003
 21
55.223308400000001
 31
0.0
  0
LINE
  5
976
  8
0
  6
CONTINUOUS
 62
     2
 10
754.93712359999995
 20
55.223308400000001
 30
0.0
 11
754.99154851342553
 21
54.879683020500003
 31
0.0
  0
LINE
  5
977
  8
0
  6
CONTINUOUS
 62
     2
 10
756.67076518060003
 20
55.223308400000001
 30
0.0
 11
756.67076518060003
 21
54.879683020500003
 31
0.0
  0
LINE
  5
978
  8
0
  6
CONTINUOUS
 62
     2
 10
754.99154851342553
 20
54.879683020500003
 30
0.0
 11
755.09304795415483
 21
54.238840773
 31
0.0
  0
LINE
  5
979
  8
0
  6
CONTINUOUS
 62
     2
 10
756.67076518060003
 20
54.879683020500003
 30
0.0
 11
756.91902878990004
 21
54.238840773
 31
0.0
  0
LINE
  5
97A
  8
0
  6
CONTINUOUS
 62
     2
 10
755.09304795415483
 20
54.238840773
 30
0.0
 11
755.11194360590002
 21
54.119538323199997
 31
0.0
  0
LINE
  5
97B
  8
0
  6
CONTINUOUS
 62
     2
 10
756.91902878990004
 20
54.238840773
 30
0.0
 11
757.027787343201
 21
54.119538323199997
 31
0.0
  0
LINE
  5
97C
  8
0
  6
CONTINUOUS
 62
     2
 10
755.11194360590002
 20
54.119538323199997
 30
0.0
 11
755.30993601875218
 21
53.7309563337
 31
0.0
  0
LINE
  5
97D
  8
0
  6
CONTINUOUS
 62
     2
 10
757.027787343201
 20
54.119538323199997
 30
0.0
 11
757.38202663239986
 21
53.7309563337
 31
0.0
  0
LINE
  5
97E
  8
0
  6
CONTINUOUS
 62
     2
 10
755.30993601875218
 20
53.7309563337
 30
0.0
 11
755.46602099971017
 21
53.424622310300002
 31
0.0
  0
LINE
  5
97F
  8
0
  6
CONTINUOUS
 62
     2
 10
757.38202663239986
 20
53.7309563337
 30
0.0
 11
757.99722828380004
 21
53.424622310300002
 31
0.0
  0
LINE
  5
980
  8
0
  6
CONTINUOUS
 62
     2
 10
755.46602099971017
 20
53.424622310300002
 30
0.0
 11
755.49833077274866
 21
53.361210810300001
 31
0.0
  0
LINE
  5
981
  8
0
  6
CONTINUOUS
 62
     2
 10
757.99722828380004
 20
53.424622310300002
 30
0.0
 11
758.68154735229996
 21
53.361210810300001
 31
0.0
  0
LINE
  5
982
  8
0
  6
CONTINUOUS
 62
     2
 10
758.68154735229996
 20
53.361210810300001
 30
0.0
 11
761.51966642720004
 21
53.361210810300001
 31
0.0
  0
LINE
  5
983
  8
0
  6
CONTINUOUS
 62
     2
 10
755.49833077274866
 20
53.361210810300001
 30
0.0
 11
755.61929102320005
 21
53.123812952000002
 31
0.0
  0
LINE
  5
984
  8
0
  6
CONTINUOUS
 62
     2
 10
761.51966642720004
 20
53.361210810300001
 30
0.0
 11
761.39870617680003
 21
53.123812952000002
 31
0.0
  0
LINE
  5
985
  8
0
  6
CONTINUOUS
 62
     2
 10
755.61929102320005
 20
53.123812952000002
 30
0.0
 11
756.40950315199996
 21
52.333600823200001
 31
0.0
  0
LINE
  5
986
  8
0
  6
CONTINUOUS
 62
     2
 10
761.39870617680003
 20
53.123812952000002
 30
0.0
 11
760.60849404800001
 21
52.333600823200001
 31
0.0
  0
LINE
  5
987
  8
0
  6
CONTINUOUS
 62
     2
 10
756.40950315199996
 20
52.333600823200001
 30
0.0
 11
757.40522852319987
 21
51.826253405899998
 31
0.0
  0
LINE
  5
988
  8
0
  6
CONTINUOUS
 62
     2
 10
760.60849404800001
 20
52.333600823200001
 30
0.0
 11
759.61276867679987
 21
51.826253405899998
 31
0.0
  0
LINE
  5
989
  8
0
  6
CONTINUOUS
 62
     2
 10
759.61276867679987
 20
51.826253405899998
 30
0.0
 11
758.50899860000004
 21
51.651433400000002
 31
0.0
  0
LINE
  5
98A
  8
0
  6
CONTINUOUS
 62
     2
 10
758.50899860000004
 20
51.651433400000002
 30
0.0
 11
757.40522852319987
 21
51.826253405899998
 31
0.0
  0
ENDBLK
  5
98C
  8
0
  0
BLOCK
  8
0
  2
*U10
 70
     1
 10
0.0
 20
0.0
 30
0.0
  3
*U10
  1

  0
SOLID
  5
9A5
  8
0
  6
CONTINUOUS
 62
     2
 10
758.50899860000004
 20
58.795183399999999
 30
0.0
 11
757.40522852319987
 21
58.620363394100004
 31
0.0
 12
759.61276867679987
 22
58.620363394100004
 32
0.0
 13
759.61276867679987
 23
58.620363394100004
 33
0.0
210
0.0
220
0.0
230
1.0
  0
SOLID
  5
9A6
  8
0
  6
CONTINUOUS
 62
     2
 10
757.40522852319987
 20
58.620363394100004
 30
0.0
 11
756.40950315199996
 21
58.113015976799993
 31
0.0
 12
760.60849404800001
 22
58.113015976799993
 32
0.0
 13
760.60849404800001
 23
58.113015976799993
 33
0.0
210
0.0
220
0.0
230
1.0
  0
SOLID
  5
9A7
  8
0
  6
CONTINUOUS
 62
     2
 10
-757.40522852319987
 20
58.620363394100004
 30
0.0
 11
-759.61276867679987
 21
58.620363394100004
 31
0.0
 12
-760.60849404800001
 22
58.113015976799993
 32
0.0
 13
-760.60849404800001
 23
58.113015976799993
 33
0.0
210
0.0
220
0.0
230
-1.0
  0
SOLID
  5
9A8
  8
0
  6
CONTINUOUS
 62
     2
 10
756.40950315199996
 20
58.113015976799993
 30
0.0
 11
755.61929102320005
 21
57.322803848
 31
0.0
 12
761.39870617680003
 22
57.322803848
 32
0.0
 13
761.39870617680003
 23
57.322803848
 33
0.0
210
0.0
220
0.0
230
1.0
  0
SOLID
  5
9A9
  8
0
  6
CONTINUOUS
 62
     2
 10
-756.40950315199996
 20
58.113015976799993
 30
0.0
 11
-760.60849404800001
 21
58.113015976799993
 31
0.0
 12
-761.39870617680003
 22
57.322803848
 32
0.0
 13
-761.39870617680003
 23
57.322803848
 33
0.0
210
0.0
220
0.0
230
-1.0
  0
SOLID
  5
9AA
  8
0
  6
CONTINUOUS
 62
     2
 10
755.61929102320005
 20
57.322803848
 30
0.0
 11
755.49833077280005
 21
57.085405989699993
 31
0.0
 12
761.51966642725131
 22
57.085405989699993
 32
0.0
 13
761.51966642725131
 23
57.085405989699993
 33
0.0
210
0.0
220
0.0
230
1.0
  0
SOLID
  5
9AB
  8
0
  6
CONTINUOUS
 62
     2
 10
-755.61929102320005
 20
57.322803848
 30
0.0
 11
-761.39870617680003
 21
57.322803848
 31
0.0
 12
-761.51966642725131
 22
57.085405989699993
 32
0.0
 13
-761.51966642725131
 23
57.085405989699993
 33
0.0
210
0.0
220
0.0
230
-1.0
  0
SOLID
  5
9AC
  8
0
  6
CONTINUOUS
 62
     2
 10
755.49833077280005
 20
57.085405989699993
 30
0.0
 11
755.49833077280005
 21
57.085405989699993
 31
0.0
 12
758.68154735229996
 22
57.085405989699993
 32
0.0
 13
758.68154735229996
 23
57.085405989699993
 33
0.0
210
0.0
220
0.0
230
1.0
  0
SOLID
  5
9AD
  8
0
  6
CONTINUOUS
 62
     2
 10
758.68154735229996
 20
57.085405989699993
 30
0.0
 11
759.34256275569999
 21
56.897330892100001
 31
0.0
 12
761.61549547588822
 22
56.897330892100001
 32
0.0
 13
761.61549547588822
 23
56.897330892100001
 33
0.0
210
0.0
220
0.0
230
1.0
  0
SOLID
  5
9AE
  8
0
  6
CONTINUOUS
 62
     2
 10
-758.68154735229996
 20
57.085405989699993
 30
0.0
 11
-761.51966642725131
 21
57.085405989699993
 31
0.0
 12
-761.61549547588822
 22
56.897330892100001
 32
0.0
 13
-761.61549547588822
 23
56.897330892100001
 33
0.0
210
0.0
220
0.0
230
-1.0
  0
SOLID
  5
9AF
  8
0
  6
CONTINUOUS
 62
     2
 10
759.34256275569999
 20
56.897330892100001
 30
0.0
 11
759.89100070090001
 21
56.483169780799997
 31
0.0
 12
761.82652110227252
 22
56.483169780799997
 32
0.0
 13
761.82652110227252
 23
56.483169780799997
 33
0.0
210
0.0
220
0.0
230
1.0
  0
SOLID
  5
9B0
  8
0
  6
CONTINUOUS
 62
     2
 10
-759.34256275569999
 20
56.897330892100001
 30
0.0
 11
-761.61549547588822
 21
56.897330892100001
 31
0.0
 12
-761.82652110227252
 22
56.483169780799997
 32
0.0
 13
-761.82652110227252
 23
56.483169780799997
 33
0.0
210
0.0
220
0.0
230
-1.0
  0
SOLID
  5
9B1
  8
0
  6
CONTINUOUS
 62
     2
 10
759.89100070090001
 20
56.483169780799997
 30
0.0
 11
759.98764834455505
 21
56.32707847679999
 31
0.0
 12
761.90605359409994
 22
56.32707847679999
 32
0.0
 13
761.90605359409994
 23
56.32707847679999
 33
0.0
210
0.0
220
0.0
230
1.0
  0
SOLID
  5
9B2
  8
0
  6
CONTINUOUS
 62
     2
 10
-759.89100070090001
 20
56.483169780799997
 30
0.0
 11
-761.82652110227252
 21
56.483169780799997
 31
0.0
 12
-761.90605359409994
 22
56.32707847679999
 32
0.0
 13
-761.90605359409994
 23
56.32707847679999
 33
0.0
210
0.0
220
0.0
230
-1.0
  0
SOLID
  5
9B3
  8
0
  6
CONTINUOUS
 62
     2
 10
759.98764834455505
 20
56.32707847679999
 30
0.0
 11
760.25279160440004
 21
55.8988574089
 31
0.0
 12
761.9738771482896
 22
55.8988574089
 32
0.0
 13
761.9738771482896
 23
55.8988574089
 33
0.0
  0
SOLID
  5
9B4
  8
0
  6
CONTINUOUS
 62
     2
 10
-759.98764834455505
 20
56.32707847679999
 30
0.0
 11
-761.90605359409994
 21
56.32707847679999
 31
0.0
 12
-761.9738771482896
 22
55.8988574089
 32
0.0
 13
-761.9738771482896
 23
55.8988574089
 33
0.0
210
0.0
220
0.0
230
-1.0
  0
SOLID
  5
9B5
  8
0
  6
CONTINUOUS
 62
     2
 10
760.25279160440004
 20
55.8988574089
 30
0.0
 11
760.37907359999986
 21
55.223308400000001
 31
0.0
 12
762.08087360000002
 22
55.223308400000001
 32
0.0
 13
762.08087360000002
 23
55.223308400000001
 33
0.0
210
0.0
220
0.0
230
1.0
  0
SOLID
  5
9B6
  8
0
  6
CONTINUOUS
 62
     2
 10
-760.25279160440004
 20
55.8988574089
 30
0.0
 11
-761.9738771482896
 21
55.8988574089
 31
0.0
 12
-762.08087360000002
 22
55.223308400000001
 32
0.0
 13
-762.08087360000002
 23
55.223308400000001
 33
0.0
210
0.0
220
0.0
230
-1.0
  0
SOLID
  5
9B7
  8
0
  6
CONTINUOUS
 62
     2
 10
760.37907359999986
 20
55.223308400000001
 30
0.0
 11
760.25279160440004
 21
54.547759391100001
 31
0.0
 12
761.9738771482896
 22
54.547759391100001
 32
0.0
 13
761.9738771482896
 23
54.547759391100001
 33
0.0
210
0.0
220
0.0
230
1.0
  0
SOLID
  5
9B8
  8
0
  6
CONTINUOUS
 62
     2
 10
-760.37907359999986
 20
55.223308400000001
 30
0.0
 11
-762.08087360000002
 21
55.223308400000001
 31
0.0
 12
-761.9738771482896
 22
54.547759391100001
 32
0.0
 13
-761.9738771482896
 23
54.547759391100001
 33
0.0
210
0.0
220
0.0
230
-1.0
  0
SOLID
  5
9B9
  8
0
  6
CONTINUOUS
 62
     2
 10
760.25279160440004
 20
54.547759391100001
 30
0.0
 11
759.98764834455505
 21
54.119538323199997
 31
0.0
 12
761.90605359409994
 22
54.119538323199997
 32
0.0
 13
761.90605359409994
 23
54.119538323199997
 33
0.0
210
0.0
220
0.0
230
1.0
  0
SOLID
  5
9BA
  8
0
  6
CONTINUOUS
 62
     2
 10
-760.25279160440004
 20
54.547759391100001
 30
0.0
 11
-761.9738771482896
 21
54.547759391100001
 31
0.0
 12
-761.90605359409994
 22
54.119538323199997
 32
0.0
 13
-761.90605359409994
 23
54.119538323199997
 33
0.0
210
0.0
220
0.0
230
-1.0
  0
SOLID
  5
9BB
  8
0
  6
CONTINUOUS
 62
     2
 10
759.98764834455505
 20
54.119538323199997
 30
0.0
 11
759.89100070090001
 21
53.963447019199997
 31
0.0
 12
761.82652110226195
 22
53.963447019199997
 32
0.0
 13
761.82652110226195
 23
53.963447019199997
 33
0.0
210
0.0
220
0.0
230
1.0
  0
SOLID
  5
9BC
  8
0
  6
CONTINUOUS
 62
     2
 10
-759.98764834455505
 20
54.119538323199997
 30
0.0
 11
-761.90605359409994
 21
54.119538323199997
 31
0.0
 12
-761.82652110226195
 22
53.963447019199997
 32
0.0
 13
-761.82652110226195
 23
53.963447019199997
 33
0.0
210
0.0
220
0.0
230
-1.0
  0
SOLID
  5
9BD
  8
0
  6
CONTINUOUS
 62
     2
 10
759.89100070090001
 20
53.963447019199997
 30
0.0
 11
759.34256275569999
 21
53.5492859079
 31
0.0
 12
761.61549547584968
 22
53.5492859079
 32
0.0
 13
761.61549547584968
 23
53.5492859079
 33
0.0
  0
SOLID
  5
9BE
  8
0
  6
CONTINUOUS
 62
     2
 10
-759.89100070090001
 20
53.963447019199997
 30
0.0
 11
-761.82652110226195
 21
53.963447019199997
 31
0.0
 12
-761.61549547584968
 22
53.5492859079
 32
0.0
 13
-761.61549547584968
 23
53.5492859079
 33
0.0
210
0.0
220
0.0
230
-1.0
  0
SOLID
  5
9BF
  8
0
  6
CONTINUOUS
 62
     2
 10
759.34256275569999
 20
53.5492859079
 30
0.0
 11
758.68154735229996
 21
53.361210810300001
 31
0.0
 12
761.51966642720004
 22
53.361210810300001
 32
0.0
 13
761.51966642720004
 23
53.361210810300001
 33
0.0
210
0.0
220
0.0
230
1.0
  0
SOLID
  5
9C0
  8
0
  6
CONTINUOUS
 62
     2
 10
-759.34256275569999
 20
53.5492859079
 30
0.0
 11
-761.61549547584968
 21
53.5492859079
 31
0.0
 12
-761.51966642720004
 22
53.361210810300001
 32
0.0
 13
-761.51966642720004
 23
53.361210810300001
 33
0.0
210
0.0
220
0.0
230
-1.0
  0
SOLID
  5
9C1
  8
0
  6
CONTINUOUS
 62
     2
 10
758.68154735229996
 20
53.361210810300001
 30
0.0
 11
758.68154735229996
 21
53.361210810300001
 31
0.0
 12
761.51966642720004
 22
53.361210810300001
 32
0.0
 13
761.51966642720004
 23
53.361210810300001
 33
0.0
210
0.0
220
0.0
230
1.0
  0
LINE
  5
9C2
  8
0
  6
CONTINUOUS
 62
     2
 10
758.50899860000004
 20
58.795183399999999
 30
0.0
 11
757.40522852319987
 21
58.620363394100004
 31
0.0
  0
LINE
  5
9C3
  8
0
  6
CONTINUOUS
 62
     2
 10
759.61276867679987
 20
58.620363394100004
 30
0.0
 11
758.50899860000004
 21
58.795183399999999
 31
0.0
  0
LINE
  5
9C4
  8
0
  6
CONTINUOUS
 62
     2
 10
757.40522852319987
 20
58.620363394100004
 30
0.0
 11
756.40950315199996
 21
58.113015976799993
 31
0.0
  0
LINE
  5
9C5
  8
0
  6
CONTINUOUS
 62
     2
 10
759.61276867679987
 20
58.620363394100004
 30
0.0
 11
760.60849404800001
 21
58.113015976799993
 31
0.0
  0
LINE
  5
9C6
  8
0
  6
CONTINUOUS
 62
     2
 10
756.40950315199996
 20
58.113015976799993
 30
0.0
 11
755.61929102320005
 21
57.322803848
 31
0.0
  0
LINE
  5
9C7
  8
0
  6
CONTINUOUS
 62
     2
 10
760.60849404800001
 20
58.113015976799993
 30
0.0
 11
761.39870617680003
 21
57.322803848
 31
0.0
  0
LINE
  5
9C8
  8
0
  6
CONTINUOUS
 62
     2
 10
755.61929102320005
 20
57.322803848
 30
0.0
 11
755.49833077280005
 21
57.085405989699993
 31
0.0
  0
LINE
  5
9C9
  8
0
  6
CONTINUOUS
 62
     2
 10
761.39870617680003
 20
57.322803848
 30
0.0
 11
761.51966642725131
 21
57.085405989699993
 31
0.0
  0
LINE
  5
9CA
  8
0
  6
CONTINUOUS
 62
     2
 10
755.49833077280005
 20
57.085405989699993
 30
0.0
 11
758.68154735229996
 21
57.085405989699993
 31
0.0
  0
LINE
  5
9CB
  8
0
  6
CONTINUOUS
 62
     2
 10
758.68154735229996
 20
57.085405989699993
 30
0.0
 11
759.34256275569999
 21
56.897330892100001
 31
0.0
  0
LINE
  5
9CC
  8
0
  6
CONTINUOUS
 62
     2
 10
761.51966642725131
 20
57.085405989699993
 30
0.0
 11
761.61549547588822
 21
56.897330892100001
 31
0.0
  0
LINE
  5
9CD
  8
0
  6
CONTINUOUS
 62
     2
 10
759.34256275569999
 20
56.897330892100001
 30
0.0
 11
759.89100070090001
 21
56.483169780799997
 31
0.0
  0
LINE
  5
9CE
  8
0
  6
CONTINUOUS
 62
     2
 10
761.61549547588822
 20
56.897330892100001
 30
0.0
 11
761.82652110227252
 21
56.483169780799997
 31
0.0
  0
LINE
  5
9CF
  8
0
  6
CONTINUOUS
 62
     2
 10
759.89100070090001
 20
56.483169780799997
 30
0.0
 11
759.98764834455505
 21
56.32707847679999
 31
0.0
  0
LINE
  5
9D0
  8
0
  6
CONTINUOUS
 62
     2
 10
761.82652110227252
 20
56.483169780799997
 30
0.0
 11
761.90605359409994
 21
56.32707847679999
 31
0.0
  0
LINE
  5
9D1
  8
0
  6
CONTINUOUS
 62
     2
 10
759.98764834455505
 20
56.32707847679999
 30
0.0
 11
760.25279160440004
 21
55.8988574089
 31
0.0
  0
LINE
  5
9D2
  8
0
  6
CONTINUOUS
 62
     2
 10
761.90605359409994
 20
56.32707847679999
 30
0.0
 11
761.9738771482896
 21
55.8988574089
 31
0.0
  0
LINE
  5
9D3
  8
0
  6
CONTINUOUS
 62
     2
 10
760.25279160440004
 20
55.8988574089
 30
0.0
 11
760.37907359999986
 21
55.223308400000001
 31
0.0
  0
LINE
  5
9D4
  8
0
  6
CONTINUOUS
 62
     2
 10
761.9738771482896
 20
55.8988574089
 30
0.0
 11
762.08087360000002
 21
55.223308400000001
 31
0.0
  0
LINE
  5
9D5
  8
0
  6
CONTINUOUS
 62
     2
 10
760.37907359999986
 20
55.223308400000001
 30
0.0
 11
760.25279160440004
 21
54.547759391100001
 31
0.0
  0
LINE
  5
9D6
  8
0
  6
CONTINUOUS
 62
     2
 10
762.08087360000002
 20
55.223308400000001
 30
0.0
 11
761.9738771482896
 21
54.547759391100001
 31
0.0
  0
LINE
  5
9D7
  8
0
  6
CONTINUOUS
 62
     2
 10
760.25279160440004
 20
54.547759391100001
 30
0.0
 11
759.98764834455505
 21
54.119538323199997
 31
0.0
  0
LINE
  5
9D8
  8
0
  6
CONTINUOUS
 62
     2
 10
761.9738771482896
 20
54.547759391100001
 30
0.0
 11
761.90605359409994
 21
54.119538323199997
 31
0.0
  0
LINE
  5
9D9
  8
0
  6
CONTINUOUS
 62
     2
 10
759.98764834455505
 20
54.119538323199997
 30
0.0
 11
759.89100070090001
 21
53.963447019199997
 31
0.0
  0
LINE
  5
9DA
  8
0
  6
CONTINUOUS
 62
     2
 10
761.90605359409994
 20
54.119538323199997
 30
0.0
 11
761.82652110226195
 21
53.963447019199997
 31
0.0
  0
LINE
  5
9DB
  8
0
  6
CONTINUOUS
 62
     2
 10
759.89100070090001
 20
53.963447019199997
 30
0.0
 11
759.34256275569999
 21
53.5492859079
 31
0.0
  0
LINE
  5
9DC
  8
0
  6
CONTINUOUS
 62
     2
 10
761.82652110226195
 20
53.963447019199997
 30
0.0
 11
761.61549547584968
 21
53.5492859079
 31
0.0
  0
LINE
  5
9DD
  8
0
  6
CONTINUOUS
 62
     2
 10
759.34256275569999
 20
53.5492859079
 30
0.0
 11
758.68154735229996
 21
53.361210810300001
 31
0.0
  0
LINE
  5
9DE
  8
0
  6
CONTINUOUS
 62
     2
 10
761.61549547584968
 20
53.5492859079
 30
0.0
 11
761.51966642720004
 21
53.361210810300001
 31
0.0
  0
LINE
  5
9DF
  8
0
  6
CONTINUOUS
 62
     2
 10
758.68154735229996
 20
53.361210810300001
 30
0.0
 11
761.51966642720004
 21
53.361210810300001
 31
0.0
  0
ENDBLK
  5
9E1
  8
0
  0
BLOCK
  8
0
  2
*U11
 70
     1
 10
0.0
 20
0.0
 30
0.0
  3
*U11
  1

  0
SOLID
  5
9F1
  8
0
  6
CONTINUOUS
 62
     2
 10
762.87462359999995
 20
58.795183399999999
 30
0.0
 11
762.87462359999995
 21
58.795183399999999
 31
0.0
 12
764.57642359999988
 22
58.795183399999999
 32
0.0
 13
764.57642359999988
 23
58.795183399999999
 33
0.0
210
0.0
220
0.0
230
1.0
  0
SOLID
  5
9F2
  8
0
  6
CONTINUOUS
 62
     2
 10
766.5607986
 20
58.795183399999999
 30
0.0
 11
766.5607986
 21
58.795183399999999
 31
0.0
 12
768.26259860000005
 22
58.795183399999999
 32
0.0
 13
768.26259860000005
 23
58.795183399999999
 33
0.0
210
0.0
220
0.0
230
1.0
  0
SOLID
  5
9F3
  8
0
  6
CONTINUOUS
 62
     2
 10
762.87462359999995
 20
58.795183399999999
 30
0.0
 11
762.87462359999995
 21
56.471083399999991
 31
0.0
 12
764.57642359999988
 22
56.471083399999991
 32
0.0
 13
764.57642359999988
 23
56.471083399999991
 33
0.0
210
0.0
220
0.0
230
1.0
  0
SOLID
  5
9F4
  8
0
  6
CONTINUOUS
 62
     2
 10
-762.87462359999995
 20
58.795183399999999
 30
0.0
 11
-764.57642359999988
 21
58.795183399999999
 31
0.0
 12
-764.57642359999988
 22
56.471083399999991
 32
0.0
 13
-764.57642359999988
 23
56.471083399999991
 33
0.0
210
0.0
220
0.0
230
-1.0
  0
SOLID
  5
9F5
  8
0
  6
CONTINUOUS
 62
     2
 10
766.5607986
 20
58.795183399999999
 30
0.0
 11
766.5607986
 21
56.471083399999991
 31
0.0
 12
768.26259860000005
 22
56.471083399999991
 32
0.0
 13
768.26259860000005
 23
56.471083399999991
 33
0.0
210
0.0
220
0.0
230
1.0
  0
SOLID
  5
9F6
  8
0
  6
CONTINUOUS
 62
     2
 10
-766.5607986
 20
58.795183399999999
 30
0.0
 11
-768.26259860000005
 21
58.795183399999999
 31
0.0
 12
-768.26259860000005
 22
56.471083399999991
 32
0.0
 13
-768.26259860000005
 23
56.471083399999991
 33
0.0
210
0.0
220
0.0
230
-1.0
  0
SOLID
  5
9F7
  8
0
  6
CONTINUOUS
 62
     2
 10
764.57642359999988
 20
56.471083399999991
 30
0.0
 11
764.57642359999988
 21
56.471083399999991
 31
0.0
 12
766.5607986
 22
56.471083399999991
 32
0.0
 13
766.5607986
 23
56.471083399999991
 33
0.0
210
0.0
220
0.0
230
1.0
  0
SOLID
  5
9F8
  8
0
  6
CONTINUOUS
 62
     2
 10
762.87462359999995
 20
56.471083399999991
 30
0.0
 11
762.87462359999995
 21
54.769283399999999
 31
0.0
 12
768.26259860000005
 22
54.769283399999999
 32
0.0
 13
768.26259860000005
 23
54.769283399999999
 33
0.0
210
0.0
220
0.0
230
1.0
  0
SOLID
  5
9F9
  8
0
  6
CONTINUOUS
 62
     2
 10
-762.87462359999995
 20
56.471083399999991
 30
0.0
 11
-768.26259860000005
 21
56.471083399999991
 31
0.0
 12
-768.26259860000005
 22
54.769283399999999
 32
0.0
 13
-768.26259860000005
 23
54.769283399999999
 33
0.0
210
0.0
220
0.0
230
-1.0
  0
SOLID
  5
9FA
  8
0
  6
CONTINUOUS
 62
     2
 10
764.57642359999988
 20
54.769283399999999
 30
0.0
 11
764.57642359999988
 21
54.769283399999999
 31
0.0
 12
766.5607986
 22
54.769283399999999
 32
0.0
 13
766.5607986
 23
54.769283399999999
 33
0.0
210
0.0
220
0.0
230
1.0
  0
SOLID
  5
9FB
  8
0
  6
CONTINUOUS
 62
     2
 10
762.87462359999995
 20
54.769283399999999
 30
0.0
 11
762.87462359999995
 21
51.651433400000002
 31
0.0
 12
764.57642359999988
 22
51.651433400000002
 32
0.0
 13
764.57642359999988
 23
51.651433400000002
 33
0.0
210
0.0
220
0.0
230
1.0
  0
SOLID
  5
9FC
  8
0
  6
CONTINUOUS
 62
     2
 10
-762.87462359999995
 20
54.769283399999999
 30
0.0
 11
-764.57642359999988
 21
54.769283399999999
 31
0.0
 12
-764.57642359999988
 22
51.651433400000002
 32
0.0
 13
-764.57642359999988
 23
51.651433400000002
 33
0.0
210
0.0
220
0.0
230
-1.0
  0
SOLID
  5
9FD
  8
0
  6
CONTINUOUS
 62
     2
 10
766.5607986
 20
54.769283399999999
 30
0.0
 11
766.5607986
 21
51.651433400000002
 31
0.0
 12
768.26259860000005
 22
51.651433400000002
 32
0.0
 13
768.26259860000005
 23
51.651433400000002
 33
0.0
210
0.0
220
0.0
230
1.0
  0
SOLID
  5
9FE
  8
0
  6
CONTINUOUS
 62
     2
 10
-766.5607986
 20
54.769283399999999
 30
0.0
 11
-768.26259860000005
 21
54.769283399999999
 31
0.0
 12
-768.26259860000005
 22
51.651433400000002
 32
0.0
 13
-768.26259860000005
 23
51.651433400000002
 33
0.0
210
0.0
220
0.0
230
-1.0
  0
SOLID
  5
9FF
  8
0
  6
CONTINUOUS
 62
     2
 10
762.87462359999995
 20
51.651433400000002
 30
0.0
 11
762.87462359999995
 21
51.651433400000002
 31
0.0
 12
764.57642359999988
 22
51.651433400000002
 32
0.0
 13
764.57642359999988
 23
51.651433400000002
 33
0.0
210
0.0
220
0.0
230
1.0
  0
SOLID
  5
A00
  8
0
  6
CONTINUOUS
 62
     2
 10
766.5607986
 20
51.651433400000002
 30
0.0
 11
766.5607986
 21
51.651433400000002
 31
0.0
 12
768.26259860000005
 22
51.651433400000002
 32
0.0
 13
768.26259860000005
 23
51.651433400000002
 33
0.0
210
0.0
220
0.0
230
1.0
  0
LINE
  5
A01
  8
0
  6
CONTINUOUS
 62
     2
 10
762.87462359999995
 20
58.795183399999999
 30
0.0
 11
764.57642359999988
 21
58.795183399999999
 31
0.0
  0
LINE
  5
A02
  8
0
  6
CONTINUOUS
 62
     2
 10
766.5607986
 20
58.795183399999999
 30
0.0
 11
768.26259860000005
 21
58.795183399999999
 31
0.0
  0
LINE
  5
A03
  8
0
  6
CONTINUOUS
 62
     2
 10
762.87462359999995
 20
58.795183399999999
 30
0.0
 11
762.87462359999995
 21
56.471083399999991
 31
0.0
  0
LINE
  5
A04
  8
0
  6
CONTINUOUS
 62
     2
 10
764.57642359999988
 20
58.795183399999999
 30
0.0
 11
764.57642359999988
 21
56.471083399999991
 31
0.0
  0
LINE
  5
A05
  8
0
  6
CONTINUOUS
 62
     2
 10
766.5607986
 20
58.795183399999999
 30
0.0
 11
766.5607986
 21
56.471083399999991
 31
0.0
  0
LINE
  5
A06
  8
0
  6
CONTINUOUS
 62
     2
 10
768.26259860000005
 20
58.795183399999999
 30
0.0
 11
768.26259860000005
 21
56.471083399999991
 31
0.0
  0
LINE
  5
A07
  8
0
  6
CONTINUOUS
 62
     2
 10
764.57642359999988
 20
56.471083399999991
 30
0.0
 11
766.5607986
 21
56.471083399999991
 31
0.0
  0
LINE
  5
A08
  8
0
  6
CONTINUOUS
 62
     2
 10
762.87462359999995
 20
56.471083399999991
 30
0.0
 11
762.87462359999995
 21
54.769283399999999
 31
0.0
  0
LINE
  5
A09
  8
0
  6
CONTINUOUS
 62
     2
 10
768.26259860000005
 20
56.471083399999991
 30
0.0
 11
768.26259860000005
 21
54.769283399999999
 31
0.0
  0
LINE
  5
A0A
  8
0
  6
CONTINUOUS
 62
     2
 10
764.57642359999988
 20
54.769283399999999
 30
0.0
 11
766.5607986
 21
54.769283399999999
 31
0.0
  0
LINE
  5
A0B
  8
0
  6
CONTINUOUS
 62
     2
 10
762.87462359999995
 20
54.769283399999999
 30
0.0
 11
762.87462359999995
 21
51.651433400000002
 31
0.0
  0
LINE
  5
A0C
  8
0
  6
CONTINUOUS
 62
     2
 10
764.57642359999988
 20
54.769283399999999
 30
0.0
 11
764.57642359999988
 21
51.651433400000002
 31
0.0
  0
LINE
  5
A0D
  8
0
  6
CONTINUOUS
 62
     2
 10
766.5607986
 20
54.769283399999999
 30
0.0
 11
766.5607986
 21
51.651433400000002
 31
0.0
  0
LINE
  5
A0E
  8
0
  6
CONTINUOUS
 62
     2
 10
768.26259860000005
 20
54.769283399999999
 30
0.0
 11
768.26259860000005
 21
51.651433400000002
 31
0.0
  0
LINE
  5
A0F
  8
0
  6
CONTINUOUS
 62
     2
 10
762.87462359999995
 20
51.651433400000002
 30
0.0
 11
764.57642359999988
 21
51.651433400000002
 31
0.0
  0
LINE
  5
A10
  8
0
  6
CONTINUOUS
 62
     2
 10
766.5607986
 20
51.651433400000002
 30
0.0
 11
768.26259860000005
 21
51.651433400000002
 31
0.0
  0
ENDBLK
  5
A12
  8
0
  0
BLOCK
  8
0
  2
*U12
 70
     1
 10
0.0
 20
0.0
 30
0.0
  3
*U12
  1

  0
SOLID
  5
A1C
  8
0
  6
CONTINUOUS
 62
     2
 10
769.05634859999998
 20
58.795183399999999
 30
0.0
 11
769.05634859999998
 21
58.795183399999999
 31
0.0
 12
770.75814860000003
 22
58.795183399999999
 32
0.0
 13
770.75814860000003
 23
58.795183399999999
 33
0.0
210
0.0
220
0.0
230
1.0
  0
SOLID
  5
A1D
  8
0
  6
CONTINUOUS
 62
     2
 10
769.05634859999998
 20
58.795183399999999
 30
0.0
 11
769.05634859999998
 21
53.353233400000001
 31
0.0
 12
770.75814860000003
 22
53.353233400000001
 32
0.0
 13
770.75814860000003
 23
53.353233400000001
 33
0.0
210
0.0
220
0.0
230
1.0
  0
SOLID
  5
A1E
  8
0
  6
CONTINUOUS
 62
     2
 10
-769.05634859999998
 20
58.795183399999999
 30
0.0
 11
-770.75814860000003
 21
58.795183399999999
 31
0.0
 12
-770.75814860000003
 22
53.353233400000001
 32
0.0
 13
-770.75814860000003
 23
53.353233400000001
 33
0.0
210
0.0
220
0.0
230
-1.0
  0
SOLID
  5
A1F
  8
0
  6
CONTINUOUS
 62
     2
 10
770.75814860000003
 20
53.353233400000001
 30
0.0
 11
770.75814860000003
 21
53.353233400000001
 31
0.0
 12
773.02509859999986
 22
53.353233400000001
 32
0.0
 13
773.02509859999986
 23
53.353233400000001
 33
0.0
210
0.0
220
0.0
230
1.0
  0
SOLID
  5
A20
  8
0
  6
CONTINUOUS
 62
     2
 10
769.05634859999998
 20
53.353233400000001
 30
0.0
 11
769.05634859999998
 21
51.651433400000002
 31
0.0
 12
773.02509859999986
 22
51.651433400000002
 32
0.0
 13
773.02509859999986
 23
51.651433400000002
 33
0.0
210
0.0
220
0.0
230
1.0
  0
SOLID
  5
A21
  8
0
  6
CONTINUOUS
 62
     2
 10
-769.05634859999998
 20
53.353233400000001
 30
0.0
 11
-773.02509859999986
 21
53.353233400000001
 31
0.0
 12
-773.02509859999986
 22
51.651433400000002
 32
0.0
 13
-773.02509859999986
 23
51.651433400000002
 33
0.0
210
0.0
220
0.0
230
-1.0
  0
SOLID
  5
A22
  8
0
  6
CONTINUOUS
 62
     2
 10
769.05634859999998
 20
51.651433400000002
 30
0.0
 11
769.05634859999998
 21
51.651433400000002
 31
0.0
 12
773.02509859999986
 22
51.651433400000002
 32
0.0
 13
773.02509859999986
 23
51.651433400000002
 33
0.0
210
0.0
220
0.0
230
1.0
  0
LINE
  5
A23
  8
0
  6
CONTINUOUS
 62
     2
 10
769.05634859999998
 20
58.795183399999999
 30
0.0
 11
770.75814860000003
 21
58.795183399999999
 31
0.0
  0
LINE
  5
A24
  8
0
  6
CONTINUOUS
 62
     2
 10
769.05634859999998
 20
58.795183399999999
 30
0.0
 11
769.05634859999998
 21
53.353233400000001
 31
0.0
  0
LINE
  5
A25
  8
0
  6
CONTINUOUS
 62
     2
 10
770.75814860000003
 20
58.795183399999999
 30
0.0
 11
770.75814860000003
 21
53.353233400000001
 31
0.0
  0
LINE
  5
A26
  8
0
  6
CONTINUOUS
 62
     2
 10
770.75814860000003
 20
53.353233400000001
 30
0.0
 11
773.02509859999986
 21
53.353233400000001
 31
0.0
  0
LINE
  5
A27
  8
0
  6
CONTINUOUS
 62
     2
 10
769.05634859999998
 20
53.353233400000001
 30
0.0
 11
769.05634859999998
 21
51.651433400000002
 31
0.0
  0
LINE
  5
A28
  8
0
  6
CONTINUOUS
 62
     2
 10
773.02509859999986
 20
53.353233400000001
 30
0.0
 11
773.02509859999986
 21
51.651433400000002
 31
0.0
  0
LINE
  5
A29
  8
0
  6
CONTINUOUS
 62
     2
 10
769.05634859999998
 20
51.651433400000002
 30
0.0
 11
773.02509859999986
 21
51.651433400000002
 31
0.0
  0
ENDBLK
  5
A2B
  8
0
  0
BLOCK
  8
0
  2
*U13
 70
     1
 10
0.0
 20
0.0
 30
0.0
  3
*U13
  1

  0
SOLID
  5
A3B
  8
0
  6
CONTINUOUS
 62
     2
 10
773.81884860000002
 20
58.795183399999999
 30
0.0
 11
773.81884860000002
 21
58.795183399999999
 31
0.0
 12
777.78759860000002
 22
58.795183399999999
 32
0.0
 13
777.78759860000002
 23
58.795183399999999
 33
0.0
210
0.0
220
0.0
230
1.0
  0
SOLID
  5
A3C
  8
0
  6
CONTINUOUS
 62
     2
 10
773.81884860000002
 20
58.795183399999999
 30
0.0
 11
773.81884860000002
 21
57.0933834
 31
0.0
 12
777.78759860000002
 22
57.0933834
 32
0.0
 13
777.78759860000002
 23
57.0933834
 33
0.0
210
0.0
220
0.0
230
1.0
  0
SOLID
  5
A3D
  8
0
  6
CONTINUOUS
 62
     2
 10
-773.81884860000002
 20
58.795183399999999
 30
0.0
 11
-777.78759860000002
 21
58.795183399999999
 31
0.0
 12
-777.78759860000002
 22
57.0933834
 32
0.0
 13
-777.78759860000002
 23
57.0933834
 33
0.0
210
0.0
220
0.0
230
-1.0
  0
SOLID
  5
A3E
  8
0
  6
CONTINUOUS
 62
     2
 10
775.52064859999984
 20
57.0933834
 30
0.0
 11
775.52064859999984
 21
57.0933834
 31
0.0
 12
777.78759860000002
 22
57.0933834
 32
0.0
 13
777.78759860000002
 23
57.0933834
 33
0.0
210
0.0
220
0.0
230
1.0
  0
SOLID
  5
A3F
  8
0
  6
CONTINUOUS
 62
     2
 10
773.81884860000002
 20
57.0933834
 30
0.0
 11
773.81884860000002
 21
55.875770899999992
 31
0.0
 12
775.52064859999984
 22
55.875770899999992
 32
0.0
 13
775.52064859999984
 23
55.875770899999992
 33
0.0
  0
SOLID
  5
A40
  8
0
  6
CONTINUOUS
 62
     2
 10
-773.81884860000002
 20
57.0933834
 30
0.0
 11
-775.52064859999984
 21
57.0933834
 31
0.0
 12
-775.52064859999984
 22
55.875770899999992
 32
0.0
 13
-775.52064859999984
 23
55.875770899999992
 33
0.0
210
0.0
220
0.0
230
-1.0
  0
SOLID
  5
A41
  8
0
  6
CONTINUOUS
 62
     2
 10
775.52064859999984
 20
55.875770899999992
 30
0.0
 11
775.52064859999984
 21
55.875770899999992
 31
0.0
 12
777.78759860000002
 22
55.875770899999992
 32
0.0
 13
777.78759860000002
 23
55.875770899999992
 33
0.0
210
0.0
220
0.0
230
1.0
  0
SOLID
  5
A42
  8
0
  6
CONTINUOUS
 62
     2
 10
773.81884860000002
 20
55.875770899999992
 30
0.0
 11
773.81884860000002
 21
54.570845900000002
 31
0.0
 12
777.78759860000002
 22
54.570845900000002
 32
0.0
 13
777.78759860000002
 23
54.570845900000002
 33
0.0
210
0.0
220
0.0
230
1.0
  0
SOLID
  5
A43
  8
0
  6
CONTINUOUS
 62
     2
 10
-773.81884860000002
 20
55.875770899999992
 30
0.0
 11
-777.78759860000002
 21
55.875770899999992
 31
0.0
 12
-777.78759860000002
 22
54.570845900000002
 32
0.0
 13
-777.78759860000002
 23
54.570845900000002
 33
0.0
210
0.0
220
0.0
230
-1.0
  0
SOLID
  5
A44
  8
0
  6
CONTINUOUS
 62
     2
 10
775.52064859999984
 20
54.570845900000002
 30
0.0
 11
775.52064859999984
 21
54.570845900000002
 31
0.0
 12
777.78759860000002
 22
54.570845900000002
 32
0.0
 13
777.78759860000002
 23
54.570845900000002
 33
0.0
210
0.0
220
0.0
230
1.0
  0
SOLID
  5
A45
  8
0
  6
CONTINUOUS
 62
     2
 10
773.81884860000002
 20
54.570845900000002
 30
0.0
 11
773.81884860000002
 21
53.353233400000001
 31
0.0
 12
775.52064859999984
 22
53.353233400000001
 32
0.0
 13
775.52064859999984
 23
53.353233400000001
 33
0.0
  0
SOLID
  5
A46
  8
0
  6
CONTINUOUS
 62
     2
 10
-773.81884860000002
 20
54.570845900000002
 30
0.0
 11
-775.52064859999984
 21
54.570845900000002
 31
0.0
 12
-775.52064859999984
 22
53.353233400000001
 32
0.0
 13
-775.52064859999984
 23
53.353233400000001
 33
0.0
210
0.0
220
0.0
230
-1.0
  0
SOLID
  5
A47
  8
0
  6
CONTINUOUS
 62
     2
 10
775.52064859999984
 20
53.353233400000001
 30
0.0
 11
775.52064859999984
 21
53.353233400000001
 31
0.0
 12
777.78759860000002
 22
53.353233400000001
 32
0.0
 13
777.78759860000002
 23
53.353233400000001
 33
0.0
210
0.0
220
0.0
230
1.0
  0
SOLID
  5
A48
  8
0
  6
CONTINUOUS
 62
     2
 10
773.81884860000002
 20
53.353233400000001
 30
0.0
 11
773.81884860000002
 21
51.651433400000002
 31
0.0
 12
777.78759860000002
 22
51.651433400000002
 32
0.0
 13
777.78759860000002
 23
51.651433400000002
 33
0.0
210
0.0
220
0.0
230
1.0
  0
SOLID
  5
A49
  8
0
  6
CONTINUOUS
 62
     2
 10
-773.81884860000002
 20
53.353233400000001
 30
0.0
 11
-777.78759860000002
 21
53.353233400000001
 31
0.0
 12
-777.78759860000002
 22
51.651433400000002
 32
0.0
 13
-777.78759860000002
 23
51.651433400000002
 33
0.0
210
0.0
220
0.0
230
-1.0
  0
SOLID
  5
A4A
  8
0
  6
CONTINUOUS
 62
     2
 10
773.81884860000002
 20
51.651433400000002
 30
0.0
 11
773.81884860000002
 21
51.651433400000002
 31
0.0
 12
777.78759860000002
 22
51.651433400000002
 32
0.0
 13
777.78759860000002
 23
51.651433400000002
 33
0.0
210
0.0
220
0.0
230
1.0
  0
LINE
  5
A4B
  8
0
  6
CONTINUOUS
 62
     2
 10
773.81884860000002
 20
58.795183399999999
 30
0.0
 11
777.78759860000002
 21
58.795183399999999
 31
0.0
  0
LINE
  5
A4C
  8
0
  6
CONTINUOUS
 62
     2
 10
773.81884860000002
 20
58.795183399999999
 30
0.0
 11
773.81884860000002
 21
57.0933834
 31
0.0
  0
LINE
  5
A4D
  8
0
  6
CONTINUOUS
 62
     2
 10
777.78759860000002
 20
58.795183399999999
 30
0.0
 11
777.78759860000002
 21
57.0933834
 31
0.0
  0
LINE
  5
A4E
  8
0
  6
CONTINUOUS
 62
     2
 10
775.52064859999984
 20
57.0933834
 30
0.0
 11
777.78759860000002
 21
57.0933834
 31
0.0
  0
LINE
  5
A4F
  8
0
  6
CONTINUOUS
 62
     2
 10
773.81884860000002
 20
57.0933834
 30
0.0
 11
773.81884860000002
 21
55.875770899999992
 31
0.0
  0
LINE
  5
A50
  8
0
  6
CONTINUOUS
 62
     2
 10
775.52064859999984
 20
57.0933834
 30
0.0
 11
775.52064859999984
 21
55.875770899999992
 31
0.0
  0
LINE
  5
A51
  8
0
  6
CONTINUOUS
 62
     2
 10
775.52064859999984
 20
55.875770899999992
 30
0.0
 11
777.78759860000002
 21
55.875770899999992
 31
0.0
  0
LINE
  5
A52
  8
0
  6
CONTINUOUS
 62
     2
 10
773.81884860000002
 20
55.875770899999992
 30
0.0
 11
773.81884860000002
 21
54.570845900000002
 31
0.0
  0
LINE
  5
A53
  8
0
  6
CONTINUOUS
 62
     2
 10
777.78759860000002
 20
55.875770899999992
 30
0.0
 11
777.78759860000002
 21
54.570845900000002
 31
0.0
  0
LINE
  5
A54
  8
0
  6
CONTINUOUS
 62
     2
 10
775.52064859999984
 20
54.570845900000002
 30
0.0
 11
777.78759860000002
 21
54.570845900000002
 31
0.0
  0
LINE
  5
A55
  8
0
  6
CONTINUOUS
 62
     2
 10
773.81884860000002
 20
54.570845900000002
 30
0.0
 11
773.81884860000002
 21
53.353233400000001
 31
0.0
  0
LINE
  5
A56
  8
0
  6
CONTINUOUS
 62
     2
 10
775.52064859999984
 20
54.570845900000002
 30
0.0
 11
775.52064859999984
 21
53.353233400000001
 31
0.0
  0
LINE
  5
A57
  8
0
  6
CONTINUOUS
 62
     2
 10
775.52064859999984
 20
53.353233400000001
 30
0.0
 11
777.78759860000002
 21
53.353233400000001
 31
0.0
  0
LINE
  5
A58
  8
0
  6
CONTINUOUS
 62
     2
 10
773.81884860000002
 20
53.353233400000001
 30
0.0
 11
773.81884860000002
 21
51.651433400000002
 31
0.0
  0
LINE
  5
A59
  8
0
  6
CONTINUOUS
 62
     2
 10
777.78759860000002
 20
53.353233400000001
 30
0.0
 11
777.78759860000002
 21
51.651433400000002
 31
0.0
  0
LINE
  5
A5A
  8
0
  6
CONTINUOUS
 62
     2
 10
773.81884860000002
 20
51.651433400000002
 30
0.0
 11
777.78759860000002
 21
51.651433400000002
 31
0.0
  0
ENDBLK
  5
A5C
  8
0
  0
BLOCK
  8
0
  2
*U14
 70
     1
 10
0.0
 20
0.0
 30
0.0
  3
*U14
  1

  0
SOLID
  5
A67
  8
0
  6
CONTINUOUS
 62
     7
 10
431.80000000000001
 20
12.699999999999999
 30
0.0
 11
429.41874999999987
 21
7.9375
 31
0.0
 12
434.18124999999992
 22
7.9375
 32
0.0
 13
434.18124999999992
 23
7.9375
 33
0.0
210
0.0
220
0.0
230
1.0
  0
SOLID
  5
A68
  8
0
  6
CONTINUOUS
 62
     7
 10
429.41874999999987
 20
7.9375
 30
0.0
 11
429.41874999999987
 21
7.9375
 31
0.0
 12
431.20468749999998
 22
7.9375
 32
0.0
 13
431.20468749999998
 23
7.9375
 33
0.0
210
0.0
220
0.0
230
1.0
  0
SOLID
  5
A69
  8
0
  6
CONTINUOUS
 62
     7
 10
432.39531249999999
 20
7.9375
 30
0.0
 11
432.39531249999999
 21
7.9375
 31
0.0
 12
434.18124999999992
 22
7.9375
 32
0.0
 13
434.18124999999992
 23
7.9375
 33
0.0
210
0.0
220
0.0
230
1.0
  0
SOLID
  5
A6A
  8
0
  6
CONTINUOUS
 62
     7
 10
431.20468749999998
 20
7.9375
 30
0.0
 11
431.20468749999998
 21
3.1749999999999989
 31
0.0
 12
432.39531249999999
 22
3.1749999999999989
 32
0.0
 13
432.39531249999999
 23
3.1749999999999989
 33
0.0
210
0.0
220
0.0
230
1.0
  0
SOLID
  5
A6B
  8
0
  6
CONTINUOUS
 62
     7
 10
-431.20468749999998
 20
7.9375
 30
0.0
 11
-432.39531249999999
 21
7.9375
 31
0.0
 12
-432.39531249999999
 22
3.1749999999999989
 32
0.0
 13
-432.39531249999999
 23
3.1749999999999989
 33
0.0
210
0.0
220
0.0
230
-1.0
  0
SOLID
  5
A6C
  8
0
  6
CONTINUOUS
 62
     7
 10
431.20468749999998
 20
3.1749999999999989
 30
0.0
 11
431.20468749999998
 21
3.1749999999999989
 31
0.0
 12
432.39531249999999
 22
3.1749999999999989
 32
0.0
 13
432.39531249999999
 23
3.1749999999999989
 33
0.0
210
0.0
220
0.0
230
1.0
  0
LINE
  5
A6D
  8
0
  6
CONTINUOUS
 62
     7
 10
431.80000000000001
 20
12.699999999999999
 30
0.0
 11
429.41874999999987
 21
7.9375
 31
0.0
  0
LINE
  5
A6E
  8
0
  6
CONTINUOUS
 62
     7
 10
434.18124999999992
 20
7.9375
 30
0.0
 11
431.80000000000001
 21
12.699999999999999
 31
0.0
  0
LINE
  5
A6F
  8
0
  6
CONTINUOUS
 62
     7
 10
429.41874999999987
 20
7.9375
 30
0.0
 11
431.20468749999998
 21
7.9375
 31
0.0
  0
LINE
  5
A70
  8
0
  6
CONTINUOUS
 62
     7
 10
432.39531249999999
 20
7.9375
 30
0.0
 11
434.18124999999992
 21
7.9375
 31
0.0
  0
LINE
  5
A71
  8
0
  6
CONTINUOUS
 62
     7
 10
431.20468749999998
 20
7.9375
 30
0.0
 11
431.20468749999998
 21
3.1749999999999989
 31
0.0
  0
LINE
  5
A72
  8
0
  6
CONTINUOUS
 62
     7
 10
432.39531249999999
 20
7.9375
 30
0.0
 11
432.39531249999999
 21
3.1749999999999989
 31
0.0
  0
LINE
  5
A73
  8
0
  6
CONTINUOUS
 62
     7
 10
431.20468749999998
 20
3.1749999999999989
 30
0.0
 11
432.39531249999999
 21
3.1749999999999989
 31
0.0
  0
ENDBLK
  5
A75
  8
0
  0
BLOCK
  8
0
  2
*U15
 70
     1
 10
0.0
 20
0.0
 30
0.0
  3
*U15
  1

  0
SOLID
  5
A80
  8
0
  6
CONTINUOUS
 62
     7
 10
431.20468749999998
 20
555.625
 30
0.0
 11
431.20468749999998
 21
555.625
 31
0.0
 12
432.39531249999999
 22
555.625
 32
0.0
 13
432.39531249999999
 23
555.625
 33
0.0
210
0.0
220
0.0
230
1.0
  0
SOLID
  5
A81
  8
0
  6
CONTINUOUS
 62
     7
 10
431.20468749999998
 20
555.625
 30
0.0
 11
431.20468749999998
 21
550.86249999999995
 31
0.0
 12
432.39531249999999
 22
550.86249999999995
 32
0.0
 13
432.39531249999999
 23
550.86249999999995
 33
0.0
210
0.0
220
0.0
230
1.0
  0
SOLID
  5
A82
  8
0
  6
CONTINUOUS
 62
     7
 10
-431.20468749999998
 20
555.625
 30
0.0
 11
-432.39531249999999
 21
555.625
 31
0.0
 12
-432.39531249999999
 22
550.86249999999995
 32
0.0
 13
-432.39531249999999
 23
550.86249999999995
 33
0.0
210
0.0
220
0.0
230
-1.0
  0
SOLID
  5
A83
  8
0
  6
CONTINUOUS
 62
     7
 10
429.41874999999987
 20
550.86249999999995
 30
0.0
 11
429.41874999999987
 21
550.86249999999995
 31
0.0
 12
431.20468749999998
 22
550.86249999999995
 32
0.0
 13
431.20468749999998
 23
550.86249999999995
 33
0.0
210
0.0
220
0.0
230
1.0
  0
SOLID
  5
A84
  8
0
  6
CONTINUOUS
 62
     7
 10
432.39531249999999
 20
550.86249999999995
 30
0.0
 11
432.39531249999999
 21
550.86249999999995
 31
0.0
 12
434.18124999999992
 22
550.86249999999995
 32
0.0
 13
434.18124999999992
 23
550.86249999999995
 33
0.0
210
0.0
220
0.0
230
1.0
  0
SOLID
  5
A85
  8
0
  6
CONTINUOUS
 62
     7
 10
-429.41874999999987
 20
550.86249999999995
 30
0.0
 11
-434.18124999999992
 21
550.86249999999995
 31
0.0
 12
-431.80000000000001
 22
546.10000000000002
 32
0.0
 13
-431.80000000000001
 23
546.10000000000002
 33
0.0
210
0.0
220
0.0
230
-1.0
  0
LINE
  5
A86
  8
0
  6
CONTINUOUS
 62
     7
 10
431.20468749999998
 20
555.625
 30
0.0
 11
432.39531249999999
 21
555.625
 31
0.0
  0
LINE
  5
A87
  8
0
  6
CONTINUOUS
 62
     7
 10
431.20468749999998
 20
555.625
 30
0.0
 11
431.20468749999998
 21
550.86249999999995
 31
0.0
  0
LINE
  5
A88
  8
0
  6
CONTINUOUS
 62
     7
 10
432.39531249999999
 20
555.625
 30
0.0
 11
432.39531249999999
 21
550.86249999999995
 31
0.0
  0
LINE
  5
A89
  8
0
  6
CONTINUOUS
 62
     7
 10
429.41874999999987
 20
550.86249999999995
 30
0.0
 11
431.20468749999998
 21
550.86249999999995
 31
0.0
  0
LINE
  5
A8A
  8
0
  6
CONTINUOUS
 62
     7
 10
432.39531249999999
 20
550.86249999999995
 30
0.0
 11
434.18124999999992
 21
550.86249999999995
 31
0.0
  0
LINE
  5
A8B
  8
0
  6
CONTINUOUS
 62
     7
 10
434.18124999999992
 20
550.86249999999995
 30
0.0
 11
431.80000000000001
 21
546.10000000000002
 31
0.0
  0
LINE
  5
A8C
  8
0
  6
CONTINUOUS
 62
     7
 10
431.80000000000001
 20
546.10000000000002
 30
0.0
 11
429.41874999999987
 21
550.86249999999995
 31
0.0
  0
ENDBLK
  5
A8E
  8
0
  0
BLOCK
  8
0
  2
*U16
 70
     1
 10
0.0
 20
0.0
 30
0.0
  3
*U16
  1

  0
SOLID
  5
A99
  8
0
  6
CONTINUOUS
 62
     7
 10
7.9375
 20
281.78125
 30
0.0
 11
7.9375
 21
279.99531250000001
 31
0.0
 12
11.50937499999994
 22
279.99531250000001
 32
0.0
 13
11.50937499999994
 23
279.99531250000001
 33
0.0
210
0.0
220
0.0
230
1.0
  0
SOLID
  5
A9A
  8
0
  6
CONTINUOUS
 62
     7
 10
3.1749999999999989
 20
279.99531250000001
 30
0.0
 11
3.1749999999999989
 21
279.99531250000001
 31
0.0
 12
7.9375
 22
279.99531250000001
 32
0.0
 13
7.9375
 23
279.99531250000001
 33
0.0
210
0.0
220
0.0
230
1.0
  0
SOLID
  5
A9B
  8
0
  6
CONTINUOUS
 62
     7
 10
3.1749999999999989
 20
279.99531250000001
 30
0.0
 11
3.1749999999999989
 21
279.39999999999998
 31
0.0
 12
12.699999999999999
 22
279.39999999999998
 32
0.0
 13
12.699999999999999
 23
279.39999999999998
 33
0.0
210
0.0
220
0.0
230
1.0
  0
SOLID
  5
A9C
  8
0
  6
CONTINUOUS
 62
     7
 10
-3.1749999999999989
 20
279.99531250000001
 30
0.0
 11
-11.50937499999994
 21
279.99531250000001
 31
0.0
 12
-12.699999999999999
 22
279.39999999999998
 32
0.0
 13
-12.699999999999999
 23
279.39999999999998
 33
0.0
210
0.0
220
0.0
230
-1.0
  0
SOLID
  5
A9D
  8
0
  6
CONTINUOUS
 62
     7
 10
3.1749999999999989
 20
279.39999999999998
 30
0.0
 11
3.1749999999999989
 21
278.8046875
 31
0.0
 12
11.509375000000031
 22
278.8046875
 32
0.0
 13
11.509375000000031
 23
278.8046875
 33
0.0
  0
SOLID
  5
A9E
  8
0
  6
CONTINUOUS
 62
     7
 10
-3.1749999999999989
 20
279.39999999999998
 30
0.0
 11
-12.699999999999999
 21
279.39999999999998
 31
0.0
 12
-11.509375000000031
 22
278.8046875
 32
0.0
 13
-11.509375000000031
 23
278.8046875
 33
0.0
210
0.0
220
0.0
230
-1.0
  0
SOLID
  5
A9F
  8
0
  6
CONTINUOUS
 62
     7
 10
3.1749999999999989
 20
278.8046875
 30
0.0
 11
3.1749999999999989
 21
278.8046875
 31
0.0
 12
7.9375
 22
278.8046875
 32
0.0
 13
7.9375
 23
278.8046875
 33
0.0
210
0.0
220
0.0
230
1.0
  0
SOLID
  5
AA0
  8
0
  6
CONTINUOUS
 62
     7
 10
-7.9375
 20
278.8046875
 30
0.0
 11
-11.509375000000031
 21
278.8046875
 31
0.0
 12
-7.9375
 22
277.01875000000001
 32
0.0
 13
-7.9375
 23
277.01875000000001
 33
0.0
210
0.0
220
0.0
230
-1.0
  0
LINE
  5
AA1
  8
0
  6
CONTINUOUS
 62
     7
 10
7.9375
 20
281.78125
 30
0.0
 11
7.9375
 21
279.99531250000001
 31
0.0
  0
LINE
  5
AA2
  8
0
  6
CONTINUOUS
 62
     7
 10
11.50937499999994
 20
279.99531250000001
 30
0.0
 11
7.9375
 21
281.78125
 31
0.0
  0
LINE
  5
AA3
  8
0
  6
CONTINUOUS
 62
     7
 10
3.1749999999999989
 20
279.99531250000001
 30
0.0
 11
7.9375
 21
279.99531250000001
 31
0.0
  0
LINE
  5
AA4
  8
0
  6
CONTINUOUS
 62
     7
 10
3.1749999999999989
 20
279.99531250000001
 30
0.0
 11
3.1749999999999989
 21
279.39999999999998
 31
0.0
  0
LINE
  5
AA5
  8
0
  6
CONTINUOUS
 62
     7
 10
11.50937499999994
 20
279.99531250000001
 30
0.0
 11
12.699999999999999
 21
279.39999999999998
 31
0.0
  0
LINE
  5
AA6
  8
0
  6
CONTINUOUS
 62
     7
 10
3.1749999999999989
 20
279.39999999999998
 30
0.0
 11
3.1749999999999989
 21
278.8046875
 31
0.0
  0
LINE
  5
AA7
  8
0
  6
CONTINUOUS
 62
     7
 10
12.699999999999999
 20
279.39999999999998
 30
0.0
 11
11.509375000000031
 21
278.8046875
 31
0.0
  0
LINE
  5
AA8
  8
0
  6
CONTINUOUS
 62
     7
 10
3.1749999999999989
 20
278.8046875
 30
0.0
 11
7.9375
 21
278.8046875
 31
0.0
  0
LINE
  5
AA9
  8
0
  6
CONTINUOUS
 62
     7
 10
11.509375000000031
 20
278.8046875
 30
0.0
 11
7.9375
 21
277.01875000000001
 31
0.0
  0
LINE
  5
AAA
  8
0
  6
CONTINUOUS
 62
     7
 10
7.9375
 20
277.01875000000001
 30
0.0
 11
7.9375
 21
278.8046875
 31
0.0
  0
ENDBLK
  5
AAC
  8
0
  0
BLOCK
  8
0
  2
*U17
 70
     1
 10
0.0
 20
0.0
 30
0.0
  3
*U17
  1

  0
SOLID
  5
AB7
  8
0
  6
CONTINUOUS
 62
     7
 10
855.66250000000002
 20
281.78125
 30
0.0
 11
852.09062500000005
 21
279.99531250000001
 31
0.0
 12
855.66250000000002
 22
279.99531250000001
 32
0.0
 13
855.66250000000002
 23
279.99531250000001
 33
0.0
210
0.0
220
0.0
230
1.0
  0
SOLID
  5
AB8
  8
0
  6
CONTINUOUS
 62
     7
 10
855.66250000000002
 20
279.99531250000001
 30
0.0
 11
855.66250000000002
 21
279.99531250000001
 31
0.0
 12
860.42499999999995
 22
279.99531250000001
 32
0.0
 13
860.42499999999995
 23
279.99531250000001
 33
0.0
210
0.0
220
0.0
230
1.0
  0
SOLID
  5
AB9
  8
0
  6
CONTINUOUS
 62
     7
 10
852.09062500000005
 20
279.99531250000001
 30
0.0
 11
850.89999999999998
 21
279.39999999999998
 31
0.0
 12
860.42499999999995
 22
279.39999999999998
 32
0.0
 13
860.42499999999995
 23
279.39999999999998
 33
0.0
210
0.0
220
0.0
230
1.0
  0
SOLID
  5
ABA
  8
0
  6
CONTINUOUS
 62
     7
 10
-852.09062500000005
 20
279.99531250000001
 30
0.0
 11
-860.42499999999995
 21
279.99531250000001
 31
0.0
 12
-860.42499999999995
 22
279.39999999999998
 32
0.0
 13
-860.42499999999995
 23
279.39999999999998
 33
0.0
210
0.0
220
0.0
230
-1.0
  0
SOLID
  5
ABB
  8
0
  6
CONTINUOUS
 62
     7
 10
850.89999999999998
 20
279.39999999999998
 30
0.0
 11
852.09062499999993
 21
278.8046875
 31
0.0
 12
860.42499999999995
 22
278.8046875
 32
0.0
 13
860.42499999999995
 23
278.8046875
 33
0.0
210
0.0
220
0.0
230
1.0
  0
SOLID
  5
ABC
  8
0
  6
CONTINUOUS
 62
     7
 10
-850.89999999999998
 20
279.39999999999998
 30
0.0
 11
-860.42499999999995
 21
279.39999999999998
 31
0.0
 12
-860.42499999999995
 22
278.8046875
 32
0.0
 13
-860.42499999999995
 23
278.8046875
 33
0.0
210
0.0
220
0.0
230
-1.0
  0
SOLID
  5
ABD
  8
0
  6
CONTINUOUS
 62
     7
 10
855.66250000000002
 20
278.8046875
 30
0.0
 11
855.66250000000002
 21
278.8046875
 31
0.0
 12
860.42499999999995
 22
278.8046875
 32
0.0
 13
860.42499999999995
 23
278.8046875
 33
0.0
210
0.0
220
0.0
230
1.0
  0
SOLID
  5
ABE
  8
0
  6
CONTINUOUS
 62
     7
 10
-852.09062499999993
 20
278.8046875
 30
0.0
 11
-855.66250000000002
 21
278.8046875
 31
0.0
 12
-855.66250000000002
 22
277.01875000000001
 32
0.0
 13
-855.66250000000002
 23
277.01875000000001
 33
0.0
210
0.0
220
0.0
230
-1.0
  0
LINE
  5
ABF
  8
0
  6
CONTINUOUS
 62
     7
 10
855.66250000000002
 20
281.78125
 30
0.0
 11
852.09062500000005
 21
279.99531250000001
 31
0.0
  0
LINE
  5
AC0
  8
0
  6
CONTINUOUS
 62
     7
 10
855.66250000000002
 20
279.99531250000001
 30
0.0
 11
855.66250000000002
 21
281.78125
 31
0.0
  0
LINE
  5
AC1
  8
0
  6
CONTINUOUS
 62
     7
 10
855.66250000000002
 20
279.99531250000001
 30
0.0
 11
860.42499999999995
 21
279.99531250000001
 31
0.0
  0
LINE
  5
AC2
  8
0
  6
CONTINUOUS
 62
     7
 10
852.09062500000005
 20
279.99531250000001
 30
0.0
 11
850.89999999999998
 21
279.39999999999998
 31
0.0
  0
LINE
  5
AC3
  8
0
  6
CONTINUOUS
 62
     7
 10
860.42499999999995
 20
279.99531250000001
 30
0.0
 11
860.42499999999995
 21
279.39999999999998
 31
0.0
  0
LINE
  5
AC4
  8
0
  6
CONTINUOUS
 62
     7
 10
850.89999999999998
 20
279.39999999999998
 30
0.0
 11
852.09062499999993
 21
278.8046875
 31
0.0
  0
LINE
  5
AC5
  8
0
  6
CONTINUOUS
 62
     7
 10
860.42499999999995
 20
279.39999999999998
 30
0.0
 11
860.42499999999995
 21
278.8046875
 31
0.0
  0
LINE
  5
AC6
  8
0
  6
CONTINUOUS
 62
     7
 10
855.66250000000002
 20
278.8046875
 30
0.0
 11
860.42499999999995
 21
278.8046875
 31
0.0
  0
LINE
  5
AC7
  8
0
  6
CONTINUOUS
 62
     7
 10
855.66250000000002
 20
278.8046875
 30
0.0
 11
855.66250000000002
 21
277.01875000000001
 31
0.0
  0
LINE
  5
AC8
  8
0
  6
CONTINUOUS
 62
     7
 10
855.66250000000002
 20
277.01875000000001
 30
0.0
 11
852.09062499999993
 21
278.8046875
 31
0.0
  0
ENDBLK
  5
ACA
  8
0
  0
ENDSEC
  0
SECTION
  2
ENTITIES
  0
TEXT
  5
2E8
  8
0
  6
CONTINUOUS
 62
     5
 10
718.73533333329999
 20
52.07
 30
0.0
 40
2.54
  1
 
 41
0.8
  7
TEXTSTYLE_3
  0
TEXT
  5
2F1
  8
0
  6
CONTINUOUS
 62
     5
 10
773.49350000000015
 20
89.534999999999997
 30
0.0
 40
2.54
  1
 
 41
0.95
 72
     1
 11
774.70000000000005
 21
89.534999999999997
 31
0.0
  0
LINE
  5
474
  8
0
  6
CONTINUOUS
 62
     7
 10
777.02658623577713
 20
204.19941508415019
 30
0.0
 11
645.16100259337713
 21
194.97847521495021
 31
0.0
  0
LINE
  5
475
  8
0
  6
CONTINUOUS
 62
     7
 10
795.8130199861771
 20
206.0725049995502
 30
0.0
 11
784.10242930777713
 21
205.25362072735021
 31
0.0
  0
LINE
  5
479
  8
0
  6
CONTINUOUS
 62
     7
 10
636.48148037277724
 20
625.65079444455023
 30
0.0
 11
632.84195227697717
 21
619.34694686715034
 31
0.0
  0
LINE
  5
47B
  8
0
  6
CONTINUOUS
 62
     7
 10
636.48148037277724
 20
155.65079444455009
 30
0.0
 11
632.84195227697717
 21
161.9546420217502
 31
0.0
  0
LINE
  5
480
  8
0
  6
CONTINUOUS
 62
     7
 10
632.44002848837715
 20
163.4546420217502
 30
0.0
 11
632.44002848837715
 21
617.84694686715034
 31
0.0
  0
LINE
  5
482
  8
0
  6
CONTINUOUS
 62
     7
 10
636.48148037277724
 20
625.65079444455023
 30
0.0
 11
636.48148037277724
 21
155.65079444455009
 31
0.0
  0
LINE
  5
488
  8
0
  6
CONTINUOUS
 62
     7
 10
641.44002848837727
 20
596.32531104495024
 30
0.0
 11
641.44002848837727
 21
575.65079444455023
 31
0.0
  0
LINE
  5
489
  8
0
  6
CONTINUOUS
 62
     7
 10
641.44002848837727
 20
575.65079444455023
 30
0.0
 11
641.44002848837727
 21
184.9762778441503
 31
0.0
  0
LINE
  5
4A2
  8
0
  6
CONTINUOUS
 62
     7
 10
640.20987696937709
 20
182.00642936315009
 30
0.0
 11
636.48148037277724
 21
178.27803276655021
 31
0.0
  0
LINE
  5
4A5
  8
0
  6
CONTINUOUS
 62
     7
 10
778.27069716617711
 20
507.01517709395011
 30
0.0
 11
641.44002848837727
 21
516.58330953057725
 31
0.0
  0
LINE
  5
4AA
  8
0
  6
CONTINUOUS
 62
     7
 10
819.81195555977718
 20
249.23088330895021
 30
0.0
 11
821.41852595857722
 21
335.48702004355022
 31
0.0
  0
LINE
  5
4AC
  8
0
  6
CONTINUOUS
 62
     7
 10
842.20690271197714
 20
397.53416087435022
 30
0.0
 11
841.90159727617709
 21
397.0644602039502
 31
0.0
  0
LINE
  5
4AD
  8
0
  6
CONTINUOUS
 62
     7
 10
821.90268462257711
 20
337.06613304435018
 30
0.0
 11
822.28512784737723
 21
337.65450723635018
 31
0.0
  0
LINE
  5
4AE
  8
0
  6
CONTINUOUS
 62
     7
 10
636.48148037277724
 20
603.02355612255008
 30
0.0
 11
640.20987696937709
 21
599.29515952595
 31
0.0
  0
LINE
  5
4B0
  8
0
  6
CONTINUOUS
 62
     7
 10
821.38567151317716
 20
455.77806664055021
 30
0.0
 11
821.01033318477721
 21
463.39185517875012
 31
0.0
  0
LINE
  5
4B1
  8
0
  6
CONTINUOUS
 62
     7
 10
825.46502848837713
 20
350.65079444455017
 30
0.0
 11
825.46502848837713
 21
440.65079444455012
 31
0.0
  0
LINE
  5
4B4
  8
0
  6
CONTINUOUS
 62
     7
 10
845.46502848837702
 20
410.65079444455012
 30
0.0
 11
845.46502848837702
 21
500.65079444455012
 31
0.0
  0
LINE
  5
4B6
  8
0
  6
CONTINUOUS
 62
     7
 10
838.59544526517709
 20
251.06179419195021
 30
0.0
 11
841.41750066437714
 21
395.48810324435033
 31
0.0
  0
LINE
  5
4B8
  8
0
  6
CONTINUOUS
 62
     7
 10
822.83379240657734
 20
338.95641185835029
 30
0.0
 11
825.46502848837713
 21
350.65079444455017
 31
0.0
  0
LINE
  5
4B9
  8
0
  6
CONTINUOUS
 62
     7
 10
845.46502848837702
 20
410.65079444455012
 30
0.0
 11
842.86530018297697
 21
399.09644642075023
 31
0.0
  0
LINE
  5
4BA
  8
0
  6
CONTINUOUS
 62
     7
 10
821.86675393937742
 20
454.2907338187502
 30
0.0
 11
822.28512784737723
 21
453.64708165255013
 31
0.0
  0
LINE
  5
4BB
  8
0
  6
CONTINUOUS
 62
     7
 10
822.83379240657734
 20
452.34517703075011
 30
0.0
 11
825.46502848837713
 21
440.65079444455012
 31
0.0
  0
LINE
  5
4BC
  8
0
  6
CONTINUOUS
 62
     7
 10
841.37073289377713
 20
515.76008721395033
 30
0.0
 11
840.31518198697734
 21
532.16801807015031
 31
0.0
  0
LINE
  5
4C0
  8
0
  6
CONTINUOUS
 62
     7
 10
797.61885911617719
 20
575.10280731635021
 30
0.0
 11
645.16100259337713
 21
585.76369917855016
 31
0.0
  0
LINE
  5
4C1
  8
0
  6
CONTINUOUS
 62
     7
 10
845.46502848837702
 20
500.65079444455012
 30
0.0
 11
842.86530018297697
 21
512.20514246835023
 31
0.0
  0
LINE
  5
4C3
  8
0
  6
CONTINUOUS
 62
     7
 10
842.20690271197714
 20
513.76742801475029
 30
0.0
 11
841.84929432237709
 21
514.31759476775017
 31
0.0
  0
ARC
  5
542
  8
0
  6
CONTINUOUS
 62
     7
 10
637.24002848837722
 20
596.32531104495024
 30
0.0
 40
4.2000000000000002
 50
0.0
 51
45.0
  0
ARC
  5
543
  8
0
  6
CONTINUOUS
 62
     7
 10
637.24002848837722
 20
184.9762778441503
 30
0.0
 40
4.2000000000000002
 50
315.0
 51
0.0
  0
ARC
  5
545
  8
0
  6
CONTINUOUS
 62
     7
 10
635.44002848837715
 20
617.84694592475012
 30
0.0
 40
3.0
 50
149.99998441060029
 51
179.9999819988999
  0
ARC
  5
546
  8
0
  6
CONTINUOUS
 62
     7
 10
635.44002848837715
 20
163.4546420217502
 30
0.0
 40
3.0
 50
180.0
 51
210.00000000000051
  0
ARC
  5
547
  8
0
  6
CONTINUOUS
 62
     7
 10
645.44002848837727
 20
589.75395537975032
 30
0.0
 40
4.0
 50
180.0
 51
266.00000000000023
  0
ARC
  5
548
  8
0
  6
CONTINUOUS
 62
     7
 10
792.60422217577718
 20
251.9604516477502
 30
0.0
 40
46.000000021399991
 50
273.99999999960153
 51
358.88059667530018
  0
ARC
  5
549
  8
0
  6
CONTINUOUS
 62
     7
 10
794.41006147457711
 20
529.21486133115013
 30
0.0
 40
46.000000806999999
 50
3.6808655138006938
 51
85.999999702599268
  0
ARC
  5
54A
  8
0
  6
CONTINUOUS
 62
     7
 10
844.41692812497718
 20
395.4294951521502
 30
0.0
 40
3.0
 50
146.9761324441991
 51
178.8805966751992
  0
ARC
  5
54B
  8
0
  6
CONTINUOUS
 62
     7
 10
844.36454423517705
 20
515.95268433675017
 30
0.0
 40
3.0
 50
183.68086551380071
 51
213.0238675558009
  0
ARC
  5
54C
  8
0
  6
CONTINUOUS
 62
     7
 10
838.18237335377705
 20
511.15148393175019
 30
0.0
 40
4.7999999999999989
 50
12.68038349179972
 51
33.023867555800877
  0
ARC
  5
54D
  8
0
  6
CONTINUOUS
 62
     7
 10
838.18237335377705
 20
400.15010495735021
 30
0.0
 40
4.7999999999999989
 50
326.9761324441991
 51
347.31961650820023
  0
ARC
  5
54E
  8
0
  6
CONTINUOUS
 62
     7
 10
645.44002848837727
 20
190.98821901375021
 30
0.0
 40
4.0
 50
93.999999999999744
 51
175.9047619048001
  0
ARC
  5
54F
  8
0
  6
CONTINUOUS
 62
     7
 10
775.06612639517721
 20
461.1269351999502
 30
0.0
 40
46.0
 50
2.8222358078999781
 51
86.000000000000242
  0
ARC
  5
550
  8
0
  6
CONTINUOUS
 62
     7
 10
773.81993246377715
 20
250.08751132055031
 30
0.0
 40
46.0
 50
273.99999999999977
 51
358.9329563708996
  0
ARC
  5
551
  8
0
  6
CONTINUOUS
 62
     7
 10
824.3820328255772
 20
455.92577881315009
 30
0.0
 40
3.0
 50
182.82223580789989
 51
213.0238675558009
  0
ARC
  5
552
  8
0
  6
CONTINUOUS
 62
     7
 10
824.41800572577711
 20
335.43115299935022
 30
0.0
 40
3.0
 50
146.9761324441991
 51
178.9329563708996
  0
ARC
  5
553
  8
0
  6
CONTINUOUS
 62
     7
 10
818.93135338217712
 20
339.83446063875027
 30
0.0
 40
4.0
 50
326.9761324441991
 51
347.31961650820023
  0
ARC
  5
554
  8
0
  6
CONTINUOUS
 62
     7
 10
818.93135338217712
 20
451.46712825035019
 30
0.0
 40
4.0
 50
12.68038349179972
 51
33.023867555800877
  0
POLYLINE
  8
0
  5
AD3
  62
7
  66
     1
 10
0.000000
 20
0.000000
 30
0.000000
  70
     8
  0
VERTEX
  8
0
  5
AD4
 10
838.572
 20
252.541
 30
0.000000
  70
    32
  0
VERTEX
  8
0
  5
AD5
 10
838.572
 20
252.532
 30
0.000000
  70
    32
  0
VERTEX
  8
0
  5
AD6
 10
838.572
 20
252.523
 30
0.000000
  70
    32
  0
VERTEX
  8
0
  5
AD7
 10
838.572
 20
252.514
 30
0.000000
  70
    32
  0
VERTEX
  8
0
  5
AD8
 10
838.572
 20
252.505
 30
0.000000
  70
    32
  0
VERTEX
  8
0
  5
AD9
 10
838.572
 20
252.496
 30
0.000000
  70
    32
  0
VERTEX
  8
0
  5
ADA
 10
838.572
 20
252.487
 30
0.000000
  70
    32
  0
VERTEX
  8
0
  5
ADB
 10
838.572
 20
252.478
 30
0.000000
  70
    32
  0
VERTEX
  8
0
  5
ADC
 10
838.571
 20
252.469
 30
0.000000
  70
    32
  0
VERTEX
  8
0
  5
ADD
 10
838.571
 20
252.460
 30
0.000000
  70
    32
  0
VERTEX
  8
0
  5
ADE
 10
838.571
 20
252.451
 30
0.000000
  70
    32
  0
VERTEX
  8
0
  5
ADF
 10
838.570
 20
252.442
 30
0.000000
  70
    32
  0
VERTEX
  8
0
  5
AE0
 10
838.570
 20
252.434
 30
0.000000
  70
    32
  0
VERTEX
  8
0
  5
AE1
 10
838.569
 20
252.425
 30
0.000000
  70
    32
  0
VERTEX
  8
0
  5
AE2
 10
838.569
 20
252.416
 30
0.000000
  70
    32
  0
VERTEX
  8
0
  5
AE3
 10
838.568
 20
252.408
 30
0.000000
  70
    32
  0
VERTEX
  8
0
  5
AE4
 10
838.568
 20
252.399
 30
0.000000
  70
    32
  0
VERTEX
  8
0
  5
AE5
 10
838.567
 20
252.391
 30
0.000000
  70
    32
  0
VERTEX
  8
0
  5
AE6
 10
838.566
 20
252.382
 30
0.000000
  70
    32
  0
VERTEX
  8
0
  5
AE7
 10
838.566
 20
252.374
 30
0.000000
  70
    32
  0
VERTEX
  8
0
  5
AE8
 10
838.565
 20
252.365
 30
0.000000
  70
    32
  0
VERTEX
  8
0
  5
AE9
 10
838.564
 20
252.357
 30
0.000000
  70
    32
  0
VERTEX
  8
0
  5
AEA
 10
838.563
 20
252.348
 30
0.000000
  70
    32
  0
VERTEX
  8
0
  5
AEB
 10
838.563
 20
252.340
 30
0.000000
  70
    32
  0
VERTEX
  8
0
  5
AEC
 10
838.562
 20
252.332
 30
0.000000
  70
    32
  0
VERTEX
  8
0
  5
AED
 10
838.561
 20
252.323
 30
0.000000
  70
    32
  0
VERTEX
  8
0
  5
AEE
 10
838.560
 20
252.315
 30
0.000000
  70
    32
  0
VERTEX
  8
0
  5
AEF
 10
838.559
 20
252.307
 30
0.000000
  70
    32
  0
VERTEX
  8
0
  5
AF0
 10
838.558
 20
252.298
 30
0.000000
  70
    32
  0
VERTEX
  8
0
  5
AF1
 10
838.557
 20
252.290
 30
0.000000
  70
    32
  0
VERTEX
  8
0
  5
AF2
 10
838.556
 20
252.282
 30
0.000000
  70
    32
  0
VERTEX
  8
0
  5
AF3
 10
838.555
 20
252.274
 30
0.000000
  70
    32
  0
VERTEX
  8
0
  5
AF4
 10
838.554
 20
252.266
 30
0.000000
  70
    32
  0
VERTEX
  8
0
  5
AF5
 10
838.553
 20
252.257
 30
0.000000
  70
    32
  0
VERTEX
  8
0
  5
AF6
 10
838.552
 20
252.249
 30
0.000000
  70
    32
  0
VERTEX
  8
0
  5
AF7
 10
838.551
 20
252.241
 30
0.000000
  70
    32
  0
VERTEX
  8
0
  5
AF8
 10
838.550
 20
252.233
 30
0.000000
  70
    32
  0
VERTEX
  8
0
  5
AF9
 10
838.549
 20
252.225
 30
0.000000
  70
    32
  0
VERTEX
  8
0
  5
AFA
 10
838.548
 20
252.217
 30
0.000000
  70
    32
  0
VERTEX
  8
0
  5
AFB
 10
838.547
 20
252.208
 30
0.000000
  70
    32
  0
VERTEX
  8
0
  5
AFC
 10
838.546
 20
252.200
 30
0.000000
  70
    32
  0
VERTEX
  8
0
  5
AFD
 10
838.545
 20
252.192
 30
0.000000
  70
    32
  0
VERTEX
  8
0
  5
AFE
 10
838.544
 20
252.184
 30
0.000000
  70
    32
  0
VERTEX
  8
0
  5
AFF
 10
838.543
 20
252.176
 30
0.000000
  70
    32
  0
VERTEX
  8
0
  5
B00
 10
838.542
 20
252.168
 30
0.000000
  70
    32
  0
VERTEX
  8
0
  5
B01
 10
838.541
 20
252.160
 30
0.000000
  70
    32
  0
VERTEX
  8
0
  5
B02
 10
838.540
 20
252.151
 30
0.000000
  70
    32
  0
VERTEX
  8
0
  5
B03
 10
838.539
 20
252.143
 30
0.000000
  70
    32
  0
VERTEX
  8
0
  5
B04
 10
838.538
 20
252.135
 30
0.000000
  70
    32
  0
VERTEX
  8
0
  5
B05
 10
838.537
 20
252.127
 30
0.000000
  70
    32
  0
VERTEX
  8
0
  5
B06
 10
838.536
 20
252.119
 30
0.000000
  70
    32
  0
VERTEX
  8
0
  5
B07
 10
838.535
 20
252.110
 30
0.000000
  70
    32
  0
VERTEX
  8
0
  5
B08
 10
838.534
 20
252.102
 30
0.000000
  70
    32
  0
VERTEX
  8
0
  5
B09
 10
838.533
 20
252.094
 30
0.000000
  70
    32
  0
VERTEX
  8
0
  5
B0A
 10
838.532
 20
252.086
 30
0.000000
  70
    32
  0
VERTEX
  8
0
  5
B0B
 10
838.531
 20
252.077
 30
0.000000
  70
    32
  0
VERTEX
  8
0
  5
B0C
 10
838.531
 20
252.069
 30
0.000000
  70
    32
  0
VERTEX
  8
0
  5
B0D
 10
838.530
 20
252.061
 30
0.000000
  70
    32
  0
VERTEX
  8
0
  5
B0E
 10
838.529
 20
252.052
 30
0.000000
  70
    32
  0
VERTEX
  8
0
  5
B0F
 10
838.528
 20
252.044
 30
0.000000
  70
    32
  0
VERTEX
  8
0
  5
B10
 10
838.527
 20
252.035
 30
0.000000
  70
    32
  0
VERTEX
  8
0
  5
B11
 10
838.527
 20
252.027
 30
0.000000
  70
    32
  0
VERTEX
  8
0
  5
B12
 10
838.526
 20
252.018
 30
0.000000
  70
    32
  0
VERTEX
  8
0
  5
B13
 10
838.525
 20
252.010
 30
0.000000
  70
    32
  0
VERTEX
  8
0
  5
B14
 10
838.525
 20
252.001
 30
0.000000
  70
    32
  0
VERTEX
  8
0
  5
B15
 10
838.524
 20
251.993
 30
0.000000
  70
    32
  0
VERTEX
  8
0
  5
B16
 10
838.524
 20
251.984
 30
0.000000
  70
    32
  0
VERTEX
  8
0
  5
B17
 10
838.523
 20
251.976
 30
0.000000
  70
    32
  0
VERTEX
  8
0
  5
B18
 10
838.523
 20
251.967
 30
0.000000
  70
    32
  0
VERTEX
  8
0
  5
B19
 10
838.522
 20
251.958
 30
0.000000
  70
    32
  0
VERTEX
  8
0
  5
B1A
 10
838.522
 20
251.949
 30
0.000000
  70
    32
  0
VERTEX
  8
0
  5
B1B
 10
838.522
 20
251.940
 30
0.000000
  70
    32
  0
VERTEX
  8
0
  5
B1C
 10
838.521
 20
251.932
 30
0.000000
  70
    32
  0
VERTEX
  8
0
  5
B1D
 10
838.521
 20
251.923
 30
0.000000
  70
    32
  0
VERTEX
  8
0
  5
B1E
 10
838.521
 20
251.914
 30
0.000000
  70
    32
  0
VERTEX
  8
0
  5
B1F
 10
838.521
 20
251.905
 30
0.000000
  70
    32
  0
VERTEX
  8
0
  5
B20
 10
838.521
 20
251.895
 30
0.000000
  70
    32
  0
VERTEX
  8
0
  5
B21
 10
838.521
 20
251.886
 30
0.000000
  70
    32
  0
VERTEX
  8
0
  5
B22
 10
838.521
 20
251.877
 30
0.000000
  70
    32
  0
VERTEX
  8
0
  5
B23
 10
838.521
 20
251.868
 30
0.000000
  70
    32
  0
VERTEX
  8
0
  5
B24
 10
838.521
 20
251.859
 30
0.000000
  70
    32
  0
VERTEX
  8
0
  5
B25
 10
838.521
 20
251.849
 30
0.000000
  70
    32
  0
VERTEX
  8
0
  5
B26
 10
838.521
 20
251.840
 30
0.000000
  70
    32
  0
VERTEX
  8
0
  5
B27
 10
838.522
 20
251.830
 30
0.000000
  70
    32
  0
VERTEX
  8
0
  5
B28
 10
838.522
 20
251.821
 30
0.000000
  70
    32
  0
VERTEX
  8
0
  5
B29
 10
838.523
 20
251.811
 30
0.000000
  70
    32
  0
VERTEX
  8
0
  5
B2A
 10
838.523
 20
251.801
 30
0.000000
  70
    32
  0
VERTEX
  8
0
  5
B2B
 10
838.524
 20
251.792
 30
0.000000
  70
    32
  0
VERTEX
  8
0
  5
B2C
 10
838.524
 20
251.782
 30
0.000000
  70
    32
  0
VERTEX
  8
0
  5
B2D
 10
838.525
 20
251.772
 30
0.000000
  70
    32
  0
VERTEX
  8
0
  5
B2E
 10
838.526
 20
251.762
 30
0.000000
  70
    32
  0
VERTEX
  8
0
  5
B2F
 10
838.527
 20
251.752
 30
0.000000
  70
    32
  0
VERTEX
  8
0
  5
B30
 10
838.528
 20
251.742
 30
0.000000
  70
    32
  0
VERTEX
  8
0
  5
B31
 10
838.529
 20
251.732
 30
0.000000
  70
    32
  0
VERTEX
  8
0
  5
B32
 10
838.530
 20
251.721
 30
0.000000
  70
    32
  0
VERTEX
  8
0
  5
B33
 10
838.531
 20
251.711
 30
0.000000
  70
    32
  0
VERTEX
  8
0
  5
B34
 10
838.533
 20
251.701
 30
0.000000
  70
    32
  0
VERTEX
  8
0
  5
B35
 10
838.534
 20
251.690
 30
0.000000
  70
    32
  0
VERTEX
  8
0
  5
B36
 10
838.535
 20
251.680
 30
0.000000
  70
    32
  0
VERTEX
  8
0
  5
B37
 10
838.537
 20
251.669
 30
0.000000
  70
    32
  0
VERTEX
  8
0
  5
B38
 10
838.539
 20
251.658
 30
0.000000
  70
    32
  0
VERTEX
  8
0
  5
B39
 10
838.540
 20
251.647
 30
0.000000
  70
    32
  0
VERTEX
  8
0
  5
B3A
 10
838.542
 20
251.636
 30
0.000000
  70
    32
  0
VERTEX
  8
0
  5
B3B
 10
838.544
 20
251.625
 30
0.000000
  70
    32
  0
VERTEX
  8
0
  5
B3C
 10
838.546
 20
251.614
 30
0.000000
  70
    32
  0
VERTEX
  8
0
  5
B3D
 10
838.548
 20
251.603
 30
0.000000
  70
    32
  0
VERTEX
  8
0
  5
B3E
 10
838.550
 20
251.591
 30
0.000000
  70
    32
  0
VERTEX
  8
0
  5
B3F
 10
838.553
 20
251.580
 30
0.000000
  70
    32
  0
VERTEX
  8
0
  5
B40
 10
838.555
 20
251.569
 30
0.000000
  70
    32
  0
VERTEX
  8
0
  5
B41
 10
838.558
 20
251.557
 30
0.000000
  70
    32
  0
VERTEX
  8
0
  5
B42
 10
838.560
 20
251.545
 30
0.000000
  70
    32
  0
VERTEX
  8
0
  5
B43
 10
838.563
 20
251.533
 30
0.000000
  70
    32
  0
VERTEX
  8
0
  5
B44
 10
838.566
 20
251.521
 30
0.000000
  70
    32
  0
VERTEX
  8
0
  5
B45
 10
838.569
 20
251.509
 30
0.000000
  70
    32
  0
VERTEX
  8
0
  5
B46
 10
838.572
 20
251.497
 30
0.000000
  70
    32
  0
VERTEX
  8
0
  5
B47
 10
838.575
 20
251.485
 30
0.000000
  70
    32
  0
VERTEX
  8
0
  5
B48
 10
838.578
 20
251.473
 30
0.000000
  70
    32
  0
VERTEX
  8
0
  5
B49
 10
838.581
 20
251.460
 30
0.000000
  70
    32
  0
VERTEX
  8
0
  5
B4A
 10
838.585
 20
251.448
 30
0.000000
  70
    32
  0
VERTEX
  8
0
  5
B4B
 10
838.589
 20
251.435
 30
0.000000
  70
    32
  0
VERTEX
  8
0
  5
B4C
 10
838.592
 20
251.422
 30
0.000000
  70
    32
  0
VERTEX
  8
0
  5
B4D
 10
838.596
 20
251.409
 30
0.000000
  70
    32
  0
VERTEX
  8
0
  5
B4E
 10
838.600
 20
251.396
 30
0.000000
  70
    32
  0
VERTEX
  8
0
  5
B4F
 10
838.604
 20
251.383
 30
0.000000
  70
    32
  0
VERTEX
  8
0
  5
B50
 10
838.608
 20
251.370
 30
0.000000
  70
    32
  0
VERTEX
  8
0
  5
B51
 10
838.612
 20
251.357
 30
0.000000
  70
    32
  0
VERTEX
  8
0
  5
B52
 10
838.616
 20
251.344
 30
0.000000
  70
    32
  0
VERTEX
  8
0
  5
B53
 10
838.620
 20
251.331
 30
0.000000
  70
    32
  0
VERTEX
  8
0
  5
B54
 10
838.624
 20
251.318
 30
0.000000
  70
    32
  0
VERTEX
  8
0
  5
B55
 10
838.628
 20
251.305
 30
0.000000
  70
    32
  0
VERTEX
  8
0
  5
B56
 10
838.631
 20
251.292
 30
0.000000
  70
    32
  0
VERTEX
  8
0
  5
B57
 10
838.635
 20
251.279
 30
0.000000
  70
    32
  0
VERTEX
  8
0
  5
B58
 10
838.639
 20
251.267
 30
0.000000
  70
    32
  0
VERTEX
  8
0
  5
B59
 10
838.642
 20
251.254
 30
0.000000
  70
    32
  0
VERTEX
  8
0
  5
B5A
 10
838.645
 20
251.242
 30
0.000000
  70
    32
  0
VERTEX
  8
0
  5
B5B
 10
838.648
 20
251.230
 30
0.000000
  70
    32
  0
VERTEX
  8
0
  5
B5C
 10
838.651
 20
251.218
 30
0.000000
  70
    32
  0
VERTEX
  8
0
  5
B5D
 10
838.653
 20
251.207
 30
0.000000
  70
    32
  0
VERTEX
  8
0
  5
B5E
 10
838.655
 20
251.195
 30
0.000000
  70
    32
  0
VERTEX
  8
0
  5
B5F
 10
838.657
 20
251.184
 30
0.000000
  70
    32
  0
VERTEX
  8
0
  5
B60
 10
838.658
 20
251.174
 30
0.000000
  70
    32
  0
VERTEX
  8
0
  5
B61
 10
838.660
 20
251.164
 30
0.000000
  70
    32
  0
VERTEX
  8
0
  5
B62
 10
838.660
 20
251.154
 30
0.000000
  70
    32
  0
VERTEX
  8
0
  5
B63
 10
838.661
 20
251.144
 30
0.000000
  70
    32
  0
VERTEX
  8
0
  5
B64
 10
838.661
 20
251.135
 30
0.000000
  70
    32
  0
VERTEX
  8
0
  5
B65
 10
838.660
 20
251.126
 30
0.000000
  70
    32
  0
VERTEX
  8
0
  5
B66
 10
838.659
 20
251.118
 30
0.000000
  70
    32
  0
VERTEX
  8
0
  5
B67
 10
838.658
 20
251.110
 30
0.000000
  70
    32
  0
VERTEX
  8
0
  5
B68
 10
838.656
 20
251.103
 30
0.000000
  70
    32
  0
VERTEX
  8
0
  5
B69
 10
838.654
 20
251.096
 30
0.000000
  70
    32
  0
VERTEX
  8
0
  5
B6A
 10
838.651
 20
251.090
 30
0.000000
  70
    32
  0
VERTEX
  8
0
  5
B6B
 10
838.647
 20
251.084
 30
0.000000
  70
    32
  0
VERTEX
  8
0
  5
B6C
 10
838.643
 20
251.079
 30
0.000000
  70
    32
  0
VERTEX
  8
0
  5
B6D
 10
838.638
 20
251.075
 30
0.000000
  70
    32
  0
VERTEX
  8
0
  5
B6E
 10
838.633
 20
251.071
 30
0.000000
  70
    32
  0
VERTEX
  8
0
  5
B6F
 10
838.627
 20
251.068
 30
0.000000
  70
    32
  0
VERTEX
  8
0
  5
B70
 10
838.620
 20
251.065
 30
0.000000
  70
    32
  0
VERTEX
  8
0
  5
B71
 10
838.613
 20
251.063
 30
0.000000
  70
    32
  0
VERTEX
  8
0
  5
B72
 10
838.604
 20
251.062
 30
0.000000
  70
    32
  0
VERTEX
  8
0
  5
B73
 10
838.595
 20
251.062
 30
0.000000
  70
    32
  0
SEQEND
  8
0
  5
B74
  0
POLYLINE
  8
0
  5
B75
  62
7
  66
     1
 10
0.000000
 20
0.000000
 30
0.000000
  70
     8
  0
VERTEX
  8
0
  5
B76
 10
838.572
 20
252.541
 30
0.000000
  70
    32
  0
VERTEX
  8
0
  5
B77
 10
838.572
 20
252.544
 30
0.000000
  70
    32
  0
VERTEX
  8
0
  5
B78
 10
838.572
 20
252.547
 30
0.000000
  70
    32
  0
VERTEX
  8
0
  5
B79
 10
838.572
 20
252.550
 30
0.000000
  70
    32
  0
VERTEX
  8
0
  5
B7A
 10
838.572
 20
252.553
 30
0.000000
  70
    32
  0
VERTEX
  8
0
  5
B7B
 10
838.572
 20
252.556
 30
0.000000
  70
    32
  0
VERTEX
  8
0
  5
B7C
 10
838.572
 20
252.559
 30
0.000000
  70
    32
  0
VERTEX
  8
0
  5
B7D
 10
838.572
 20
252.562
 30
0.000000
  70
    32
  0
VERTEX
  8
0
  5
B7E
 10
838.572
 20
252.564
 30
0.000000
  70
    32
  0
VERTEX
  8
0
  5
B7F
 10
838.572
 20
252.567
 30
0.000000
  70
    32
  0
VERTEX
  8
0
  5
B80
 10
838.572
 20
252.570
 30
0.000000
  70
    32
  0
VERTEX
  8
0
  5
B81
 10
838.572
 20
252.573
 30
0.000000
  70
    32
  0
VERTEX
  8
0
  5
B82
 10
838.572
 20
252.576
 30
0.000000
  70
    32
  0
VERTEX
  8
0
  5
B83
 10
838.572
 20
252.579
 30
0.000000
  70
    32
  0
VERTEX
  8
0
  5
B84
 10
838.571
 20
252.582
 30
0.000000
  70
    32
  0
VERTEX
  8
0
  5
B85
 10
838.571
 20
252.585
 30
0.000000
  70
    32
  0
VERTEX
  8
0
  5
B86
 10
838.571
 20
252.587
 30
0.000000
  70
    32
  0
VERTEX
  8
0
  5
B87
 10
838.571
 20
252.590
 30
0.000000
  70
    32
  0
VERTEX
  8
0
  5
B88
 10
838.571
 20
252.593
 30
0.000000
  70
    32
  0
VERTEX
  8
0
  5
B89
 10
838.571
 20
252.596
 30
0.000000
  70
    32
  0
VERTEX
  8
0
  5
B8A
 10
838.571
 20
252.599
 30
0.000000
  70
    32
  0
VERTEX
  8
0
  5
B8B
 10
838.571
 20
252.602
 30
0.000000
  70
    32
  0
VERTEX
  8
0
  5
B8C
 10
838.571
 20
252.605
 30
0.000000
  70
    32
  0
VERTEX
  8
0
  5
B8D
 10
838.571
 20
252.608
 30
0.000000
  70
    32
  0
VERTEX
  8
0
  5
B8E
 10
838.571
 20
252.610
 30
0.000000
  70
    32
  0
VERTEX
  8
0
  5
B8F
 10
838.571
 20
252.613
 30
0.000000
  70
    32
  0
VERTEX
  8
0
  5
B90
 10
838.571
 20
252.616
 30
0.000000
  70
    32
  0
VERTEX
  8
0
  5
B91
 10
838.571
 20
252.619
 30
0.000000
  70
    32
  0
VERTEX
  8
0
  5
B92
 10
838.571
 20
252.622
 30
0.000000
  70
    32
  0
VERTEX
  8
0
  5
B93
 10
838.571
 20
252.625
 30
0.000000
  70
    32
  0
VERTEX
  8
0
  5
B94
 10
838.570
 20
252.628
 30
0.000000
  70
    32
  0
VERTEX
  8
0
  5
B95
 10
838.570
 20
252.631
 30
0.000000
  70
    32
  0
VERTEX
  8
0
  5
B96
 10
838.570
 20
252.633
 30
0.000000
  70
    32
  0
VERTEX
  8
0
  5
B97
 10
838.570
 20
252.636
 30
0.000000
  70
    32
  0
VERTEX
  8
0
  5
B98
 10
838.570
 20
252.639
 30
0.000000
  70
    32
  0
VERTEX
  8
0
  5
B99
 10
838.570
 20
252.642
 30
0.000000
  70
    32
  0
VERTEX
  8
0
  5
B9A
 10
838.570
 20
252.645
 30
0.000000
  70
    32
  0
VERTEX
  8
0
  5
B9B
 10
838.570
 20
252.648
 30
0.000000
  70
    32
  0
VERTEX
  8
0
  5
B9C
 10
838.570
 20
252.651
 30
0.000000
  70
    32
  0
VERTEX
  8
0
  5
B9D
 10
838.570
 20
252.654
 30
0.000000
  70
    32
  0
VERTEX
  8
0
  5
B9E
 10
838.570
 20
252.656
 30
0.000000
  70
    32
  0
VERTEX
  8
0
  5
B9F
 10
838.570
 20
252.659
 30
0.000000
  70
    32
  0
VERTEX
  8
0
  5
BA0
 10
838.569
 20
252.662
 30
0.000000
  70
    32
  0
VERTEX
  8
0
  5
BA1
 10
838.569
 20
252.665
 30
0.000000
  70
    32
  0
VERTEX
  8
0
  5
BA2
 10
838.569
 20
252.668
 30
0.000000
  70
    32
  0
VERTEX
  8
0
  5
BA3
 10
838.569
 20
252.671
 30
0.000000
  70
    32
  0
VERTEX
  8
0
  5
BA4
 10
838.569
 20
252.674
 30
0.000000
  70
    32
  0
VERTEX
  8
0
  5
BA5
 10
838.569
 20
252.677
 30
0.000000
  70
    32
  0
VERTEX
  8
0
  5
BA6
 10
838.569
 20
252.679
 30
0.000000
  70
    32
  0
VERTEX
  8
0
  5
BA7
 10
838.569
 20
252.682
 30
0.000000
  70
    32
  0
VERTEX
  8
0
  5
BA8
 10
838.569
 20
252.685
 30
0.000000
  70
    32
  0
VERTEX
  8
0
  5
BA9
 10
838.569
 20
252.688
 30
0.000000
  70
    32
  0
VERTEX
  8
0
  5
BAA
 10
838.568
 20
252.691
 30
0.000000
  70
    32
  0
VERTEX
  8
0
  5
BAB
 10
838.568
 20
252.694
 30
0.000000
  70
    32
  0
VERTEX
  8
0
  5
BAC
 10
838.568
 20
252.697
 30
0.000000
  70
    32
  0
VERTEX
  8
0
  5
BAD
 10
838.568
 20
252.700
 30
0.000000
  70
    32
  0
VERTEX
  8
0
  5
BAE
 10
838.568
 20
252.702
 30
0.000000
  70
    32
  0
VERTEX
  8
0
  5
BAF
 10
838.568
 20
252.705
 30
0.000000
  70
    32
  0
VERTEX
  8
0
  5
BB0
 10
838.568
 20
252.708
 30
0.000000
  70
    32
  0
VERTEX
  8
0
  5
BB1
 10
838.568
 20
252.711
 30
0.000000
  70
    32
  0
VERTEX
  8
0
  5
BB2
 10
838.568
 20
252.714
 30
0.000000
  70
    32
  0
VERTEX
  8
0
  5
BB3
 10
838.567
 20
252.717
 30
0.000000
  70
    32
  0
VERTEX
  8
0
  5
BB4
 10
838.567
 20
252.720
 30
0.000000
  70
    32
  0
VERTEX
  8
0
  5
BB5
 10
838.567
 20
252.723
 30
0.000000
  70
    32
  0
VERTEX
  8
0
  5
BB6
 10
838.567
 20
252.725
 30
0.000000
  70
    32
  0
VERTEX
  8
0
  5
BB7
 10
838.567
 20
252.728
 30
0.000000
  70
    32
  0
VERTEX
  8
0
  5
BB8
 10
838.567
 20
252.731
 30
0.000000
  70
    32
  0
VERTEX
  8
0
  5
BB9
 10
838.567
 20
252.734
 30
0.000000
  70
    32
  0
VERTEX
  8
0
  5
BBA
 10
838.567
 20
252.737
 30
0.000000
  70
    32
  0
VERTEX
  8
0
  5
BBB
 10
838.566
 20
252.740
 30
0.000000
  70
    32
  0
VERTEX
  8
0
  5
BBC
 10
838.566
 20
252.743
 30
0.000000
  70
    32
  0
VERTEX
  8
0
  5
BBD
 10
838.566
 20
252.746
 30
0.000000
  70
    32
  0
VERTEX
  8
0
  5
BBE
 10
838.566
 20
252.748
 30
0.000000
  70
    32
  0
VERTEX
  8
0
  5
BBF
 10
838.566
 20
252.751
 30
0.000000
  70
    32
  0
VERTEX
  8
0
  5
BC0
 10
838.566
 20
252.754
 30
0.000000
  70
    32
  0
VERTEX
  8
0
  5
BC1
 10
838.566
 20
252.757
 30
0.000000
  70
    32
  0
VERTEX
  8
0
  5
BC2
 10
838.565
 20
252.760
 30
0.000000
  70
    32
  0
VERTEX
  8
0
  5
BC3
 10
838.565
 20
252.763
 30
0.000000
  70
    32
  0
VERTEX
  8
0
  5
BC4
 10
838.565
 20
252.766
 30
0.000000
  70
    32
  0
VERTEX
  8
0
  5
BC5
 10
838.565
 20
252.768
 30
0.000000
  70
    32
  0
VERTEX
  8
0
  5
BC6
 10
838.565
 20
252.771
 30
0.000000
  70
    32
  0
VERTEX
  8
0
  5
BC7
 10
838.565
 20
252.774
 30
0.000000
  70
    32
  0
VERTEX
  8
0
  5
BC8
 10
838.565
 20
252.777
 30
0.000000
  70
    32
  0
VERTEX
  8
0
  5
BC9
 10
838.564
 20
252.780
 30
0.000000
  70
    32
  0
VERTEX
  8
0
  5
BCA
 10
838.564
 20
252.783
 30
0.000000
  70
    32
  0
VERTEX
  8
0
  5
BCB
 10
838.564
 20
252.786
 30
0.000000
  70
    32
  0
VERTEX
  8
0
  5
BCC
 10
838.564
 20
252.789
 30
0.000000
  70
    32
  0
VERTEX
  8
0
  5
BCD
 10
838.564
 20
252.791
 30
0.000000
  70
    32
  0
VERTEX
  8
0
  5
BCE
 10
838.564
 20
252.794
 30
0.000000
  70
    32
  0
VERTEX
  8
0
  5
BCF
 10
838.564
 20
252.797
 30
0.000000
  70
    32
  0
VERTEX
  8
0
  5
BD0
 10
838.563
 20
252.800
 30
0.000000
  70
    32
  0
VERTEX
  8
0
  5
BD1
 10
838.563
 20
252.803
 30
0.000000
  70
    32
  0
VERTEX
  8
0
  5
BD2
 10
838.563
 20
252.806
 30
0.000000
  70
    32
  0
VERTEX
  8
0
  5
BD3
 10
838.563
 20
252.809
 30
0.000000
  70
    32
  0
VERTEX
  8
0
  5
BD4
 10
838.563
 20
252.812
 30
0.000000
  70
    32
  0
VERTEX
  8
0
  5
BD5
 10
838.563
 20
252.814
 30
0.000000
  70
    32
  0
VERTEX
  8
0
  5
BD6
 10
838.562
 20
252.817
 30
0.000000
  70
    32
  0
VERTEX
  8
0
  5
BD7
 10
838.562
 20
252.820
 30
0.000000
  70
    32
  0
VERTEX
  8
0
  5
BD8
 10
838.562
 20
252.823
 30
0.000000
  70
    32
  0
VERTEX
  8
0
  5
BD9
 10
838.562
 20
252.826
 30
0.000000
  70
    32
  0
VERTEX
  8
0
  5
BDA
 10
838.562
 20
252.829
 30
0.000000
  70
    32
  0
VERTEX
  8
0
  5
BDB
 10
838.562
 20
252.832
 30
0.000000
  70
    32
  0
VERTEX
  8
0
  5
BDC
 10
838.561
 20
252.835
 30
0.000000
  70
    32
  0
VERTEX
  8
0
  5
BDD
 10
838.561
 20
252.837
 30
0.000000
  70
    32
  0
VERTEX
  8
0
  5
BDE
 10
838.561
 20
252.840
 30
0.000000
  70
    32
  0
VERTEX
  8
0
  5
BDF
 10
838.561
 20
252.843
 30
0.000000
  70
    32
  0
VERTEX
  8
0
  5
BE0
 10
838.561
 20
252.846
 30
0.000000
  70
    32
  0
VERTEX
  8
0
  5
BE1
 10
838.561
 20
252.849
 30
0.000000
  70
    32
  0
VERTEX
  8
0
  5
BE2
 10
838.560
 20
252.852
 30
0.000000
  70
    32
  0
VERTEX
  8
0
  5
BE3
 10
838.560
 20
252.855
 30
0.000000
  70
    32
  0
VERTEX
  8
0
  5
BE4
 10
838.560
 20
252.857
 30
0.000000
  70
    32
  0
VERTEX
  8
0
  5
BE5
 10
838.560
 20
252.860
 30
0.000000
  70
    32
  0
VERTEX
  8
0
  5
BE6
 10
838.560
 20
252.863
 30
0.000000
  70
    32
  0
VERTEX
  8
0
  5
BE7
 10
838.560
 20
252.866
 30
0.000000
  70
    32
  0
VERTEX
  8
0
  5
BE8
 10
838.559
 20
252.869
 30
0.000000
  70
    32
  0
VERTEX
  8
0
  5
BE9
 10
838.559
 20
252.872
 30
0.000000
  70
    32
  0
VERTEX
  8
0
  5
BEA
 10
838.559
 20
252.875
 30
0.000000
  70
    32
  0
VERTEX
  8
0
  5
BEB
 10
838.559
 20
252.878
 30
0.000000
  70
    32
  0
VERTEX
  8
0
  5
BEC
 10
838.559
 20
252.880
 30
0.000000
  70
    32
  0
VERTEX
  8
0
  5
BED
 10
838.558
 20
252.883
 30
0.000000
  70
    32
  0
VERTEX
  8
0
  5
BEE
 10
838.558
 20
252.886
 30
0.000000
  70
    32
  0
VERTEX
  8
0
  5
BEF
 10
838.558
 20
252.889
 30
0.000000
  70
    32
  0
VERTEX
  8
0
  5
BF0
 10
838.558
 20
252.892
 30
0.000000
  70
    32
  0
VERTEX
  8
0
  5
BF1
 10
838.558
 20
252.895
 30
0.000000
  70
    32
  0
VERTEX
  8
0
  5
BF2
 10
838.557
 20
252.898
 30
0.000000
  70
    32
  0
VERTEX
  8
0
  5
BF3
 10
838.557
 20
252.901
 30
0.000000
  70
    32
  0
VERTEX
  8
0
  5
BF4
 10
838.557
 20
252.903
 30
0.000000
  70
    32
  0
VERTEX
  8
0
  5
BF5
 10
838.557
 20
252.906
 30
0.000000
  70
    32
  0
VERTEX
  8
0
  5
BF6
 10
838.557
 20
252.909
 30
0.000000
  70
    32
  0
VERTEX
  8
0
  5
BF7
 10
838.556
 20
252.912
 30
0.000000
  70
    32
  0
VERTEX
  8
0
  5
BF8
 10
838.556
 20
252.915
 30
0.000000
  70
    32
  0
VERTEX
  8
0
  5
BF9
 10
838.556
 20
252.918
 30
0.000000
  70
    32
  0
VERTEX
  8
0
  5
BFA
 10
838.556
 20
252.921
 30
0.000000
  70
    32
  0
VERTEX
  8
0
  5
BFB
 10
838.556
 20
252.923
 30
0.000000
  70
    32
  0
VERTEX
  8
0
  5
BFC
 10
838.555
 20
252.926
 30
0.000000
  70
    32
  0
VERTEX
  8
0
  5
BFD
 10
838.555
 20
252.929
 30
0.000000
  70
    32
  0
VERTEX
  8
0
  5
BFE
 10
838.555
 20
252.932
 30
0.000000
  70
    32
  0
VERTEX
  8
0
  5
BFF
 10
838.555
 20
252.935
 30
0.000000
  70
    32
  0
VERTEX
  8
0
  5
C00
 10
838.555
 20
252.938
 30
0.000000
  70
    32
  0
VERTEX
  8
0
  5
C01
 10
838.554
 20
252.941
 30
0.000000
  70
    32
  0
VERTEX
  8
0
  5
C02
 10
838.554
 20
252.944
 30
0.000000
  70
    32
  0
VERTEX
  8
0
  5
C03
 10
838.554
 20
252.946
 30
0.000000
  70
    32
  0
VERTEX
  8
0
  5
C04
 10
838.554
 20
252.949
 30
0.000000
  70
    32
  0
VERTEX
  8
0
  5
C05
 10
838.554
 20
252.952
 30
0.000000
  70
    32
  0
VERTEX
  8
0
  5
C06
 10
838.553
 20
252.955
 30
0.000000
  70
    32
  0
VERTEX
  8
0
  5
C07
 10
838.553
 20
252.958
 30
0.000000
  70
    32
  0
VERTEX
  8
0
  5
C08
 10
838.553
 20
252.961
 30
0.000000
  70
    32
  0
VERTEX
  8
0
  5
C09
 10
838.553
 20
252.964
 30
0.000000
  70
    32
  0
VERTEX
  8
0
  5
C0A
 10
838.552
 20
252.966
 30
0.000000
  70
    32
  0
VERTEX
  8
0
  5
C0B
 10
838.552
 20
252.969
 30
0.000000
  70
    32
  0
VERTEX
  8
0
  5
C0C
 10
838.552
 20
252.972
 30
0.000000
  70
    32
  0
VERTEX
  8
0
  5
C0D
 10
838.552
 20
252.975
 30
0.000000
  70
    32
  0
VERTEX
  8
0
  5
C0E
 10
838.552
 20
252.978
 30
0.000000
  70
    32
  0
VERTEX
  8
0
  5
C0F
 10
838.551
 20
252.981
 30
0.000000
  70
    32
  0
VERTEX
  8
0
  5
C10
 10
838.551
 20
252.984
 30
0.000000
  70
    32
  0
VERTEX
  8
0
  5
C11
 10
838.551
 20
252.987
 30
0.000000
  70
    32
  0
VERTEX
  8
0
  5
C12
 10
838.551
 20
252.989
 30
0.000000
  70
    32
  0
VERTEX
  8
0
  5
C13
 10
838.550
 20
252.992
 30
0.000000
  70
    32
  0
VERTEX
  8
0
  5
C14
 10
838.550
 20
252.995
 30
0.000000
  70
    32
  0
VERTEX
  8
0
  5
C15
 10
838.550
 20
252.998
 30
0.000000
  70
    32
  0
VERTEX
  8
0
  5
C16
 10
838.550
 20
253.001
 30
0.000000
  70
    32
  0
VERTEX
  8
0
  5
C17
 10
838.549
 20
253.004
 30
0.000000
  70
    32
  0
VERTEX
  8
0
  5
C18
 10
838.549
 20
253.007
 30
0.000000
  70
    32
  0
VERTEX
  8
0
  5
C19
 10
838.549
 20
253.009
 30
0.000000
  70
    32
  0
VERTEX
  8
0
  5
C1A
 10
838.549
 20
253.012
 30
0.000000
  70
    32
  0
VERTEX
  8
0
  5
C1B
 10
838.549
 20
253.015
 30
0.000000
  70
    32
  0
VERTEX
  8
0
  5
C1C
 10
838.548
 20
253.018
 30
0.000000
  70
    32
  0
VERTEX
  8
0
  5
C1D
 10
838.548
 20
253.021
 30
0.000000
  70
    32
  0
VERTEX
  8
0
  5
C1E
 10
838.548
 20
253.024
 30
0.000000
  70
    32
  0
VERTEX
  8
0
  5
C1F
 10
838.548
 20
253.027
 30
0.000000
  70
    32
  0
VERTEX
  8
0
  5
C20
 10
838.547
 20
253.029
 30
0.000000
  70
    32
  0
VERTEX
  8
0
  5
C21
 10
838.547
 20
253.032
 30
0.000000
  70
    32
  0
VERTEX
  8
0
  5
C22
 10
838.547
 20
253.035
 30
0.000000
  70
    32
  0
VERTEX
  8
0
  5
C23
 10
838.547
 20
253.038
 30
0.000000
  70
    32
  0
VERTEX
  8
0
  5
C24
 10
838.546
 20
253.041
 30
0.000000
  70
    32
  0
VERTEX
  8
0
  5
C25
 10
838.546
 20
253.044
 30
0.000000
  70
    32
  0
VERTEX
  8
0
  5
C26
 10
838.546
 20
253.047
 30
0.000000
  70
    32
  0
VERTEX
  8
0
  5
C27
 10
838.546
 20
253.050
 30
0.000000
  70
    32
  0
VERTEX
  8
0
  5
C28
 10
838.545
 20
253.052
 30
0.000000
  70
    32
  0
VERTEX
  8
0
  5
C29
 10
838.545
 20
253.055
 30
0.000000
  70
    32
  0
VERTEX
  8
0
  5
C2A
 10
838.545
 20
253.058
 30
0.000000
  70
    32
  0
VERTEX
  8
0
  5
C2B
 10
838.545
 20
253.061
 30
0.000000
  70
    32
  0
VERTEX
  8
0
  5
C2C
 10
838.544
 20
253.064
 30
0.000000
  70
    32
  0
VERTEX
  8
0
  5
C2D
 10
838.544
 20
253.067
 30
0.000000
  70
    32
  0
VERTEX
  8
0
  5
C2E
 10
838.544
 20
253.070
 30
0.000000
  70
    32
  0
VERTEX
  8
0
  5
C2F
 10
838.544
 20
253.072
 30
0.000000
  70
    32
  0
VERTEX
  8
0
  5
C30
 10
838.543
 20
253.075
 30
0.000000
  70
    32
  0
VERTEX
  8
0
  5
C31
 10
838.543
 20
253.078
 30
0.000000
  70
    32
  0
VERTEX
  8
0
  5
C32
 10
838.543
 20
253.081
 30
0.000000
  70
    32
  0
VERTEX
  8
0
  5
C33
 10
838.543
 20
253.084
 30
0.000000
  70
    32
  0
VERTEX
  8
0
  5
C34
 10
838.542
 20
253.087
 30
0.000000
  70
    32
  0
VERTEX
  8
0
  5
C35
 10
838.542
 20
253.090
 30
0.000000
  70
    32
  0
VERTEX
  8
0
  5
C36
 10
838.542
 20
253.092
 30
0.000000
  70
    32
  0
VERTEX
  8
0
  5
C37
 10
838.541
 20
253.095
 30
0.000000
  70
    32
  0
VERTEX
  8
0
  5
C38
 10
838.541
 20
253.098
 30
0.000000
  70
    32
  0
VERTEX
  8
0
  5
C39
 10
838.541
 20
253.101
 30
0.000000
  70
    32
  0
VERTEX
  8
0
  5
C3A
 10
838.541
 20
253.104
 30
0.000000
  70
    32
  0
VERTEX
  8
0
  5
C3B
 10
838.540
 20
253.107
 30
0.000000
  70
    32
  0
VERTEX
  8
0
  5
C3C
 10
838.540
 20
253.110
 30
0.000000
  70
    32
  0
VERTEX
  8
0
  5
C3D
 10
838.540
 20
253.113
 30
0.000000
  70
    32
  0
VERTEX
  8
0
  5
C3E
 10
838.540
 20
253.115
 30
0.000000
  70
    32
  0
VERTEX
  8
0
  5
C3F
 10
838.539
 20
253.118
 30
0.000000
  70
    32
  0
VERTEX
  8
0
  5
C40
 10
838.539
 20
253.121
 30
0.000000
  70
    32
  0
VERTEX
  8
0
  5
C41
 10
838.539
 20
253.124
 30
0.000000
  70
    32
  0
VERTEX
  8
0
  5
C42
 10
838.539
 20
253.127
 30
0.000000
  70
    32
  0
VERTEX
  8
0
  5
C43
 10
838.538
 20
253.130
 30
0.000000
  70
    32
  0
VERTEX
  8
0
  5
C44
 10
838.538
 20
253.133
 30
0.000000
  70
    32
  0
VERTEX
  8
0
  5
C45
 10
838.538
 20
253.135
 30
0.000000
  70
    32
  0
VERTEX
  8
0
  5
C46
 10
838.537
 20
253.138
 30
0.000000
  70
    32
  0
VERTEX
  8
0
  5
C47
 10
838.537
 20
253.141
 30
0.000000
  70
    32
  0
VERTEX
  8
0
  5
C48
 10
838.537
 20
253.144
 30
0.000000
  70
    32
  0
VERTEX
  8
0
  5
C49
 10
838.537
 20
253.147
 30
0.000000
  70
    32
  0
VERTEX
  8
0
  5
C4A
 10
838.536
 20
253.150
 30
0.000000
  70
    32
  0
VERTEX
  8
0
  5
C4B
 10
838.536
 20
253.153
 30
0.000000
  70
    32
  0
VERTEX
  8
0
  5
C4C
 10
838.536
 20
253.155
 30
0.000000
  70
    32
  0
VERTEX
  8
0
  5
C4D
 10
838.535
 20
253.158
 30
0.000000
  70
    32
  0
VERTEX
  8
0
  5
C4E
 10
838.535
 20
253.161
 30
0.000000
  70
    32
  0
VERTEX
  8
0
  5
C4F
 10
838.535
 20
253.164
 30
0.000000
  70
    32
  0
VERTEX
  8
0
  5
C50
 10
838.535
 20
253.167
 30
0.000000
  70
    32
  0
VERTEX
  8
0
  5
C51
 10
838.534
 20
253.170
 30
0.000000
  70
    32
  0
VERTEX
  8
0
  5
C52
 10
838.534
 20
253.173
 30
0.000000
  70
    32
  0
VERTEX
  8
0
  5
C53
 10
838.534
 20
253.175
 30
0.000000
  70
    32
  0
VERTEX
  8
0
  5
C54
 10
838.533
 20
253.178
 30
0.000000
  70
    32
  0
VERTEX
  8
0
  5
C55
 10
838.533
 20
253.181
 30
0.000000
  70
    32
  0
SEQEND
  8
0
  5
C56
  0
POLYLINE
  8
0
  5
C57
  62
7
  66
     1
 10
0.000000
 20
0.000000
 30
0.000000
  70
     8
  0
VERTEX
  8
0
  5
C58
 10
819.793
 20
249.641
 30
0.000000
  70
    32
  0
VERTEX
  8
0
  5
C59
 10
819.793
 20
249.638
 30
0.000000
  70
    32
  0
VERTEX
  8
0
  5
C5A
 10
819.793
 20
249.636
 30
0.000000
  70
    32
  0
VERTEX
  8
0
  5
C5B
 10
819.793
 20
249.633
 30
0.000000
  70
    32
  0
VERTEX
  8
0
  5
C5C
 10
819.793
 20
249.631
 30
0.000000
  70
    32
  0
VERTEX
  8
0
  5
C5D
 10
819.793
 20
249.628
 30
0.000000
  70
    32
  0
VERTEX
  8
0
  5
C5E
 10
819.794
 20
249.626
 30
0.000000
  70
    32
  0
VERTEX
  8
0
  5
C5F
 10
819.794
 20
249.623
 30
0.000000
  70
    32
  0
VERTEX
  8
0
  5
C60
 10
819.794
 20
249.621
 30
0.000000
  70
    32
  0
VERTEX
  8
0
  5
C61
 10
819.794
 20
249.618
 30
0.000000
  70
    32
  0
VERTEX
  8
0
  5
C62
 10
819.793
 20
249.616
 30
0.000000
  70
    32
  0
VERTEX
  8
0
  5
C63
 10
819.793
 20
249.613
 30
0.000000
  70
    32
  0
VERTEX
  8
0
  5
C64
 10
819.793
 20
249.611
 30
0.000000
  70
    32
  0
VERTEX
  8
0
  5
C65
 10
819.793
 20
249.609
 30
0.000000
  70
    32
  0
VERTEX
  8
0
  5
C66
 10
819.793
 20
249.606
 30
0.000000
  70
    32
  0
VERTEX
  8
0
  5
C67
 10
819.793
 20
249.604
 30
0.000000
  70
    32
  0
VERTEX
  8
0
  5
C68
 10
819.793
 20
249.601
 30
0.000000
  70
    32
  0
VERTEX
  8
0
  5
C69
 10
819.793
 20
249.599
 30
0.000000
  70
    32
  0
VERTEX
  8
0
  5
C6A
 10
819.793
 20
249.597
 30
0.000000
  70
    32
  0
VERTEX
  8
0
  5
C6B
 10
819.793
 20
249.594
 30
0.000000
  70
    32
  0
VERTEX
  8
0
  5
C6C
 10
819.793
 20
249.592
 30
0.000000
  70
    32
  0
VERTEX
  8
0
  5
C6D
 10
819.792
 20
249.590
 30
0.000000
  70
    32
  0
VERTEX
  8
0
  5
C6E
 10
819.792
 20
249.587
 30
0.000000
  70
    32
  0
VERTEX
  8
0
  5
C6F
 10
819.792
 20
249.585
 30
0.000000
  70
    32
  0
VERTEX
  8
0
  5
C70
 10
819.792
 20
249.583
 30
0.000000
  70
    32
  0
VERTEX
  8
0
  5
C71
 10
819.792
 20
249.580
 30
0.000000
  70
    32
  0
VERTEX
  8
0
  5
C72
 10
819.792
 20
249.578
 30
0.000000
  70
    32
  0
VERTEX
  8
0
  5
C73
 10
819.791
 20
249.576
 30
0.000000
  70
    32
  0
VERTEX
  8
0
  5
C74
 10
819.791
 20
249.573
 30
0.000000
  70
    32
  0
VERTEX
  8
0
  5
C75
 10
819.791
 20
249.571
 30
0.000000
  70
    32
  0
VERTEX
  8
0
  5
C76
 10
819.791
 20
249.569
 30
0.000000
  70
    32
  0
VERTEX
  8
0
  5
C77
 10
819.791
 20
249.567
 30
0.000000
  70
    32
  0
VERTEX
  8
0
  5
C78
 10
819.790
 20
249.564
 30
0.000000
  70
    32
  0
VERTEX
  8
0
  5
C79
 10
819.790
 20
249.562
 30
0.000000
  70
    32
  0
VERTEX
  8
0
  5
C7A
 10
819.790
 20
249.560
 30
0.000000
  70
    32
  0
VERTEX
  8
0
  5
C7B
 10
819.790
 20
249.558
 30
0.000000
  70
    32
  0
VERTEX
  8
0
  5
C7C
 10
819.790
 20
249.555
 30
0.000000
  70
    32
  0
VERTEX
  8
0
  5
C7D
 10
819.789
 20
249.553
 30
0.000000
  70
    32
  0
VERTEX
  8
0
  5
C7E
 10
819.789
 20
249.551
 30
0.000000
  70
    32
  0
VERTEX
  8
0
  5
C7F
 10
819.789
 20
249.548
 30
0.000000
  70
    32
  0
VERTEX
  8
0
  5
C80
 10
819.789
 20
249.546
 30
0.000000
  70
    32
  0
VERTEX
  8
0
  5
C81
 10
819.788
 20
249.544
 30
0.000000
  70
    32
  0
VERTEX
  8
0
  5
C82
 10
819.788
 20
249.542
 30
0.000000
  70
    32
  0
VERTEX
  8
0
  5
C83
 10
819.788
 20
249.539
 30
0.000000
  70
    32
  0
VERTEX
  8
0
  5
C84
 10
819.788
 20
249.537
 30
0.000000
  70
    32
  0
VERTEX
  8
0
  5
C85
 10
819.788
 20
249.535
 30
0.000000
  70
    32
  0
VERTEX
  8
0
  5
C86
 10
819.787
 20
249.533
 30
0.000000
  70
    32
  0
VERTEX
  8
0
  5
C87
 10
819.787
 20
249.530
 30
0.000000
  70
    32
  0
VERTEX
  8
0
  5
C88
 10
819.787
 20
249.528
 30
0.000000
  70
    32
  0
VERTEX
  8
0
  5
C89
 10
819.787
 20
249.526
 30
0.000000
  70
    32
  0
VERTEX
  8
0
  5
C8A
 10
819.786
 20
249.524
 30
0.000000
  70
    32
  0
VERTEX
  8
0
  5
C8B
 10
819.786
 20
249.521
 30
0.000000
  70
    32
  0
VERTEX
  8
0
  5
C8C
 10
819.786
 20
249.519
 30
0.000000
  70
    32
  0
VERTEX
  8
0
  5
C8D
 10
819.786
 20
249.517
 30
0.000000
  70
    32
  0
VERTEX
  8
0
  5
C8E
 10
819.786
 20
249.514
 30
0.000000
  70
    32
  0
VERTEX
  8
0
  5
C8F
 10
819.786
 20
249.512
 30
0.000000
  70
    32
  0
VERTEX
  8
0
  5
C90
 10
819.785
 20
249.510
 30
0.000000
  70
    32
  0
VERTEX
  8
0
  5
C91
 10
819.785
 20
249.507
 30
0.000000
  70
    32
  0
VERTEX
  8
0
  5
C92
 10
819.785
 20
249.505
 30
0.000000
  70
    32
  0
VERTEX
  8
0
  5
C93
 10
819.785
 20
249.503
 30
0.000000
  70
    32
  0
VERTEX
  8
0
  5
C94
 10
819.785
 20
249.500
 30
0.000000
  70
    32
  0
VERTEX
  8
0
  5
C95
 10
819.785
 20
249.498
 30
0.000000
  70
    32
  0
VERTEX
  8
0
  5
C96
 10
819.784
 20
249.496
 30
0.000000
  70
    32
  0
VERTEX
  8
0
  5
C97
 10
819.784
 20
249.493
 30
0.000000
  70
    32
  0
VERTEX
  8
0
  5
C98
 10
819.784
 20
249.491
 30
0.000000
  70
    32
  0
VERTEX
  8
0
  5
C99
 10
819.784
 20
249.489
 30
0.000000
  70
    32
  0
VERTEX
  8
0
  5
C9A
 10
819.784
 20
249.486
 30
0.000000
  70
    32
  0
VERTEX
  8
0
  5
C9B
 10
819.784
 20
249.484
 30
0.000000
  70
    32
  0
VERTEX
  8
0
  5
C9C
 10
819.784
 20
249.481
 30
0.000000
  70
    32
  0
VERTEX
  8
0
  5
C9D
 10
819.784
 20
249.479
 30
0.000000
  70
    32
  0
VERTEX
  8
0
  5
C9E
 10
819.784
 20
249.477
 30
0.000000
  70
    32
  0
VERTEX
  8
0
  5
C9F
 10
819.784
 20
249.474
 30
0.000000
  70
    32
  0
VERTEX
  8
0
  5
CA0
 10
819.784
 20
249.472
 30
0.000000
  70
    32
  0
VERTEX
  8
0
  5
CA1
 10
819.784
 20
249.469
 30
0.000000
  70
    32
  0
VERTEX
  8
0
  5
CA2
 10
819.784
 20
249.467
 30
0.000000
  70
    32
  0
VERTEX
  8
0
  5
CA3
 10
819.784
 20
249.464
 30
0.000000
  70
    32
  0
VERTEX
  8
0
  5
CA4
 10
819.784
 20
249.462
 30
0.000000
  70
    32
  0
VERTEX
  8
0
  5
CA5
 10
819.784
 20
249.459
 30
0.000000
  70
    32
  0
VERTEX
  8
0
  5
CA6
 10
819.784
 20
249.457
 30
0.000000
  70
    32
  0
VERTEX
  8
0
  5
CA7
 10
819.784
 20
249.454
 30
0.000000
  70
    32
  0
VERTEX
  8
0
  5
CA8
 10
819.784
 20
249.452
 30
0.000000
  70
    32
  0
VERTEX
  8
0
  5
CA9
 10
819.784
 20
249.449
 30
0.000000
  70
    32
  0
VERTEX
  8
0
  5
CAA
 10
819.784
 20
249.446
 30
0.000000
  70
    32
  0
VERTEX
  8
0
  5
CAB
 10
819.785
 20
249.444
 30
0.000000
  70
    32
  0
VERTEX
  8
0
  5
CAC
 10
819.785
 20
249.441
 30
0.000000
  70
    32
  0
VERTEX
  8
0
  5
CAD
 10
819.785
 20
249.438
 30
0.000000
  70
    32
  0
VERTEX
  8
0
  5
CAE
 10
819.785
 20
249.436
 30
0.000000
  70
    32
  0
VERTEX
  8
0
  5
CAF
 10
819.785
 20
249.433
 30
0.000000
  70
    32
  0
VERTEX
  8
0
  5
CB0
 10
819.786
 20
249.430
 30
0.000000
  70
    32
  0
VERTEX
  8
0
  5
CB1
 10
819.786
 20
249.428
 30
0.000000
  70
    32
  0
VERTEX
  8
0
  5
CB2
 10
819.786
 20
249.425
 30
0.000000
  70
    32
  0
VERTEX
  8
0
  5
CB3
 10
819.787
 20
249.422
 30
0.000000
  70
    32
  0
VERTEX
  8
0
  5
CB4
 10
819.787
 20
249.419
 30
0.000000
  70
    32
  0
VERTEX
  8
0
  5
CB5
 10
819.787
 20
249.417
 30
0.000000
  70
    32
  0
VERTEX
  8
0
  5
CB6
 10
819.788
 20
249.414
 30
0.000000
  70
    32
  0
VERTEX
  8
0
  5
CB7
 10
819.788
 20
249.411
 30
0.000000
  70
    32
  0
VERTEX
  8
0
  5
CB8
 10
819.788
 20
249.408
 30
0.000000
  70
    32
  0
VERTEX
  8
0
  5
CB9
 10
819.789
 20
249.405
 30
0.000000
  70
    32
  0
VERTEX
  8
0
  5
CBA
 10
819.789
 20
249.402
 30
0.000000
  70
    32
  0
VERTEX
  8
0
  5
CBB
 10
819.790
 20
249.399
 30
0.000000
  70
    32
  0
VERTEX
  8
0
  5
CBC
 10
819.790
 20
249.396
 30
0.000000
  70
    32
  0
VERTEX
  8
0
  5
CBD
 10
819.791
 20
249.393
 30
0.000000
  70
    32
  0
VERTEX
  8
0
  5
CBE
 10
819.791
 20
249.390
 30
0.000000
  70
    32
  0
VERTEX
  8
0
  5
CBF
 10
819.792
 20
249.387
 30
0.000000
  70
    32
  0
VERTEX
  8
0
  5
CC0
 10
819.793
 20
249.384
 30
0.000000
  70
    32
  0
VERTEX
  8
0
  5
CC1
 10
819.793
 20
249.381
 30
0.000000
  70
    32
  0
VERTEX
  8
0
  5
CC2
 10
819.794
 20
249.378
 30
0.000000
  70
    32
  0
VERTEX
  8
0
  5
CC3
 10
819.795
 20
249.375
 30
0.000000
  70
    32
  0
VERTEX
  8
0
  5
CC4
 10
819.796
 20
249.372
 30
0.000000
  70
    32
  0
VERTEX
  8
0
  5
CC5
 10
819.796
 20
249.369
 30
0.000000
  70
    32
  0
VERTEX
  8
0
  5
CC6
 10
819.797
 20
249.366
 30
0.000000
  70
    32
  0
VERTEX
  8
0
  5
CC7
 10
819.798
 20
249.362
 30
0.000000
  70
    32
  0
VERTEX
  8
0
  5
CC8
 10
819.799
 20
249.359
 30
0.000000
  70
    32
  0
VERTEX
  8
0
  5
CC9
 10
819.800
 20
249.356
 30
0.000000
  70
    32
  0
VERTEX
  8
0
  5
CCA
 10
819.801
 20
249.352
 30
0.000000
  70
    32
  0
VERTEX
  8
0
  5
CCB
 10
819.802
 20
249.349
 30
0.000000
  70
    32
  0
VERTEX
  8
0
  5
CCC
 10
819.802
 20
249.346
 30
0.000000
  70
    32
  0
VERTEX
  8
0
  5
CCD
 10
819.804
 20
249.342
 30
0.000000
  70
    32
  0
VERTEX
  8
0
  5
CCE
 10
819.805
 20
249.339
 30
0.000000
  70
    32
  0
VERTEX
  8
0
  5
CCF
 10
819.806
 20
249.335
 30
0.000000
  70
    32
  0
VERTEX
  8
0
  5
CD0
 10
819.807
 20
249.332
 30
0.000000
  70
    32
  0
VERTEX
  8
0
  5
CD1
 10
819.808
 20
249.328
 30
0.000000
  70
    32
  0
VERTEX
  8
0
  5
CD2
 10
819.809
 20
249.325
 30
0.000000
  70
    32
  0
VERTEX
  8
0
  5
CD3
 10
819.810
 20
249.321
 30
0.000000
  70
    32
  0
VERTEX
  8
0
  5
CD4
 10
819.811
 20
249.318
 30
0.000000
  70
    32
  0
VERTEX
  8
0
  5
CD5
 10
819.813
 20
249.314
 30
0.000000
  70
    32
  0
VERTEX
  8
0
  5
CD6
 10
819.814
 20
249.310
 30
0.000000
  70
    32
  0
VERTEX
  8
0
  5
CD7
 10
819.815
 20
249.307
 30
0.000000
  70
    32
  0
VERTEX
  8
0
  5
CD8
 10
819.816
 20
249.303
 30
0.000000
  70
    32
  0
VERTEX
  8
0
  5
CD9
 10
819.818
 20
249.300
 30
0.000000
  70
    32
  0
VERTEX
  8
0
  5
CDA
 10
819.819
 20
249.296
 30
0.000000
  70
    32
  0
VERTEX
  8
0
  5
CDB
 10
819.820
 20
249.293
 30
0.000000
  70
    32
  0
VERTEX
  8
0
  5
CDC
 10
819.821
 20
249.289
 30
0.000000
  70
    32
  0
VERTEX
  8
0
  5
CDD
 10
819.822
 20
249.286
 30
0.000000
  70
    32
  0
VERTEX
  8
0
  5
CDE
 10
819.823
 20
249.282
 30
0.000000
  70
    32
  0
VERTEX
  8
0
  5
CDF
 10
819.824
 20
249.279
 30
0.000000
  70
    32
  0
VERTEX
  8
0
  5
CE0
 10
819.825
 20
249.276
 30
0.000000
  70
    32
  0
VERTEX
  8
0
  5
CE1
 10
819.826
 20
249.272
 30
0.000000
  70
    32
  0
VERTEX
  8
0
  5
CE2
 10
819.826
 20
249.269
 30
0.000000
  70
    32
  0
VERTEX
  8
0
  5
CE3
 10
819.827
 20
249.266
 30
0.000000
  70
    32
  0
VERTEX
  8
0
  5
CE4
 10
819.828
 20
249.263
 30
0.000000
  70
    32
  0
VERTEX
  8
0
  5
CE5
 10
819.828
 20
249.260
 30
0.000000
  70
    32
  0
VERTEX
  8
0
  5
CE6
 10
819.829
 20
249.257
 30
0.000000
  70
    32
  0
VERTEX
  8
0
  5
CE7
 10
819.829
 20
249.255
 30
0.000000
  70
    32
  0
VERTEX
  8
0
  5
CE8
 10
819.829
 20
249.252
 30
0.000000
  70
    32
  0
VERTEX
  8
0
  5
CE9
 10
819.829
 20
249.250
 30
0.000000
  70
    32
  0
VERTEX
  8
0
  5
CEA
 10
819.829
 20
249.247
 30
0.000000
  70
    32
  0
VERTEX
  8
0
  5
CEB
 10
819.829
 20
249.245
 30
0.000000
  70
    32
  0
VERTEX
  8
0
  5
CEC
 10
819.828
 20
249.243
 30
0.000000
  70
    32
  0
VERTEX
  8
0
  5
CED
 10
819.828
 20
249.241
 30
0.000000
  70
    32
  0
VERTEX
  8
0
  5
CEE
 10
819.827
 20
249.239
 30
0.000000
  70
    32
  0
VERTEX
  8
0
  5
CEF
 10
819.826
 20
249.238
 30
0.000000
  70
    32
  0
VERTEX
  8
0
  5
CF0
 10
819.825
 20
249.236
 30
0.000000
  70
    32
  0
VERTEX
  8
0
  5
CF1
 10
819.824
 20
249.235
 30
0.000000
  70
    32
  0
VERTEX
  8
0
  5
CF2
 10
819.822
 20
249.234
 30
0.000000
  70
    32
  0
VERTEX
  8
0
  5
CF3
 10
819.821
 20
249.233
 30
0.000000
  70
    32
  0
VERTEX
  8
0
  5
CF4
 10
819.819
 20
249.232
 30
0.000000
  70
    32
  0
VERTEX
  8
0
  5
CF5
 10
819.817
 20
249.231
 30
0.000000
  70
    32
  0
VERTEX
  8
0
  5
CF6
 10
819.814
 20
249.231
 30
0.000000
  70
    32
  0
VERTEX
  8
0
  5
CF7
 10
819.812
 20
249.231
 30
0.000000
  70
    32
  0
SEQEND
  8
0
  5
CF8
  0
POLYLINE
  8
0
  5
CF9
  62
7
  66
     1
 10
0.000000
 20
0.000000
 30
0.000000
  70
     8
  0
VERTEX
  8
0
  5
CFA
 10
819.793
 20
249.641
 30
0.000000
  70
    32
  0
VERTEX
  8
0
  5
CFB
 10
819.793
 20
249.642
 30
0.000000
  70
    32
  0
VERTEX
  8
0
  5
CFC
 10
819.793
 20
249.644
 30
0.000000
  70
    32
  0
VERTEX
  8
0
  5
CFD
 10
819.793
 20
249.645
 30
0.000000
  70
    32
  0
VERTEX
  8
0
  5
CFE
 10
819.793
 20
249.647
 30
0.000000
  70
    32
  0
VERTEX
  8
0
  5
CFF
 10
819.793
 20
249.648
 30
0.000000
  70
    32
  0
VERTEX
  8
0
  5
D00
 10
819.793
 20
249.650
 30
0.000000
  70
    32
  0
VERTEX
  8
0
  5
D01
 10
819.793
 20
249.651
 30
0.000000
  70
    32
  0
VERTEX
  8
0
  5
D02
 10
819.793
 20
249.653
 30
0.000000
  70
    32
  0
VERTEX
  8
0
  5
D03
 10
819.793
 20
249.654
 30
0.000000
  70
    32
  0
VERTEX
  8
0
  5
D04
 10
819.793
 20
249.656
 30
0.000000
  70
    32
  0
VERTEX
  8
0
  5
D05
 10
819.793
 20
249.657
 30
0.000000
  70
    32
  0
VERTEX
  8
0
  5
D06
 10
819.792
 20
249.658
 30
0.000000
  70
    32
  0
VERTEX
  8
0
  5
D07
 10
819.792
 20
249.660
 30
0.000000
  70
    32
  0
VERTEX
  8
0
  5
D08
 10
819.792
 20
249.661
 30
0.000000
  70
    32
  0
VERTEX
  8
0
  5
D09
 10
819.792
 20
249.663
 30
0.000000
  70
    32
  0
VERTEX
  8
0
  5
D0A
 10
819.792
 20
249.664
 30
0.000000
  70
    32
  0
VERTEX
  8
0
  5
D0B
 10
819.792
 20
249.666
 30
0.000000
  70
    32
  0
VERTEX
  8
0
  5
D0C
 10
819.792
 20
249.667
 30
0.000000
  70
    32
  0
VERTEX
  8
0
  5
D0D
 10
819.792
 20
249.669
 30
0.000000
  70
    32
  0
VERTEX
  8
0
  5
D0E
 10
819.792
 20
249.670
 30
0.000000
  70
    32
  0
VERTEX
  8
0
  5
D0F
 10
819.792
 20
249.672
 30
0.000000
  70
    32
  0
VERTEX
  8
0
  5
D10
 10
819.792
 20
249.673
 30
0.000000
  70
    32
  0
VERTEX
  8
0
  5
D11
 10
819.792
 20
249.674
 30
0.000000
  70
    32
  0
VERTEX
  8
0
  5
D12
 10
819.792
 20
249.676
 30
0.000000
  70
    32
  0
VERTEX
  8
0
  5
D13
 10
819.792
 20
249.677
 30
0.000000
  70
    32
  0
VERTEX
  8
0
  5
D14
 10
819.791
 20
249.679
 30
0.000000
  70
    32
  0
VERTEX
  8
0
  5
D15
 10
819.791
 20
249.680
 30
0.000000
  70
    32
  0
VERTEX
  8
0
  5
D16
 10
819.791
 20
249.682
 30
0.000000
  70
    32
  0
VERTEX
  8
0
  5
D17
 10
819.791
 20
249.683
 30
0.000000
  70
    32
  0
VERTEX
  8
0
  5
D18
 10
819.791
 20
249.685
 30
0.000000
  70
    32
  0
VERTEX
  8
0
  5
D19
 10
819.791
 20
249.686
 30
0.000000
  70
    32
  0
VERTEX
  8
0
  5
D1A
 10
819.791
 20
249.688
 30
0.000000
  70
    32
  0
VERTEX
  8
0
  5
D1B
 10
819.791
 20
249.689
 30
0.000000
  70
    32
  0
VERTEX
  8
0
  5
D1C
 10
819.791
 20
249.691
 30
0.000000
  70
    32
  0
VERTEX
  8
0
  5
D1D
 10
819.791
 20
249.692
 30
0.000000
  70
    32
  0
VERTEX
  8
0
  5
D1E
 10
819.791
 20
249.693
 30
0.000000
  70
    32
  0
VERTEX
  8
0
  5
D1F
 10
819.790
 20
249.695
 30
0.000000
  70
    32
  0
VERTEX
  8
0
  5
D20
 10
819.790
 20
249.696
 30
0.000000
  70
    32
  0
VERTEX
  8
0
  5
D21
 10
819.790
 20
249.698
 30
0.000000
  70
    32
  0
VERTEX
  8
0
  5
D22
 10
819.790
 20
249.699
 30
0.000000
  70
    32
  0
VERTEX
  8
0
  5
D23
 10
819.790
 20
249.701
 30
0.000000
  70
    32
  0
VERTEX
  8
0
  5
D24
 10
819.790
 20
249.702
 30
0.000000
  70
    32
  0
VERTEX
  8
0
  5
D25
 10
819.790
 20
249.704
 30
0.000000
  70
    32
  0
VERTEX
  8
0
  5
D26
 10
819.790
 20
249.705
 30
0.000000
  70
    32
  0
VERTEX
  8
0
  5
D27
 10
819.790
 20
249.707
 30
0.000000
  70
    32
  0
VERTEX
  8
0
  5
D28
 10
819.790
 20
249.708
 30
0.000000
  70
    32
  0
VERTEX
  8
0
  5
D29
 10
819.789
 20
249.709
 30
0.000000
  70
    32
  0
VERTEX
  8
0
  5
D2A
 10
819.789
 20
249.711
 30
0.000000
  70
    32
  0
VERTEX
  8
0
  5
D2B
 10
819.789
 20
249.712
 30
0.000000
  70
    32
  0
VERTEX
  8
0
  5
D2C
 10
819.789
 20
249.714
 30
0.000000
  70
    32
  0
VERTEX
  8
0
  5
D2D
 10
819.789
 20
249.715
 30
0.000000
  70
    32
  0
VERTEX
  8
0
  5
D2E
 10
819.789
 20
249.717
 30
0.000000
  70
    32
  0
VERTEX
  8
0
  5
D2F
 10
819.789
 20
249.718
 30
0.000000
  70
    32
  0
VERTEX
  8
0
  5
D30
 10
819.789
 20
249.720
 30
0.000000
  70
    32
  0
VERTEX
  8
0
  5
D31
 10
819.789
 20
249.721
 30
0.000000
  70
    32
  0
VERTEX
  8
0
  5
D32
 10
819.788
 20
249.722
 30
0.000000
  70
    32
  0
VERTEX
  8
0
  5
D33
 10
819.788
 20
249.724
 30
0.000000
  70
    32
  0
VERTEX
  8
0
  5
D34
 10
819.788
 20
249.725
 30
0.000000
  70
    32
  0
VERTEX
  8
0
  5
D35
 10
819.788
 20
249.727
 30
0.000000
  70
    32
  0
VERTEX
  8
0
  5
D36
 10
819.788
 20
249.728
 30
0.000000
  70
    32
  0
VERTEX
  8
0
  5
D37
 10
819.788
 20
249.730
 30
0.000000
  70
    32
  0
VERTEX
  8
0
  5
D38
 10
819.788
 20
249.731
 30
0.000000
  70
    32
  0
VERTEX
  8
0
  5
D39
 10
819.788
 20
249.733
 30
0.000000
  70
    32
  0
VERTEX
  8
0
  5
D3A
 10
819.787
 20
249.734
 30
0.000000
  70
    32
  0
VERTEX
  8
0
  5
D3B
 10
819.787
 20
249.736
 30
0.000000
  70
    32
  0
VERTEX
  8
0
  5
D3C
 10
819.787
 20
249.737
 30
0.000000
  70
    32
  0
VERTEX
  8
0
  5
D3D
 10
819.787
 20
249.738
 30
0.000000
  70
    32
  0
VERTEX
  8
0
  5
D3E
 10
819.787
 20
249.740
 30
0.000000
  70
    32
  0
VERTEX
  8
0
  5
D3F
 10
819.787
 20
249.741
 30
0.000000
  70
    32
  0
VERTEX
  8
0
  5
D40
 10
819.787
 20
249.743
 30
0.000000
  70
    32
  0
VERTEX
  8
0
  5
D41
 10
819.787
 20
249.744
 30
0.000000
  70
    32
  0
VERTEX
  8
0
  5
D42
 10
819.786
 20
249.746
 30
0.000000
  70
    32
  0
VERTEX
  8
0
  5
D43
 10
819.786
 20
249.747
 30
0.000000
  70
    32
  0
VERTEX
  8
0
  5
D44
 10
819.786
 20
249.749
 30
0.000000
  70
    32
  0
VERTEX
  8
0
  5
D45
 10
819.786
 20
249.750
 30
0.000000
  70
    32
  0
VERTEX
  8
0
  5
D46
 10
819.786
 20
249.752
 30
0.000000
  70
    32
  0
VERTEX
  8
0
  5
D47
 10
819.786
 20
249.753
 30
0.000000
  70
    32
  0
VERTEX
  8
0
  5
D48
 10
819.786
 20
249.754
 30
0.000000
  70
    32
  0
VERTEX
  8
0
  5
D49
 10
819.785
 20
249.756
 30
0.000000
  70
    32
  0
VERTEX
  8
0
  5
D4A
 10
819.785
 20
249.757
 30
0.000000
  70
    32
  0
VERTEX
  8
0
  5
D4B
 10
819.785
 20
249.759
 30
0.000000
  70
    32
  0
VERTEX
  8
0
  5
D4C
 10
819.785
 20
249.760
 30
0.000000
  70
    32
  0
VERTEX
  8
0
  5
D4D
 10
819.785
 20
249.762
 30
0.000000
  70
    32
  0
VERTEX
  8
0
  5
D4E
 10
819.785
 20
249.763
 30
0.000000
  70
    32
  0
VERTEX
  8
0
  5
D4F
 10
819.785
 20
249.765
 30
0.000000
  70
    32
  0
VERTEX
  8
0
  5
D50
 10
819.784
 20
249.766
 30
0.000000
  70
    32
  0
VERTEX
  8
0
  5
D51
 10
819.784
 20
249.768
 30
0.000000
  70
    32
  0
VERTEX
  8
0
  5
D52
 10
819.784
 20
249.769
 30
0.000000
  70
    32
  0
VERTEX
  8
0
  5
D53
 10
819.784
 20
249.770
 30
0.000000
  70
    32
  0
VERTEX
  8
0
  5
D54
 10
819.784
 20
249.772
 30
0.000000
  70
    32
  0
VERTEX
  8
0
  5
D55
 10
819.784
 20
249.773
 30
0.000000
  70
    32
  0
VERTEX
  8
0
  5
D56
 10
819.784
 20
249.775
 30
0.000000
  70
    32
  0
VERTEX
  8
0
  5
D57
 10
819.783
 20
249.776
 30
0.000000
  70
    32
  0
VERTEX
  8
0
  5
D58
 10
819.783
 20
249.778
 30
0.000000
  70
    32
  0
VERTEX
  8
0
  5
D59
 10
819.783
 20
249.779
 30
0.000000
  70
    32
  0
VERTEX
  8
0
  5
D5A
 10
819.783
 20
249.781
 30
0.000000
  70
    32
  0
VERTEX
  8
0
  5
D5B
 10
819.783
 20
249.782
 30
0.000000
  70
    32
  0
VERTEX
  8
0
  5
D5C
 10
819.783
 20
249.783
 30
0.000000
  70
    32
  0
VERTEX
  8
0
  5
D5D
 10
819.782
 20
249.785
 30
0.000000
  70
    32
  0
VERTEX
  8
0
  5
D5E
 10
819.782
 20
249.786
 30
0.000000
  70
    32
  0
VERTEX
  8
0
  5
D5F
 10
819.782
 20
249.788
 30
0.000000
  70
    32
  0
VERTEX
  8
0
  5
D60
 10
819.782
 20
249.789
 30
0.000000
  70
    32
  0
VERTEX
  8
0
  5
D61
 10
819.782
 20
249.791
 30
0.000000
  70
    32
  0
VERTEX
  8
0
  5
D62
 10
819.782
 20
249.792
 30
0.000000
  70
    32
  0
VERTEX
  8
0
  5
D63
 10
819.781
 20
249.794
 30
0.000000
  70
    32
  0
VERTEX
  8
0
  5
D64
 10
819.781
 20
249.795
 30
0.000000
  70
    32
  0
VERTEX
  8
0
  5
D65
 10
819.781
 20
249.797
 30
0.000000
  70
    32
  0
VERTEX
  8
0
  5
D66
 10
819.781
 20
249.798
 30
0.000000
  70
    32
  0
VERTEX
  8
0
  5
D67
 10
819.781
 20
249.799
 30
0.000000
  70
    32
  0
VERTEX
  8
0
  5
D68
 10
819.781
 20
249.801
 30
0.000000
  70
    32
  0
VERTEX
  8
0
  5
D69
 10
819.780
 20
249.802
 30
0.000000
  70
    32
  0
VERTEX
  8
0
  5
D6A
 10
819.780
 20
249.804
 30
0.000000
  70
    32
  0
VERTEX
  8
0
  5
D6B
 10
819.780
 20
249.805
 30
0.000000
  70
    32
  0
VERTEX
  8
0
  5
D6C
 10
819.780
 20
249.807
 30
0.000000
  70
    32
  0
VERTEX
  8
0
  5
D6D
 10
819.780
 20
249.808
 30
0.000000
  70
    32
  0
VERTEX
  8
0
  5
D6E
 10
819.780
 20
249.810
 30
0.000000
  70
    32
  0
VERTEX
  8
0
  5
D6F
 10
819.779
 20
249.811
 30
0.000000
  70
    32
  0
VERTEX
  8
0
  5
D70
 10
819.779
 20
249.812
 30
0.000000
  70
    32
  0
VERTEX
  8
0
  5
D71
 10
819.779
 20
249.814
 30
0.000000
  70
    32
  0
VERTEX
  8
0
  5
D72
 10
819.779
 20
249.815
 30
0.000000
  70
    32
  0
VERTEX
  8
0
  5
D73
 10
819.779
 20
249.817
 30
0.000000
  70
    32
  0
VERTEX
  8
0
  5
D74
 10
819.778
 20
249.818
 30
0.000000
  70
    32
  0
VERTEX
  8
0
  5
D75
 10
819.778
 20
249.820
 30
0.000000
  70
    32
  0
VERTEX
  8
0
  5
D76
 10
819.778
 20
249.821
 30
0.000000
  70
    32
  0
VERTEX
  8
0
  5
D77
 10
819.778
 20
249.823
 30
0.000000
  70
    32
  0
VERTEX
  8
0
  5
D78
 10
819.778
 20
249.824
 30
0.000000
  70
    32
  0
VERTEX
  8
0
  5
D79
 10
819.778
 20
249.825
 30
0.000000
  70
    32
  0
VERTEX
  8
0
  5
D7A
 10
819.777
 20
249.827
 30
0.000000
  70
    32
  0
VERTEX
  8
0
  5
D7B
 10
819.777
 20
249.828
 30
0.000000
  70
    32
  0
VERTEX
  8
0
  5
D7C
 10
819.777
 20
249.830
 30
0.000000
  70
    32
  0
VERTEX
  8
0
  5
D7D
 10
819.777
 20
249.831
 30
0.000000
  70
    32
  0
VERTEX
  8
0
  5
D7E
 10
819.777
 20
249.833
 30
0.000000
  70
    32
  0
VERTEX
  8
0
  5
D7F
 10
819.776
 20
249.834
 30
0.000000
  70
    32
  0
VERTEX
  8
0
  5
D80
 10
819.776
 20
249.836
 30
0.000000
  70
    32
  0
VERTEX
  8
0
  5
D81
 10
819.776
 20
249.837
 30
0.000000
  70
    32
  0
VERTEX
  8
0
  5
D82
 10
819.776
 20
249.838
 30
0.000000
  70
    32
  0
VERTEX
  8
0
  5
D83
 10
819.776
 20
249.840
 30
0.000000
  70
    32
  0
VERTEX
  8
0
  5
D84
 10
819.775
 20
249.841
 30
0.000000
  70
    32
  0
VERTEX
  8
0
  5
D85
 10
819.775
 20
249.843
 30
0.000000
  70
    32
  0
VERTEX
  8
0
  5
D86
 10
819.775
 20
249.844
 30
0.000000
  70
    32
  0
VERTEX
  8
0
  5
D87
 10
819.775
 20
249.846
 30
0.000000
  70
    32
  0
VERTEX
  8
0
  5
D88
 10
819.775
 20
249.847
 30
0.000000
  70
    32
  0
VERTEX
  8
0
  5
D89
 10
819.774
 20
249.849
 30
0.000000
  70
    32
  0
VERTEX
  8
0
  5
D8A
 10
819.774
 20
249.850
 30
0.000000
  70
    32
  0
VERTEX
  8
0
  5
D8B
 10
819.774
 20
249.851
 30
0.000000
  70
    32
  0
VERTEX
  8
0
  5
D8C
 10
819.774
 20
249.853
 30
0.000000
  70
    32
  0
VERTEX
  8
0
  5
D8D
 10
819.774
 20
249.854
 30
0.000000
  70
    32
  0
VERTEX
  8
0
  5
D8E
 10
819.773
 20
249.856
 30
0.000000
  70
    32
  0
VERTEX
  8
0
  5
D8F
 10
819.773
 20
249.857
 30
0.000000
  70
    32
  0
VERTEX
  8
0
  5
D90
 10
819.773
 20
249.859
 30
0.000000
  70
    32
  0
VERTEX
  8
0
  5
D91
 10
819.773
 20
249.860
 30
0.000000
  70
    32
  0
VERTEX
  8
0
  5
D92
 10
819.773
 20
249.862
 30
0.000000
  70
    32
  0
VERTEX
  8
0
  5
D93
 10
819.772
 20
249.863
 30
0.000000
  70
    32
  0
VERTEX
  8
0
  5
D94
 10
819.772
 20
249.864
 30
0.000000
  70
    32
  0
VERTEX
  8
0
  5
D95
 10
819.772
 20
249.866
 30
0.000000
  70
    32
  0
VERTEX
  8
0
  5
D96
 10
819.772
 20
249.867
 30
0.000000
  70
    32
  0
VERTEX
  8
0
  5
D97
 10
819.772
 20
249.869
 30
0.000000
  70
    32
  0
VERTEX
  8
0
  5
D98
 10
819.771
 20
249.870
 30
0.000000
  70
    32
  0
VERTEX
  8
0
  5
D99
 10
819.771
 20
249.872
 30
0.000000
  70
    32
  0
VERTEX
  8
0
  5
D9A
 10
819.771
 20
249.873
 30
0.000000
  70
    32
  0
VERTEX
  8
0
  5
D9B
 10
819.771
 20
249.875
 30
0.000000
  70
    32
  0
VERTEX
  8
0
  5
D9C
 10
819.771
 20
249.876
 30
0.000000
  70
    32
  0
VERTEX
  8
0
  5
D9D
 10
819.770
 20
249.877
 30
0.000000
  70
    32
  0
VERTEX
  8
0
  5
D9E
 10
819.770
 20
249.879
 30
0.000000
  70
    32
  0
VERTEX
  8
0
  5
D9F
 10
819.770
 20
249.880
 30
0.000000
  70
    32
  0
VERTEX
  8
0
  5
DA0
 10
819.770
 20
249.882
 30
0.000000
  70
    32
  0
VERTEX
  8
0
  5
DA1
 10
819.769
 20
249.883
 30
0.000000
  70
    32
  0
VERTEX
  8
0
  5
DA2
 10
819.769
 20
249.885
 30
0.000000
  70
    32
  0
VERTEX
  8
0
  5
DA3
 10
819.769
 20
249.886
 30
0.000000
  70
    32
  0
VERTEX
  8
0
  5
DA4
 10
819.769
 20
249.888
 30
0.000000
  70
    32
  0
VERTEX
  8
0
  5
DA5
 10
819.769
 20
249.889
 30
0.000000
  70
    32
  0
VERTEX
  8
0
  5
DA6
 10
819.768
 20
249.890
 30
0.000000
  70
    32
  0
VERTEX
  8
0
  5
DA7
 10
819.768
 20
249.892
 30
0.000000
  70
    32
  0
VERTEX
  8
0
  5
DA8
 10
819.768
 20
249.893
 30
0.000000
  70
    32
  0
VERTEX
  8
0
  5
DA9
 10
819.768
 20
249.895
 30
0.000000
  70
    32
  0
VERTEX
  8
0
  5
DAA
 10
819.768
 20
249.896
 30
0.000000
  70
    32
  0
VERTEX
  8
0
  5
DAB
 10
819.767
 20
249.898
 30
0.000000
  70
    32
  0
VERTEX
  8
0
  5
DAC
 10
819.767
 20
249.899
 30
0.000000
  70
    32
  0
VERTEX
  8
0
  5
DAD
 10
819.767
 20
249.901
 30
0.000000
  70
    32
  0
VERTEX
  8
0
  5
DAE
 10
819.767
 20
249.902
 30
0.000000
  70
    32
  0
VERTEX
  8
0
  5
DAF
 10
819.766
 20
249.903
 30
0.000000
  70
    32
  0
VERTEX
  8
0
  5
DB0
 10
819.766
 20
249.905
 30
0.000000
  70
    32
  0
VERTEX
  8
0
  5
DB1
 10
819.766
 20
249.906
 30
0.000000
  70
    32
  0
VERTEX
  8
0
  5
DB2
 10
819.766
 20
249.908
 30
0.000000
  70
    32
  0
VERTEX
  8
0
  5
DB3
 10
819.765
 20
249.909
 30
0.000000
  70
    32
  0
VERTEX
  8
0
  5
DB4
 10
819.765
 20
249.911
 30
0.000000
  70
    32
  0
VERTEX
  8
0
  5
DB5
 10
819.765
 20
249.912
 30
0.000000
  70
    32
  0
VERTEX
  8
0
  5
DB6
 10
819.765
 20
249.913
 30
0.000000
  70
    32
  0
VERTEX
  8
0
  5
DB7
 10
819.765
 20
249.915
 30
0.000000
  70
    32
  0
VERTEX
  8
0
  5
DB8
 10
819.764
 20
249.916
 30
0.000000
  70
    32
  0
VERTEX
  8
0
  5
DB9
 10
819.764
 20
249.918
 30
0.000000
  70
    32
  0
SEQEND
  8
0
  5
DBA
  0
ENDSEC
  0
EOF
