  0
SECTION
  2
HEADER
  9
$ACADVER
  1
AC1009
  9
$INSBASE
 10
0.0
 20
0.0
 30
0.0
  9
$EXTMIN
 10
-81.287640313774091
 20
-161.92269474904879
 30
-0.0000000349181948
  9
$EXTMAX
 10
126.4413100915429
 20
318.10660209866342
 30
0.0000000814935746
  9
$LIMMIN
 10
0.0
 20
0.0
  9
$LIMMAX
 10
44.0
 20
34.0
  9
$ORTHOMODE
 70
     1
  9
$REGENMODE
 70
     1
  9
$FILLMODE
 70
     1
  9
$QTEXTMODE
 70
     0
  9
$MIRRTEXT
 70
     1
  9
$DRAGMODE
 70
     2
  9
$LTSCALE
 40
2.419999999999999
  9
$OSMODE
 70
    39
  9
$ATTMODE
 70
     1
  9
$TEXTSIZE
 40
0.2
  9
$TRACEWID
 40
0.05
  9
$TEXTSTYLE
  7
STANDARD
  9
$CLAYER
  8
0
  9
$CELTYPE
  6
BYLAYER
  9
$CECOLOR
 62
   256
  9
$DIMSCALE
 40
1.0
  9
$DIMASZ
 40
0.1875
  9
$DIMEXO
 40
0.275
  9
$DIMDLI
 40
1.671999999999999
  9
$DIMRND
 40
0.0
  9
$DIMDLE
 40
0.0
  9
$DIMEXE
 40
0.792
  9
$DIMTP
 40
0.0
  9
$DIMTM
 40
0.0
  9
$DIMTXT
 40
0.3
  9
$DIMCEN
 40
0.396
  9
$DIMTSZ
 40
0.0
  9
$DIMTOL
 70
     0
  9
$DIMLIM
 70
     0
  9
$DIMTIH
 70
     1
  9
$DIMTOH
 70
     1
  9
$DIMSE1
 70
     0
  9
$DIMSE2
 70
     0
  9
$DIMTAD
 70
     0
  9
$DIMZIN
 70
     0
  9
$DIMBLK
  1

  9
$DIMASO
 70
     1
  9
$DIMSHO
 70
     1
  9
$DIMPOST
  1

  9
$DIMAPOST
  1

  9
$DIMALT
 70
     0
  9
$DIMALTD
 70
     2
  9
$DIMALTF
 40
25.399999999999999
  9
$DIMLFAC
 40
1.0
  9
$DIMTOFL
 70
     0
  9
$DIMTVP
 40
0.0
  9
$DIMTIX
 70
     0
  9
$DIMSOXD
 70
     0
  9
$DIMSAH
 70
     0
  9
$DIMBLK1
  1

  9
$DIMBLK2
  1

  9
$DIMSTYLE
  2
STANDARD
  9
$DIMCLRD
 70
     0
  9
$DIMCLRE
 70
     0
  9
$DIMCLRT
 70
     0
  9
$DIMTFAC
 40
1.0
  9
$DIMGAP
 40
0.09
  9
$LUNITS
 70
     2
  9
$LUPREC
 70
     4
  9
$SKETCHINC
 40
0.1
  9
$FILLETRAD
 40
0.0
  9
$AUNITS
 70
     0
  9
$AUPREC
 70
     0
  9
$MENU
  1
acad
  9
$ELEVATION
 40
0.0
  9
$PELEVATION
 40
0.0
  9
$THICKNESS
 40
0.0
  9
$LIMCHECK
 70
     0
  9
$BLIPMODE
 70
     0
  9
$CHAMFERA
 40
0.0
  9
$CHAMFERB
 40
0.0
  9
$SKPOLY
 70
     0
  9
$TDCREATE
 40
2454355.4397256481
  9
$TDUPDATE
 40
2454455.5663699312
  9
$TDINDWG
 40
0.0032776736
  9
$TDUSRTIMER
 40
0.0032776736
  9
$USRTIMER
 70
     1
  9
$ANGBASE
 50
0.0
  9
$ANGDIR
 70
     0
  9
$PDMODE
 70
     3
  9
$PDSIZE
 40
0.3125
  9
$PLINEWID
 40
0.0
  9
$COORDS
 70
     1
  9
$SPLFRAME
 70
     0
  9
$SPLINETYPE
 70
     6
  9
$SPLINESEGS
 70
     8
  9
$ATTDIA
 70
     0
  9
$ATTREQ
 70
     1
  9
$HANDLING
 70
     1
  9
$HANDSEED
  5
AEE
  9
$SURFTAB1
 70
     6
  9
$SURFTAB2
 70
     6
  9
$SURFTYPE
 70
     6
  9
$SURFU
 70
     6
  9
$SURFV
 70
     6
  9
$UCSNAME
  2

  9
$UCSORG
 10
0.0
 20
0.0
 30
0.0
  9
$UCSXDIR
 10
1.0
 20
0.0
 30
0.0
  9
$UCSYDIR
 10
0.0
 20
1.0
 30
0.0
  9
$PUCSNAME
  2

  9
$PUCSORG
 10
0.0
 20
0.0
 30
0.0
  9
$PUCSXDIR
 10
1.0
 20
0.0
 30
0.0
  9
$PUCSYDIR
 10
0.0
 20
1.0
 30
0.0
  9
$USERI1
 70
     0
  9
$USERI2
 70
     0
  9
$USERI3
 70
     0
  9
$USERI4
 70
     0
  9
$USERI5
 70
     0
  9
$USERR1
 40
0.0
  9
$USERR2
 40
0.0
  9
$USERR3
 40
0.0
  9
$USERR4
 40
0.0
  9
$USERR5
 40
0.0
  9
$WORLDVIEW
 70
     1
  9
$SHADEDGE
 70
     3
  9
$SHADEDIF
 70
    70
  9
$TILEMODE
 70
     1
  9
$MAXACTVP
 70
    16
  9
$PLIMCHECK
 70
     0
  9
$PEXTMIN
 10
1.0000000000000000E+020
 20
1.0000000000000000E+020
 30
1.0000000000000000E+020
  9
$PEXTMAX
 10
-1.0000000000000000E+020
 20
-1.0000000000000000E+020
 30
-1.0000000000000000E+020
  9
$PLIMMIN
 10
0.0
 20
0.0
  9
$PLIMMAX
 10
12.0
 20
9.0
  9
$UNITMODE
 70
     0
  9
$VISRETAIN
 70
     0
  9
$PLINEGEN
 70
     1
  9
$PSLTSCALE
 70
     0
  0
ENDSEC
  0
SECTION
  2
TABLES
  0
TABLE
  2
VPORT
 70
     1
  0
VPORT
  2
*ACTIVE
 70
     0
 10
0.0
 20
0.0
 11
1.0
 21
1.0
 12
22.576834888884441
 22
78.091953674807343
 13
0.0
 23
0.0
 14
1.0
 24
1.0
 15
0.0
 25
0.0
 16
0.0
 26
0.0
 36
1.0
 17
0.0
 27
0.0
 37
0.0
 40
483.73132227327301
 41
1.5250965250965249
 42
50.0
 43
0.0
 44
0.0
 50
0.0
 51
0.0
 71
     0
 72
   100
 73
     1
 74
     1
 75
     0
 76
     0
 77
     0
 78
     0
  0
ENDTAB
  0
TABLE
  2
LTYPE
 70
    20
  0
LTYPE
  2
CONTINUOUS
 70
     0
  3
Solid line
 72
    65
 73
     0
 40
0.0
  0
LTYPE
  2
CENTER
 70
     0
  3
____ _ ____ _ ____ _ ____ _ ____ _ ____ _ ____
 72
    65
 73
     4
 40
0.6
 49
0.375
 49
-0.075
 49
0.075
 49
-0.075
  0
LTYPE
  2
HIDDEN
 70
     0
  3
- - - - - - - - - - - - - - - - - - - -
 72
    65
 73
     2
 40
0.2
 49
0.1
 49
-0.1
  0
LTYPE
  2
PHANTOM
 70
     0
  3
_____ _ _ _____ _ _ _____ _ _ _____
 72
    65
 73
     6
 40
0.8
 49
0.45
 49
-0.05
 49
0.1
 49
-0.05
 49
0.1
 49
-0.05
  0
LTYPE
  2
DOT
 70
     0
  3
. . . . . . . . . . . . . . . . . . . .
 72
    65
 73
     2
 40
0.2
 49
0.1
 49
-0.1
  0
LTYPE
  2
DASHED
 70
     0
  3
- - - - - - - - - - - - - - - - - - - -
 72
    65
 73
     2
 40
0.2
 49
0.1
 49
-0.1
  0
LTYPE
  2
PHANTOM2
 70
     0
  3
Phantom (.5x) ___ _ _ ___ _ _ ___ _ _ ___ _ _
 72
    65
 73
     6
 40
1.25
 49
0.625
 49
-0.125
 49
0.125
 49
-0.125
 49
0.125
 49
-0.125
  0
LTYPE
  2
AM_ISO02W050
 70
     0
  3
__ __ __ __ __ __ __ __ __ __ __ __ __ __ __
 72
    65
 73
     2
 40
7.5
 49
6.0
 49
-1.5
  0
LTYPE
  2
AM_ISO08W050
 70
     0
  3
____ . ____ . ____ . ____ . ____ . ____ . ____
 72
    65
 73
     4
 40
18.0
 49
12.0
 49
-1.5
 49
3.0
 49
-1.5
  0
LTYPE
  2
AM_ISO09W050
 70
     0
  3
_____ . . _____ . . _____ . . ____ .. ____
 72
    65
 73
     6
 40
22.5
 49
12.0
 49
-1.5
 49
3.0
 49
-1.5
 49
3.0
 49
-1.5
  0
LTYPE
  2
AMCONSTR
 70
     0
  3
_______________________
 72
    65
 73
     2
 40
9999.0
 49
9999.0
 49
0.0
  0
LTYPE
  2
AM_ISO08W050X2
 70
     0
  3
__ . __ . __ . __ . __ . __
 72
    65
 73
     4
 40
9.0
 49
6.0
 49
-0.75
 49
1.5
 49
-0.75
  0
LTYPE
  2
AM_ISO02W050X2
 70
     0
  3
 _ _ _ _ _ _ _ _ _ _ _ _
 72
    65
 73
     2
 40
3.75
 49
3.0
 49
-0.75
  0
LTYPE
  2
AMZIGZAG
 70
     0
  3
/\/-/\/-/\/-/\/-/\/-/\/
 72
    65
 73
     2
 40
11.0001
 49
0.0001
 49
-11.0
  0
LTYPE
  2
CENTER2
 70
     0
  3
Center (.5x) ___ _ ___ _ ___ _ ___ _ ___ _ ___
 72
    65
 73
     4
 40
1.125
 49
0.75
 49
-0.125
 49
0.125
 49
-0.125
  0
LTYPE
  2
HIDDEN2
 70
     0
  3
Hidden (.5x) _ _ _ _ _ _ _ _ _ _ _ _ _ _ _ _ _
 72
    65
 73
     2
 40
0.1875
 49
0.125
 49
-0.0625
  0
LTYPE
  2
AMZIGZAG2
 70
     0
  3
/\/-/\/-/\/-/\/-/\/-/\/
 72
    65
 73
     2
 40
0.4401
 49
0.0001
 49
-0.4400000000000001
  0
LTYPE
  2
ACANSTGB
 70
     0
  3
__ . . __ . .
 72
    65
 73
     6
 40
0.35433070866
 49
0.15748031496
 49
-0.03937007874
 49
0.03937007874
 49
-0.03937007874
 49
0.03937007874
 49
-0.03937007874
  0
LTYPE
  2
ACANSTGL
 70
     0
  3
_ _ _ _ _
 72
    65
 73
     2
 40
0.11811023622
 49
0.07874015748
 49
-0.03937007874
  0
ENDTAB
  0
TABLE
  2
LAYER
 70
    23
  0
LAYER
  2
0
 70
     0
 62
     7
  6
CONTINUOUS
  0
LAYER
  2
DEFAULT_1
 70
     0
 62
     7
  6
CENTER
  0
LAYER
  2
DEFAULT_2
 70
     0
 62
     8
  6
HIDDEN
  0
LAYER
  2
DEFAULT_3
 70
     0
 62
     7
  6
PHANTOM
  0
LAYER
  2
_2D_DELETED_OBJS
 70
     0
 62
     7
  6
CONTINUOUS
  0
LAYER
  2
_BLACK_HOLE
 70
     0
 62
     7
  6
CONTINUOUS
  0
LAYER
  2
01___PRT_ALL_DTM_PLN
 70
     0
 62
     7
  6
CONTINUOUS
  0
LAYER
  2
01___PRT_DEF_DTM_PLN
 70
     0
 62
     7
  6
CONTINUOUS
  0
LAYER
  2
02___PRT_ALL_AXES
 70
     0
 62
     7
  6
CONTINUOUS
  0
LAYER
  2
03___PRT_ALL_CURVES
 70
     0
 62
     7
  6
CONTINUOUS
  0
LAYER
  2
04___PRT_ALL_DTM_PNT
 70
     0
 62
     7
  6
CONTINUOUS
  0
LAYER
  2
05___PRT_ALL_DTM_CSYS
 70
     0
 62
     7
  6
CONTINUOUS
  0
LAYER
  2
05___PRT_DEF_DTM_CSYS
 70
     0
 62
     7
  6
CONTINUOUS
  0
LAYER
  2
06___PRT_ALL_SURFS
 70
     0
 62
     7
  6
CONTINUOUS
  0
LAYER
  2
DATUM_AXIS
 70
     0
 62
     7
  6
CONTINUOUS
  0
LAYER
  2
DATUM_CSYS
 70
     0
 62
     7
  6
CONTINUOUS
  0
LAYER
  2
DATUM_PLANE
 70
     0
 62
     7
  6
CONTINUOUS
  0
LAYER
  2
INTF_5
 70
     0
 62
     7
  6
CONTINUOUS
  0
LAYER
  2
RGB__115__242__253__
 70
     0
 62
     7
  6
CONTINUOUS
  0
LAYER
  2
_CURVE
 70
     0
 62
     7
  6
CONTINUOUS
  0
LAYER
  2
___NOTE
 70
     0
 62
     7
  6
CONTINUOUS
  0
LAYER
  2
___SYMBOL
 70
     0
 62
     7
  6
CONTINUOUS
  0
LAYER
  2
DEFPOINTS
 70
     0
 62
     7
  6
CONTINUOUS
  0
ENDTAB
  0
TABLE
  2
STYLE
 70
     4
  0
STYLE
  2
STANDARD
 70
     0
 40
0.0
 41
0.8
 50
0.0
 71
     0
 42
0.2
  3
txt
  4

  0
STYLE
  2

 70
     1
 40
0.0
 41
1.0
 50
0.0
 71
     0
 42
0.2
  3
genltshp.shx
  4

  0
STYLE
  2
ACANSTS
 70
     0
 40
1.0
 41
1.0
 50
0.0
 71
     0
 42
0.2
  3
romans.shx
  4

  0
STYLE
  2
ACANSGDT
 70
     0
 40
0.0
 41
1.0
 50
0.0
 71
     0
 42
0.2
  3
AMGDT
  4

  0
ENDTAB
  0
TABLE
  2
VIEW
 70
     0
  0
ENDTAB
  0
TABLE
  2
UCS
 70
     0
  0
ENDTAB
  0
TABLE
  2
APPID
 70
    12
  0
APPID
  2
ACAD
 70
     0
  0
APPID
  2
DCO15
 70
     0
  0
APPID
  2
MCAD_NO_VIS
 70
     0
  0
APPID
  2
ACAD_TEMP_GRAPHIC
 70
     0
  0
APPID
  2
AD_DRAW
 70
     0
  0
APPID
  2
ACATTRIBSERVICES
 70
     0
  0
APPID
  2
DESIGNERASSEMBLIES
 70
     0
  0
APPID
  2
ACADM_DIM_EDIT
 70
     0
  0
APPID
  2
AMDT_DM_ADJ
 70
     0
  0
APPID
  2
ACAD_DSTYLE_DIMARC_LENGTH_
 70
     0
  0
APPID
  2
ACAD_DSTYLE_DIMJOGGED_JOGA
 70
     0
  0
APPID
  2
ACAD_EXEMPT_FROM_CAD_STANDARDS
 70
     0
  0
ENDTAB
  0
TABLE
  2
DIMSTYLE
 70
     8
  0
DIMSTYLE
  2
STANDARD
 70
     0
  3

  4

  5

  6

  7

 40
1.0
 41
0.1875
 42
0.0625
 43
0.38
 44
0.18
 45
0.0
 46
0.0
 47
0.001
 48
0.001
140
0.3
141
0.09
142
0.0
143
25.399999999999999
144
1.0
145
0.0
146
1.0
147
0.09
 71
     0
 72
     0
 73
     1
 74
     1
 75
     0
 76
     0
 77
     0
 78
     4
170
     0
171
     2
172
     0
173
     0
174
     0
175
     0
176
     0
177
     0
178
     0
  0
DIMSTYLE
  2
AM_ANSI
 70
     0
  3

  4
mm
  5

  6

  7

 40
1.0
 41
0.1
 42
0.05
 43
0.5
 44
0.1
 45
0.0
 46
0.0
 47
0.1
 48
0.1
140
0.12
141
0.0
142
0.0
143
25.399999999999999
144
1.0
145
0.0
146
0.71
147
0.06
 71
     0
 72
     0
 73
     1
 74
     1
 75
     0
 76
     0
 77
     0
 78
     7
170
     0
171
     2
172
     0
173
     0
174
     0
175
     0
176
   256
177
   256
178
     2
  0
DIMSTYLE
  2
AM_ANSI$3
 70
     0
  3

  4
mm
  5

  6

  7

 40
1.0
 41
0.1
 42
0.05
 43
0.5
 44
0.1
 45
0.0
 46
0.0
 47
0.1
 48
0.1
140
0.12
141
0.0
142
0.0
143
25.399999999999999
144
1.0
145
0.0
146
0.71
147
0.06
 71
     0
 72
     0
 73
     1
 74
     1
 75
     0
 76
     0
 77
     0
 78
     7
170
     0
171
     2
172
     0
173
     0
174
     0
175
     0
176
   256
177
   256
178
     2
  0
DIMSTYLE
  2
AM_ANSI$4
 70
     0
  3

  4
mm
  5

  6

  7

 40
1.0
 41
0.1
 42
0.05
 43
0.5
 44
0.1
 45
0.0
 46
0.0
 47
0.1
 48
0.1
140
0.12
141
0.0
142
0.0
143
25.399999999999999
144
1.0
145
0.0
146
0.71
147
0.06
 71
     0
 72
     0
 73
     1
 74
     1
 75
     0
 76
     0
 77
     0
 78
     7
170
     0
171
     2
172
     0
173
     0
174
     0
175
     0
176
   256
177
   256
178
     2
  0
DIMSTYLE
  2
AM_ANSI$7
 70
     0
  3

  4
mm
  5

  6

  7

 40
1.0
 41
0.1
 42
0.05
 43
0.5
 44
0.1
 45
0.0
 46
0.0
 47
0.1
 48
0.1
140
0.24
141
0.0
142
0.0
143
25.399999999999999
144
1.0
145
0.0
146
0.71
147
0.06
 71
     0
 72
     0
 73
     1
 74
     1
 75
     0
 76
     0
 77
     0
 78
     7
170
     0
171
     2
172
     0
173
     0
174
     0
175
     0
176
   256
177
   256
178
     2
  0
DIMSTYLE
  2
AM_ANSI$SF
 70
     0
  3

  4
mm
  5

  6

  7

 40
1.0
 41
0.1
 42
0.05
 43
0.5
 44
0.1
 45
0.0
 46
0.0
 47
0.1
 48
0.1
140
0.12
141
0.0
142
0.0
143
25.399999999999999
144
1.0
145
0.0
146
0.71
147
0.06
 71
     0
 72
     0
 73
     1
 74
     1
 75
     1
 76
     1
 77
     0
 78
     7
170
     0
171
     2
172
     0
173
     0
174
     0
175
     0
176
   256
177
   256
178
     2
  0
DIMSTYLE
  2
AM_ANSI$SH
 70
     0
  3

  4
mm
  5

  6
GENAXEH
  7

 40
1.0
 41
0.1
 42
0.05
 43
0.5
 44
0.1
 45
0.0
 46
0.0
 47
0.1
 48
0.1
140
0.12
141
0.0
142
0.0
143
25.399999999999999
144
1.0
145
0.0
146
0.71
147
0.06
 71
     0
 72
     0
 73
     1
 74
     1
 75
     1
 76
     1
 77
     0
 78
     7
170
     0
171
     2
172
     0
173
     1
174
     0
175
     0
176
   256
177
   256
178
     2
  0
ENDTAB
  0
ENDSEC
  0
SECTION
  2
BLOCKS
  0
BLOCK
  8
0
  2
$MODEL_SPACE
 70
     0
 10
0.0
 20
0.0
 30
0.0
  3
$MODEL_SPACE
  1

  0
ENDBLK
  5
21
  8
0
  0
BLOCK
 67
     1
  8
0
  2
$PAPER_SPACE
 70
     0
 10
0.0
 20
0.0
 30
0.0
  3
$PAPER_SPACE
  1

  0
ENDBLK
  5
1D
 67
     1
  8
0
  0
BLOCK
  8
0
  2
GENAXEH
 70
     0
 10
0.0
 20
0.0
 30
0.0
  3
GENAXEH
  1

  0
LINE
  5
771
  8
0
 10
-1.0
 20
0.0
 30
0.0
 11
1.0
 21
0.0
 31
0.0
  0
ENDBLK
  5
773
  8
0
  0
BLOCK
  8
0
  2
*D2
 70
     1
 10
0.0
 20
0.0
 30
0.0
  3
*D2
  1

  0
LINE
  5
8DC
  8
0
 62
     0
 10
-75.506301799082593
 20
318.09195254356052
 30
0.0
 11
7.497518917935551
 21
318.09195254356052
 31
0.0
  0
LINE
  5
8DD
  8
0
 62
     0
 10
-75.006301800862573
 20
-161.90804742911939
 30
0.0
 11
7.4975189179354436
 21
-161.90804742911939
 31
0.0
  0
LINE
  5
8DE
  8
0
 62
     0
 10
6.7055189179355539
 20
317.90445254356052
 30
0.0
 11
6.7055189179355024
 21
78.331952557220546
 31
0.0
  0
LINE
  5
8DF
  8
0
 62
     0
 10
6.7055189179354491
 20
-161.72054742911939
 30
0.0
 11
6.7055189179355006
 21
77.851952557220557
 31
0.0
  0
SOLID
  5
8E0
  8
0
 62
     0
 10
6.6742689179355539
 20
317.90445254356052
 30
0.0
 11
6.7367689179355539
 21
317.90445254356052
 31
0.0
 12
6.7055189179355548
 22
318.09195254356052
 32
0.0
 13
6.7055189179355548
 23
318.09195254356052
 33
0.0
  0
SOLID
  5
8E1
  8
0
 62
     0
 10
6.6742689179354491
 20
-161.72054742911939
 30
0.0
 11
6.7367689179354491
 21
-161.72054742911939
 31
0.0
 12
6.7055189179354491
 22
-161.90804742911939
 32
0.0
 13
6.7055189179354491
 23
-161.90804742911939
 33
0.0
  0
INSERT
  5
8E2
  8
0
  2
*U3
 10
0.0
 20
0.0
 30
0.0
  0
POINT
  5
8E3
  8
DEFPOINTS
 62
     0
 10
-75.781301799082598
 20
318.09195254356052
 30
0.0
  0
POINT
  5
8E4
  8
DEFPOINTS
 62
     0
 10
-75.281301800862593
 20
-161.90804742911939
 30
0.0
  0
POINT
  5
8E5
  8
DEFPOINTS
 62
     0
 10
6.7055189179354491
 20
-161.90804742911939
 30
0.0
  0
ENDBLK
  5
8E7
  8
0
  0
BLOCK
  8
0
  2
*U3
 70
     1
 10
0.0
 20
0.0
 30
0.0
  3
*U3
  1

  0
TEXT
  5
A69
  8
0
 62
     0
 10
5.9655189179354879
 20
77.94195255722056
 30
0.0
 40
0.3
  1
480.0000
 41
0.8
  0
ENDBLK
  5
A6B
  8
0
  0
ENDSEC
  0
SECTION
  2
ENTITIES
  0
TEXT
  5
22B
  8
0
  6
CONTINUOUS
 62
     2
 10
38.296666666699998
 20
2.0499999999999989
 30
0.0
 40
0.1
  1
 
 41
0.8
  0
TEXT
  5
238
  8
0
  6
CONTINUOUS
 62
     2
 10
40.452500000000001
 20
3.524999999999999
 30
0.0
 40
0.1
  1
 
 41
0.95
 72
     1
 11
40.499999999999993
 21
3.524999999999999
 31
0.0
  0
LINE
  5
3B2
  8
0
  6
CONTINUOUS
 62
     7
 10
-76.281301797302604
 20
-161.90804742911939
 30
0.0
 11
-75.281301800862593
 21
-161.90804742911939
 31
0.0
  0
LINE
  5
3B9
  8
0
  6
CONTINUOUS
 62
     7
 10
75.602663822017348
 20
-106.3299224870394
 30
0.0
 11
-68.810963910982537
 21
-115.1626383445593
 31
0.0
  0
LINE
  5
3BE
  8
0
  6
CONTINUOUS
 62
     7
 10
-81.281301799822586
 20
-134.83356646007931
 30
0.0
 11
-81.281301799822586
 21
291.01747157452081
 31
0.0
  0
LINE
  5
3C1
  8
0
  6
CONTINUOUS
 62
     7
 10
-75.281301800862593
 20
-161.90804742911939
 30
0.0
 11
-75.281301800862593
 21
318.09195254356052
 31
0.0
  0
LINE
  5
3C2
  8
0
  6
CONTINUOUS
 62
     7
 10
-73.881301796702701
 20
-120.5525662591194
 30
0.0
 11
-73.881301796702701
 21
-122.7810806285993
 31
0.0
  0
LINE
  5
3CB
  8
0
  6
CONTINUOUS
 62
     7
 10
121.4990401266175
 20
104.4861182320807
 30
0.0
 11
120.4960493817773
 21
105.42872825948059
 31
0.0
  0
POLYLINE
  5
3CC
  8
0
  6
CONTINUOUS
 62
     7
 66
     1
 10
0.0
 20
0.0
 30
0.0
  0
VERTEX
  5
A25
  8
0
  6
CONTINUOUS
 62
     7
 10
115.7052426311775
 20
192.90663242956049
 30
0.0
  0
VERTEX
  5
A26
  8
0
  6
CONTINUOUS
 62
     7
 10
115.64959174425751
 20
193.52184836956059
 30
0.0
  0
VERTEX
  5
A27
  8
0
  6
CONTINUOUS
 62
     7
 10
115.5918409885373
 20
194.12248775248059
 30
0.0
  0
VERTEX
  5
A28
  8
0
  6
CONTINUOUS
 62
     7
 10
115.5317910552974
 20
194.7084154757207
 30
0.0
  0
VERTEX
  5
A29
  8
0
  6
CONTINUOUS
 62
     7
 10
115.46838256133741
 20
195.28741143228069
 30
0.0
  0
VERTEX
  5
A2A
  8
0
  6
CONTINUOUS
 62
     7
 10
115.39785809481729
 20
195.88780254036061
 30
0.0
  0
VERTEX
  5
A2B
  8
0
  6
CONTINUOUS
 62
     7
 10
115.3190122072974
 20
196.51070245788051
 30
0.0
  0
VERTEX
  5
A2C
  8
0
  6
CONTINUOUS
 62
     7
 10
115.2301234239376
 20
197.15982698132061
 30
0.0
  0
VERTEX
  5
A2D
  8
0
  6
CONTINUOUS
 62
     7
 10
115.12488357853719
 20
197.8667835150805
 30
0.0
  0
VERTEX
  5
A2E
  8
0
  6
CONTINUOUS
 62
     7
 10
114.99879270549739
 20
198.64135512316059
 30
0.0
  0
VERTEX
  5
A2F
  8
0
  6
CONTINUOUS
 62
     7
 10
114.84928485109729
 20
199.47748638968059
 30
0.0
  0
VERTEX
  5
A30
  8
0
  6
CONTINUOUS
 62
     7
 10
114.67082305917729
 20
200.3834328480406
 30
0.0
  0
VERTEX
  5
A31
  8
0
  6
CONTINUOUS
 62
     7
 10
114.4560895490974
 20
201.37039735112069
 30
0.0
  0
VERTEX
  5
A32
  8
0
  6
CONTINUOUS
 62
     7
 10
114.20124489241741
 20
202.42946830384071
 30
0.0
  0
VERTEX
  5
A33
  8
0
  6
CONTINUOUS
 62
     7
 10
113.9063357895775
 20
203.53862688308061
 30
0.0
  0
VERTEX
  5
A34
  8
0
  6
CONTINUOUS
 62
     7
 10
113.5666493213773
 20
204.69738874640061
 30
0.0
  0
VERTEX
  5
A35
  8
0
  6
CONTINUOUS
 62
     7
 10
113.1771196102174
 20
205.90522208384061
 30
0.0
  0
VERTEX
  5
A36
  8
0
  6
CONTINUOUS
 62
     7
 10
112.7404228966172
 20
207.1395083986007
 30
0.0
  0
VERTEX
  5
A37
  8
0
  6
CONTINUOUS
 62
     7
 10
112.2540420405773
 20
208.39671716688071
 30
0.0
  0
VERTEX
  5
A38
  8
0
  6
CONTINUOUS
 62
     7
 10
111.71399275237739
 20
209.67692663084051
 30
0.0
  0
VERTEX
  5
A39
  8
0
  6
CONTINUOUS
 62
     7
 10
111.12410123213751
 20
210.96295228840049
 30
0.0
  0
VERTEX
  5
A3A
  8
0
  6
CONTINUOUS
 62
     7
 10
110.4834828029372
 20
212.25102208716061
 30
0.0
  0
VERTEX
  5
A3B
  8
0
  6
CONTINUOUS
 62
     7
 10
109.7896418334974
 20
213.54070295712049
 30
0.0
  0
VERTEX
  5
A3C
  8
0
  6
CONTINUOUS
 62
     7
 10
109.0465228879373
 20
214.82034677832061
 30
0.0
  0
VERTEX
  5
A3D
  8
0
  6
CONTINUOUS
 62
     7
 10
108.2555199944575
 20
216.0848317525205
 30
0.0
  0
VERTEX
  5
A3E
  8
0
  6
CONTINUOUS
 62
     7
 10
107.4143382630573
 20
217.33522014328051
 30
0.0
  0
VERTEX
  5
A3F
  8
0
  6
CONTINUOUS
 62
     7
 10
106.5224895260573
 20
218.56939406812069
 30
0.0
  0
VERTEX
  5
A40
  8
0
  6
CONTINUOUS
 62
     7
 10
105.5797219373773
 20
219.7849596329207
 30
0.0
  0
VERTEX
  5
A41
  8
0
  6
CONTINUOUS
 62
     7
 10
104.58576022705731
 20
220.97962216104051
 30
0.0
  0
VERTEX
  5
A42
  8
0
  6
CONTINUOUS
 62
     7
 10
103.5402204029774
 20
222.15123475812069
 30
0.0
  0
VERTEX
  5
A43
  8
0
  6
CONTINUOUS
 62
     7
 10
102.4430972581374
 20
223.29724027916069
 30
0.0
  0
VERTEX
  5
A44
  8
0
  6
CONTINUOUS
 62
     7
 10
101.2944764311773
 20
224.41505540192051
 30
0.0
  0
VERTEX
  5
A45
  8
0
  6
CONTINUOUS
 62
     7
 10
100.09423611385751
 20
225.50233078896071
 30
0.0
  0
VERTEX
  5
A46
  8
0
  6
CONTINUOUS
 62
     7
 10
98.842672749577346
 20
226.5563501693606
 30
0.0
  0
VERTEX
  5
A47
  8
0
  6
CONTINUOUS
 62
     7
 10
97.540277665777467
 20
227.5743033125205
 30
0.0
  0
VERTEX
  5
A48
  8
0
  6
CONTINUOUS
 62
     7
 10
96.187377750297415
 20
228.5535627103605
 30
0.0
  0
VERTEX
  5
A49
  8
0
  6
CONTINUOUS
 62
     7
 10
94.784795236697377
 20
229.49118580844049
 30
0.0
  0
VERTEX
  5
A4A
  8
0
  6
CONTINUOUS
 62
     7
 10
93.333341741337335
 20
230.38431930284071
 30
0.0
  0
VERTEX
  5
A4B
  8
0
  6
CONTINUOUS
 62
     7
 10
91.833504624177294
 20
231.23033485744071
 30
0.0
  0
VERTEX
  5
A4C
  8
0
  6
CONTINUOUS
 62
     7
 10
90.286507748657414
 20
232.02620213032051
 30
0.0
  0
VERTEX
  5
A4D
  8
0
  6
CONTINUOUS
 62
     7
 10
88.693679504297506
 20
232.76892214348061
 30
0.0
  0
VERTEX
  5
A4E
  8
0
  6
CONTINUOUS
 62
     7
 10
87.055853458137577
 20
233.45575882924061
 30
0.0
  0
VERTEX
  5
A4F
  8
0
  6
CONTINUOUS
 62
     7
 10
85.374706228617228
 20
234.08362780464051
 30
0.0
  0
VERTEX
  5
A50
  8
0
  6
CONTINUOUS
 62
     7
 10
83.652151111377407
 20
234.64944593640061
 30
0.0
  0
VERTEX
  5
A51
  8
0
  6
CONTINUOUS
 62
     7
 10
81.889606665937436
 20
235.15034453328059
 30
0.0
  0
VERTEX
  5
A52
  8
0
  6
CONTINUOUS
 62
     7
 10
80.089348722137416
 20
235.58323473684061
 30
0.0
  0
VERTEX
  5
A53
  8
0
  6
CONTINUOUS
 62
     7
 10
78.25386630725734
 20
235.9450767665206
 30
0.0
  0
VERTEX
  5
A54
  8
0
  6
CONTINUOUS
 62
     7
 10
76.385174144217444
 20
236.23298467432059
 30
0.0
  0
VERTEX
  5
A55
  8
0
  6
CONTINUOUS
 62
     7
 10
74.485954046297365
 20
236.44398963712061
 30
0.0
  0
SEQEND
  5
A56
  8
0
  6
CONTINUOUS
 62
     7
  0
LINE
  5
3CE
  8
0
  6
CONTINUOUS
 62
     7
 10
116.4103959579774
 20
183.55868348516071
 30
0.0
 11
115.8161512688973
 21
191.56889956020049
 31
0.0
  0
POLYLINE
  5
3D0
  8
0
  6
CONTINUOUS
 62
     7
 66
     1
 10
0.0
 20
0.0
 30
0.0
  0
VERTEX
  5
A57
  8
0
  6
CONTINUOUS
 62
     7
 10
117.5067345628574
 20
165.28280234840059
 30
0.0
  0
VERTEX
  5
A58
  8
0
  6
CONTINUOUS
 62
     7
 10
117.3583736454575
 20
168.7644674094405
 30
0.0
  0
VERTEX
  5
A59
  8
0
  6
CONTINUOUS
 62
     7
 10
117.1660624781375
 20
172.32433062752071
 30
0.0
  0
VERTEX
  5
A5A
  8
0
  6
CONTINUOUS
 62
     7
 10
116.94109211273729
 20
175.9405391075608
 30
0.0
  0
VERTEX
  5
A5B
  8
0
  6
CONTINUOUS
 62
     7
 10
116.4103959579774
 20
183.55868348516071
 30
0.0
  0
SEQEND
  5
A5C
  8
0
  6
CONTINUOUS
 62
     7
  0
LINE
  5
3D1
  8
0
  6
CONTINUOUS
 62
     7
 10
119.5218325951373
 20
107.5804846722407
 30
0.0
 11
117.49957500389741
 21
165.49036529624061
 31
0.0
  0
LINE
  5
3D5
  8
0
  6
CONTINUOUS
 62
     7
 10
126.4349706103373
 20
1.5456980020807121
 30
0.0
 11
126.4349706103373
 21
91.545698001720552
 31
0.0
  0
LINE
  5
3D7
  8
0
  6
CONTINUOUS
 62
     7
 10
119.5219649037374
 20
-14.48529983679941
 30
0.0
 11
117.8168951464974
 21
-63.312109264519343
 31
0.0
  0
LINE
  5
3D8
  8
0
  6
CONTINUOUS
 62
     7
 10
126.4349706103373
 20
91.545698001720552
 30
0.0
 11
122.84761859785721
 21
102.3736633917207
 31
0.0
  0
LINE
  5
3D9
  8
0
  6
CONTINUOUS
 62
     7
 10
126.4349706103373
 20
1.5456980020807121
 30
0.0
 11
122.84761859785721
 21
-9.2822673879194326
 31
0.0
  0
LINE
  5
3DA
  8
0
  6
CONTINUOUS
 62
     7
 10
121.4990401266175
 20
-11.39472222319932
 30
0.0
 11
120.4980105614972
 21
-12.33548914023936
 31
0.0
  0
LINE
  5
3DB
  8
0
  6
CONTINUOUS
 62
     7
 10
73.21729715257743
 20
236.5397229026006
 30
0.0
 11
-68.810963910330202
 21
245.2265434880984
 31
0.0
  0
LINE
  5
3DC
  8
0
  6
CONTINUOUS
 62
     7
 10
74.485954046297365
 20
236.44398963712061
 30
0.0
 11
73.213640548257445
 21
236.5399190109207
 31
0.0
  0
LINE
  5
3E4
  8
0
  6
CONTINUOUS
 62
     7
 10
-76.281301797302604
 20
318.09195254356052
 30
0.0
 11
-75.281301800862593
 21
318.09195254356052
 31
0.0
  0
ARC
  5
43E
  8
0
  6
CONTINUOUS
 62
     7
 10
122.6199441586175
 20
107.6886731122007
 30
0.0
 40
3.099999997599999
 50
182.0
 51
226.7775743311
  0
ARC
  5
43F
  8
0
  6
CONTINUOUS
 62
     7
 10
122.6200764672173
 20
-14.593488276759331
 30
0.0
 40
3.099999997599999
 50
133.22242566880001
 51
178.0
  0
ARC
  5
440
  8
0
  6
CONTINUOUS
 62
     7
 10
72.85573127169755
 20
-61.413841163679422
 30
0.0
 40
45.00000000235999
 50
273.5
 51
357.99999963950012
  0
ARC
  5
441
  8
0
  6
CONTINUOUS
 62
     7
 10
118.0063950214974
 20
100.7697449739606
 30
0.0
 40
5.1000000006399988
 50
18.33025813899992
 51
46.777574344100039
  0
ARC
  5
442
  8
0
  6
CONTINUOUS
 62
     7
 10
118.0063950214974
 20
-7.6783489650792944
 30
0.0
 40
5.1000000006399988
 50
313.22242565589988
 51
341.66974186099998
  0
ARC
  5
443
  8
0
  6
CONTINUOUS
 62
     7
 10
-68.481301796622574
 20
-120.5525662591194
 30
0.0
 40
5.4000000000799986
 50
93.500000000000014
 51
180.0
  0
ARC
  5
444
  8
0
  6
CONTINUOUS
 62
     7
 10
-79.681301799422485
 20
-122.7810806285993
 30
0.0
 40
5.7999999976399987
 50
319.43141881859998
 51
0.0
  0
ARC
  5
445
  8
0
  6
CONTINUOUS
 62
     7
 10
-21.281301800062689
 20
291.01747157452081
 30
0.0
 40
59.99999999976
 50
156.4435356848324
 51
180.0
  0
ARC
  5
446
  8
0
  6
CONTINUOUS
 62
     7
 10
-21.281301800062689
 20
-134.83356646007931
 30
0.0
 40
59.99999999976
 50
180.0
 51
202.79836930351149
  0
ARC
  5
447
  8
0
  6
CONTINUOUS
 62
     7
 10
-80.281301798302593
 20
-159.63275999595939
 30
0.0
 40
4.0000000010000001
 50
7.5994160331999527
 51
22.800066141018061
  0
POLYLINE
  8
0
  5
A6C
  62
7
  66
     1
 10
0.000000
 20
0.000000
 30
0.000000
  70
     8
  0
VERTEX
  8
0
  5
A6D
 10
117.451
 20
166.683
 30
0.000000
  70
    32
  0
VERTEX
  8
0
  5
A6E
 10
117.452
 20
166.672
 30
0.000000
  70
    32
  0
VERTEX
  8
0
  5
A6F
 10
117.452
 20
166.661
 30
0.000000
  70
    32
  0
VERTEX
  8
0
  5
A70
 10
117.453
 20
166.650
 30
0.000000
  70
    32
  0
VERTEX
  8
0
  5
A71
 10
117.453
 20
166.639
 30
0.000000
  70
    32
  0
VERTEX
  8
0
  5
A72
 10
117.454
 20
166.628
 30
0.000000
  70
    32
  0
VERTEX
  8
0
  5
A73
 10
117.454
 20
166.617
 30
0.000000
  70
    32
  0
VERTEX
  8
0
  5
A74
 10
117.455
 20
166.606
 30
0.000000
  70
    32
  0
VERTEX
  8
0
  5
A75
 10
117.455
 20
166.595
 30
0.000000
  70
    32
  0
VERTEX
  8
0
  5
A76
 10
117.456
 20
166.584
 30
0.000000
  70
    32
  0
VERTEX
  8
0
  5
A77
 10
117.456
 20
166.573
 30
0.000000
  70
    32
  0
VERTEX
  8
0
  5
A78
 10
117.457
 20
166.562
 30
0.000000
  70
    32
  0
VERTEX
  8
0
  5
A79
 10
117.457
 20
166.551
 30
0.000000
  70
    32
  0
VERTEX
  8
0
  5
A7A
 10
117.457
 20
166.540
 30
0.000000
  70
    32
  0
VERTEX
  8
0
  5
A7B
 10
117.458
 20
166.529
 30
0.000000
  70
    32
  0
VERTEX
  8
0
  5
A7C
 10
117.458
 20
166.518
 30
0.000000
  70
    32
  0
VERTEX
  8
0
  5
A7D
 10
117.459
 20
166.507
 30
0.000000
  70
    32
  0
VERTEX
  8
0
  5
A7E
 10
117.459
 20
166.496
 30
0.000000
  70
    32
  0
VERTEX
  8
0
  5
A7F
 10
117.460
 20
166.485
 30
0.000000
  70
    32
  0
VERTEX
  8
0
  5
A80
 10
117.460
 20
166.474
 30
0.000000
  70
    32
  0
VERTEX
  8
0
  5
A81
 10
117.461
 20
166.463
 30
0.000000
  70
    32
  0
VERTEX
  8
0
  5
A82
 10
117.461
 20
166.452
 30
0.000000
  70
    32
  0
VERTEX
  8
0
  5
A83
 10
117.462
 20
166.441
 30
0.000000
  70
    32
  0
VERTEX
  8
0
  5
A84
 10
117.462
 20
166.430
 30
0.000000
  70
    32
  0
VERTEX
  8
0
  5
A85
 10
117.463
 20
166.419
 30
0.000000
  70
    32
  0
VERTEX
  8
0
  5
A86
 10
117.463
 20
166.408
 30
0.000000
  70
    32
  0
VERTEX
  8
0
  5
A87
 10
117.464
 20
166.397
 30
0.000000
  70
    32
  0
VERTEX
  8
0
  5
A88
 10
117.464
 20
166.386
 30
0.000000
  70
    32
  0
VERTEX
  8
0
  5
A89
 10
117.464
 20
166.375
 30
0.000000
  70
    32
  0
VERTEX
  8
0
  5
A8A
 10
117.465
 20
166.364
 30
0.000000
  70
    32
  0
VERTEX
  8
0
  5
A8B
 10
117.465
 20
166.353
 30
0.000000
  70
    32
  0
VERTEX
  8
0
  5
A8C
 10
117.466
 20
166.342
 30
0.000000
  70
    32
  0
VERTEX
  8
0
  5
A8D
 10
117.466
 20
166.331
 30
0.000000
  70
    32
  0
VERTEX
  8
0
  5
A8E
 10
117.467
 20
166.319
 30
0.000000
  70
    32
  0
VERTEX
  8
0
  5
A8F
 10
117.467
 20
166.308
 30
0.000000
  70
    32
  0
VERTEX
  8
0
  5
A90
 10
117.468
 20
166.297
 30
0.000000
  70
    32
  0
VERTEX
  8
0
  5
A91
 10
117.468
 20
166.286
 30
0.000000
  70
    32
  0
VERTEX
  8
0
  5
A92
 10
117.469
 20
166.275
 30
0.000000
  70
    32
  0
VERTEX
  8
0
  5
A93
 10
117.469
 20
166.264
 30
0.000000
  70
    32
  0
VERTEX
  8
0
  5
A94
 10
117.469
 20
166.253
 30
0.000000
  70
    32
  0
VERTEX
  8
0
  5
A95
 10
117.470
 20
166.242
 30
0.000000
  70
    32
  0
VERTEX
  8
0
  5
A96
 10
117.470
 20
166.231
 30
0.000000
  70
    32
  0
VERTEX
  8
0
  5
A97
 10
117.471
 20
166.220
 30
0.000000
  70
    32
  0
VERTEX
  8
0
  5
A98
 10
117.471
 20
166.209
 30
0.000000
  70
    32
  0
VERTEX
  8
0
  5
A99
 10
117.472
 20
166.198
 30
0.000000
  70
    32
  0
VERTEX
  8
0
  5
A9A
 10
117.472
 20
166.187
 30
0.000000
  70
    32
  0
VERTEX
  8
0
  5
A9B
 10
117.473
 20
166.176
 30
0.000000
  70
    32
  0
VERTEX
  8
0
  5
A9C
 10
117.473
 20
166.165
 30
0.000000
  70
    32
  0
VERTEX
  8
0
  5
A9D
 10
117.473
 20
166.154
 30
0.000000
  70
    32
  0
VERTEX
  8
0
  5
A9E
 10
117.474
 20
166.143
 30
0.000000
  70
    32
  0
VERTEX
  8
0
  5
A9F
 10
117.474
 20
166.132
 30
0.000000
  70
    32
  0
VERTEX
  8
0
  5
AA0
 10
117.475
 20
166.121
 30
0.000000
  70
    32
  0
VERTEX
  8
0
  5
AA1
 10
117.475
 20
166.110
 30
0.000000
  70
    32
  0
VERTEX
  8
0
  5
AA2
 10
117.476
 20
166.099
 30
0.000000
  70
    32
  0
VERTEX
  8
0
  5
AA3
 10
117.476
 20
166.088
 30
0.000000
  70
    32
  0
VERTEX
  8
0
  5
AA4
 10
117.477
 20
166.077
 30
0.000000
  70
    32
  0
VERTEX
  8
0
  5
AA5
 10
117.477
 20
166.066
 30
0.000000
  70
    32
  0
VERTEX
  8
0
  5
AA6
 10
117.477
 20
166.055
 30
0.000000
  70
    32
  0
VERTEX
  8
0
  5
AA7
 10
117.478
 20
166.044
 30
0.000000
  70
    32
  0
VERTEX
  8
0
  5
AA8
 10
117.478
 20
166.033
 30
0.000000
  70
    32
  0
VERTEX
  8
0
  5
AA9
 10
117.479
 20
166.022
 30
0.000000
  70
    32
  0
VERTEX
  8
0
  5
AAA
 10
117.479
 20
166.011
 30
0.000000
  70
    32
  0
VERTEX
  8
0
  5
AAB
 10
117.480
 20
166.000
 30
0.000000
  70
    32
  0
VERTEX
  8
0
  5
AAC
 10
117.480
 20
165.989
 30
0.000000
  70
    32
  0
VERTEX
  8
0
  5
AAD
 10
117.481
 20
165.978
 30
0.000000
  70
    32
  0
VERTEX
  8
0
  5
AAE
 10
117.481
 20
165.967
 30
0.000000
  70
    32
  0
VERTEX
  8
0
  5
AAF
 10
117.481
 20
165.956
 30
0.000000
  70
    32
  0
VERTEX
  8
0
  5
AB0
 10
117.482
 20
165.945
 30
0.000000
  70
    32
  0
VERTEX
  8
0
  5
AB1
 10
117.482
 20
165.934
 30
0.000000
  70
    32
  0
VERTEX
  8
0
  5
AB2
 10
117.483
 20
165.923
 30
0.000000
  70
    32
  0
VERTEX
  8
0
  5
AB3
 10
117.483
 20
165.912
 30
0.000000
  70
    32
  0
VERTEX
  8
0
  5
AB4
 10
117.484
 20
165.900
 30
0.000000
  70
    32
  0
VERTEX
  8
0
  5
AB5
 10
117.484
 20
165.889
 30
0.000000
  70
    32
  0
VERTEX
  8
0
  5
AB6
 10
117.484
 20
165.878
 30
0.000000
  70
    32
  0
VERTEX
  8
0
  5
AB7
 10
117.485
 20
165.867
 30
0.000000
  70
    32
  0
VERTEX
  8
0
  5
AB8
 10
117.485
 20
165.856
 30
0.000000
  70
    32
  0
VERTEX
  8
0
  5
AB9
 10
117.486
 20
165.845
 30
0.000000
  70
    32
  0
VERTEX
  8
0
  5
ABA
 10
117.486
 20
165.834
 30
0.000000
  70
    32
  0
VERTEX
  8
0
  5
ABB
 10
117.487
 20
165.823
 30
0.000000
  70
    32
  0
VERTEX
  8
0
  5
ABC
 10
117.487
 20
165.812
 30
0.000000
  70
    32
  0
VERTEX
  8
0
  5
ABD
 10
117.487
 20
165.801
 30
0.000000
  70
    32
  0
VERTEX
  8
0
  5
ABE
 10
117.488
 20
165.790
 30
0.000000
  70
    32
  0
VERTEX
  8
0
  5
ABF
 10
117.488
 20
165.779
 30
0.000000
  70
    32
  0
VERTEX
  8
0
  5
AC0
 10
117.489
 20
165.768
 30
0.000000
  70
    32
  0
VERTEX
  8
0
  5
AC1
 10
117.489
 20
165.757
 30
0.000000
  70
    32
  0
VERTEX
  8
0
  5
AC2
 10
117.490
 20
165.746
 30
0.000000
  70
    32
  0
VERTEX
  8
0
  5
AC3
 10
117.490
 20
165.735
 30
0.000000
  70
    32
  0
VERTEX
  8
0
  5
AC4
 10
117.490
 20
165.724
 30
0.000000
  70
    32
  0
VERTEX
  8
0
  5
AC5
 10
117.491
 20
165.713
 30
0.000000
  70
    32
  0
VERTEX
  8
0
  5
AC6
 10
117.491
 20
165.702
 30
0.000000
  70
    32
  0
VERTEX
  8
0
  5
AC7
 10
117.492
 20
165.691
 30
0.000000
  70
    32
  0
VERTEX
  8
0
  5
AC8
 10
117.492
 20
165.680
 30
0.000000
  70
    32
  0
VERTEX
  8
0
  5
AC9
 10
117.493
 20
165.669
 30
0.000000
  70
    32
  0
VERTEX
  8
0
  5
ACA
 10
117.493
 20
165.658
 30
0.000000
  70
    32
  0
VERTEX
  8
0
  5
ACB
 10
117.493
 20
165.647
 30
0.000000
  70
    32
  0
VERTEX
  8
0
  5
ACC
 10
117.494
 20
165.636
 30
0.000000
  70
    32
  0
VERTEX
  8
0
  5
ACD
 10
117.494
 20
165.625
 30
0.000000
  70
    32
  0
VERTEX
  8
0
  5
ACE
 10
117.495
 20
165.614
 30
0.000000
  70
    32
  0
VERTEX
  8
0
  5
ACF
 10
117.495
 20
165.603
 30
0.000000
  70
    32
  0
VERTEX
  8
0
  5
AD0
 10
117.495
 20
165.592
 30
0.000000
  70
    32
  0
VERTEX
  8
0
  5
AD1
 10
117.496
 20
165.581
 30
0.000000
  70
    32
  0
VERTEX
  8
0
  5
AD2
 10
117.496
 20
165.570
 30
0.000000
  70
    32
  0
VERTEX
  8
0
  5
AD3
 10
117.497
 20
165.559
 30
0.000000
  70
    32
  0
VERTEX
  8
0
  5
AD4
 10
117.497
 20
165.548
 30
0.000000
  70
    32
  0
VERTEX
  8
0
  5
AD5
 10
117.497
 20
165.537
 30
0.000000
  70
    32
  0
VERTEX
  8
0
  5
AD6
 10
117.498
 20
165.526
 30
0.000000
  70
    32
  0
VERTEX
  8
0
  5
AD7
 10
117.498
 20
165.515
 30
0.000000
  70
    32
  0
VERTEX
  8
0
  5
AD8
 10
117.499
 20
165.504
 30
0.000000
  70
    32
  0
VERTEX
  8
0
  5
AD9
 10
117.499
 20
165.492
 30
0.000000
  70
    32
  0
VERTEX
  8
0
  5
ADA
 10
117.500
 20
165.481
 30
0.000000
  70
    32
  0
VERTEX
  8
0
  5
ADB
 10
117.500
 20
165.470
 30
0.000000
  70
    32
  0
VERTEX
  8
0
  5
ADC
 10
117.500
 20
165.459
 30
0.000000
  70
    32
  0
VERTEX
  8
0
  5
ADD
 10
117.501
 20
165.448
 30
0.000000
  70
    32
  0
VERTEX
  8
0
  5
ADE
 10
117.501
 20
165.437
 30
0.000000
  70
    32
  0
VERTEX
  8
0
  5
ADF
 10
117.502
 20
165.426
 30
0.000000
  70
    32
  0
VERTEX
  8
0
  5
AE0
 10
117.502
 20
165.415
 30
0.000000
  70
    32
  0
VERTEX
  8
0
  5
AE1
 10
117.502
 20
165.404
 30
0.000000
  70
    32
  0
VERTEX
  8
0
  5
AE2
 10
117.503
 20
165.393
 30
0.000000
  70
    32
  0
VERTEX
  8
0
  5
AE3
 10
117.503
 20
165.382
 30
0.000000
  70
    32
  0
VERTEX
  8
0
  5
AE4
 10
117.504
 20
165.371
 30
0.000000
  70
    32
  0
VERTEX
  8
0
  5
AE5
 10
117.504
 20
165.360
 30
0.000000
  70
    32
  0
VERTEX
  8
0
  5
AE6
 10
117.504
 20
165.349
 30
0.000000
  70
    32
  0
VERTEX
  8
0
  5
AE7
 10
117.505
 20
165.338
 30
0.000000
  70
    32
  0
VERTEX
  8
0
  5
AE8
 10
117.505
 20
165.327
 30
0.000000
  70
    32
  0
VERTEX
  8
0
  5
AE9
 10
117.506
 20
165.316
 30
0.000000
  70
    32
  0
VERTEX
  8
0
  5
AEA
 10
117.506
 20
165.305
 30
0.000000
  70
    32
  0
VERTEX
  8
0
  5
AEB
 10
117.506
 20
165.294
 30
0.000000
  70
    32
  0
VERTEX
  8
0
  5
AEC
 10
117.507
 20
165.283
 30
0.000000
  70
    32
  0
SEQEND
  8
0
  5
AED
  0
LINE
  5
6BD
  8
0
  6
CONTINUOUS
 62
     7
 10
-73.881301796702701
 20
250.61647140100951
 30
0.0
 11
-73.881301796702701
 21
252.8449857704897
 31
0.0
  0
ARC
  5
6BE
  8
0
  6
CONTINUOUS
 62
     7
 10
-68.481301796622574
 20
250.61647140100951
 30
0.0
 40
5.4000000000799986
 50
180.0
 51
266.5
  0
ARC
  5
6BF
  8
0
  6
CONTINUOUS
 62
     7
 10
-79.681301799422485
 20
252.8449857704897
 30
0.0
 40
5.7999999976399987
 50
0.0
 51
40.568581181399843
  0
LINE
  5
7A9
  8
0
 10
115.8161512688973
 20
191.56889956020049
 30
0.0
 11
115.7052426311775
 21
192.90663242956049
 31
0.0
  0
LINE
  5
7AB
  8
0
 10
-76.316434244606626
 20
-159.1037748452697
 30
0.0
 11
-76.281301797302604
 21
-161.90804742911939
 31
0.0
  0
LINE
  5
7AC
  8
0
 10
-76.28130179730374
 20
314.99662919681163
 30
0.0
 11
-76.281301797302604
 21
318.09195254356052
 31
0.0
  0
ENDSEC
  0
EOF
