  0
SECTION
  2
HEADER
  9
$ACADVER
  1
AC1009
  9
$INSBASE
 10
0.0
 20
0.0
 30
0.0
  9
$EXTMIN
 10
-121.7941137506091
 20
315.17921380342358
 30
-0.0000000000112498
  9
$EXTMAX
 10
658.22029015326461
 20
528.12745523346496
 30
0.0000000000002956
  9
$LIMMIN
 10
0.0
 20
0.0
  9
$LIMMAX
 10
1117.5999999999999
 20
863.60000000000014
  9
$ORTHOMODE
 70
     0
  9
$REGENMODE
 70
     1
  9
$FILLMODE
 70
     1
  9
$QTEXTMODE
 70
     0
  9
$MIRRTEXT
 70
     1
  9
$DRAGMODE
 70
     2
  9
$LTSCALE
 40
61.468000000000004
  9
$OSMODE
 70
    39
  9
$ATTMODE
 70
     1
  9
$TEXTSIZE
 40
0.2
  9
$TRACEWID
 40
0.05
  9
$TEXTSTYLE
  7
STANDARD
  9
$CLAYER
  8
0
  9
$CELTYPE
  6
BYLAYER
  9
$CECOLOR
 62
   256
  9
$DIMSCALE
 40
1.0
  9
$DIMASZ
 40
3.0
  9
$DIMEXO
 40
6.9850000000000003
  9
$DIMDLI
 40
42.468799999999987
  9
$DIMRND
 40
0.0
  9
$DIMDLE
 40
0.0
  9
$DIMEXE
 40
20.116800000000001
  9
$DIMTP
 40
0.0
  9
$DIMTM
 40
0.0
  9
$DIMTXT
 40
4.0
  9
$DIMCEN
 40
10.058400000000001
  9
$DIMTSZ
 40
0.0
  9
$DIMTOL
 70
     0
  9
$DIMLIM
 70
     0
  9
$DIMTIH
 70
     1
  9
$DIMTOH
 70
     1
  9
$DIMSE1
 70
     0
  9
$DIMSE2
 70
     0
  9
$DIMTAD
 70
     0
  9
$DIMZIN
 70
     0
  9
$DIMBLK
  1

  9
$DIMASO
 70
     1
  9
$DIMSHO
 70
     1
  9
$DIMPOST
  1

  9
$DIMAPOST
  1

  9
$DIMALT
 70
     0
  9
$DIMALTD
 70
     2
  9
$DIMALTF
 40
25.399999999999999
  9
$DIMLFAC
 40
1.0
  9
$DIMTOFL
 70
     0
  9
$DIMTVP
 40
0.0
  9
$DIMTIX
 70
     0
  9
$DIMSOXD
 70
     0
  9
$DIMSAH
 70
     0
  9
$DIMBLK1
  1

  9
$DIMBLK2
  1

  9
$DIMSTYLE
  2
STANDARD
  9
$DIMCLRD
 70
     0
  9
$DIMCLRE
 70
     0
  9
$DIMCLRT
 70
     0
  9
$DIMTFAC
 40
1.0
  9
$DIMGAP
 40
0.09
  9
$LUNITS
 70
     2
  9
$LUPREC
 70
     4
  9
$SKETCHINC
 40
0.1
  9
$FILLETRAD
 40
0.0
  9
$AUNITS
 70
     0
  9
$AUPREC
 70
     0
  9
$MENU
  1
acad
  9
$ELEVATION
 40
0.0
  9
$PELEVATION
 40
0.0
  9
$THICKNESS
 40
0.0
  9
$LIMCHECK
 70
     0
  9
$BLIPMODE
 70
     0
  9
$CHAMFERA
 40
0.0
  9
$CHAMFERB
 40
0.0
  9
$SKPOLY
 70
     0
  9
$TDCREATE
 40
2454355.438886655
  9
$TDUPDATE
 40
2454455.5603162502
  9
$TDINDWG
 40
0.0060763079
  9
$TDUSRTIMER
 40
0.0060763079
  9
$USRTIMER
 70
     1
  9
$ANGBASE
 50
0.0
  9
$ANGDIR
 70
     0
  9
$PDMODE
 70
     3
  9
$PDSIZE
 40
0.5
  9
$PLINEWID
 40
0.0
  9
$COORDS
 70
     1
  9
$SPLFRAME
 70
     0
  9
$SPLINETYPE
 70
     6
  9
$SPLINESEGS
 70
     8
  9
$ATTDIA
 70
     0
  9
$ATTREQ
 70
     1
  9
$HANDLING
 70
     1
  9
$HANDSEED
  5
D79
  9
$SURFTAB1
 70
     6
  9
$SURFTAB2
 70
     6
  9
$SURFTYPE
 70
     6
  9
$SURFU
 70
     6
  9
$SURFV
 70
     6
  9
$UCSNAME
  2

  9
$UCSORG
 10
0.0
 20
0.0
 30
0.0
  9
$UCSXDIR
 10
1.0
 20
0.0
 30
0.0
  9
$UCSYDIR
 10
0.0
 20
1.0
 30
0.0
  9
$PUCSNAME
  2

  9
$PUCSORG
 10
0.0
 20
0.0
 30
0.0
  9
$PUCSXDIR
 10
1.0
 20
0.0
 30
0.0
  9
$PUCSYDIR
 10
0.0
 20
1.0
 30
0.0
  9
$USERI1
 70
     0
  9
$USERI2
 70
     0
  9
$USERI3
 70
     0
  9
$USERI4
 70
     0
  9
$USERI5
 70
     0
  9
$USERR1
 40
0.0
  9
$USERR2
 40
0.0
  9
$USERR3
 40
0.0
  9
$USERR4
 40
0.0
  9
$USERR5
 40
0.0
  9
$WORLDVIEW
 70
     1
  9
$SHADEDGE
 70
     3
  9
$SHADEDIF
 70
    70
  9
$TILEMODE
 70
     1
  9
$MAXACTVP
 70
    16
  9
$PLIMCHECK
 70
     0
  9
$PEXTMIN
 10
1.0000000000000000E+020
 20
1.0000000000000000E+020
 30
1.0000000000000000E+020
  9
$PEXTMAX
 10
-1.0000000000000000E+020
 20
-1.0000000000000000E+020
 30
-1.0000000000000000E+020
  9
$PLIMMIN
 10
0.0
 20
0.0
  9
$PLIMMAX
 10
12.0
 20
9.0
  9
$UNITMODE
 70
     0
  9
$VISRETAIN
 70
     0
  9
$PLINEGEN
 70
     1
  9
$PSLTSCALE
 70
     0
  0
ENDSEC
  0
SECTION
  2
TABLES
  0
TABLE
  2
VPORT
 70
     1
  0
VPORT
  2
*ACTIVE
 70
     0
 10
0.0
 20
0.0
 11
1.0
 21
1.0
 12
268.21308820132782
 22
421.6533345184443
 13
0.0
 23
0.0
 14
1.0
 24
1.0
 15
0.0
 25
0.0
 16
0.0
 26
0.0
 36
1.0
 17
0.0
 27
0.0
 37
0.0
 40
514.49695733276269
 41
1.5250965250965249
 42
50.0
 43
0.0
 44
0.0
 50
0.0
 51
0.0
 71
     0
 72
   100
 73
     1
 74
     1
 75
     0
 76
     0
 77
     0
 78
     0
  0
ENDTAB
  0
TABLE
  2
LTYPE
 70
    18
  0
LTYPE
  2
CONTINUOUS
 70
     0
  3
Solid line
 72
    65
 73
     0
 40
0.0
  0
LTYPE
  2
CENTER
 70
     0
  3
____ _ ____ _ ____ _ ____ _ ____ _ ____ _ ____
 72
    65
 73
     4
 40
0.6
 49
0.375
 49
-0.075
 49
0.075
 49
-0.075
  0
LTYPE
  2
HIDDEN
 70
     0
  3
- - - - - - - - - - - - - - - - - - - -
 72
    65
 73
     2
 40
0.2
 49
0.1
 49
-0.1
  0
LTYPE
  2
PHANTOM
 70
     0
  3
_____ _ _ _____ _ _ _____ _ _ _____
 72
    65
 73
     6
 40
0.8
 49
0.45
 49
-0.05
 49
0.1
 49
-0.05
 49
0.1
 49
-0.05
  0
LTYPE
  2
DOT
 70
     0
  3
. . . . . . . . . . . . . . . . . . . .
 72
    65
 73
     2
 40
0.2
 49
0.1
 49
-0.1
  0
LTYPE
  2
DASHED
 70
     0
  3
- - - - - - - - - - - - - - - - - - - -
 72
    65
 73
     2
 40
0.2
 49
0.1
 49
-0.1
  0
LTYPE
  2
PHANTOM2
 70
     0
  3
Phantom (.5x) ___ _ _ ___ _ _ ___ _ _ ___ _ _
 72
    65
 73
     6
 40
31.75
 49
15.875
 49
-3.1749999999999989
 49
3.1749999999999989
 49
-3.1749999999999989
 49
3.1749999999999989
 49
-3.1749999999999989
  0
LTYPE
  2
AM_ISO02W050
 70
     0
  3
__ __ __ __ __ __ __ __ __ __ __ __ __ __ __
 72
    65
 73
     2
 40
7.5
 49
6.0
 49
-1.5
  0
LTYPE
  2
AM_ISO08W050
 70
     0
  3
____ . ____ . ____ . ____ . ____ . ____ . ____
 72
    65
 73
     4
 40
18.0
 49
12.0
 49
-1.5
 49
3.0
 49
-1.5
  0
LTYPE
  2
AM_ISO09W050
 70
     0
  3
_____ . . _____ . . _____ . . ____ .. ____
 72
    65
 73
     6
 40
22.5
 49
12.0
 49
-1.5
 49
3.0
 49
-1.5
 49
3.0
 49
-1.5
  0
LTYPE
  2
AMCONSTR
 70
     0
  3
_______________________
 72
    65
 73
     2
 40
9999.0
 49
9999.0
 49
0.0
  0
LTYPE
  2
AM_ISO08W050X2
 70
     0
  3
__ . __ . __ . __ . __ . __
 72
    65
 73
     4
 40
9.0
 49
6.0
 49
-0.75
 49
1.5
 49
-0.75
  0
LTYPE
  2
AM_ISO02W050X2
 70
     0
  3
 _ _ _ _ _ _ _ _ _ _ _ _
 72
    65
 73
     2
 40
3.75
 49
3.0
 49
-0.75
  0
LTYPE
  2
AMZIGZAG
 70
     0
  3
/\/-/\/-/\/-/\/-/\/-/\/
 72
    65
 73
     2
 40
11.0001
 49
0.0001
 49
-11.0
  0
LTYPE
  2
ACISOWELD
 70
     0
  3
_ _ _ _ _
 72
    65
 73
     2
 40
2.0
 49
2.0
 49
-1.0
  0
LTYPE
  2
ACISOTGB
 70
     0
  3
__ . . __ . .
 72
    65
 73
     6
 40
9.0
 49
4.0
 49
-1.0
 49
1.0
 49
-1.0
 49
1.0
 49
-1.0
  0
LTYPE
  2
ACISOTGL
 70
     0
  3
_ _ _ _ _
 72
    65
 73
     2
 40
3.0
 49
2.0
 49
-1.0
  0
ENDTAB
  0
TABLE
  2
LAYER
 70
    22
  0
LAYER
  2
0
 70
     0
 62
     7
  6
CONTINUOUS
  0
LAYER
  2
DEFAULT_1
 70
     0
 62
     7
  6
CENTER
  0
LAYER
  2
DEFAULT_2
 70
     0
 62
     8
  6
HIDDEN
  0
LAYER
  2
DEFAULT_3
 70
     0
 62
     7
  6
PHANTOM
  0
LAYER
  2
_2D_DELETED_OBJS
 70
     0
 62
     7
  6
CONTINUOUS
  0
LAYER
  2
_BLACK_HOLE
 70
     0
 62
     7
  6
CONTINUOUS
  0
LAYER
  2
AXIS
 70
     0
 62
     7
  6
CONTINUOUS
  0
LAYER
  2
COSM_SKETCH
 70
     0
 62
     7
  6
CONTINUOUS
  0
LAYER
  2
CURVE
 70
     0
 62
     7
  6
CONTINUOUS
  0
LAYER
  2
DATUM-CSYS
 70
     0
 62
     7
  6
CONTINUOUS
  0
LAYER
  2
DATUM-PLN
 70
     0
 62
     7
  6
CONTINUOUS
  0
LAYER
  2
DATUM_AXIS
 70
     0
 62
     7
  6
CONTINUOUS
  0
LAYER
  2
DATUM_PLANE
 70
     0
 62
     7
  6
CONTINUOUS
  0
LAYER
  2
DRAFT_ENT
 70
     0
 62
     7
  6
CONTINUOUS
  0
LAYER
  2
NOTE
 70
     0
 62
     7
  6
CONTINUOUS
  0
LAYER
  2
SURFACE
 70
     0
 62
     7
  6
CONTINUOUS
  0
LAYER
  2
SYMBOL
 70
     0
 62
     7
  6
CONTINUOUS
  0
LAYER
  2
_CURVE
 70
     0
 62
     7
  6
CONTINUOUS
  0
LAYER
  2
___COSMETIC_SKETCH
 70
     0
 62
     7
  6
CONTINUOUS
  0
LAYER
  2
___GDT
 70
     0
 62
     7
  6
CONTINUOUS
  0
LAYER
  2
___NOTE
 70
     0
 62
     7
  6
CONTINUOUS
  0
LAYER
  2
___SYMBOL
 70
     0
 62
     7
  6
CONTINUOUS
  0
ENDTAB
  0
TABLE
  2
STYLE
 70
     5
  0
STYLE
  2
STANDARD
 70
     0
 40
0.0
 41
0.75
 50
0.0
 71
     0
 42
0.2
  3
txt
  4

  0
STYLE
  2
TEXTSTYLE_1
 70
     0
 40
0.0
 41
0.8
 50
0.0
 71
     0
 42
0.2
  3
txt
  4

  0
STYLE
  2

 70
     1
 40
0.0
 41
1.0
 50
0.0
 71
     0
 42
0.2
  3
genltshp.shx
  4

  0
STYLE
  2
ACISOTS
 70
     0
 40
1.0
 41
1.0
 50
0.0
 71
     0
 42
0.2
  3
isocp.shx
  4

  0
STYLE
  2
ACISOGDT
 70
     0
 40
0.0
 41
1.0
 50
0.0
 71
     0
 42
0.2
  3
AMGDT
  4

  0
ENDTAB
  0
TABLE
  2
VIEW
 70
     0
  0
ENDTAB
  0
TABLE
  2
UCS
 70
     0
  0
ENDTAB
  0
TABLE
  2
APPID
 70
    12
  0
APPID
  2
ACAD
 70
     0
  0
APPID
  2
DCO15
 70
     0
  0
APPID
  2
MCAD_NO_VIS
 70
     0
  0
APPID
  2
ACAD_TEMP_GRAPHIC
 70
     0
  0
APPID
  2
AD_DRAW
 70
     0
  0
APPID
  2
ACATTRIBSERVICES
 70
     0
  0
APPID
  2
DESIGNERASSEMBLIES
 70
     0
  0
APPID
  2
ACADM_DIM_EDIT
 70
     0
  0
APPID
  2
AMDT_DM_ADJ
 70
     0
  0
APPID
  2
ACAD_DSTYLE_DIMARC_LENGTH_
 70
     0
  0
APPID
  2
ACAD_DSTYLE_DIMJOGGED_JOGA
 70
     0
  0
APPID
  2
ACAD_EXEMPT_FROM_CAD_STANDARDS
 70
     0
  0
ENDTAB
  0
TABLE
  2
DIMSTYLE
 70
     9
  0
DIMSTYLE
  2
STANDARD
 70
     0
  3

  4

  5

  6

  7

 40
1.0
 41
3.0
 42
0.0625
 43
0.38
 44
0.18
 45
0.0
 46
0.0
 47
0.005
 48
0.005
140
4.0
141
0.09
142
0.0
143
25.399999999999999
144
1.0
145
0.0
146
1.0
147
0.09
 71
     0
 72
     0
 73
     0
 74
     0
 75
     0
 76
     0
 77
     1
 78
     8
170
     0
171
     2
172
     0
173
     0
174
     0
175
     0
176
     0
177
     0
178
     5
  0
DIMSTYLE
  2
AM_ISO
 70
     0
  3

  4
"
  5

  6

  7

 40
1.0
 41
2.5
 42
1.0
 43
10.0
 44
1.0
 45
0.0
 46
0.0
 47
0.1
 48
0.1
140
3.5
141
0.0
142
0.0
143
0.0393701
144
1.0
145
0.0
146
0.71
147
1.5
 71
     0
 72
     0
 73
     0
 74
     0
 75
     0
 76
     0
 77
     1
 78
     8
170
     0
171
     2
172
     1
173
     0
174
     0
175
     0
176
   256
177
   256
178
     2
  0
DIMSTYLE
  2
AM_ISO$3
 70
     0
  3

  4
"
  5

  6

  7

 40
1.0
 41
2.5
 42
1.0
 43
10.0
 44
1.0
 45
0.0
 46
0.0
 47
0.1
 48
0.1
140
3.5
141
0.0
142
0.0
143
0.0393701
144
1.0
145
0.0
146
0.71
147
1.5
 71
     0
 72
     0
 73
     0
 74
     1
 75
     0
 76
     0
 77
     1
 78
     8
170
     0
171
     2
172
     0
173
     0
174
     0
175
     0
176
   256
177
   256
178
     2
  0
DIMSTYLE
  2
AM_ISO$4
 70
     0
  3

  4
"
  5

  6

  7

 40
1.0
 41
2.5
 42
1.0
 43
10.0
 44
1.0
 45
0.0
 46
0.0
 47
0.1
 48
0.1
140
3.5
141
0.0
142
0.0
143
0.0393701
144
1.0
145
0.0
146
0.71
147
1.5
 71
     0
 72
     0
 73
     0
 74
     1
 75
     0
 76
     0
 77
     1
 78
     8
170
     0
171
     2
172
     0
173
     0
174
     0
175
     0
176
   256
177
   256
178
     2
  0
DIMSTYLE
  2
AM_ISO$6
 70
     0
  3

  4
"
  5

  6

  7

 40
1.0
 41
2.5
 42
1.0
 43
10.0
 44
1.0
 45
0.0
 46
0.0
 47
0.1
 48
0.1
140
3.5
141
0.0
142
0.0
143
0.0393701
144
1.0
145
0.0
146
0.71
147
1.5
 71
     0
 72
     0
 73
     0
 74
     0
 75
     0
 76
     0
 77
     0
 78
     8
170
     0
171
     2
172
     1
173
     0
174
     0
175
     0
176
   256
177
   256
178
     2
  0
DIMSTYLE
  2
AM_ISO$7
 70
     0
  3

  4
"
  5

  6

  7

 40
1.0
 41
2.5
 42
1.0
 43
10.0
 44
1.0
 45
0.0
 46
0.0
 47
0.1
 48
0.1
140
5.0
141
0.0
142
0.0
143
0.0393701
144
1.0
145
0.0
146
0.71
147
1.5
 71
     0
 72
     0
 73
     0
 74
     0
 75
     0
 76
     0
 77
     1
 78
     8
170
     0
171
     2
172
     1
173
     0
174
     0
175
     0
176
   256
177
   256
178
     2
  0
DIMSTYLE
  2
AM_ISO$SF
 70
     0
  3

  4
"
  5

  6

  7

 40
1.0
 41
2.5
 42
1.0
 43
10.0
 44
1.0
 45
0.0
 46
0.0
 47
0.1
 48
0.1
140
3.5
141
0.0
142
0.0
143
0.0393701
144
1.0
145
0.0
146
0.71
147
1.5
 71
     0
 72
     0
 73
     0
 74
     0
 75
     1
 76
     1
 77
     1
 78
     8
170
     0
171
     2
172
     1
173
     0
174
     0
175
     0
176
   256
177
   256
178
     2
  0
DIMSTYLE
  2
AM_ISO$SH
 70
     0
  3

  4
"
  5

  6
GENAXEH
  7

 40
1.0
 41
2.5
 42
1.0
 43
10.0
 44
1.0
 45
0.0
 46
0.0
 47
0.1
 48
0.1
140
3.5
141
0.0
142
0.0
143
0.0393701
144
2.0
145
0.0
146
0.71
147
1.5
 71
     0
 72
     0
 73
     0
 74
     0
 75
     1
 76
     1
 77
     1
 78
     8
170
     0
171
     2
172
     1
173
     1
174
     0
175
     0
176
   256
177
   256
178
     2
  0
ENDTAB
  0
ENDSEC
  0
SECTION
  2
BLOCKS
  0
BLOCK
  8
0
  2
$MODEL_SPACE
 70
     0
 10
0.0
 20
0.0
 30
0.0
  3
$MODEL_SPACE
  1

  0
ENDBLK
  5
21
  8
0
  0
BLOCK
 67
     1
  8
0
  2
$PAPER_SPACE
 70
     0
 10
0.0
 20
0.0
 30
0.0
  3
$PAPER_SPACE
  1

  0
ENDBLK
  5
1D
 67
     1
  8
0
  0
BLOCK
  8
DEFAULT_2
  6
HIDDEN
 62
     8
  2
C_ARROW_BL0
 70
     0
 10
558.79999999999995
 20
855.66250000000002
 30
0.0
  3
C_ARROW_BL0
  1

  0
LINE
  5
217
  8
DEFAULT_2
  6
HIDDEN
 62
     8
 10
558.79999999999995
 20
850.89999999999998
 30
0.0
 11
561.18124999999998
 21
855.66250000000002
 31
0.0
  0
LINE
  5
218
  8
DEFAULT_2
  6
HIDDEN
 62
     8
 10
558.79999999999995
 20
850.89999999999998
 30
0.0
 11
556.41875000000005
 21
855.66250000000002
 31
0.0
  0
LINE
  5
219
  8
DEFAULT_2
  6
HIDDEN
 62
     8
 10
558.20468749999986
 20
855.66250000000002
 30
0.0
 11
556.41875000000005
 21
855.66250000000002
 31
0.0
  0
LINE
  5
21A
  8
DEFAULT_2
  6
HIDDEN
 62
     8
 10
558.20468749999986
 20
860.42499999999995
 30
0.0
 11
558.20468749999986
 21
855.66250000000002
 31
0.0
  0
LINE
  5
21B
  8
DEFAULT_2
  6
HIDDEN
 62
     8
 10
558.20468749999986
 20
860.42499999999995
 30
0.0
 11
559.39531250000005
 21
860.42499999999995
 31
0.0
  0
LINE
  5
21C
  8
DEFAULT_2
  6
HIDDEN
 62
     8
 10
559.39531250000005
 20
855.66250000000002
 30
0.0
 11
559.39531250000005
 21
860.42499999999995
 31
0.0
  0
LINE
  5
21D
  8
DEFAULT_2
  6
HIDDEN
 62
     8
 10
561.18124999999998
 20
855.66250000000002
 30
0.0
 11
559.39531250000005
 21
855.66250000000002
 31
0.0
  0
POLYLINE
  5
21E
  8
DEFAULT_2
  6
HIDDEN
 62
     8
 66
     1
 10
0.0
 20
0.0
 30
0.0
  0
VERTEX
  5
916
  8
DEFAULT_2
  6
HIDDEN
 62
     8
 10
558.79999999999995
 20
850.89999999999998
 30
0.0
  0
VERTEX
  5
917
  8
DEFAULT_2
  6
HIDDEN
 62
     8
 10
556.41875000000005
 20
855.66250000000002
 30
0.0
  0
VERTEX
  5
918
  8
DEFAULT_2
  6
HIDDEN
 62
     8
 10
558.20468749999986
 20
855.66250000000002
 30
0.0
  0
VERTEX
  5
919
  8
DEFAULT_2
  6
HIDDEN
 62
     8
 10
558.20468749999986
 20
860.42499999999995
 30
0.0
  0
VERTEX
  5
91A
  8
DEFAULT_2
  6
HIDDEN
 62
     8
 10
559.39531250000005
 20
860.42499999999995
 30
0.0
  0
VERTEX
  5
91B
  8
DEFAULT_2
  6
HIDDEN
 62
     8
 10
559.39531250000005
 20
855.66250000000002
 30
0.0
  0
VERTEX
  5
91C
  8
DEFAULT_2
  6
HIDDEN
 62
     8
 10
561.18124999999998
 20
855.66250000000002
 30
0.0
  0
VERTEX
  5
91D
  8
DEFAULT_2
  6
HIDDEN
 62
     8
 10
558.79999999999995
 20
850.89999999999998
 30
0.0
  0
SEQEND
  5
91E
  8
DEFAULT_2
  6
HIDDEN
 62
     8
  0
INSERT
  5
21F
  8
DEFAULT_2
  6
CONTINUOUS
 62
     8
  2
*U6
 10
0.0
 20
0.0
 30
0.0
1001
ACAD
1002
{
1000
R14_HATCH_DATA
1000
21F
1011
1.0
1021
0.0
1031
-5.3648838780408422E+200
1021
0.0
1031
0.0
1011
0.0
1021
0.0
1031
-5.3648838780408422E+200
1021
1.0
1031
0.0
1011
0.0
1021
0.0
1031
-5.3648838780408422E+200
1021
0.0
1031
1.0
1040
0.0
1010
0.0
1020
0.0
1030
1.0
1000
SOLID
1070
     1
1070
     1
1071
        1
1071
        1
1071
        7
1070
     1
1040
558.79999999999995
1040
850.89999999999998
1040
556.41875000000005
1040
855.66250000000002
1070
     1
1040
556.41875000000005
1040
855.66250000000002
1040
558.20468749999986
1040
855.66250000000002
1070
     1
1040
558.20468749999986
1040
855.66250000000002
1040
558.20468749999986
1040
860.42499999999995
1070
     1
1040
558.20468749999986
1040
860.42499999999995
1040
559.39531250000005
1040
860.42499999999995
1070
     1
1040
559.39531250000005
1040
860.42499999999995
1040
559.39531250000005
1040
855.66250000000002
1070
     1
1040
559.39531250000005
1040
855.66250000000002
1040
561.18124999999998
1040
855.66250000000002
1070
     1
1040
561.18124999999998
1040
855.66250000000002
1040
558.79999999999995
1040
850.89999999999998
1071
        1
1005
21E
1070
     0
1070
     1
1071
        1
1040
0.0
1040
0.0
1040
0.0
1002
}
  0
ENDBLK
  5
220
  8
0
  6
BYBLOCK
 62
     0
  0
BLOCK
  8
DEFAULT_2
  6
HIDDEN
 62
     8
  2
C_ARROW_BL1
 70
     0
 10
7.9252314115000004
 20
431.80000000000001
 30
0.0
  3
C_ARROW_BL1
  1

  0
LINE
  5
222
  8
DEFAULT_2
  6
HIDDEN
 62
     8
 10
12.6877314115
 20
431.80000000000001
 30
0.0
 11
7.9252314115000004
 21
434.18124999999992
 31
0.0
  0
LINE
  5
223
  8
DEFAULT_2
  6
HIDDEN
 62
     8
 10
12.6877314115
 20
431.80000000000001
 30
0.0
 11
7.9252314115000004
 21
429.41874999999987
 31
0.0
  0
LINE
  5
224
  8
DEFAULT_2
  6
HIDDEN
 62
     8
 10
7.9252314115000004
 20
431.20468749999998
 30
0.0
 11
7.9252314115000004
 21
429.41874999999987
 31
0.0
  0
LINE
  5
225
  8
DEFAULT_2
  6
HIDDEN
 62
     8
 10
3.1627314114999989
 20
431.20468749999998
 30
0.0
 11
7.9252314115000004
 21
431.20468749999998
 31
0.0
  0
LINE
  5
226
  8
DEFAULT_2
  6
HIDDEN
 62
     8
 10
3.1627314114999989
 20
431.20468749999998
 30
0.0
 11
3.1627314114999989
 21
432.39531249999999
 31
0.0
  0
LINE
  5
227
  8
DEFAULT_2
  6
HIDDEN
 62
     8
 10
7.9252314115000004
 20
432.39531249999999
 30
0.0
 11
3.1627314114999989
 21
432.39531249999999
 31
0.0
  0
LINE
  5
228
  8
DEFAULT_2
  6
HIDDEN
 62
     8
 10
7.9252314115000004
 20
434.18124999999992
 30
0.0
 11
7.9252314115000004
 21
432.39531249999999
 31
0.0
  0
POLYLINE
  5
229
  8
DEFAULT_2
  6
HIDDEN
 62
     8
 66
     1
 10
0.0
 20
0.0
 30
0.0
  0
VERTEX
  5
92F
  8
DEFAULT_2
  6
HIDDEN
 62
     8
 10
12.6877314115
 20
431.80000000000001
 30
0.0
  0
VERTEX
  5
930
  8
DEFAULT_2
  6
HIDDEN
 62
     8
 10
7.9252314115000004
 20
429.41874999999987
 30
0.0
  0
VERTEX
  5
931
  8
DEFAULT_2
  6
HIDDEN
 62
     8
 10
7.9252314115000004
 20
431.20468749999998
 30
0.0
  0
VERTEX
  5
932
  8
DEFAULT_2
  6
HIDDEN
 62
     8
 10
3.1627314114999989
 20
431.20468749999998
 30
0.0
  0
VERTEX
  5
933
  8
DEFAULT_2
  6
HIDDEN
 62
     8
 10
3.1627314114999989
 20
432.39531249999999
 30
0.0
  0
VERTEX
  5
934
  8
DEFAULT_2
  6
HIDDEN
 62
     8
 10
7.9252314115000004
 20
432.39531249999999
 30
0.0
  0
VERTEX
  5
935
  8
DEFAULT_2
  6
HIDDEN
 62
     8
 10
7.9252314115000004
 20
434.18124999999992
 30
0.0
  0
VERTEX
  5
936
  8
DEFAULT_2
  6
HIDDEN
 62
     8
 10
12.6877314115
 20
431.80000000000001
 30
0.0
  0
SEQEND
  5
937
  8
DEFAULT_2
  6
HIDDEN
 62
     8
  0
INSERT
  5
22A
  8
DEFAULT_2
  6
CONTINUOUS
 62
     8
  2
*U7
 10
0.0
 20
0.0
 30
0.0
1001
ACAD
1002
{
1000
R14_HATCH_DATA
1000
22A
1011
1.0
1021
0.0
1031
-5.3648838780408422E+200
1021
0.0
1031
0.0
1011
0.0
1021
0.0
1031
-5.3648838780408422E+200
1021
1.0
1031
0.0
1011
0.0
1021
0.0
1031
-5.3648838780408422E+200
1021
0.0
1031
1.0
1040
0.0
1010
0.0
1020
0.0
1030
1.0
1000
SOLID
1070
     1
1070
     1
1071
        1
1071
        1
1071
        7
1070
     1
1040
12.6877314115
1040
431.80000000000001
1040
7.9252314115000004
1040
429.41874999999987
1070
     1
1040
7.9252314115000004
1040
429.41874999999987
1040
7.9252314115000004
1040
431.20468749999998
1070
     1
1040
7.9252314115000004
1040
431.20468749999998
1040
3.1627314114999989
1040
431.20468749999998
1070
     1
1040
3.1627314114999989
1040
431.20468749999998
1040
3.1627314114999989
1040
432.39531249999999
1070
     1
1040
3.1627314114999989
1040
432.39531249999999
1040
7.9252314115000004
1040
432.39531249999999
1070
     1
1040
7.9252314115000004
1040
432.39531249999999
1040
7.9252314115000004
1040
434.18124999999992
1070
     1
1040
7.9252314115000004
1040
434.18124999999992
1040
12.6877314115
1040
431.80000000000001
1071
        1
1005
229
1070
     0
1070
     1
1071
        1
1040
0.0
1040
0.0
1040
0.0
1002
}
  0
ENDBLK
  5
22B
  8
0
  6
BYBLOCK
 62
     0
  0
BLOCK
  8
DEFAULT_2
  6
HIDDEN
 62
     8
  2
C_ARROW_BL2
 70
     0
 10
558.79999999999995
 20
7.9375
 30
0.0
  3
C_ARROW_BL2
  1

  0
LINE
  5
22D
  8
DEFAULT_2
  6
HIDDEN
 62
     8
 10
558.79999999999995
 20
12.699999999999999
 30
0.0
 11
556.41875000000005
 21
7.9375
 31
0.0
  0
LINE
  5
22E
  8
DEFAULT_2
  6
HIDDEN
 62
     8
 10
558.79999999999995
 20
12.699999999999999
 30
0.0
 11
561.18124999999998
 21
7.9375
 31
0.0
  0
LINE
  5
22F
  8
DEFAULT_2
  6
HIDDEN
 62
     8
 10
559.39531250000005
 20
7.9375
 30
0.0
 11
561.18124999999998
 21
7.9375
 31
0.0
  0
LINE
  5
230
  8
DEFAULT_2
  6
HIDDEN
 62
     8
 10
559.39531250000005
 20
3.1749999999999989
 30
0.0
 11
559.39531250000005
 21
7.9375
 31
0.0
  0
LINE
  5
231
  8
DEFAULT_2
  6
HIDDEN
 62
     8
 10
559.39531250000005
 20
3.1749999999999989
 30
0.0
 11
558.20468749999986
 21
3.1749999999999989
 31
0.0
  0
LINE
  5
232
  8
DEFAULT_2
  6
HIDDEN
 62
     8
 10
558.20468749999986
 20
7.9375
 30
0.0
 11
558.20468749999986
 21
3.1749999999999989
 31
0.0
  0
LINE
  5
233
  8
DEFAULT_2
  6
HIDDEN
 62
     8
 10
556.41875000000005
 20
7.9375
 30
0.0
 11
558.20468749999986
 21
7.9375
 31
0.0
  0
POLYLINE
  5
234
  8
DEFAULT_2
  6
HIDDEN
 62
     8
 66
     1
 10
0.0
 20
0.0
 30
0.0
  0
VERTEX
  5
94D
  8
DEFAULT_2
  6
HIDDEN
 62
     8
 10
558.79999999999995
 20
12.699999999999999
 30
0.0
  0
VERTEX
  5
94E
  8
DEFAULT_2
  6
HIDDEN
 62
     8
 10
561.18124999999998
 20
7.9375
 30
0.0
  0
VERTEX
  5
94F
  8
DEFAULT_2
  6
HIDDEN
 62
     8
 10
559.39531250000005
 20
7.9375
 30
0.0
  0
VERTEX
  5
950
  8
DEFAULT_2
  6
HIDDEN
 62
     8
 10
559.39531250000005
 20
3.1749999999999989
 30
0.0
  0
VERTEX
  5
951
  8
DEFAULT_2
  6
HIDDEN
 62
     8
 10
558.20468749999986
 20
3.1749999999999989
 30
0.0
  0
VERTEX
  5
952
  8
DEFAULT_2
  6
HIDDEN
 62
     8
 10
558.20468749999986
 20
7.9375
 30
0.0
  0
VERTEX
  5
953
  8
DEFAULT_2
  6
HIDDEN
 62
     8
 10
556.41875000000005
 20
7.9375
 30
0.0
  0
VERTEX
  5
954
  8
DEFAULT_2
  6
HIDDEN
 62
     8
 10
558.79999999999995
 20
12.699999999999999
 30
0.0
  0
SEQEND
  5
955
  8
DEFAULT_2
  6
HIDDEN
 62
     8
  0
INSERT
  5
235
  8
DEFAULT_2
  6
CONTINUOUS
 62
     8
  2
*U8
 10
0.0
 20
0.0
 30
0.0
1001
ACAD
1002
{
1000
R14_HATCH_DATA
1000
235
1011
1.0
1021
0.0
1031
-5.3648838780408422E+200
1021
0.0
1031
0.0
1011
0.0
1021
0.0
1031
-5.3648838780408422E+200
1021
1.0
1031
0.0
1011
0.0
1021
0.0
1031
-5.3648838780408422E+200
1021
0.0
1031
1.0
1040
0.0
1010
0.0
1020
0.0
1030
1.0
1000
SOLID
1070
     1
1070
     1
1071
        1
1071
        1
1071
        7
1070
     1
1040
558.79999999999995
1040
12.699999999999999
1040
561.18124999999998
1040
7.9375
1070
     1
1040
561.18124999999998
1040
7.9375
1040
559.39531250000005
1040
7.9375
1070
     1
1040
559.39531250000005
1040
7.9375
1040
559.39531250000005
1040
3.1749999999999989
1070
     1
1040
559.39531250000005
1040
3.1749999999999989
1040
558.20468749999986
1040
3.1749999999999989
1070
     1
1040
558.20468749999986
1040
3.1749999999999989
1040
558.20468749999986
1040
7.9375
1070
     1
1040
558.20468749999986
1040
7.9375
1040
556.41875000000005
1040
7.9375
1070
     1
1040
556.41875000000005
1040
7.9375
1040
558.79999999999995
1040
12.699999999999999
1071
        1
1005
234
1070
     0
1070
     1
1071
        1
1040
0.0
1040
0.0
1040
0.0
1002
}
  0
ENDBLK
  5
236
  8
0
  6
BYBLOCK
 62
     0
  0
BLOCK
  8
DEFAULT_2
  6
HIDDEN
 62
     8
  2
C_ARROW_BL3
 70
     0
 10
1109.6718621486
 20
431.80000000000001
 30
0.0
  3
C_ARROW_BL3
  1

  0
LINE
  5
238
  8
DEFAULT_2
  6
HIDDEN
 62
     8
 10
1104.9093621484999
 20
431.80000000000001
 30
0.0
 11
1109.6718621486
 21
429.41874999999987
 31
0.0
  0
LINE
  5
239
  8
DEFAULT_2
  6
HIDDEN
 62
     8
 10
1104.9093621484999
 20
431.80000000000001
 30
0.0
 11
1109.6718621486
 21
434.18124999999992
 31
0.0
  0
LINE
  5
23A
  8
DEFAULT_2
  6
HIDDEN
 62
     8
 10
1109.6718621486
 20
432.39531249999999
 30
0.0
 11
1109.6718621486
 21
434.18124999999992
 31
0.0
  0
LINE
  5
23B
  8
DEFAULT_2
  6
HIDDEN
 62
     8
 10
1114.4343621486
 20
432.39531249999999
 30
0.0
 11
1109.6718621486
 21
432.39531249999999
 31
0.0
  0
LINE
  5
23C
  8
DEFAULT_2
  6
HIDDEN
 62
     8
 10
1114.4343621486
 20
432.39531249999999
 30
0.0
 11
1114.4343621486
 21
431.20468749999998
 31
0.0
  0
LINE
  5
23D
  8
DEFAULT_2
  6
HIDDEN
 62
     8
 10
1109.6718621486
 20
431.20468749999998
 30
0.0
 11
1114.4343621486
 21
431.20468749999998
 31
0.0
  0
LINE
  5
23E
  8
DEFAULT_2
  6
HIDDEN
 62
     8
 10
1109.6718621486
 20
429.41874999999987
 30
0.0
 11
1109.6718621486
 21
431.20468749999998
 31
0.0
  0
POLYLINE
  5
23F
  8
DEFAULT_2
  6
HIDDEN
 62
     8
 66
     1
 10
0.0
 20
0.0
 30
0.0
  0
VERTEX
  5
966
  8
DEFAULT_2
  6
HIDDEN
 62
     8
 10
1104.9093621484999
 20
431.80000000000001
 30
0.0
  0
VERTEX
  5
967
  8
DEFAULT_2
  6
HIDDEN
 62
     8
 10
1109.6718621486
 20
434.18124999999992
 30
0.0
  0
VERTEX
  5
968
  8
DEFAULT_2
  6
HIDDEN
 62
     8
 10
1109.6718621486
 20
432.39531249999999
 30
0.0
  0
VERTEX
  5
969
  8
DEFAULT_2
  6
HIDDEN
 62
     8
 10
1114.4343621486
 20
432.39531249999999
 30
0.0
  0
VERTEX
  5
96A
  8
DEFAULT_2
  6
HIDDEN
 62
     8
 10
1114.4343621486
 20
431.20468749999998
 30
0.0
  0
VERTEX
  5
96B
  8
DEFAULT_2
  6
HIDDEN
 62
     8
 10
1109.6718621486
 20
431.20468749999998
 30
0.0
  0
VERTEX
  5
96C
  8
DEFAULT_2
  6
HIDDEN
 62
     8
 10
1109.6718621486
 20
429.41874999999987
 30
0.0
  0
VERTEX
  5
96D
  8
DEFAULT_2
  6
HIDDEN
 62
     8
 10
1104.9093621484999
 20
431.80000000000001
 30
0.0
  0
SEQEND
  5
96E
  8
DEFAULT_2
  6
HIDDEN
 62
     8
  0
INSERT
  5
240
  8
DEFAULT_2
  6
CONTINUOUS
 62
     8
  2
*U9
 10
0.0
 20
0.0
 30
0.0
1001
ACAD
1002
{
1000
R14_HATCH_DATA
1000
240
1011
1.0
1021
0.0
1031
-5.3648838780408422E+200
1021
0.0
1031
0.0
1011
0.0
1021
0.0
1031
-5.3648838780408422E+200
1021
1.0
1031
0.0
1011
0.0
1021
0.0
1031
-5.3648838780408422E+200
1021
0.0
1031
1.0
1040
0.0
1010
0.0
1020
0.0
1030
1.0
1000
SOLID
1070
     1
1070
     1
1071
        1
1071
        1
1071
        7
1070
     1
1040
1104.9093621484999
1040
431.80000000000001
1040
1109.6718621486
1040
434.18124999999992
1070
     1
1040
1109.6718621486
1040
434.18124999999992
1040
1109.6718621486
1040
432.39531249999999
1070
     1
1040
1109.6718621486
1040
432.39531249999999
1040
1114.4343621486
1040
432.39531249999999
1070
     1
1040
1114.4343621486
1040
432.39531249999999
1040
1114.4343621486
1040
431.20468749999998
1070
     1
1040
1114.4343621486
1040
431.20468749999998
1040
1109.6718621486
1040
431.20468749999998
1070
     1
1040
1109.6718621486
1040
431.20468749999998
1040
1109.6718621486
1040
429.41874999999987
1070
     1
1040
1109.6718621486
1040
429.41874999999987
1040
1104.9093621484999
1040
431.80000000000001
1071
        1
1005
23F
1070
     0
1070
     1
1071
        1
1040
0.0
1040
0.0
1040
0.0
1002
}
  0
ENDBLK
  5
241
  8
0
  6
BYBLOCK
 62
     0
  0
BLOCK
  8
0
  2
GENAXEH
 70
     0
 10
0.0
 20
0.0
 30
0.0
  3
GENAXEH
  1

  0
LINE
  5
671
  8
0
 10
-1.0
 20
0.0
 30
0.0
 11
1.0
 21
0.0
 31
0.0
  0
ENDBLK
  5
673
  8
0
  0
BLOCK
  8
0
  2
*U6
 70
     1
 10
0.0
 20
0.0
 30
0.0
  3
*U6
  1

  0
SOLID
  5
920
  8
DEFAULT_2
  6
CONTINUOUS
 62
     8
 10
558.20468749999986
 20
860.42499999999995
 30
0.0
 11
558.20468749999986
 21
860.42499999999995
 31
0.0
 12
559.39531250000005
 22
860.42499999999995
 32
0.0
 13
559.39531250000005
 23
860.42499999999995
 33
0.0
210
0.0
220
0.0
230
1.0
  0
SOLID
  5
921
  8
DEFAULT_2
  6
CONTINUOUS
 62
     8
 10
558.20468749999986
 20
860.42499999999995
 30
0.0
 11
558.20468749999986
 21
855.66250000000002
 31
0.0
 12
559.39531250000005
 22
855.66250000000002
 32
0.0
 13
559.39531250000005
 23
855.66250000000002
 33
0.0
210
0.0
220
0.0
230
1.0
  0
SOLID
  5
922
  8
DEFAULT_2
  6
CONTINUOUS
 62
     8
 10
-558.20468749999986
 20
860.42499999999995
 30
0.0
 11
-559.39531250000005
 21
860.42499999999995
 31
0.0
 12
-559.39531250000005
 22
855.66250000000002
 32
0.0
 13
-559.39531250000005
 23
855.66250000000002
 33
0.0
210
0.0
220
0.0
230
-1.0
  0
SOLID
  5
923
  8
DEFAULT_2
  6
CONTINUOUS
 62
     8
 10
556.41875000000005
 20
855.66250000000002
 30
0.0
 11
556.41875000000005
 21
855.66250000000002
 31
0.0
 12
558.20468749999986
 22
855.66250000000002
 32
0.0
 13
558.20468749999986
 23
855.66250000000002
 33
0.0
210
0.0
220
0.0
230
1.0
  0
SOLID
  5
924
  8
DEFAULT_2
  6
CONTINUOUS
 62
     8
 10
559.39531250000005
 20
855.66250000000002
 30
0.0
 11
559.39531250000005
 21
855.66250000000002
 31
0.0
 12
561.18124999999998
 22
855.66250000000002
 32
0.0
 13
561.18124999999998
 23
855.66250000000002
 33
0.0
210
0.0
220
0.0
230
1.0
  0
SOLID
  5
925
  8
DEFAULT_2
  6
CONTINUOUS
 62
     8
 10
-556.41875000000005
 20
855.66250000000002
 30
0.0
 11
-561.18124999999998
 21
855.66250000000002
 31
0.0
 12
-558.79999999999995
 22
850.89999999999998
 32
0.0
 13
-558.79999999999995
 23
850.89999999999998
 33
0.0
210
0.0
220
0.0
230
-1.0
  0
LINE
  5
926
  8
DEFAULT_2
  6
CONTINUOUS
 62
     8
 10
558.20468749999986
 20
860.42499999999995
 30
0.0
 11
559.39531250000005
 21
860.42499999999995
 31
0.0
  0
LINE
  5
927
  8
DEFAULT_2
  6
CONTINUOUS
 62
     8
 10
558.20468749999986
 20
860.42499999999995
 30
0.0
 11
558.20468749999986
 21
855.66250000000002
 31
0.0
  0
LINE
  5
928
  8
DEFAULT_2
  6
CONTINUOUS
 62
     8
 10
559.39531250000005
 20
860.42499999999995
 30
0.0
 11
559.39531250000005
 21
855.66250000000002
 31
0.0
  0
LINE
  5
929
  8
DEFAULT_2
  6
CONTINUOUS
 62
     8
 10
556.41875000000005
 20
855.66250000000002
 30
0.0
 11
558.20468749999986
 21
855.66250000000002
 31
0.0
  0
LINE
  5
92A
  8
DEFAULT_2
  6
CONTINUOUS
 62
     8
 10
559.39531250000005
 20
855.66250000000002
 30
0.0
 11
561.18124999999998
 21
855.66250000000002
 31
0.0
  0
LINE
  5
92B
  8
DEFAULT_2
  6
CONTINUOUS
 62
     8
 10
561.18124999999998
 20
855.66250000000002
 30
0.0
 11
558.79999999999995
 21
850.89999999999998
 31
0.0
  0
LINE
  5
92C
  8
DEFAULT_2
  6
CONTINUOUS
 62
     8
 10
558.79999999999995
 20
850.89999999999998
 30
0.0
 11
556.41875000000005
 21
855.66250000000002
 31
0.0
  0
ENDBLK
  5
92E
  8
0
  0
BLOCK
  8
0
  2
*U7
 70
     1
 10
0.0
 20
0.0
 30
0.0
  3
*U7
  1

  0
SOLID
  5
939
  8
DEFAULT_2
  6
CONTINUOUS
 62
     8
 10
7.9252314115000004
 20
434.18124999999992
 30
0.0
 11
7.9252314115000004
 21
432.39531249999999
 31
0.0
 12
11.497106411500029
 22
432.39531249999999
 32
0.0
 13
11.497106411500029
 23
432.39531249999999
 33
0.0
210
0.0
220
0.0
230
1.0
  0
SOLID
  5
93A
  8
DEFAULT_2
  6
CONTINUOUS
 62
     8
 10
3.1627314114999989
 20
432.39531249999999
 30
0.0
 11
3.1627314114999989
 21
432.39531249999999
 31
0.0
 12
7.9252314115000004
 22
432.39531249999999
 32
0.0
 13
7.9252314115000004
 23
432.39531249999999
 33
0.0
210
0.0
220
0.0
230
1.0
  0
SOLID
  5
93B
  8
DEFAULT_2
  6
CONTINUOUS
 62
     8
 10
3.1627314114999989
 20
432.39531249999999
 30
0.0
 11
3.1627314114999989
 21
431.80000000000001
 31
0.0
 12
12.6877314115
 22
431.80000000000001
 32
0.0
 13
12.6877314115
 23
431.80000000000001
 33
0.0
  0
SOLID
  5
93C
  8
DEFAULT_2
  6
CONTINUOUS
 62
     8
 10
-3.1627314114999989
 20
432.39531249999999
 30
0.0
 11
-11.497106411500029
 21
432.39531249999999
 31
0.0
 12
-12.6877314115
 22
431.80000000000001
 32
0.0
 13
-12.6877314115
 23
431.80000000000001
 33
0.0
210
0.0
220
0.0
230
-1.0
  0
SOLID
  5
93D
  8
DEFAULT_2
  6
CONTINUOUS
 62
     8
 10
3.1627314114999989
 20
431.80000000000001
 30
0.0
 11
3.1627314114999989
 21
431.20468749999998
 31
0.0
 12
11.49710641149994
 22
431.20468749999998
 32
0.0
 13
11.49710641149994
 23
431.20468749999998
 33
0.0
210
0.0
220
0.0
230
1.0
  0
SOLID
  5
93E
  8
DEFAULT_2
  6
CONTINUOUS
 62
     8
 10
-3.1627314114999989
 20
431.80000000000001
 30
0.0
 11
-12.6877314115
 21
431.80000000000001
 31
0.0
 12
-11.49710641149994
 22
431.20468749999998
 32
0.0
 13
-11.49710641149994
 23
431.20468749999998
 33
0.0
210
0.0
220
0.0
230
-1.0
  0
SOLID
  5
93F
  8
DEFAULT_2
  6
CONTINUOUS
 62
     8
 10
3.1627314114999989
 20
431.20468749999998
 30
0.0
 11
3.1627314114999989
 21
431.20468749999998
 31
0.0
 12
7.9252314115000004
 22
431.20468749999998
 32
0.0
 13
7.9252314115000004
 23
431.20468749999998
 33
0.0
210
0.0
220
0.0
230
1.0
  0
SOLID
  5
940
  8
DEFAULT_2
  6
CONTINUOUS
 62
     8
 10
-7.9252314115000004
 20
431.20468749999998
 30
0.0
 11
-11.49710641149994
 21
431.20468749999998
 31
0.0
 12
-7.9252314115000004
 22
429.41874999999987
 32
0.0
 13
-7.9252314115000004
 23
429.41874999999987
 33
0.0
210
0.0
220
0.0
230
-1.0
  0
LINE
  5
941
  8
DEFAULT_2
  6
CONTINUOUS
 62
     8
 10
7.9252314115000004
 20
434.18124999999992
 30
0.0
 11
7.9252314115000004
 21
432.39531249999999
 31
0.0
  0
LINE
  5
942
  8
DEFAULT_2
  6
CONTINUOUS
 62
     8
 10
11.497106411500029
 20
432.39531249999999
 30
0.0
 11
7.9252314115000004
 21
434.18124999999992
 31
0.0
  0
LINE
  5
943
  8
DEFAULT_2
  6
CONTINUOUS
 62
     8
 10
3.1627314114999989
 20
432.39531249999999
 30
0.0
 11
7.9252314115000004
 21
432.39531249999999
 31
0.0
  0
LINE
  5
944
  8
DEFAULT_2
  6
CONTINUOUS
 62
     8
 10
3.1627314114999989
 20
432.39531249999999
 30
0.0
 11
3.1627314114999989
 21
431.80000000000001
 31
0.0
  0
LINE
  5
945
  8
DEFAULT_2
  6
CONTINUOUS
 62
     8
 10
11.497106411500029
 20
432.39531249999999
 30
0.0
 11
12.6877314115
 21
431.80000000000001
 31
0.0
  0
LINE
  5
946
  8
DEFAULT_2
  6
CONTINUOUS
 62
     8
 10
3.1627314114999989
 20
431.80000000000001
 30
0.0
 11
3.1627314114999989
 21
431.20468749999998
 31
0.0
  0
LINE
  5
947
  8
DEFAULT_2
  6
CONTINUOUS
 62
     8
 10
12.6877314115
 20
431.80000000000001
 30
0.0
 11
11.49710641149994
 21
431.20468749999998
 31
0.0
  0
LINE
  5
948
  8
DEFAULT_2
  6
CONTINUOUS
 62
     8
 10
3.1627314114999989
 20
431.20468749999998
 30
0.0
 11
7.9252314115000004
 21
431.20468749999998
 31
0.0
  0
LINE
  5
949
  8
DEFAULT_2
  6
CONTINUOUS
 62
     8
 10
11.49710641149994
 20
431.20468749999998
 30
0.0
 11
7.9252314115000004
 21
429.41874999999987
 31
0.0
  0
LINE
  5
94A
  8
DEFAULT_2
  6
CONTINUOUS
 62
     8
 10
7.9252314115000004
 20
429.41874999999987
 30
0.0
 11
7.9252314115000004
 21
431.20468749999998
 31
0.0
  0
ENDBLK
  5
94C
  8
0
  0
BLOCK
  8
0
  2
*U8
 70
     1
 10
0.0
 20
0.0
 30
0.0
  3
*U8
  1

  0
SOLID
  5
957
  8
DEFAULT_2
  6
CONTINUOUS
 62
     8
 10
558.79999999999995
 20
12.699999999999999
 30
0.0
 11
556.41875000000005
 21
7.9375
 31
0.0
 12
561.18124999999998
 22
7.9375
 32
0.0
 13
561.18124999999998
 23
7.9375
 33
0.0
210
0.0
220
0.0
230
1.0
  0
SOLID
  5
958
  8
DEFAULT_2
  6
CONTINUOUS
 62
     8
 10
556.41875000000005
 20
7.9375
 30
0.0
 11
556.41875000000005
 21
7.9375
 31
0.0
 12
558.20468749999986
 22
7.9375
 32
0.0
 13
558.20468749999986
 23
7.9375
 33
0.0
210
0.0
220
0.0
230
1.0
  0
SOLID
  5
959
  8
DEFAULT_2
  6
CONTINUOUS
 62
     8
 10
559.39531250000005
 20
7.9375
 30
0.0
 11
559.39531250000005
 21
7.9375
 31
0.0
 12
561.18124999999998
 22
7.9375
 32
0.0
 13
561.18124999999998
 23
7.9375
 33
0.0
210
0.0
220
0.0
230
1.0
  0
SOLID
  5
95A
  8
DEFAULT_2
  6
CONTINUOUS
 62
     8
 10
558.20468749999986
 20
7.9375
 30
0.0
 11
558.20468749999986
 21
3.1749999999999989
 31
0.0
 12
559.39531250000005
 22
3.1749999999999989
 32
0.0
 13
559.39531250000005
 23
3.1749999999999989
 33
0.0
  0
SOLID
  5
95B
  8
DEFAULT_2
  6
CONTINUOUS
 62
     8
 10
-558.20468749999986
 20
7.9375
 30
0.0
 11
-559.39531250000005
 21
7.9375
 31
0.0
 12
-559.39531250000005
 22
3.1749999999999989
 32
0.0
 13
-559.39531250000005
 23
3.1749999999999989
 33
0.0
210
0.0
220
0.0
230
-1.0
  0
SOLID
  5
95C
  8
DEFAULT_2
  6
CONTINUOUS
 62
     8
 10
558.20468749999986
 20
3.1749999999999989
 30
0.0
 11
558.20468749999986
 21
3.1749999999999989
 31
0.0
 12
559.39531250000005
 22
3.1749999999999989
 32
0.0
 13
559.39531250000005
 23
3.1749999999999989
 33
0.0
210
0.0
220
0.0
230
1.0
  0
LINE
  5
95D
  8
DEFAULT_2
  6
CONTINUOUS
 62
     8
 10
558.79999999999995
 20
12.699999999999999
 30
0.0
 11
556.41875000000005
 21
7.9375
 31
0.0
  0
LINE
  5
95E
  8
DEFAULT_2
  6
CONTINUOUS
 62
     8
 10
561.18124999999998
 20
7.9375
 30
0.0
 11
558.79999999999995
 21
12.699999999999999
 31
0.0
  0
LINE
  5
95F
  8
DEFAULT_2
  6
CONTINUOUS
 62
     8
 10
556.41875000000005
 20
7.9375
 30
0.0
 11
558.20468749999986
 21
7.9375
 31
0.0
  0
LINE
  5
960
  8
DEFAULT_2
  6
CONTINUOUS
 62
     8
 10
559.39531250000005
 20
7.9375
 30
0.0
 11
561.18124999999998
 21
7.9375
 31
0.0
  0
LINE
  5
961
  8
DEFAULT_2
  6
CONTINUOUS
 62
     8
 10
558.20468749999986
 20
7.9375
 30
0.0
 11
558.20468749999986
 21
3.1749999999999989
 31
0.0
  0
LINE
  5
962
  8
DEFAULT_2
  6
CONTINUOUS
 62
     8
 10
559.39531250000005
 20
7.9375
 30
0.0
 11
559.39531250000005
 21
3.1749999999999989
 31
0.0
  0
LINE
  5
963
  8
DEFAULT_2
  6
CONTINUOUS
 62
     8
 10
558.20468749999986
 20
3.1749999999999989
 30
0.0
 11
559.39531250000005
 21
3.1749999999999989
 31
0.0
  0
ENDBLK
  5
965
  8
0
  0
BLOCK
  8
0
  2
*U9
 70
     1
 10
0.0
 20
0.0
 30
0.0
  3
*U9
  1

  0
SOLID
  5
970
  8
DEFAULT_2
  6
CONTINUOUS
 62
     8
 10
1109.6718621486
 20
434.18124999999992
 30
0.0
 11
1106.0999871485251
 21
432.39531249999999
 31
0.0
 12
1109.6718621486
 22
432.39531249999999
 32
0.0
 13
1109.6718621486
 23
432.39531249999999
 33
0.0
210
0.0
220
0.0
230
1.0
  0
SOLID
  5
971
  8
DEFAULT_2
  6
CONTINUOUS
 62
     8
 10
1109.6718621486
 20
432.39531249999999
 30
0.0
 11
1109.6718621486
 21
432.39531249999999
 31
0.0
 12
1114.4343621486
 22
432.39531249999999
 32
0.0
 13
1114.4343621486
 23
432.39531249999999
 33
0.0
210
0.0
220
0.0
230
1.0
  0
SOLID
  5
972
  8
DEFAULT_2
  6
CONTINUOUS
 62
     8
 10
1106.0999871485251
 20
432.39531249999999
 30
0.0
 11
1104.9093621484999
 21
431.80000000000001
 31
0.0
 12
1114.4343621486
 22
431.80000000000001
 32
0.0
 13
1114.4343621486
 23
431.80000000000001
 33
0.0
210
0.0
220
0.0
230
1.0
  0
SOLID
  5
973
  8
DEFAULT_2
  6
CONTINUOUS
 62
     8
 10
-1106.0999871485251
 20
432.39531249999999
 30
0.0
 11
-1114.4343621486
 21
432.39531249999999
 31
0.0
 12
-1114.4343621486
 22
431.80000000000001
 32
0.0
 13
-1114.4343621486
 23
431.80000000000001
 33
0.0
210
0.0
220
0.0
230
-1.0
  0
SOLID
  5
974
  8
DEFAULT_2
  6
CONTINUOUS
 62
     8
 10
1104.9093621484999
 20
431.80000000000001
 30
0.0
 11
1106.0999871485251
 21
431.20468749999998
 31
0.0
 12
1114.4343621486
 22
431.20468749999998
 32
0.0
 13
1114.4343621486
 23
431.20468749999998
 33
0.0
210
0.0
220
0.0
230
1.0
  0
SOLID
  5
975
  8
DEFAULT_2
  6
CONTINUOUS
 62
     8
 10
-1104.9093621484999
 20
431.80000000000001
 30
0.0
 11
-1114.4343621486
 21
431.80000000000001
 31
0.0
 12
-1114.4343621486
 22
431.20468749999998
 32
0.0
 13
-1114.4343621486
 23
431.20468749999998
 33
0.0
210
0.0
220
0.0
230
-1.0
  0
SOLID
  5
976
  8
DEFAULT_2
  6
CONTINUOUS
 62
     8
 10
1109.6718621486
 20
431.20468749999998
 30
0.0
 11
1109.6718621486
 21
431.20468749999998
 31
0.0
 12
1114.4343621486
 22
431.20468749999998
 32
0.0
 13
1114.4343621486
 23
431.20468749999998
 33
0.0
210
0.0
220
0.0
230
1.0
  0
SOLID
  5
977
  8
DEFAULT_2
  6
CONTINUOUS
 62
     8
 10
-1106.0999871485251
 20
431.20468749999998
 30
0.0
 11
-1109.6718621486
 21
431.20468749999998
 31
0.0
 12
-1109.6718621486
 22
429.41874999999987
 32
0.0
 13
-1109.6718621486
 23
429.41874999999987
 33
0.0
210
0.0
220
0.0
230
-1.0
  0
LINE
  5
978
  8
DEFAULT_2
  6
CONTINUOUS
 62
     8
 10
1109.6718621486
 20
434.18124999999992
 30
0.0
 11
1106.0999871485251
 21
432.39531249999999
 31
0.0
  0
LINE
  5
979
  8
DEFAULT_2
  6
CONTINUOUS
 62
     8
 10
1109.6718621486
 20
432.39531249999999
 30
0.0
 11
1109.6718621486
 21
434.18124999999992
 31
0.0
  0
LINE
  5
97A
  8
DEFAULT_2
  6
CONTINUOUS
 62
     8
 10
1109.6718621486
 20
432.39531249999999
 30
0.0
 11
1114.4343621486
 21
432.39531249999999
 31
0.0
  0
LINE
  5
97B
  8
DEFAULT_2
  6
CONTINUOUS
 62
     8
 10
1106.0999871485251
 20
432.39531249999999
 30
0.0
 11
1104.9093621484999
 21
431.80000000000001
 31
0.0
  0
LINE
  5
97C
  8
DEFAULT_2
  6
CONTINUOUS
 62
     8
 10
1114.4343621486
 20
432.39531249999999
 30
0.0
 11
1114.4343621486
 21
431.80000000000001
 31
0.0
  0
LINE
  5
97D
  8
DEFAULT_2
  6
CONTINUOUS
 62
     8
 10
1104.9093621484999
 20
431.80000000000001
 30
0.0
 11
1106.0999871485251
 21
431.20468749999998
 31
0.0
  0
LINE
  5
97E
  8
DEFAULT_2
  6
CONTINUOUS
 62
     8
 10
1114.4343621486
 20
431.80000000000001
 30
0.0
 11
1114.4343621486
 21
431.20468749999998
 31
0.0
  0
LINE
  5
97F
  8
DEFAULT_2
  6
CONTINUOUS
 62
     8
 10
1109.6718621486
 20
431.20468749999998
 30
0.0
 11
1114.4343621486
 21
431.20468749999998
 31
0.0
  0
LINE
  5
980
  8
DEFAULT_2
  6
CONTINUOUS
 62
     8
 10
1109.6718621486
 20
431.20468749999998
 30
0.0
 11
1109.6718621486
 21
429.41874999999987
 31
0.0
  0
LINE
  5
981
  8
DEFAULT_2
  6
CONTINUOUS
 62
     8
 10
1109.6718621486
 20
429.41874999999987
 30
0.0
 11
1106.0999871485251
 21
431.20468749999998
 31
0.0
  0
ENDBLK
  5
983
  8
0
  0
ENDSEC
  0
SECTION
  2
ENTITIES
  0
TEXT
  5
267
  8
NOTE
  6
CONTINUOUS
 62
     5
 10
1043.7780773816
 20
29.254440431399999
 30
0.0
 40
6.0960000000000001
  1
 
 41
0.8
 51
0.000018724
  0
TEXT
  5
297
  8
0
  6
CONTINUOUS
 62
     5
 10
972.73533333329988
 20
52.07
 30
0.0
 40
2.54
  1
 
 41
0.8
  7
TEXTSTYLE_1
  0
TEXT
  5
2A4
  8
0
  6
CONTINUOUS
 62
     5
 10
1027.4935
 20
89.534999999999997
 30
0.0
 40
2.54
  1
 
 41
0.95
 72
     1
 11
1028.7
 21
89.534999999999997
 31
0.0
  0
TEXT
  5
2BE
  8
0
  6
CONTINUOUS
 62
     5
 10
943.22900000000004
 20
33.896299999999997
 30
0.0
 40
2.54
  1
 
 41
0.8
 72
     1
 11
944.245
 21
33.896299999999997
 31
0.0
  0
TEXT
  5
2BF
  8
0
  6
CONTINUOUS
 62
     5
 10
908.68499999999995
 20
33.896299999999997
 30
0.0
 40
2.54
  1
 
 41
0.8
 72
     1
 11
909.70100000000002
 21
33.896299999999997
 31
0.0
  0
TEXT
  5
2C0
  8
0
  6
CONTINUOUS
 62
     5
 10
875.28399999999999
 20
33.896299999999997
 30
0.0
 40
2.54
  1
 
 41
0.8
 72
     1
 11
876.29999999999995
 21
33.896299999999997
 31
0.0
  0
TEXT
  5
2C1
  8
0
  6
CONTINUOUS
 62
     5
 10
860.17100000000005
 20
33.896299999999997
 30
0.0
 40
2.54
  1
 
 41
0.8
 72
     1
 11
861.1869999999999
 21
33.896299999999997
 31
0.0
  0
TEXT
  5
2C2
  8
0
  6
CONTINUOUS
 62
     5
 10
844.67700000000002
 20
33.896299999999997
 30
0.0
 40
2.54
  1
 
 41
0.8
 72
     1
 11
845.69299999999987
 21
33.896299999999997
 31
0.0
  0
TEXT
  5
2C3
  8
0
  6
CONTINUOUS
 62
     5
 10
943.22900000000004
 20
40.0685
 30
0.0
 40
2.54
  1
 
 41
0.8
 72
     1
 11
944.245
 21
40.0685
 31
0.0
  0
TEXT
  5
2C4
  8
0
  6
CONTINUOUS
 62
     5
 10
908.68499999999995
 20
40.0685
 30
0.0
 40
2.54
  1
 
 41
0.8
 72
     1
 11
909.70100000000002
 21
40.0685
 31
0.0
  0
TEXT
  5
2C5
  8
0
  6
CONTINUOUS
 62
     5
 10
875.28399999999999
 20
40.0685
 30
0.0
 40
2.54
  1
 
 41
0.8
 72
     1
 11
876.29999999999995
 21
40.0685
 31
0.0
  0
TEXT
  5
2C6
  8
0
  6
CONTINUOUS
 62
     5
 10
860.17100000000005
 20
40.0685
 30
0.0
 40
2.54
  1
 
 41
0.8
 72
     1
 11
861.1869999999999
 21
40.0685
 31
0.0
  0
TEXT
  5
2C7
  8
0
  6
CONTINUOUS
 62
     5
 10
844.67700000000002
 20
40.0685
 30
0.0
 40
2.54
  1
 
 41
0.8
 72
     1
 11
845.69299999999987
 21
40.0685
 31
0.0
  0
TEXT
  5
2C8
  8
0
  6
CONTINUOUS
 62
     5
 10
943.22900000000004
 20
46.24069999999999
 30
0.0
 40
2.54
  1
 
 41
0.8
 72
     1
 11
944.245
 21
46.24069999999999
 31
0.0
  0
TEXT
  5
2C9
  8
0
  6
CONTINUOUS
 62
     5
 10
908.68499999999995
 20
46.24069999999999
 30
0.0
 40
2.54
  1
 
 41
0.8
 72
     1
 11
909.70100000000002
 21
46.24069999999999
 31
0.0
  0
TEXT
  5
2CA
  8
0
  6
CONTINUOUS
 62
     5
 10
875.28399999999999
 20
46.24069999999999
 30
0.0
 40
2.54
  1
 
 41
0.8
 72
     1
 11
876.29999999999995
 21
46.24069999999999
 31
0.0
  0
TEXT
  5
2CB
  8
0
  6
CONTINUOUS
 62
     5
 10
860.17100000000005
 20
46.24069999999999
 30
0.0
 40
2.54
  1
 
 41
0.8
 72
     1
 11
861.1869999999999
 21
46.24069999999999
 31
0.0
  0
TEXT
  5
2CC
  8
0
  6
CONTINUOUS
 62
     5
 10
844.67700000000002
 20
46.24069999999999
 30
0.0
 40
2.54
  1
 
 41
0.8
 72
     1
 11
845.69299999999987
 21
46.24069999999999
 31
0.0
  0
TEXT
  5
2CD
  8
0
  6
CONTINUOUS
 62
     5
 10
943.22900000000004
 20
52.4129
 30
0.0
 40
2.54
  1
 
 41
0.8
 72
     1
 11
944.245
 21
52.4129
 31
0.0
  0
TEXT
  5
2CE
  8
0
  6
CONTINUOUS
 62
     5
 10
908.68499999999995
 20
52.4129
 30
0.0
 40
2.54
  1
 
 41
0.8
 72
     1
 11
909.70100000000002
 21
52.4129
 31
0.0
  0
TEXT
  5
2CF
  8
0
  6
CONTINUOUS
 62
     5
 10
875.28399999999999
 20
52.4129
 30
0.0
 40
2.54
  1
 
 41
0.8
 72
     1
 11
876.29999999999995
 21
52.4129
 31
0.0
  0
TEXT
  5
2D0
  8
0
  6
CONTINUOUS
 62
     5
 10
860.17100000000005
 20
52.4129
 30
0.0
 40
2.54
  1
 
 41
0.8
 72
     1
 11
861.1869999999999
 21
52.4129
 31
0.0
  0
TEXT
  5
2D1
  8
0
  6
CONTINUOUS
 62
     5
 10
844.67700000000002
 20
52.4129
 30
0.0
 40
2.54
  1
 
 41
0.8
 72
     1
 11
845.69299999999987
 21
52.4129
 31
0.0
  0
TEXT
  5
2D2
  8
0
  6
CONTINUOUS
 62
     5
 10
943.22900000000004
 20
58.58509999999999
 30
0.0
 40
2.54
  1
 
 41
0.8
 72
     1
 11
944.245
 21
58.58509999999999
 31
0.0
  0
TEXT
  5
2D3
  8
0
  6
CONTINUOUS
 62
     5
 10
908.68499999999995
 20
58.58509999999999
 30
0.0
 40
2.54
  1
 
 41
0.8
 72
     1
 11
909.70100000000002
 21
58.58509999999999
 31
0.0
  0
TEXT
  5
2D4
  8
0
  6
CONTINUOUS
 62
     5
 10
875.28399999999999
 20
58.58509999999999
 30
0.0
 40
2.54
  1
 
 41
0.8
 72
     1
 11
876.29999999999995
 21
58.58509999999999
 31
0.0
  0
TEXT
  5
2D5
  8
0
  6
CONTINUOUS
 62
     5
 10
860.17100000000005
 20
58.58509999999999
 30
0.0
 40
2.54
  1
 
 41
0.8
 72
     1
 11
861.1869999999999
 21
58.58509999999999
 31
0.0
  0
TEXT
  5
2D6
  8
0
  6
CONTINUOUS
 62
     5
 10
844.67700000000002
 20
58.58509999999999
 30
0.0
 40
2.54
  1
 
 41
0.8
 72
     1
 11
845.69299999999987
 21
58.58509999999999
 31
0.0
  0
POLYLINE
  5
3E0
  8
0
  6
CONTINUOUS
 62
     7
 66
     1
 10
0.0
 20
0.0
 30
0.0
  0
VERTEX
  5
984
  8
0
  6
CONTINUOUS
 62
     7
 10
-69.34729313334293
 20
363.78118525880359
 30
0.0
  0
VERTEX
  5
985
  8
0
  6
CONTINUOUS
 62
     7
 10
-69.168097566742915
 20
361.98482892180363
 30
0.0
  0
VERTEX
  5
986
  8
0
  6
CONTINUOUS
 62
     7
 10
-68.909549922342933
 20
360.2184976518036
 30
0.0
  0
VERTEX
  5
987
  8
0
  6
CONTINUOUS
 62
     7
 10
-68.574964876542936
 20
358.4857071736036
 30
0.0
  0
VERTEX
  5
988
  8
0
  6
CONTINUOUS
 62
     7
 10
-68.167668807542952
 20
356.78923623460349
 30
0.0
  0
VERTEX
  5
989
  8
0
  6
CONTINUOUS
 62
     7
 10
-67.690878513542941
 20
355.1311545212036
 30
0.0
  0
VERTEX
  5
98A
  8
0
  6
CONTINUOUS
 62
     7
 10
-67.14799038954294
 20
353.5139813512036
 30
0.0
  0
VERTEX
  5
98B
  8
0
  6
CONTINUOUS
 62
     7
 10
-66.542444956542965
 20
351.93998726500371
 30
0.0
  0
VERTEX
  5
98C
  8
0
  6
CONTINUOUS
 62
     7
 10
-65.877413590742947
 20
350.41055210680361
 30
0.0
  0
VERTEX
  5
98D
  8
0
  6
CONTINUOUS
 62
     7
 10
-65.156307837342922
 20
348.92752205140363
 30
0.0
  0
VERTEX
  5
98E
  8
0
  6
CONTINUOUS
 62
     7
 10
-64.382529883342954
 20
347.49248428160371
 30
0.0
  0
VERTEX
  5
98F
  8
0
  6
CONTINUOUS
 62
     7
 10
-63.559076627942943
 20
346.10617188100372
 30
0.0
  0
VERTEX
  5
990
  8
0
  6
CONTINUOUS
 62
     7
 10
-62.689218713542907
 20
344.7697578056036
 30
0.0
  0
VERTEX
  5
991
  8
0
  6
CONTINUOUS
 62
     7
 10
-61.776272036942942
 20
343.48432478600358
 30
0.0
  0
VERTEX
  5
992
  8
0
  6
CONTINUOUS
 62
     7
 10
-60.823126809942949
 20
342.25025840360371
 30
0.0
  0
VERTEX
  5
993
  8
0
  6
CONTINUOUS
 62
     7
 10
-59.832928463742917
 20
341.06823860760358
 30
0.0
  0
VERTEX
  5
994
  8
0
  6
CONTINUOUS
 62
     7
 10
-58.808801698342961
 20
339.93880200140359
 30
0.0
  0
VERTEX
  5
995
  8
0
  6
CONTINUOUS
 62
     7
 10
-57.753436626342932
 20
338.86193985700362
 30
0.0
  0
VERTEX
  5
996
  8
0
  6
CONTINUOUS
 62
     7
 10
-56.669796473742963
 20
337.83789451960371
 30
0.0
  0
VERTEX
  5
997
  8
0
  6
CONTINUOUS
 62
     7
 10
-55.56077579494297
 20
336.86675280800358
 30
0.0
  0
VERTEX
  5
998
  8
0
  6
CONTINUOUS
 62
     7
 10
-54.428784719742957
 20
335.94813546020362
 30
0.0
  0
VERTEX
  5
999
  8
0
  6
CONTINUOUS
 62
     7
 10
-53.276466146942937
 20
335.08184723460357
 30
0.0
  0
VERTEX
  5
99A
  8
0
  6
CONTINUOUS
 62
     7
 10
-52.106544241342931
 20
334.26768830160358
 30
0.0
  0
VERTEX
  5
99B
  8
0
  6
CONTINUOUS
 62
     7
 10
-50.921387207142921
 20
333.50515181580357
 30
0.0
  0
VERTEX
  5
99C
  8
0
  6
CONTINUOUS
 62
     7
 10
-49.72127315894295
 20
332.7925143436035
 30
0.0
  0
VERTEX
  5
99D
  8
0
  6
CONTINUOUS
 62
     7
 10
-48.510713845942909
 20
332.13061444200372
 30
0.0
  0
VERTEX
  5
99E
  8
0
  6
CONTINUOUS
 62
     7
 10
-47.298663659942918
 20
331.52197193020362
 30
0.0
  0
VERTEX
  5
99F
  8
0
  6
CONTINUOUS
 62
     7
 10
-46.085504624742953
 20
330.9641893104037
 30
0.0
  0
VERTEX
  5
9A0
  8
0
  6
CONTINUOUS
 62
     7
 10
-44.875750965342938
 20
330.45683777000357
 30
0.0
  0
VERTEX
  5
9A1
  8
0
  6
CONTINUOUS
 62
     7
 10
-43.685274202142921
 20
330.0032420748035
 30
0.0
  0
VERTEX
  5
9A2
  8
0
  6
CONTINUOUS
 62
     7
 10
-42.51666171174292
 20
329.60042699220361
 30
0.0
  0
VERTEX
  5
9A3
  8
0
  6
CONTINUOUS
 62
     7
 10
-41.372243427142962
 20
329.24539689200361
 30
0.0
  0
VERTEX
  5
9A4
  8
0
  6
CONTINUOUS
 62
     7
 10
-40.268092716942917
 20
328.93881629320362
 30
0.0
  0
VERTEX
  5
9A5
  8
0
  6
CONTINUOUS
 62
     7
 10
-39.204677625742931
 20
328.6761207814036
 30
0.0
  0
VERTEX
  5
9A6
  8
0
  6
CONTINUOUS
 62
     7
 10
-38.185560962142922
 20
328.45374173920362
 30
0.0
  0
VERTEX
  5
9A7
  8
0
  6
CONTINUOUS
 62
     7
 10
-37.231734345942932
 20
328.27120260680363
 30
0.0
  0
VERTEX
  5
9A8
  8
0
  6
CONTINUOUS
 62
     7
 10
-36.344952497342952
 20
328.12337405580359
 30
0.0
  0
VERTEX
  5
9A9
  8
0
  6
CONTINUOUS
 62
     7
 10
-35.526307090542957
 20
328.00540090640351
 30
0.0
  0
VERTEX
  5
9AA
  8
0
  6
CONTINUOUS
 62
     7
 10
-34.79582647614297
 20
327.91498503680361
 30
0.0
  0
VERTEX
  5
9AB
  8
0
  6
CONTINUOUS
 62
     7
 10
-34.166610567342957
 20
327.84824941340349
 30
0.0
  0
VERTEX
  5
9AC
  8
0
  6
CONTINUOUS
 62
     7
 10
-33.627071164342972
 20
327.79919318580357
 30
0.0
  0
VERTEX
  5
9AD
  8
0
  6
CONTINUOUS
 62
     7
 10
-33.159957036942963
 20
327.76278500640359
 30
0.0
  0
VERTEX
  5
9AE
  8
0
  6
CONTINUOUS
 62
     7
 10
-32.77036271054294
 20
327.7367061350036
 30
0.0
  0
VERTEX
  5
9AF
  8
0
  6
CONTINUOUS
 62
     7
 10
-32.453621431342917
 20
327.71836811580363
 30
0.0
  0
VERTEX
  5
9B0
  8
0
  6
CONTINUOUS
 62
     7
 10
-32.17762457934294
 20
327.70447695780359
 30
0.0
  0
VERTEX
  5
9B1
  8
0
  6
CONTINUOUS
 62
     7
 10
-31.938034950942949
 20
327.69398996860372
 30
0.0
  0
VERTEX
  5
9B2
  8
0
  6
CONTINUOUS
 62
     7
 10
210.42331018505701
 20
319.2521000076037
 30
0.0
  0
SEQEND
  5
9B3
  8
0
  6
CONTINUOUS
 62
     7
  0
LINE
  5
3E1
  8
0
  6
CONTINUOUS
 62
     7
 10
-69.34729313334293
 20
363.78118525880359
 30
0.0
 11
-79.957631927742966
 21
515.50416445060364
 31
0.0
  0
LINE
  5
3EA
  8
0
  6
CONTINUOUS
 62
     7
 10
214.09628020105711
 20
317.91663003500349
 30
0.0
 11
223.21468730185711
 21
315.18110790480358
 31
0.0
  0
LINE
  5
3EB
  8
0
  6
CONTINUOUS
 62
     7
 10
213.65524199265701
 20
318.07771267460362
 30
0.0
 11
214.09628020105711
 21
317.91663003500349
 31
0.0
  0
LINE
  5
3EC
  8
0
  6
CONTINUOUS
 62
     7
 10
211.511689324657
 20
319.00658549760362
 30
0.0
 11
213.65524199265701
 21
318.07771267460362
 31
0.0
  0
POLYLINE
  5
3EE
  8
0
  6
CONTINUOUS
 62
     7
 66
     1
 10
0.0
 20
0.0
 30
0.0
  0
VERTEX
  5
9B4
  8
0
  6
CONTINUOUS
 62
     7
 10
568.29342424545712
 20
327.69104601800359
 30
0.0
  0
VERTEX
  5
9B5
  8
0
  6
CONTINUOUS
 62
     7
 10
568.53502127205695
 20
327.70117316960358
 30
0.0
  0
VERTEX
  5
9B6
  8
0
  6
CONTINUOUS
 62
     7
 10
568.80978508785711
 20
327.7144941484035
 30
0.0
  0
VERTEX
  5
9B7
  8
0
  6
CONTINUOUS
 62
     7
 10
569.14525520745701
 20
327.73336919240359
 30
0.0
  0
VERTEX
  5
9B8
  8
0
  6
CONTINUOUS
 62
     7
 10
569.54081418985686
 20
327.75932510580361
 30
0.0
  0
VERTEX
  5
9B9
  8
0
  6
CONTINUOUS
 62
     7
 10
569.99685023345705
 20
327.7942355562036
 30
0.0
  0
VERTEX
  5
9BA
  8
0
  6
CONTINUOUS
 62
     7
 10
570.5422462914571
 20
327.84302590060361
 30
0.0
  0
VERTEX
  5
9BB
  8
0
  6
CONTINUOUS
 62
     7
 10
571.18697172005704
 20
327.91063680560359
 30
0.0
  0
VERTEX
  5
9BC
  8
0
  6
CONTINUOUS
 62
     7
 10
571.91999823105687
 20
328.00065981420357
 30
0.0
  0
VERTEX
  5
9BD
  8
0
  6
CONTINUOUS
 62
     7
 10
572.73837359025686
 20
328.11782152340362
 30
0.0
  0
VERTEX
  5
9BE
  8
0
  6
CONTINUOUS
 62
     7
 10
573.65135605045703
 20
328.26946270080362
 30
0.0
  0
VERTEX
  5
9BF
  8
0
  6
CONTINUOUS
 62
     7
 10
574.64696393145709
 20
328.46029839760371
 30
0.0
  0
VERTEX
  5
9C0
  8
0
  6
CONTINUOUS
 62
     7
 10
575.690353552857
 20
328.68923902880363
 30
0.0
  0
VERTEX
  5
9C1
  8
0
  6
CONTINUOUS
 62
     7
 10
576.77271349205705
 20
328.95860657140361
 30
0.0
  0
VERTEX
  5
9C2
  8
0
  6
CONTINUOUS
 62
     7
 10
577.89922542405702
 20
329.27418366560357
 30
0.0
  0
VERTEX
  5
9C3
  8
0
  6
CONTINUOUS
 62
     7
 10
579.05636153305704
 20
329.63669647920358
 30
0.0
  0
VERTEX
  5
9C4
  8
0
  6
CONTINUOUS
 62
     7
 10
580.24140983745701
 20
330.04943777520361
 30
0.0
  0
VERTEX
  5
9C5
  8
0
  6
CONTINUOUS
 62
     7
 10
581.45222089325705
 20
330.51599186700372
 30
0.0
  0
VERTEX
  5
9C6
  8
0
  6
CONTINUOUS
 62
     7
 10
582.67635532265695
 20
331.0355533250036
 30
0.0
  0
VERTEX
  5
9C7
  8
0
  6
CONTINUOUS
 62
     7
 10
583.91136612045705
 20
331.6106728074036
 30
0.0
  0
VERTEX
  5
9C8
  8
0
  6
CONTINUOUS
 62
     7
 10
585.15406995225703
 20
332.24360119300371
 30
0.0
  0
VERTEX
  5
9C9
  8
0
  6
CONTINUOUS
 62
     7
 10
586.39151777725715
 20
332.93092600220359
 30
0.0
  0
VERTEX
  5
9CA
  8
0
  6
CONTINUOUS
 62
     7
 10
587.61826341325695
 20
333.67201901180363
 30
0.0
  0
VERTEX
  5
9CB
  8
0
  6
CONTINUOUS
 62
     7
 10
588.83430858045699
 20
334.46936355380359
 30
0.0
  0
VERTEX
  5
9CC
  8
0
  6
CONTINUOUS
 62
     7
 10
590.035339187457
 20
335.32280801380358
 30
0.0
  0
VERTEX
  5
9CD
  8
0
  6
CONTINUOUS
 62
     7
 10
591.21797063665713
 20
336.2325769618036
 30
0.0
  0
VERTEX
  5
9CE
  8
0
  6
CONTINUOUS
 62
     7
 10
592.37958200285686
 20
337.19939360620361
 30
0.0
  0
VERTEX
  5
9CF
  8
0
  6
CONTINUOUS
 62
     7
 10
593.51695990585699
 20
338.22347965280358
 30
0.0
  0
VERTEX
  5
9D0
  8
0
  6
CONTINUOUS
 62
     7
 10
594.62685400645705
 20
339.30493626000361
 30
0.0
  0
VERTEX
  5
9D1
  8
0
  6
CONTINUOUS
 62
     7
 10
595.70593253165703
 20
340.44369790200358
 30
0.0
  0
VERTEX
  5
9D2
  8
0
  6
CONTINUOUS
 62
     7
 10
596.75074365185696
 20
341.63946966720363
 30
0.0
  0
VERTEX
  5
9D3
  8
0
  6
CONTINUOUS
 62
     7
 10
597.757806856657
 20
342.89180404520363
 30
0.0
  0
VERTEX
  5
9D4
  8
0
  6
CONTINUOUS
 62
     7
 10
598.72359065045703
 20
344.20006660220361
 30
0.0
  0
VERTEX
  5
9D5
  8
0
  6
CONTINUOUS
 62
     7
 10
599.64448573025686
 20
345.56337615640359
 30
0.0
  0
VERTEX
  5
9D6
  8
0
  6
CONTINUOUS
 62
     7
 10
600.51682840145713
 20
346.9805981334037
 30
0.0
  0
VERTEX
  5
9D7
  8
0
  6
CONTINUOUS
 62
     7
 10
601.33701060285705
 20
348.4505039800037
 30
0.0
  0
VERTEX
  5
9D8
  8
0
  6
CONTINUOUS
 62
     7
 10
602.10144592525717
 20
349.97174367760363
 30
0.0
  0
VERTEX
  5
9D9
  8
0
  6
CONTINUOUS
 62
     7
 10
602.80644406225701
 20
351.54257687040359
 30
0.0
  0
VERTEX
  5
9DA
  8
0
  6
CONTINUOUS
 62
     7
 10
603.44830966625705
 20
353.16098388260372
 30
0.0
  0
VERTEX
  5
9DB
  8
0
  6
CONTINUOUS
 62
     7
 10
604.02342348565696
 20
354.82484127040362
 30
0.0
  0
VERTEX
  5
9DC
  8
0
  6
CONTINUOUS
 62
     7
 10
604.52814364965695
 20
356.53163268200359
 30
0.0
  0
VERTEX
  5
9DD
  8
0
  6
CONTINUOUS
 62
     7
 10
604.95888366725717
 20
358.27857072660362
 30
0.0
  0
VERTEX
  5
9DE
  8
0
  6
CONTINUOUS
 62
     7
 10
605.31215568385699
 20
360.06273530520372
 30
0.0
  0
VERTEX
  5
9DF
  8
0
  6
CONTINUOUS
 62
     7
 10
605.58452668285713
 20
361.88084130560361
 30
0.0
  0
VERTEX
  5
9E0
  8
0
  6
CONTINUOUS
 62
     7
 10
605.77265908585684
 20
363.72923129720363
 30
0.0
  0
SEQEND
  5
9E1
  8
0
  6
CONTINUOUS
 62
     7
  0
LINE
  5
3F0
  8
0
  6
CONTINUOUS
 62
     7
 10
326.00606441865699
 20
319.2521000076037
 30
0.0
 11
568.13344311485696
 21
327.68516052320371
 31
0.0
  0
LINE
  5
3F2
  8
0
  6
CONTINUOUS
 62
     7
 10
223.21468730185711
 20
315.18110790480358
 30
0.0
 11
313.21468730185711
 21
315.18110790480358
 31
0.0
  0
LINE
  5
3FF
  8
0
  6
CONTINUOUS
 62
     7
 10
324.91768527925711
 20
319.00658549760362
 30
0.0
 11
322.7741326110571
 21
318.07771267460362
 31
0.0
  0
LINE
  5
400
  8
0
  6
CONTINUOUS
 62
     7
 10
322.7741326110571
 20
318.07771267460362
 30
0.0
 11
322.33309440285711
 21
317.91663003500349
 31
0.0
  0
LINE
  5
401
  8
0
  6
CONTINUOUS
 62
     7
 10
322.33309440285711
 20
317.91663003500349
 30
0.0
 11
313.21468730185711
 21
315.18110790480358
 31
0.0
  0
LINE
  5
41A
  8
0
  6
CONTINUOUS
 62
     7
 10
-121.7853126981429
 20
521.74913855560362
 30
0.0
 11
658.21468730185711
 21
521.74913855560362
 31
0.0
  0
LINE
  5
41C
  8
0
  6
CONTINUOUS
 62
     7
 10
-109.0853126981429
 20
528.09913855560364
 30
0.0
 11
645.51468730185695
 21
528.09913855560364
 31
0.0
  0
LINE
  5
425
  8
0
  6
CONTINUOUS
 62
     7
 10
605.77265908585684
 20
363.72923129720363
 30
0.0
 11
616.38700653165711
 21
515.50416445060364
 31
0.0
  0
ARC
  5
4B7
  8
0
  6
CONTINUOUS
 62
     7
 10
645.51468730185695
 20
512.22413855560364
 30
0.0
 40
15.875
 50
36.869897645800378
 51
90.0
  0
ARC
  5
4B8
  8
0
  6
CONTINUOUS
 62
     7
 10
-83.947888128742946
 20
515.22513855560362
 30
0.0
 40
4.0
 50
3.9999999999997611
 51
82.833333333400276
  0
ARC
  5
4B9
  8
0
  6
CONTINUOUS
 62
     7
 10
620.37726273265696
 20
515.22513855560362
 30
0.0
 40
4.0
 50
97.166666666699726
 51
176.0000000000002
  0
ARC
  5
4BA
  8
0
  6
CONTINUOUS
 62
     7
 10
-109.0853126981429
 20
512.22413855560364
 30
0.0
 40
15.875
 50
90.0
 51
143.13010235419961
  0
ARC
  5
4BB
  8
0
  6
CONTINUOUS
 62
     7
 10
626.46735892485697
 20
532.92513855560355
 30
0.0
 40
13.699999999999999
 50
270.0
 51
305.22837078459992
  0
ARC
  5
4BC
  8
0
  6
CONTINUOUS
 62
     7
 10
-90.03798432094294
 20
532.92513855560355
 30
0.0
 40
13.699999999999999
 50
234.77162921540011
 51
270.0
  0
ARC
  5
4BD
  8
0
  6
CONTINUOUS
 62
     7
 10
326.11049528245701
 20
316.2539185992037
 30
0.0
 40
2.9999998890000001
 50
91.994944618100234
 51
113.4285308972002
  0
ARC
  5
4BE
  8
0
  6
CONTINUOUS
 62
     7
 10
210.31886727445701
 20
316.2539186212037
 30
0.0
 40
2.9999999975999989
 50
66.571310647899651
 51
88.004882917700414
  0
POLYLINE
  8
0
  5
9ED
  62
7
  66
     1
 10
0.000000
 20
0.000000
 30
0.000000
  70
     8
  0
VERTEX
  8
0
  5
9EE
 10
-31.6730
 20
327.686
 30
0.000000
  70
    32
  0
VERTEX
  8
0
  5
9EF
 10
-31.6730
 20
327.690
 30
0.000000
  70
    32
  0
VERTEX
  8
0
  5
9F0
 10
-31.6728
 20
327.694
 30
0.000000
  70
    32
  0
VERTEX
  8
0
  5
9F1
 10
-31.6725
 20
327.698
 30
0.000000
  70
    32
  0
VERTEX
  8
0
  5
9F2
 10
-31.6721
 20
327.702
 30
0.000000
  70
    32
  0
VERTEX
  8
0
  5
9F3
 10
-31.6716
 20
327.706
 30
0.000000
  70
    32
  0
VERTEX
  8
0
  5
9F4
 10
-31.6709
 20
327.710
 30
0.000000
  70
    32
  0
VERTEX
  8
0
  5
9F5
 10
-31.6701
 20
327.713
 30
0.000000
  70
    32
  0
VERTEX
  8
0
  5
9F6
 10
-31.6691
 20
327.717
 30
0.000000
  70
    32
  0
VERTEX
  8
0
  5
9F7
 10
-31.6681
 20
327.720
 30
0.000000
  70
    32
  0
VERTEX
  8
0
  5
9F8
 10
-31.6669
 20
327.724
 30
0.000000
  70
    32
  0
VERTEX
  8
0
  5
9F9
 10
-31.6655
 20
327.727
 30
0.000000
  70
    32
  0
VERTEX
  8
0
  5
9FA
 10
-31.6641
 20
327.730
 30
0.000000
  70
    32
  0
VERTEX
  8
0
  5
9FB
 10
-31.6625
 20
327.733
 30
0.000000
  70
    32
  0
VERTEX
  8
0
  5
9FC
 10
-31.6608
 20
327.735
 30
0.000000
  70
    32
  0
VERTEX
  8
0
  5
9FD
 10
-31.6590
 20
327.738
 30
0.000000
  70
    32
  0
VERTEX
  8
0
  5
9FE
 10
-31.6571
 20
327.741
 30
0.000000
  70
    32
  0
VERTEX
  8
0
  5
9FF
 10
-31.6551
 20
327.743
 30
0.000000
  70
    32
  0
VERTEX
  8
0
  5
A00
 10
-31.6529
 20
327.745
 30
0.000000
  70
    32
  0
VERTEX
  8
0
  5
A01
 10
-31.6507
 20
327.748
 30
0.000000
  70
    32
  0
VERTEX
  8
0
  5
A02
 10
-31.6483
 20
327.750
 30
0.000000
  70
    32
  0
VERTEX
  8
0
  5
A03
 10
-31.6458
 20
327.752
 30
0.000000
  70
    32
  0
VERTEX
  8
0
  5
A04
 10
-31.6432
 20
327.754
 30
0.000000
  70
    32
  0
VERTEX
  8
0
  5
A05
 10
-31.6405
 20
327.756
 30
0.000000
  70
    32
  0
VERTEX
  8
0
  5
A06
 10
-31.6377
 20
327.757
 30
0.000000
  70
    32
  0
VERTEX
  8
0
  5
A07
 10
-31.6349
 20
327.759
 30
0.000000
  70
    32
  0
VERTEX
  8
0
  5
A08
 10
-31.6319
 20
327.761
 30
0.000000
  70
    32
  0
VERTEX
  8
0
  5
A09
 10
-31.6288
 20
327.762
 30
0.000000
  70
    32
  0
VERTEX
  8
0
  5
A0A
 10
-31.6256
 20
327.764
 30
0.000000
  70
    32
  0
VERTEX
  8
0
  5
A0B
 10
-31.6223
 20
327.765
 30
0.000000
  70
    32
  0
VERTEX
  8
0
  5
A0C
 10
-31.6189
 20
327.766
 30
0.000000
  70
    32
  0
VERTEX
  8
0
  5
A0D
 10
-31.6155
 20
327.767
 30
0.000000
  70
    32
  0
VERTEX
  8
0
  5
A0E
 10
-31.6119
 20
327.768
 30
0.000000
  70
    32
  0
VERTEX
  8
0
  5
A0F
 10
-31.6083
 20
327.769
 30
0.000000
  70
    32
  0
VERTEX
  8
0
  5
A10
 10
-31.6045
 20
327.770
 30
0.000000
  70
    32
  0
VERTEX
  8
0
  5
A11
 10
-31.6007
 20
327.771
 30
0.000000
  70
    32
  0
VERTEX
  8
0
  5
A12
 10
-31.5968
 20
327.772
 30
0.000000
  70
    32
  0
VERTEX
  8
0
  5
A13
 10
-31.5928
 20
327.772
 30
0.000000
  70
    32
  0
VERTEX
  8
0
  5
A14
 10
-31.5888
 20
327.773
 30
0.000000
  70
    32
  0
VERTEX
  8
0
  5
A15
 10
-31.5846
 20
327.773
 30
0.000000
  70
    32
  0
VERTEX
  8
0
  5
A16
 10
-31.5804
 20
327.774
 30
0.000000
  70
    32
  0
VERTEX
  8
0
  5
A17
 10
-31.5761
 20
327.774
 30
0.000000
  70
    32
  0
VERTEX
  8
0
  5
A18
 10
-31.5718
 20
327.774
 30
0.000000
  70
    32
  0
VERTEX
  8
0
  5
A19
 10
-31.5673
 20
327.775
 30
0.000000
  70
    32
  0
VERTEX
  8
0
  5
A1A
 10
-31.5628
 20
327.775
 30
0.000000
  70
    32
  0
VERTEX
  8
0
  5
A1B
 10
-31.5583
 20
327.775
 30
0.000000
  70
    32
  0
VERTEX
  8
0
  5
A1C
 10
-31.5536
 20
327.775
 30
0.000000
  70
    32
  0
VERTEX
  8
0
  5
A1D
 10
-31.5489
 20
327.775
 30
0.000000
  70
    32
  0
VERTEX
  8
0
  5
A1E
 10
-31.5442
 20
327.775
 30
0.000000
  70
    32
  0
VERTEX
  8
0
  5
A1F
 10
-31.5393
 20
327.775
 30
0.000000
  70
    32
  0
VERTEX
  8
0
  5
A20
 10
-31.5345
 20
327.774
 30
0.000000
  70
    32
  0
VERTEX
  8
0
  5
A21
 10
-31.5295
 20
327.774
 30
0.000000
  70
    32
  0
VERTEX
  8
0
  5
A22
 10
-31.5245
 20
327.774
 30
0.000000
  70
    32
  0
VERTEX
  8
0
  5
A23
 10
-31.5195
 20
327.773
 30
0.000000
  70
    32
  0
VERTEX
  8
0
  5
A24
 10
-31.5144
 20
327.773
 30
0.000000
  70
    32
  0
VERTEX
  8
0
  5
A25
 10
-31.5092
 20
327.772
 30
0.000000
  70
    32
  0
VERTEX
  8
0
  5
A26
 10
-31.5040
 20
327.772
 30
0.000000
  70
    32
  0
VERTEX
  8
0
  5
A27
 10
-31.4987
 20
327.771
 30
0.000000
  70
    32
  0
VERTEX
  8
0
  5
A28
 10
-31.4934
 20
327.771
 30
0.000000
  70
    32
  0
VERTEX
  8
0
  5
A29
 10
-31.4881
 20
327.770
 30
0.000000
  70
    32
  0
VERTEX
  8
0
  5
A2A
 10
-31.4827
 20
327.769
 30
0.000000
  70
    32
  0
VERTEX
  8
0
  5
A2B
 10
-31.4773
 20
327.769
 30
0.000000
  70
    32
  0
VERTEX
  8
0
  5
A2C
 10
-31.4718
 20
327.768
 30
0.000000
  70
    32
  0
VERTEX
  8
0
  5
A2D
 10
-31.4663
 20
327.767
 30
0.000000
  70
    32
  0
VERTEX
  8
0
  5
A2E
 10
-31.4608
 20
327.766
 30
0.000000
  70
    32
  0
VERTEX
  8
0
  5
A2F
 10
-31.4552
 20
327.766
 30
0.000000
  70
    32
  0
VERTEX
  8
0
  5
A30
 10
-31.4496
 20
327.765
 30
0.000000
  70
    32
  0
VERTEX
  8
0
  5
A31
 10
-31.4439
 20
327.764
 30
0.000000
  70
    32
  0
VERTEX
  8
0
  5
A32
 10
-31.4382
 20
327.763
 30
0.000000
  70
    32
  0
VERTEX
  8
0
  5
A33
 10
-31.4325
 20
327.762
 30
0.000000
  70
    32
  0
VERTEX
  8
0
  5
A34
 10
-31.4268
 20
327.761
 30
0.000000
  70
    32
  0
VERTEX
  8
0
  5
A35
 10
-31.4211
 20
327.760
 30
0.000000
  70
    32
  0
VERTEX
  8
0
  5
A36
 10
-31.4153
 20
327.759
 30
0.000000
  70
    32
  0
VERTEX
  8
0
  5
A37
 10
-31.4095
 20
327.758
 30
0.000000
  70
    32
  0
VERTEX
  8
0
  5
A38
 10
-31.4037
 20
327.757
 30
0.000000
  70
    32
  0
VERTEX
  8
0
  5
A39
 10
-31.3979
 20
327.755
 30
0.000000
  70
    32
  0
VERTEX
  8
0
  5
A3A
 10
-31.3920
 20
327.754
 30
0.000000
  70
    32
  0
VERTEX
  8
0
  5
A3B
 10
-31.3861
 20
327.753
 30
0.000000
  70
    32
  0
VERTEX
  8
0
  5
A3C
 10
-31.3803
 20
327.752
 30
0.000000
  70
    32
  0
VERTEX
  8
0
  5
A3D
 10
-31.3744
 20
327.751
 30
0.000000
  70
    32
  0
VERTEX
  8
0
  5
A3E
 10
-31.3685
 20
327.750
 30
0.000000
  70
    32
  0
VERTEX
  8
0
  5
A3F
 10
-31.3626
 20
327.748
 30
0.000000
  70
    32
  0
VERTEX
  8
0
  5
A40
 10
-31.3567
 20
327.747
 30
0.000000
  70
    32
  0
VERTEX
  8
0
  5
A41
 10
-31.3508
 20
327.746
 30
0.000000
  70
    32
  0
VERTEX
  8
0
  5
A42
 10
-31.3448
 20
327.745
 30
0.000000
  70
    32
  0
VERTEX
  8
0
  5
A43
 10
-31.3389
 20
327.744
 30
0.000000
  70
    32
  0
VERTEX
  8
0
  5
A44
 10
-31.3330
 20
327.742
 30
0.000000
  70
    32
  0
VERTEX
  8
0
  5
A45
 10
-31.3271
 20
327.741
 30
0.000000
  70
    32
  0
VERTEX
  8
0
  5
A46
 10
-31.3212
 20
327.740
 30
0.000000
  70
    32
  0
VERTEX
  8
0
  5
A47
 10
-31.3153
 20
327.739
 30
0.000000
  70
    32
  0
VERTEX
  8
0
  5
A48
 10
-31.3094
 20
327.738
 30
0.000000
  70
    32
  0
VERTEX
  8
0
  5
A49
 10
-31.3035
 20
327.737
 30
0.000000
  70
    32
  0
VERTEX
  8
0
  5
A4A
 10
-31.2976
 20
327.735
 30
0.000000
  70
    32
  0
VERTEX
  8
0
  5
A4B
 10
-31.2917
 20
327.734
 30
0.000000
  70
    32
  0
VERTEX
  8
0
  5
A4C
 10
-31.2859
 20
327.733
 30
0.000000
  70
    32
  0
VERTEX
  8
0
  5
A4D
 10
-31.2800
 20
327.732
 30
0.000000
  70
    32
  0
VERTEX
  8
0
  5
A4E
 10
-31.2742
 20
327.731
 30
0.000000
  70
    32
  0
VERTEX
  8
0
  5
A4F
 10
-31.2684
 20
327.730
 30
0.000000
  70
    32
  0
VERTEX
  8
0
  5
A50
 10
-31.2626
 20
327.729
 30
0.000000
  70
    32
  0
VERTEX
  8
0
  5
A51
 10
-31.2569
 20
327.728
 30
0.000000
  70
    32
  0
VERTEX
  8
0
  5
A52
 10
-31.2511
 20
327.726
 30
0.000000
  70
    32
  0
VERTEX
  8
0
  5
A53
 10
-31.2454
 20
327.725
 30
0.000000
  70
    32
  0
VERTEX
  8
0
  5
A54
 10
-31.2398
 20
327.724
 30
0.000000
  70
    32
  0
VERTEX
  8
0
  5
A55
 10
-31.2341
 20
327.723
 30
0.000000
  70
    32
  0
VERTEX
  8
0
  5
A56
 10
-31.2285
 20
327.723
 30
0.000000
  70
    32
  0
VERTEX
  8
0
  5
A57
 10
-31.2229
 20
327.722
 30
0.000000
  70
    32
  0
VERTEX
  8
0
  5
A58
 10
-31.2173
 20
327.721
 30
0.000000
  70
    32
  0
VERTEX
  8
0
  5
A59
 10
-31.2118
 20
327.720
 30
0.000000
  70
    32
  0
VERTEX
  8
0
  5
A5A
 10
-31.2063
 20
327.719
 30
0.000000
  70
    32
  0
VERTEX
  8
0
  5
A5B
 10
-31.2009
 20
327.718
 30
0.000000
  70
    32
  0
VERTEX
  8
0
  5
A5C
 10
-31.1955
 20
327.718
 30
0.000000
  70
    32
  0
VERTEX
  8
0
  5
A5D
 10
-31.1901
 20
327.717
 30
0.000000
  70
    32
  0
VERTEX
  8
0
  5
A5E
 10
-31.1848
 20
327.716
 30
0.000000
  70
    32
  0
VERTEX
  8
0
  5
A5F
 10
-31.1795
 20
327.716
 30
0.000000
  70
    32
  0
VERTEX
  8
0
  5
A60
 10
-31.1743
 20
327.715
 30
0.000000
  70
    32
  0
VERTEX
  8
0
  5
A61
 10
-31.1691
 20
327.714
 30
0.000000
  70
    32
  0
VERTEX
  8
0
  5
A62
 10
-31.1640
 20
327.714
 30
0.000000
  70
    32
  0
VERTEX
  8
0
  5
A63
 10
-31.1589
 20
327.713
 30
0.000000
  70
    32
  0
VERTEX
  8
0
  5
A64
 10
-31.1539
 20
327.713
 30
0.000000
  70
    32
  0
VERTEX
  8
0
  5
A65
 10
-31.1489
 20
327.713
 30
0.000000
  70
    32
  0
VERTEX
  8
0
  5
A66
 10
-31.1440
 20
327.712
 30
0.000000
  70
    32
  0
VERTEX
  8
0
  5
A67
 10
-31.1392
 20
327.712
 30
0.000000
  70
    32
  0
VERTEX
  8
0
  5
A68
 10
-31.1344
 20
327.712
 30
0.000000
  70
    32
  0
VERTEX
  8
0
  5
A69
 10
-31.1297
 20
327.712
 30
0.000000
  70
    32
  0
VERTEX
  8
0
  5
A6A
 10
-31.1250
 20
327.712
 30
0.000000
  70
    32
  0
VERTEX
  8
0
  5
A6B
 10
-31.1204
 20
327.712
 30
0.000000
  70
    32
  0
VERTEX
  8
0
  5
A6C
 10
-31.1159
 20
327.712
 30
0.000000
  70
    32
  0
VERTEX
  8
0
  5
A6D
 10
-31.1114
 20
327.712
 30
0.000000
  70
    32
  0
SEQEND
  8
0
  5
A6E
  0
POLYLINE
  8
0
  5
A6F
  62
7
  66
     1
 10
0.000000
 20
0.000000
 30
0.000000
  70
     8
  0
VERTEX
  8
0
  5
A70
 10
-30.7134
 20
327.806
 30
0.000000
  70
    32
  0
VERTEX
  8
0
  5
A71
 10
-30.7089
 20
327.808
 30
0.000000
  70
    32
  0
VERTEX
  8
0
  5
A72
 10
-30.7044
 20
327.810
 30
0.000000
  70
    32
  0
VERTEX
  8
0
  5
A73
 10
-30.6999
 20
327.812
 30
0.000000
  70
    32
  0
VERTEX
  8
0
  5
A74
 10
-30.6953
 20
327.813
 30
0.000000
  70
    32
  0
VERTEX
  8
0
  5
A75
 10
-30.6907
 20
327.815
 30
0.000000
  70
    32
  0
VERTEX
  8
0
  5
A76
 10
-30.6861
 20
327.816
 30
0.000000
  70
    32
  0
VERTEX
  8
0
  5
A77
 10
-30.6814
 20
327.817
 30
0.000000
  70
    32
  0
VERTEX
  8
0
  5
A78
 10
-30.6767
 20
327.818
 30
0.000000
  70
    32
  0
VERTEX
  8
0
  5
A79
 10
-30.6720
 20
327.819
 30
0.000000
  70
    32
  0
VERTEX
  8
0
  5
A7A
 10
-30.6672
 20
327.820
 30
0.000000
  70
    32
  0
VERTEX
  8
0
  5
A7B
 10
-30.6625
 20
327.821
 30
0.000000
  70
    32
  0
VERTEX
  8
0
  5
A7C
 10
-30.6577
 20
327.821
 30
0.000000
  70
    32
  0
VERTEX
  8
0
  5
A7D
 10
-30.6529
 20
327.822
 30
0.000000
  70
    32
  0
VERTEX
  8
0
  5
A7E
 10
-30.6480
 20
327.822
 30
0.000000
  70
    32
  0
VERTEX
  8
0
  5
A7F
 10
-30.6432
 20
327.822
 30
0.000000
  70
    32
  0
VERTEX
  8
0
  5
A80
 10
-30.6383
 20
327.822
 30
0.000000
  70
    32
  0
VERTEX
  8
0
  5
A81
 10
-30.6334
 20
327.823
 30
0.000000
  70
    32
  0
VERTEX
  8
0
  5
A82
 10
-30.6285
 20
327.823
 30
0.000000
  70
    32
  0
VERTEX
  8
0
  5
A83
 10
-30.6235
 20
327.823
 30
0.000000
  70
    32
  0
VERTEX
  8
0
  5
A84
 10
-30.6186
 20
327.823
 30
0.000000
  70
    32
  0
VERTEX
  8
0
  5
A85
 10
-30.6136
 20
327.822
 30
0.000000
  70
    32
  0
VERTEX
  8
0
  5
A86
 10
-30.6086
 20
327.822
 30
0.000000
  70
    32
  0
VERTEX
  8
0
  5
A87
 10
-30.6037
 20
327.822
 30
0.000000
  70
    32
  0
VERTEX
  8
0
  5
A88
 10
-30.5987
 20
327.821
 30
0.000000
  70
    32
  0
VERTEX
  8
0
  5
A89
 10
-30.5936
 20
327.821
 30
0.000000
  70
    32
  0
VERTEX
  8
0
  5
A8A
 10
-30.5886
 20
327.821
 30
0.000000
  70
    32
  0
VERTEX
  8
0
  5
A8B
 10
-30.5836
 20
327.820
 30
0.000000
  70
    32
  0
VERTEX
  8
0
  5
A8C
 10
-30.5785
 20
327.820
 30
0.000000
  70
    32
  0
VERTEX
  8
0
  5
A8D
 10
-30.5735
 20
327.819
 30
0.000000
  70
    32
  0
VERTEX
  8
0
  5
A8E
 10
-30.5684
 20
327.818
 30
0.000000
  70
    32
  0
VERTEX
  8
0
  5
A8F
 10
-30.5634
 20
327.818
 30
0.000000
  70
    32
  0
VERTEX
  8
0
  5
A90
 10
-30.5583
 20
327.817
 30
0.000000
  70
    32
  0
VERTEX
  8
0
  5
A91
 10
-30.5532
 20
327.817
 30
0.000000
  70
    32
  0
VERTEX
  8
0
  5
A92
 10
-30.5482
 20
327.816
 30
0.000000
  70
    32
  0
VERTEX
  8
0
  5
A93
 10
-30.5431
 20
327.815
 30
0.000000
  70
    32
  0
VERTEX
  8
0
  5
A94
 10
-30.5380
 20
327.814
 30
0.000000
  70
    32
  0
VERTEX
  8
0
  5
A95
 10
-30.5329
 20
327.814
 30
0.000000
  70
    32
  0
VERTEX
  8
0
  5
A96
 10
-30.5279
 20
327.813
 30
0.000000
  70
    32
  0
VERTEX
  8
0
  5
A97
 10
-30.5228
 20
327.812
 30
0.000000
  70
    32
  0
VERTEX
  8
0
  5
A98
 10
-30.5177
 20
327.812
 30
0.000000
  70
    32
  0
VERTEX
  8
0
  5
A99
 10
-30.5127
 20
327.811
 30
0.000000
  70
    32
  0
VERTEX
  8
0
  5
A9A
 10
-30.5076
 20
327.810
 30
0.000000
  70
    32
  0
VERTEX
  8
0
  5
A9B
 10
-30.5026
 20
327.810
 30
0.000000
  70
    32
  0
VERTEX
  8
0
  5
A9C
 10
-30.4975
 20
327.809
 30
0.000000
  70
    32
  0
VERTEX
  8
0
  5
A9D
 10
-30.4925
 20
327.809
 30
0.000000
  70
    32
  0
VERTEX
  8
0
  5
A9E
 10
-30.4875
 20
327.808
 30
0.000000
  70
    32
  0
VERTEX
  8
0
  5
A9F
 10
-30.4824
 20
327.808
 30
0.000000
  70
    32
  0
VERTEX
  8
0
  5
AA0
 10
-30.4774
 20
327.807
 30
0.000000
  70
    32
  0
VERTEX
  8
0
  5
AA1
 10
-30.4724
 20
327.807
 30
0.000000
  70
    32
  0
VERTEX
  8
0
  5
AA2
 10
-30.4674
 20
327.806
 30
0.000000
  70
    32
  0
VERTEX
  8
0
  5
AA3
 10
-30.4624
 20
327.806
 30
0.000000
  70
    32
  0
VERTEX
  8
0
  5
AA4
 10
-30.4575
 20
327.806
 30
0.000000
  70
    32
  0
VERTEX
  8
0
  5
AA5
 10
-30.4525
 20
327.805
 30
0.000000
  70
    32
  0
VERTEX
  8
0
  5
AA6
 10
-30.4475
 20
327.805
 30
0.000000
  70
    32
  0
VERTEX
  8
0
  5
AA7
 10
-30.4425
 20
327.805
 30
0.000000
  70
    32
  0
VERTEX
  8
0
  5
AA8
 10
-30.4376
 20
327.804
 30
0.000000
  70
    32
  0
VERTEX
  8
0
  5
AA9
 10
-30.4326
 20
327.804
 30
0.000000
  70
    32
  0
VERTEX
  8
0
  5
AAA
 10
-30.4277
 20
327.804
 30
0.000000
  70
    32
  0
VERTEX
  8
0
  5
AAB
 10
-30.4228
 20
327.804
 30
0.000000
  70
    32
  0
VERTEX
  8
0
  5
AAC
 10
-30.4178
 20
327.804
 30
0.000000
  70
    32
  0
VERTEX
  8
0
  5
AAD
 10
-30.4129
 20
327.804
 30
0.000000
  70
    32
  0
VERTEX
  8
0
  5
AAE
 10
-30.4080
 20
327.803
 30
0.000000
  70
    32
  0
VERTEX
  8
0
  5
AAF
 10
-30.4031
 20
327.803
 30
0.000000
  70
    32
  0
VERTEX
  8
0
  5
AB0
 10
-30.3982
 20
327.803
 30
0.000000
  70
    32
  0
VERTEX
  8
0
  5
AB1
 10
-30.3933
 20
327.803
 30
0.000000
  70
    32
  0
VERTEX
  8
0
  5
AB2
 10
-30.3884
 20
327.803
 30
0.000000
  70
    32
  0
VERTEX
  8
0
  5
AB3
 10
-30.3835
 20
327.803
 30
0.000000
  70
    32
  0
VERTEX
  8
0
  5
AB4
 10
-30.3786
 20
327.803
 30
0.000000
  70
    32
  0
VERTEX
  8
0
  5
AB5
 10
-30.3737
 20
327.803
 30
0.000000
  70
    32
  0
VERTEX
  8
0
  5
AB6
 10
-30.3688
 20
327.803
 30
0.000000
  70
    32
  0
VERTEX
  8
0
  5
AB7
 10
-30.3639
 20
327.803
 30
0.000000
  70
    32
  0
VERTEX
  8
0
  5
AB8
 10
-30.3590
 20
327.803
 30
0.000000
  70
    32
  0
VERTEX
  8
0
  5
AB9
 10
-30.3542
 20
327.803
 30
0.000000
  70
    32
  0
VERTEX
  8
0
  5
ABA
 10
-30.3493
 20
327.803
 30
0.000000
  70
    32
  0
VERTEX
  8
0
  5
ABB
 10
-30.3444
 20
327.804
 30
0.000000
  70
    32
  0
VERTEX
  8
0
  5
ABC
 10
-30.3395
 20
327.804
 30
0.000000
  70
    32
  0
VERTEX
  8
0
  5
ABD
 10
-30.3347
 20
327.804
 30
0.000000
  70
    32
  0
VERTEX
  8
0
  5
ABE
 10
-30.3298
 20
327.804
 30
0.000000
  70
    32
  0
VERTEX
  8
0
  5
ABF
 10
-30.3249
 20
327.804
 30
0.000000
  70
    32
  0
VERTEX
  8
0
  5
AC0
 10
-30.3201
 20
327.804
 30
0.000000
  70
    32
  0
VERTEX
  8
0
  5
AC1
 10
-30.3152
 20
327.804
 30
0.000000
  70
    32
  0
VERTEX
  8
0
  5
AC2
 10
-30.3103
 20
327.804
 30
0.000000
  70
    32
  0
VERTEX
  8
0
  5
AC3
 10
-30.3055
 20
327.804
 30
0.000000
  70
    32
  0
VERTEX
  8
0
  5
AC4
 10
-30.3006
 20
327.804
 30
0.000000
  70
    32
  0
VERTEX
  8
0
  5
AC5
 10
-30.2958
 20
327.805
 30
0.000000
  70
    32
  0
VERTEX
  8
0
  5
AC6
 10
-30.2909
 20
327.805
 30
0.000000
  70
    32
  0
VERTEX
  8
0
  5
AC7
 10
-30.2860
 20
327.805
 30
0.000000
  70
    32
  0
VERTEX
  8
0
  5
AC8
 10
-30.2812
 20
327.805
 30
0.000000
  70
    32
  0
VERTEX
  8
0
  5
AC9
 10
-30.2763
 20
327.805
 30
0.000000
  70
    32
  0
VERTEX
  8
0
  5
ACA
 10
-30.2714
 20
327.805
 30
0.000000
  70
    32
  0
VERTEX
  8
0
  5
ACB
 10
-30.2666
 20
327.805
 30
0.000000
  70
    32
  0
VERTEX
  8
0
  5
ACC
 10
-30.2617
 20
327.805
 30
0.000000
  70
    32
  0
VERTEX
  8
0
  5
ACD
 10
-30.2568
 20
327.805
 30
0.000000
  70
    32
  0
VERTEX
  8
0
  5
ACE
 10
-30.2520
 20
327.805
 30
0.000000
  70
    32
  0
VERTEX
  8
0
  5
ACF
 10
-30.2471
 20
327.805
 30
0.000000
  70
    32
  0
VERTEX
  8
0
  5
AD0
 10
-30.2422
 20
327.806
 30
0.000000
  70
    32
  0
VERTEX
  8
0
  5
AD1
 10
-30.2373
 20
327.806
 30
0.000000
  70
    32
  0
VERTEX
  8
0
  5
AD2
 10
-30.2325
 20
327.806
 30
0.000000
  70
    32
  0
VERTEX
  8
0
  5
AD3
 10
-30.2276
 20
327.806
 30
0.000000
  70
    32
  0
VERTEX
  8
0
  5
AD4
 10
-30.2227
 20
327.806
 30
0.000000
  70
    32
  0
VERTEX
  8
0
  5
AD5
 10
-30.2178
 20
327.806
 30
0.000000
  70
    32
  0
VERTEX
  8
0
  5
AD6
 10
-30.2129
 20
327.806
 30
0.000000
  70
    32
  0
VERTEX
  8
0
  5
AD7
 10
-30.2080
 20
327.806
 30
0.000000
  70
    32
  0
VERTEX
  8
0
  5
AD8
 10
-30.2032
 20
327.806
 30
0.000000
  70
    32
  0
VERTEX
  8
0
  5
AD9
 10
-30.1983
 20
327.806
 30
0.000000
  70
    32
  0
VERTEX
  8
0
  5
ADA
 10
-30.1934
 20
327.806
 30
0.000000
  70
    32
  0
VERTEX
  8
0
  5
ADB
 10
-30.1885
 20
327.806
 30
0.000000
  70
    32
  0
VERTEX
  8
0
  5
ADC
 10
-30.1836
 20
327.806
 30
0.000000
  70
    32
  0
VERTEX
  8
0
  5
ADD
 10
-30.1787
 20
327.805
 30
0.000000
  70
    32
  0
VERTEX
  8
0
  5
ADE
 10
-30.1738
 20
327.805
 30
0.000000
  70
    32
  0
VERTEX
  8
0
  5
ADF
 10
-30.1689
 20
327.805
 30
0.000000
  70
    32
  0
VERTEX
  8
0
  5
AE0
 10
-30.1640
 20
327.805
 30
0.000000
  70
    32
  0
VERTEX
  8
0
  5
AE1
 10
-30.1591
 20
327.805
 30
0.000000
  70
    32
  0
VERTEX
  8
0
  5
AE2
 10
-30.1542
 20
327.805
 30
0.000000
  70
    32
  0
VERTEX
  8
0
  5
AE3
 10
-30.1493
 20
327.805
 30
0.000000
  70
    32
  0
VERTEX
  8
0
  5
AE4
 10
-30.1444
 20
327.805
 30
0.000000
  70
    32
  0
VERTEX
  8
0
  5
AE5
 10
-30.1395
 20
327.805
 30
0.000000
  70
    32
  0
VERTEX
  8
0
  5
AE6
 10
-30.1345
 20
327.805
 30
0.000000
  70
    32
  0
VERTEX
  8
0
  5
AE7
 10
-30.1296
 20
327.805
 30
0.000000
  70
    32
  0
VERTEX
  8
0
  5
AE8
 10
-30.1247
 20
327.805
 30
0.000000
  70
    32
  0
VERTEX
  8
0
  5
AE9
 10
-30.1198
 20
327.804
 30
0.000000
  70
    32
  0
VERTEX
  8
0
  5
AEA
 10
-30.1149
 20
327.804
 30
0.000000
  70
    32
  0
VERTEX
  8
0
  5
AEB
 10
-30.1100
 20
327.804
 30
0.000000
  70
    32
  0
VERTEX
  8
0
  5
AEC
 10
-30.1051
 20
327.804
 30
0.000000
  70
    32
  0
VERTEX
  8
0
  5
AED
 10
-30.1002
 20
327.804
 30
0.000000
  70
    32
  0
VERTEX
  8
0
  5
AEE
 10
-30.0952
 20
327.804
 30
0.000000
  70
    32
  0
VERTEX
  8
0
  5
AEF
 10
-30.0903
 20
327.804
 30
0.000000
  70
    32
  0
VERTEX
  8
0
  5
AF0
 10
-30.0854
 20
327.804
 30
0.000000
  70
    32
  0
VERTEX
  8
0
  5
AF1
 10
-30.0805
 20
327.803
 30
0.000000
  70
    32
  0
VERTEX
  8
0
  5
AF2
 10
-30.0756
 20
327.803
 30
0.000000
  70
    32
  0
VERTEX
  8
0
  5
AF3
 10
-30.0706
 20
327.803
 30
0.000000
  70
    32
  0
VERTEX
  8
0
  5
AF4
 10
-30.0657
 20
327.803
 30
0.000000
  70
    32
  0
VERTEX
  8
0
  5
AF5
 10
-30.0608
 20
327.803
 30
0.000000
  70
    32
  0
VERTEX
  8
0
  5
AF6
 10
-30.0559
 20
327.803
 30
0.000000
  70
    32
  0
VERTEX
  8
0
  5
AF7
 10
-30.0510
 20
327.803
 30
0.000000
  70
    32
  0
VERTEX
  8
0
  5
AF8
 10
-30.0460
 20
327.802
 30
0.000000
  70
    32
  0
VERTEX
  8
0
  5
AF9
 10
-30.0411
 20
327.802
 30
0.000000
  70
    32
  0
VERTEX
  8
0
  5
AFA
 10
-30.0362
 20
327.802
 30
0.000000
  70
    32
  0
VERTEX
  8
0
  5
AFB
 10
-30.0313
 20
327.802
 30
0.000000
  70
    32
  0
VERTEX
  8
0
  5
AFC
 10
-30.0264
 20
327.802
 30
0.000000
  70
    32
  0
VERTEX
  8
0
  5
AFD
 10
-30.0214
 20
327.802
 30
0.000000
  70
    32
  0
VERTEX
  8
0
  5
AFE
 10
-30.0165
 20
327.801
 30
0.000000
  70
    32
  0
VERTEX
  8
0
  5
AFF
 10
-30.0116
 20
327.801
 30
0.000000
  70
    32
  0
VERTEX
  8
0
  5
B00
 10
-30.0067
 20
327.801
 30
0.000000
  70
    32
  0
VERTEX
  8
0
  5
B01
 10
-30.0018
 20
327.801
 30
0.000000
  70
    32
  0
VERTEX
  8
0
  5
B02
 10
-29.9968
 20
327.801
 30
0.000000
  70
    32
  0
VERTEX
  8
0
  5
B03
 10
-29.9919
 20
327.801
 30
0.000000
  70
    32
  0
VERTEX
  8
0
  5
B04
 10
-29.9870
 20
327.800
 30
0.000000
  70
    32
  0
VERTEX
  8
0
  5
B05
 10
-29.9821
 20
327.800
 30
0.000000
  70
    32
  0
VERTEX
  8
0
  5
B06
 10
-29.9771
 20
327.800
 30
0.000000
  70
    32
  0
VERTEX
  8
0
  5
B07
 10
-29.9722
 20
327.800
 30
0.000000
  70
    32
  0
VERTEX
  8
0
  5
B08
 10
-29.9673
 20
327.800
 30
0.000000
  70
    32
  0
VERTEX
  8
0
  5
B09
 10
-29.9624
 20
327.800
 30
0.000000
  70
    32
  0
VERTEX
  8
0
  5
B0A
 10
-29.9575
 20
327.800
 30
0.000000
  70
    32
  0
VERTEX
  8
0
  5
B0B
 10
-29.9526
 20
327.799
 30
0.000000
  70
    32
  0
VERTEX
  8
0
  5
B0C
 10
-29.9476
 20
327.799
 30
0.000000
  70
    32
  0
VERTEX
  8
0
  5
B0D
 10
-29.9427
 20
327.799
 30
0.000000
  70
    32
  0
VERTEX
  8
0
  5
B0E
 10
-29.9378
 20
327.799
 30
0.000000
  70
    32
  0
VERTEX
  8
0
  5
B0F
 10
-29.9329
 20
327.799
 30
0.000000
  70
    32
  0
VERTEX
  8
0
  5
B10
 10
-29.9280
 20
327.799
 30
0.000000
  70
    32
  0
VERTEX
  8
0
  5
B11
 10
-29.9231
 20
327.798
 30
0.000000
  70
    32
  0
VERTEX
  8
0
  5
B12
 10
-29.9181
 20
327.798
 30
0.000000
  70
    32
  0
VERTEX
  8
0
  5
B13
 10
-29.9132
 20
327.798
 30
0.000000
  70
    32
  0
VERTEX
  8
0
  5
B14
 10
-29.9083
 20
327.798
 30
0.000000
  70
    32
  0
VERTEX
  8
0
  5
B15
 10
-29.9034
 20
327.798
 30
0.000000
  70
    32
  0
VERTEX
  8
0
  5
B16
 10
-29.8985
 20
327.798
 30
0.000000
  70
    32
  0
VERTEX
  8
0
  5
B17
 10
-29.8936
 20
327.798
 30
0.000000
  70
    32
  0
VERTEX
  8
0
  5
B18
 10
-29.8887
 20
327.798
 30
0.000000
  70
    32
  0
VERTEX
  8
0
  5
B19
 10
-29.8837
 20
327.797
 30
0.000000
  70
    32
  0
VERTEX
  8
0
  5
B1A
 10
-29.8788
 20
327.797
 30
0.000000
  70
    32
  0
VERTEX
  8
0
  5
B1B
 10
-29.8739
 20
327.797
 30
0.000000
  70
    32
  0
VERTEX
  8
0
  5
B1C
 10
-29.8690
 20
327.797
 30
0.000000
  70
    32
  0
VERTEX
  8
0
  5
B1D
 10
-29.8641
 20
327.797
 30
0.000000
  70
    32
  0
VERTEX
  8
0
  5
B1E
 10
-29.8592
 20
327.797
 30
0.000000
  70
    32
  0
VERTEX
  8
0
  5
B1F
 10
-29.8543
 20
327.797
 30
0.000000
  70
    32
  0
VERTEX
  8
0
  5
B20
 10
-29.8494
 20
327.797
 30
0.000000
  70
    32
  0
VERTEX
  8
0
  5
B21
 10
-29.8445
 20
327.796
 30
0.000000
  70
    32
  0
VERTEX
  8
0
  5
B22
 10
-29.8396
 20
327.796
 30
0.000000
  70
    32
  0
VERTEX
  8
0
  5
B23
 10
-29.8347
 20
327.796
 30
0.000000
  70
    32
  0
VERTEX
  8
0
  5
B24
 10
-29.8297
 20
327.796
 30
0.000000
  70
    32
  0
VERTEX
  8
0
  5
B25
 10
-29.8248
 20
327.796
 30
0.000000
  70
    32
  0
VERTEX
  8
0
  5
B26
 10
-29.8199
 20
327.796
 30
0.000000
  70
    32
  0
VERTEX
  8
0
  5
B27
 10
-29.8150
 20
327.796
 30
0.000000
  70
    32
  0
VERTEX
  8
0
  5
B28
 10
-29.8101
 20
327.796
 30
0.000000
  70
    32
  0
VERTEX
  8
0
  5
B29
 10
-29.8052
 20
327.795
 30
0.000000
  70
    32
  0
VERTEX
  8
0
  5
B2A
 10
-29.8003
 20
327.795
 30
0.000000
  70
    32
  0
VERTEX
  8
0
  5
B2B
 10
-29.7954
 20
327.795
 30
0.000000
  70
    32
  0
VERTEX
  8
0
  5
B2C
 10
-29.7905
 20
327.795
 30
0.000000
  70
    32
  0
VERTEX
  8
0
  5
B2D
 10
-29.7856
 20
327.795
 30
0.000000
  70
    32
  0
VERTEX
  8
0
  5
B2E
 10
-29.7807
 20
327.795
 30
0.000000
  70
    32
  0
VERTEX
  8
0
  5
B2F
 10
-29.7758
 20
327.795
 30
0.000000
  70
    32
  0
VERTEX
  8
0
  5
B30
 10
-29.7709
 20
327.795
 30
0.000000
  70
    32
  0
VERTEX
  8
0
  5
B31
 10
-29.7660
 20
327.795
 30
0.000000
  70
    32
  0
VERTEX
  8
0
  5
B32
 10
-29.7611
 20
327.794
 30
0.000000
  70
    32
  0
VERTEX
  8
0
  5
B33
 10
-29.7562
 20
327.794
 30
0.000000
  70
    32
  0
VERTEX
  8
0
  5
B34
 10
-29.7513
 20
327.794
 30
0.000000
  70
    32
  0
VERTEX
  8
0
  5
B35
 10
-29.7463
 20
327.794
 30
0.000000
  70
    32
  0
VERTEX
  8
0
  5
B36
 10
-29.7414
 20
327.794
 30
0.000000
  70
    32
  0
VERTEX
  8
0
  5
B37
 10
-29.7365
 20
327.794
 30
0.000000
  70
    32
  0
VERTEX
  8
0
  5
B38
 10
-29.7316
 20
327.794
 30
0.000000
  70
    32
  0
VERTEX
  8
0
  5
B39
 10
-29.7267
 20
327.794
 30
0.000000
  70
    32
  0
VERTEX
  8
0
  5
B3A
 10
-29.7218
 20
327.794
 30
0.000000
  70
    32
  0
VERTEX
  8
0
  5
B3B
 10
-29.7169
 20
327.793
 30
0.000000
  70
    32
  0
VERTEX
  8
0
  5
B3C
 10
-29.7120
 20
327.793
 30
0.000000
  70
    32
  0
VERTEX
  8
0
  5
B3D
 10
-29.7071
 20
327.793
 30
0.000000
  70
    32
  0
VERTEX
  8
0
  5
B3E
 10
-29.7022
 20
327.793
 30
0.000000
  70
    32
  0
VERTEX
  8
0
  5
B3F
 10
-29.6973
 20
327.793
 30
0.000000
  70
    32
  0
VERTEX
  8
0
  5
B40
 10
-29.6924
 20
327.793
 30
0.000000
  70
    32
  0
VERTEX
  8
0
  5
B41
 10
-29.6875
 20
327.793
 30
0.000000
  70
    32
  0
VERTEX
  8
0
  5
B42
 10
-29.6826
 20
327.793
 30
0.000000
  70
    32
  0
VERTEX
  8
0
  5
B43
 10
-29.6777
 20
327.793
 30
0.000000
  70
    32
  0
VERTEX
  8
0
  5
B44
 10
-29.6728
 20
327.792
 30
0.000000
  70
    32
  0
VERTEX
  8
0
  5
B45
 10
-29.6679
 20
327.792
 30
0.000000
  70
    32
  0
VERTEX
  8
0
  5
B46
 10
-29.6630
 20
327.792
 30
0.000000
  70
    32
  0
VERTEX
  8
0
  5
B47
 10
-29.6581
 20
327.792
 30
0.000000
  70
    32
  0
VERTEX
  8
0
  5
B48
 10
-29.6532
 20
327.792
 30
0.000000
  70
    32
  0
VERTEX
  8
0
  5
B49
 10
-29.6482
 20
327.792
 30
0.000000
  70
    32
  0
VERTEX
  8
0
  5
B4A
 10
-29.6433
 20
327.792
 30
0.000000
  70
    32
  0
VERTEX
  8
0
  5
B4B
 10
-29.6384
 20
327.792
 30
0.000000
  70
    32
  0
VERTEX
  8
0
  5
B4C
 10
-29.6335
 20
327.791
 30
0.000000
  70
    32
  0
VERTEX
  8
0
  5
B4D
 10
-29.6286
 20
327.791
 30
0.000000
  70
    32
  0
VERTEX
  8
0
  5
B4E
 10
-29.6237
 20
327.791
 30
0.000000
  70
    32
  0
VERTEX
  8
0
  5
B4F
 10
-29.6188
 20
327.791
 30
0.000000
  70
    32
  0
SEQEND
  8
0
  5
B50
  0
POLYLINE
  8
0
  5
B51
  62
7
  66
     1
 10
0.000000
 20
0.000000
 30
0.000000
  70
     8
  0
VERTEX
  8
0
  5
B52
 10
-31.1114
 20
327.712
 30
0.000000
  70
    32
  0
VERTEX
  8
0
  5
B53
 10
-31.1091
 20
327.712
 30
0.000000
  70
    32
  0
VERTEX
  8
0
  5
B54
 10
-31.1068
 20
327.712
 30
0.000000
  70
    32
  0
VERTEX
  8
0
  5
B55
 10
-31.1045
 20
327.712
 30
0.000000
  70
    32
  0
VERTEX
  8
0
  5
B56
 10
-31.1022
 20
327.712
 30
0.000000
  70
    32
  0
VERTEX
  8
0
  5
B57
 10
-31.0999
 20
327.712
 30
0.000000
  70
    32
  0
VERTEX
  8
0
  5
B58
 10
-31.0976
 20
327.712
 30
0.000000
  70
    32
  0
VERTEX
  8
0
  5
B59
 10
-31.0953
 20
327.712
 30
0.000000
  70
    32
  0
VERTEX
  8
0
  5
B5A
 10
-31.0930
 20
327.712
 30
0.000000
  70
    32
  0
VERTEX
  8
0
  5
B5B
 10
-31.0907
 20
327.712
 30
0.000000
  70
    32
  0
VERTEX
  8
0
  5
B5C
 10
-31.0884
 20
327.712
 30
0.000000
  70
    32
  0
VERTEX
  8
0
  5
B5D
 10
-31.0861
 20
327.712
 30
0.000000
  70
    32
  0
VERTEX
  8
0
  5
B5E
 10
-31.0838
 20
327.712
 30
0.000000
  70
    32
  0
VERTEX
  8
0
  5
B5F
 10
-31.0814
 20
327.712
 30
0.000000
  70
    32
  0
VERTEX
  8
0
  5
B60
 10
-31.0791
 20
327.712
 30
0.000000
  70
    32
  0
VERTEX
  8
0
  5
B61
 10
-31.0768
 20
327.712
 30
0.000000
  70
    32
  0
VERTEX
  8
0
  5
B62
 10
-31.0745
 20
327.712
 30
0.000000
  70
    32
  0
VERTEX
  8
0
  5
B63
 10
-31.0722
 20
327.712
 30
0.000000
  70
    32
  0
VERTEX
  8
0
  5
B64
 10
-31.0699
 20
327.712
 30
0.000000
  70
    32
  0
VERTEX
  8
0
  5
B65
 10
-31.0675
 20
327.712
 30
0.000000
  70
    32
  0
VERTEX
  8
0
  5
B66
 10
-31.0652
 20
327.712
 30
0.000000
  70
    32
  0
VERTEX
  8
0
  5
B67
 10
-31.0629
 20
327.712
 30
0.000000
  70
    32
  0
VERTEX
  8
0
  5
B68
 10
-31.0606
 20
327.713
 30
0.000000
  70
    32
  0
VERTEX
  8
0
  5
B69
 10
-31.0582
 20
327.713
 30
0.000000
  70
    32
  0
VERTEX
  8
0
  5
B6A
 10
-31.0559
 20
327.713
 30
0.000000
  70
    32
  0
VERTEX
  8
0
  5
B6B
 10
-31.0536
 20
327.713
 30
0.000000
  70
    32
  0
VERTEX
  8
0
  5
B6C
 10
-31.0513
 20
327.713
 30
0.000000
  70
    32
  0
VERTEX
  8
0
  5
B6D
 10
-31.0490
 20
327.713
 30
0.000000
  70
    32
  0
VERTEX
  8
0
  5
B6E
 10
-31.0466
 20
327.713
 30
0.000000
  70
    32
  0
VERTEX
  8
0
  5
B6F
 10
-31.0443
 20
327.713
 30
0.000000
  70
    32
  0
VERTEX
  8
0
  5
B70
 10
-31.0420
 20
327.713
 30
0.000000
  70
    32
  0
VERTEX
  8
0
  5
B71
 10
-31.0397
 20
327.713
 30
0.000000
  70
    32
  0
VERTEX
  8
0
  5
B72
 10
-31.0373
 20
327.714
 30
0.000000
  70
    32
  0
VERTEX
  8
0
  5
B73
 10
-31.0350
 20
327.714
 30
0.000000
  70
    32
  0
VERTEX
  8
0
  5
B74
 10
-31.0327
 20
327.714
 30
0.000000
  70
    32
  0
VERTEX
  8
0
  5
B75
 10
-31.0304
 20
327.714
 30
0.000000
  70
    32
  0
VERTEX
  8
0
  5
B76
 10
-31.0280
 20
327.714
 30
0.000000
  70
    32
  0
VERTEX
  8
0
  5
B77
 10
-31.0257
 20
327.714
 30
0.000000
  70
    32
  0
VERTEX
  8
0
  5
B78
 10
-31.0234
 20
327.715
 30
0.000000
  70
    32
  0
VERTEX
  8
0
  5
B79
 10
-31.0211
 20
327.715
 30
0.000000
  70
    32
  0
VERTEX
  8
0
  5
B7A
 10
-31.0187
 20
327.715
 30
0.000000
  70
    32
  0
VERTEX
  8
0
  5
B7B
 10
-31.0164
 20
327.715
 30
0.000000
  70
    32
  0
VERTEX
  8
0
  5
B7C
 10
-31.0141
 20
327.715
 30
0.000000
  70
    32
  0
VERTEX
  8
0
  5
B7D
 10
-31.0118
 20
327.715
 30
0.000000
  70
    32
  0
VERTEX
  8
0
  5
B7E
 10
-31.0094
 20
327.716
 30
0.000000
  70
    32
  0
VERTEX
  8
0
  5
B7F
 10
-31.0071
 20
327.716
 30
0.000000
  70
    32
  0
VERTEX
  8
0
  5
B80
 10
-31.0048
 20
327.716
 30
0.000000
  70
    32
  0
VERTEX
  8
0
  5
B81
 10
-31.0025
 20
327.716
 30
0.000000
  70
    32
  0
VERTEX
  8
0
  5
B82
 10
-31.0002
 20
327.717
 30
0.000000
  70
    32
  0
VERTEX
  8
0
  5
B83
 10
-30.9978
 20
327.717
 30
0.000000
  70
    32
  0
VERTEX
  8
0
  5
B84
 10
-30.9955
 20
327.717
 30
0.000000
  70
    32
  0
VERTEX
  8
0
  5
B85
 10
-30.9932
 20
327.717
 30
0.000000
  70
    32
  0
VERTEX
  8
0
  5
B86
 10
-30.9909
 20
327.718
 30
0.000000
  70
    32
  0
VERTEX
  8
0
  5
B87
 10
-30.9886
 20
327.718
 30
0.000000
  70
    32
  0
VERTEX
  8
0
  5
B88
 10
-30.9863
 20
327.718
 30
0.000000
  70
    32
  0
VERTEX
  8
0
  5
B89
 10
-30.9840
 20
327.718
 30
0.000000
  70
    32
  0
VERTEX
  8
0
  5
B8A
 10
-30.9816
 20
327.719
 30
0.000000
  70
    32
  0
VERTEX
  8
0
  5
B8B
 10
-30.9793
 20
327.719
 30
0.000000
  70
    32
  0
VERTEX
  8
0
  5
B8C
 10
-30.9770
 20
327.719
 30
0.000000
  70
    32
  0
VERTEX
  8
0
  5
B8D
 10
-30.9747
 20
327.720
 30
0.000000
  70
    32
  0
VERTEX
  8
0
  5
B8E
 10
-30.9724
 20
327.720
 30
0.000000
  70
    32
  0
VERTEX
  8
0
  5
B8F
 10
-30.9701
 20
327.720
 30
0.000000
  70
    32
  0
VERTEX
  8
0
  5
B90
 10
-30.9678
 20
327.720
 30
0.000000
  70
    32
  0
VERTEX
  8
0
  5
B91
 10
-30.9655
 20
327.721
 30
0.000000
  70
    32
  0
VERTEX
  8
0
  5
B92
 10
-30.9632
 20
327.721
 30
0.000000
  70
    32
  0
VERTEX
  8
0
  5
B93
 10
-30.9609
 20
327.722
 30
0.000000
  70
    32
  0
VERTEX
  8
0
  5
B94
 10
-30.9586
 20
327.722
 30
0.000000
  70
    32
  0
VERTEX
  8
0
  5
B95
 10
-30.9563
 20
327.722
 30
0.000000
  70
    32
  0
VERTEX
  8
0
  5
B96
 10
-30.9540
 20
327.723
 30
0.000000
  70
    32
  0
VERTEX
  8
0
  5
B97
 10
-30.9518
 20
327.723
 30
0.000000
  70
    32
  0
VERTEX
  8
0
  5
B98
 10
-30.9495
 20
327.723
 30
0.000000
  70
    32
  0
VERTEX
  8
0
  5
B99
 10
-30.9472
 20
327.724
 30
0.000000
  70
    32
  0
VERTEX
  8
0
  5
B9A
 10
-30.9449
 20
327.724
 30
0.000000
  70
    32
  0
VERTEX
  8
0
  5
B9B
 10
-30.9426
 20
327.725
 30
0.000000
  70
    32
  0
VERTEX
  8
0
  5
B9C
 10
-30.9403
 20
327.725
 30
0.000000
  70
    32
  0
VERTEX
  8
0
  5
B9D
 10
-30.9381
 20
327.726
 30
0.000000
  70
    32
  0
VERTEX
  8
0
  5
B9E
 10
-30.9358
 20
327.726
 30
0.000000
  70
    32
  0
VERTEX
  8
0
  5
B9F
 10
-30.9335
 20
327.726
 30
0.000000
  70
    32
  0
VERTEX
  8
0
  5
BA0
 10
-30.9313
 20
327.727
 30
0.000000
  70
    32
  0
VERTEX
  8
0
  5
BA1
 10
-30.9290
 20
327.727
 30
0.000000
  70
    32
  0
VERTEX
  8
0
  5
BA2
 10
-30.9267
 20
327.728
 30
0.000000
  70
    32
  0
VERTEX
  8
0
  5
BA3
 10
-30.9245
 20
327.728
 30
0.000000
  70
    32
  0
VERTEX
  8
0
  5
BA4
 10
-30.9222
 20
327.729
 30
0.000000
  70
    32
  0
VERTEX
  8
0
  5
BA5
 10
-30.9199
 20
327.729
 30
0.000000
  70
    32
  0
VERTEX
  8
0
  5
BA6
 10
-30.9177
 20
327.730
 30
0.000000
  70
    32
  0
VERTEX
  8
0
  5
BA7
 10
-30.9154
 20
327.730
 30
0.000000
  70
    32
  0
VERTEX
  8
0
  5
BA8
 10
-30.9132
 20
327.731
 30
0.000000
  70
    32
  0
VERTEX
  8
0
  5
BA9
 10
-30.9110
 20
327.732
 30
0.000000
  70
    32
  0
VERTEX
  8
0
  5
BAA
 10
-30.9087
 20
327.732
 30
0.000000
  70
    32
  0
VERTEX
  8
0
  5
BAB
 10
-30.9065
 20
327.733
 30
0.000000
  70
    32
  0
VERTEX
  8
0
  5
BAC
 10
-30.9042
 20
327.733
 30
0.000000
  70
    32
  0
VERTEX
  8
0
  5
BAD
 10
-30.9020
 20
327.734
 30
0.000000
  70
    32
  0
VERTEX
  8
0
  5
BAE
 10
-30.8998
 20
327.734
 30
0.000000
  70
    32
  0
VERTEX
  8
0
  5
BAF
 10
-30.8976
 20
327.735
 30
0.000000
  70
    32
  0
VERTEX
  8
0
  5
BB0
 10
-30.8953
 20
327.736
 30
0.000000
  70
    32
  0
VERTEX
  8
0
  5
BB1
 10
-30.8931
 20
327.736
 30
0.000000
  70
    32
  0
VERTEX
  8
0
  5
BB2
 10
-30.8909
 20
327.737
 30
0.000000
  70
    32
  0
VERTEX
  8
0
  5
BB3
 10
-30.8887
 20
327.738
 30
0.000000
  70
    32
  0
VERTEX
  8
0
  5
BB4
 10
-30.8865
 20
327.738
 30
0.000000
  70
    32
  0
VERTEX
  8
0
  5
BB5
 10
-30.8843
 20
327.739
 30
0.000000
  70
    32
  0
VERTEX
  8
0
  5
BB6
 10
-30.8821
 20
327.740
 30
0.000000
  70
    32
  0
VERTEX
  8
0
  5
BB7
 10
-30.8799
 20
327.740
 30
0.000000
  70
    32
  0
VERTEX
  8
0
  5
BB8
 10
-30.8777
 20
327.741
 30
0.000000
  70
    32
  0
VERTEX
  8
0
  5
BB9
 10
-30.8755
 20
327.742
 30
0.000000
  70
    32
  0
VERTEX
  8
0
  5
BBA
 10
-30.8733
 20
327.742
 30
0.000000
  70
    32
  0
VERTEX
  8
0
  5
BBB
 10
-30.8711
 20
327.743
 30
0.000000
  70
    32
  0
VERTEX
  8
0
  5
BBC
 10
-30.8690
 20
327.744
 30
0.000000
  70
    32
  0
VERTEX
  8
0
  5
BBD
 10
-30.8668
 20
327.745
 30
0.000000
  70
    32
  0
VERTEX
  8
0
  5
BBE
 10
-30.8646
 20
327.745
 30
0.000000
  70
    32
  0
VERTEX
  8
0
  5
BBF
 10
-30.8624
 20
327.746
 30
0.000000
  70
    32
  0
VERTEX
  8
0
  5
BC0
 10
-30.8603
 20
327.747
 30
0.000000
  70
    32
  0
VERTEX
  8
0
  5
BC1
 10
-30.8581
 20
327.748
 30
0.000000
  70
    32
  0
VERTEX
  8
0
  5
BC2
 10
-30.8560
 20
327.748
 30
0.000000
  70
    32
  0
VERTEX
  8
0
  5
BC3
 10
-30.8538
 20
327.749
 30
0.000000
  70
    32
  0
VERTEX
  8
0
  5
BC4
 10
-30.8517
 20
327.750
 30
0.000000
  70
    32
  0
VERTEX
  8
0
  5
BC5
 10
-30.8496
 20
327.751
 30
0.000000
  70
    32
  0
VERTEX
  8
0
  5
BC6
 10
-30.8474
 20
327.752
 30
0.000000
  70
    32
  0
VERTEX
  8
0
  5
BC7
 10
-30.8453
 20
327.753
 30
0.000000
  70
    32
  0
VERTEX
  8
0
  5
BC8
 10
-30.8432
 20
327.754
 30
0.000000
  70
    32
  0
VERTEX
  8
0
  5
BC9
 10
-30.8410
 20
327.754
 30
0.000000
  70
    32
  0
VERTEX
  8
0
  5
BCA
 10
-30.8389
 20
327.755
 30
0.000000
  70
    32
  0
VERTEX
  8
0
  5
BCB
 10
-30.8368
 20
327.756
 30
0.000000
  70
    32
  0
VERTEX
  8
0
  5
BCC
 10
-30.8347
 20
327.757
 30
0.000000
  70
    32
  0
VERTEX
  8
0
  5
BCD
 10
-30.8326
 20
327.758
 30
0.000000
  70
    32
  0
VERTEX
  8
0
  5
BCE
 10
-30.8305
 20
327.759
 30
0.000000
  70
    32
  0
VERTEX
  8
0
  5
BCF
 10
-30.8284
 20
327.760
 30
0.000000
  70
    32
  0
VERTEX
  8
0
  5
BD0
 10
-30.8263
 20
327.761
 30
0.000000
  70
    32
  0
VERTEX
  8
0
  5
BD1
 10
-30.8243
 20
327.762
 30
0.000000
  70
    32
  0
VERTEX
  8
0
  5
BD2
 10
-30.8222
 20
327.763
 30
0.000000
  70
    32
  0
VERTEX
  8
0
  5
BD3
 10
-30.8201
 20
327.764
 30
0.000000
  70
    32
  0
VERTEX
  8
0
  5
BD4
 10
-30.8181
 20
327.765
 30
0.000000
  70
    32
  0
VERTEX
  8
0
  5
BD5
 10
-30.8160
 20
327.766
 30
0.000000
  70
    32
  0
VERTEX
  8
0
  5
BD6
 10
-30.8139
 20
327.767
 30
0.000000
  70
    32
  0
VERTEX
  8
0
  5
BD7
 10
-30.8119
 20
327.768
 30
0.000000
  70
    32
  0
VERTEX
  8
0
  5
BD8
 10
-30.8099
 20
327.769
 30
0.000000
  70
    32
  0
VERTEX
  8
0
  5
BD9
 10
-30.8078
 20
327.770
 30
0.000000
  70
    32
  0
VERTEX
  8
0
  5
BDA
 10
-30.8058
 20
327.771
 30
0.000000
  70
    32
  0
VERTEX
  8
0
  5
BDB
 10
-30.8038
 20
327.772
 30
0.000000
  70
    32
  0
VERTEX
  8
0
  5
BDC
 10
-30.8018
 20
327.774
 30
0.000000
  70
    32
  0
VERTEX
  8
0
  5
BDD
 10
-30.7998
 20
327.775
 30
0.000000
  70
    32
  0
VERTEX
  8
0
  5
BDE
 10
-30.7978
 20
327.776
 30
0.000000
  70
    32
  0
VERTEX
  8
0
  5
BDF
 10
-30.7958
 20
327.777
 30
0.000000
  70
    32
  0
VERTEX
  8
0
  5
BE0
 10
-30.7938
 20
327.778
 30
0.000000
  70
    32
  0
VERTEX
  8
0
  5
BE1
 10
-30.7918
 20
327.779
 30
0.000000
  70
    32
  0
VERTEX
  8
0
  5
BE2
 10
-30.7898
 20
327.781
 30
0.000000
  70
    32
  0
VERTEX
  8
0
  5
BE3
 10
-30.7879
 20
327.782
 30
0.000000
  70
    32
  0
VERTEX
  8
0
  5
BE4
 10
-30.7859
 20
327.783
 30
0.000000
  70
    32
  0
VERTEX
  8
0
  5
BE5
 10
-30.7840
 20
327.784
 30
0.000000
  70
    32
  0
VERTEX
  8
0
  5
BE6
 10
-30.7820
 20
327.785
 30
0.000000
  70
    32
  0
VERTEX
  8
0
  5
BE7
 10
-30.7801
 20
327.787
 30
0.000000
  70
    32
  0
VERTEX
  8
0
  5
BE8
 10
-30.7782
 20
327.788
 30
0.000000
  70
    32
  0
VERTEX
  8
0
  5
BE9
 10
-30.7763
 20
327.789
 30
0.000000
  70
    32
  0
VERTEX
  8
0
  5
BEA
 10
-30.7744
 20
327.790
 30
0.000000
  70
    32
  0
VERTEX
  8
0
  5
BEB
 10
-30.7725
 20
327.792
 30
0.000000
  70
    32
  0
VERTEX
  8
0
  5
BEC
 10
-30.7706
 20
327.793
 30
0.000000
  70
    32
  0
VERTEX
  8
0
  5
BED
 10
-30.7687
 20
327.794
 30
0.000000
  70
    32
  0
VERTEX
  8
0
  5
BEE
 10
-30.7668
 20
327.796
 30
0.000000
  70
    32
  0
VERTEX
  8
0
  5
BEF
 10
-30.7650
 20
327.797
 30
0.000000
  70
    32
  0
VERTEX
  8
0
  5
BF0
 10
-30.7631
 20
327.798
 30
0.000000
  70
    32
  0
VERTEX
  8
0
  5
BF1
 10
-30.7613
 20
327.800
 30
0.000000
  70
    32
  0
SEQEND
  8
0
  5
BF2
  0
POLYLINE
  8
0
  5
BF3
  62
7
  66
     1
 10
0.000000
 20
0.000000
 30
0.000000
  70
     8
  0
VERTEX
  8
0
  5
BF4
 10
-30.7613
 20
327.800
 30
0.000000
  70
    32
  0
VERTEX
  8
0
  5
BF5
 10
-30.7610
 20
327.800
 30
0.000000
  70
    32
  0
VERTEX
  8
0
  5
BF6
 10
-30.7608
 20
327.800
 30
0.000000
  70
    32
  0
VERTEX
  8
0
  5
BF7
 10
-30.7605
 20
327.800
 30
0.000000
  70
    32
  0
VERTEX
  8
0
  5
BF8
 10
-30.7603
 20
327.801
 30
0.000000
  70
    32
  0
VERTEX
  8
0
  5
BF9
 10
-30.7600
 20
327.801
 30
0.000000
  70
    32
  0
VERTEX
  8
0
  5
BFA
 10
-30.7598
 20
327.801
 30
0.000000
  70
    32
  0
VERTEX
  8
0
  5
BFB
 10
-30.7595
 20
327.801
 30
0.000000
  70
    32
  0
VERTEX
  8
0
  5
BFC
 10
-30.7593
 20
327.801
 30
0.000000
  70
    32
  0
VERTEX
  8
0
  5
BFD
 10
-30.7590
 20
327.802
 30
0.000000
  70
    32
  0
VERTEX
  8
0
  5
BFE
 10
-30.7588
 20
327.802
 30
0.000000
  70
    32
  0
VERTEX
  8
0
  5
BFF
 10
-30.7586
 20
327.802
 30
0.000000
  70
    32
  0
VERTEX
  8
0
  5
C00
 10
-30.7583
 20
327.802
 30
0.000000
  70
    32
  0
VERTEX
  8
0
  5
C01
 10
-30.7581
 20
327.802
 30
0.000000
  70
    32
  0
VERTEX
  8
0
  5
C02
 10
-30.7578
 20
327.802
 30
0.000000
  70
    32
  0
VERTEX
  8
0
  5
C03
 10
-30.7576
 20
327.803
 30
0.000000
  70
    32
  0
VERTEX
  8
0
  5
C04
 10
-30.7573
 20
327.803
 30
0.000000
  70
    32
  0
VERTEX
  8
0
  5
C05
 10
-30.7571
 20
327.803
 30
0.000000
  70
    32
  0
VERTEX
  8
0
  5
C06
 10
-30.7568
 20
327.803
 30
0.000000
  70
    32
  0
VERTEX
  8
0
  5
C07
 10
-30.7566
 20
327.803
 30
0.000000
  70
    32
  0
VERTEX
  8
0
  5
C08
 10
-30.7564
 20
327.804
 30
0.000000
  70
    32
  0
VERTEX
  8
0
  5
C09
 10
-30.7561
 20
327.804
 30
0.000000
  70
    32
  0
VERTEX
  8
0
  5
C0A
 10
-30.7559
 20
327.804
 30
0.000000
  70
    32
  0
VERTEX
  8
0
  5
C0B
 10
-30.7556
 20
327.804
 30
0.000000
  70
    32
  0
VERTEX
  8
0
  5
C0C
 10
-30.7554
 20
327.804
 30
0.000000
  70
    32
  0
VERTEX
  8
0
  5
C0D
 10
-30.7551
 20
327.805
 30
0.000000
  70
    32
  0
VERTEX
  8
0
  5
C0E
 10
-30.7549
 20
327.805
 30
0.000000
  70
    32
  0
VERTEX
  8
0
  5
C0F
 10
-30.7547
 20
327.805
 30
0.000000
  70
    32
  0
VERTEX
  8
0
  5
C10
 10
-30.7544
 20
327.805
 30
0.000000
  70
    32
  0
VERTEX
  8
0
  5
C11
 10
-30.7542
 20
327.805
 30
0.000000
  70
    32
  0
VERTEX
  8
0
  5
C12
 10
-30.7539
 20
327.806
 30
0.000000
  70
    32
  0
VERTEX
  8
0
  5
C13
 10
-30.7537
 20
327.806
 30
0.000000
  70
    32
  0
VERTEX
  8
0
  5
C14
 10
-30.7534
 20
327.806
 30
0.000000
  70
    32
  0
VERTEX
  8
0
  5
C15
 10
-30.7532
 20
327.806
 30
0.000000
  70
    32
  0
VERTEX
  8
0
  5
C16
 10
-30.7530
 20
327.806
 30
0.000000
  70
    32
  0
VERTEX
  8
0
  5
C17
 10
-30.7527
 20
327.806
 30
0.000000
  70
    32
  0
VERTEX
  8
0
  5
C18
 10
-30.7525
 20
327.807
 30
0.000000
  70
    32
  0
VERTEX
  8
0
  5
C19
 10
-30.7522
 20
327.807
 30
0.000000
  70
    32
  0
VERTEX
  8
0
  5
C1A
 10
-30.7520
 20
327.807
 30
0.000000
  70
    32
  0
VERTEX
  8
0
  5
C1B
 10
-30.7518
 20
327.807
 30
0.000000
  70
    32
  0
VERTEX
  8
0
  5
C1C
 10
-30.7515
 20
327.807
 30
0.000000
  70
    32
  0
VERTEX
  8
0
  5
C1D
 10
-30.7513
 20
327.808
 30
0.000000
  70
    32
  0
VERTEX
  8
0
  5
C1E
 10
-30.7510
 20
327.808
 30
0.000000
  70
    32
  0
VERTEX
  8
0
  5
C1F
 10
-30.7508
 20
327.808
 30
0.000000
  70
    32
  0
VERTEX
  8
0
  5
C20
 10
-30.7505
 20
327.808
 30
0.000000
  70
    32
  0
VERTEX
  8
0
  5
C21
 10
-30.7503
 20
327.808
 30
0.000000
  70
    32
  0
VERTEX
  8
0
  5
C22
 10
-30.7501
 20
327.809
 30
0.000000
  70
    32
  0
VERTEX
  8
0
  5
C23
 10
-30.7498
 20
327.809
 30
0.000000
  70
    32
  0
VERTEX
  8
0
  5
C24
 10
-30.7496
 20
327.809
 30
0.000000
  70
    32
  0
VERTEX
  8
0
  5
C25
 10
-30.7494
 20
327.809
 30
0.000000
  70
    32
  0
VERTEX
  8
0
  5
C26
 10
-30.7491
 20
327.809
 30
0.000000
  70
    32
  0
VERTEX
  8
0
  5
C27
 10
-30.7489
 20
327.810
 30
0.000000
  70
    32
  0
VERTEX
  8
0
  5
C28
 10
-30.7486
 20
327.810
 30
0.000000
  70
    32
  0
VERTEX
  8
0
  5
C29
 10
-30.7484
 20
327.810
 30
0.000000
  70
    32
  0
VERTEX
  8
0
  5
C2A
 10
-30.7482
 20
327.810
 30
0.000000
  70
    32
  0
VERTEX
  8
0
  5
C2B
 10
-30.7479
 20
327.810
 30
0.000000
  70
    32
  0
VERTEX
  8
0
  5
C2C
 10
-30.7477
 20
327.811
 30
0.000000
  70
    32
  0
VERTEX
  8
0
  5
C2D
 10
-30.7474
 20
327.811
 30
0.000000
  70
    32
  0
VERTEX
  8
0
  5
C2E
 10
-30.7472
 20
327.811
 30
0.000000
  70
    32
  0
VERTEX
  8
0
  5
C2F
 10
-30.7470
 20
327.811
 30
0.000000
  70
    32
  0
VERTEX
  8
0
  5
C30
 10
-30.7467
 20
327.811
 30
0.000000
  70
    32
  0
VERTEX
  8
0
  5
C31
 10
-30.7465
 20
327.812
 30
0.000000
  70
    32
  0
VERTEX
  8
0
  5
C32
 10
-30.7463
 20
327.812
 30
0.000000
  70
    32
  0
VERTEX
  8
0
  5
C33
 10
-30.7460
 20
327.812
 30
0.000000
  70
    32
  0
VERTEX
  8
0
  5
C34
 10
-30.7458
 20
327.812
 30
0.000000
  70
    32
  0
VERTEX
  8
0
  5
C35
 10
-30.7456
 20
327.812
 30
0.000000
  70
    32
  0
VERTEX
  8
0
  5
C36
 10
-30.7453
 20
327.813
 30
0.000000
  70
    32
  0
VERTEX
  8
0
  5
C37
 10
-30.7451
 20
327.813
 30
0.000000
  70
    32
  0
VERTEX
  8
0
  5
C38
 10
-30.7448
 20
327.813
 30
0.000000
  70
    32
  0
VERTEX
  8
0
  5
C39
 10
-30.7446
 20
327.813
 30
0.000000
  70
    32
  0
VERTEX
  8
0
  5
C3A
 10
-30.7444
 20
327.813
 30
0.000000
  70
    32
  0
VERTEX
  8
0
  5
C3B
 10
-30.7441
 20
327.814
 30
0.000000
  70
    32
  0
VERTEX
  8
0
  5
C3C
 10
-30.7439
 20
327.814
 30
0.000000
  70
    32
  0
VERTEX
  8
0
  5
C3D
 10
-30.7437
 20
327.814
 30
0.000000
  70
    32
  0
VERTEX
  8
0
  5
C3E
 10
-30.7434
 20
327.814
 30
0.000000
  70
    32
  0
VERTEX
  8
0
  5
C3F
 10
-30.7432
 20
327.814
 30
0.000000
  70
    32
  0
VERTEX
  8
0
  5
C40
 10
-30.7430
 20
327.815
 30
0.000000
  70
    32
  0
VERTEX
  8
0
  5
C41
 10
-30.7427
 20
327.815
 30
0.000000
  70
    32
  0
VERTEX
  8
0
  5
C42
 10
-30.7425
 20
327.815
 30
0.000000
  70
    32
  0
VERTEX
  8
0
  5
C43
 10
-30.7423
 20
327.815
 30
0.000000
  70
    32
  0
VERTEX
  8
0
  5
C44
 10
-30.7420
 20
327.815
 30
0.000000
  70
    32
  0
VERTEX
  8
0
  5
C45
 10
-30.7418
 20
327.816
 30
0.000000
  70
    32
  0
VERTEX
  8
0
  5
C46
 10
-30.7416
 20
327.816
 30
0.000000
  70
    32
  0
VERTEX
  8
0
  5
C47
 10
-30.7413
 20
327.816
 30
0.000000
  70
    32
  0
VERTEX
  8
0
  5
C48
 10
-30.7411
 20
327.816
 30
0.000000
  70
    32
  0
VERTEX
  8
0
  5
C49
 10
-30.7409
 20
327.816
 30
0.000000
  70
    32
  0
VERTEX
  8
0
  5
C4A
 10
-30.7406
 20
327.817
 30
0.000000
  70
    32
  0
VERTEX
  8
0
  5
C4B
 10
-30.7404
 20
327.817
 30
0.000000
  70
    32
  0
VERTEX
  8
0
  5
C4C
 10
-30.7402
 20
327.817
 30
0.000000
  70
    32
  0
VERTEX
  8
0
  5
C4D
 10
-30.7399
 20
327.817
 30
0.000000
  70
    32
  0
VERTEX
  8
0
  5
C4E
 10
-30.7397
 20
327.817
 30
0.000000
  70
    32
  0
VERTEX
  8
0
  5
C4F
 10
-30.7395
 20
327.818
 30
0.000000
  70
    32
  0
VERTEX
  8
0
  5
C50
 10
-30.7392
 20
327.818
 30
0.000000
  70
    32
  0
VERTEX
  8
0
  5
C51
 10
-30.7390
 20
327.818
 30
0.000000
  70
    32
  0
VERTEX
  8
0
  5
C52
 10
-30.7388
 20
327.818
 30
0.000000
  70
    32
  0
VERTEX
  8
0
  5
C53
 10
-30.7385
 20
327.818
 30
0.000000
  70
    32
  0
VERTEX
  8
0
  5
C54
 10
-30.7383
 20
327.819
 30
0.000000
  70
    32
  0
VERTEX
  8
0
  5
C55
 10
-30.7381
 20
327.819
 30
0.000000
  70
    32
  0
VERTEX
  8
0
  5
C56
 10
-30.7379
 20
327.819
 30
0.000000
  70
    32
  0
VERTEX
  8
0
  5
C57
 10
-30.7376
 20
327.819
 30
0.000000
  70
    32
  0
VERTEX
  8
0
  5
C58
 10
-30.7374
 20
327.819
 30
0.000000
  70
    32
  0
VERTEX
  8
0
  5
C59
 10
-30.7372
 20
327.820
 30
0.000000
  70
    32
  0
VERTEX
  8
0
  5
C5A
 10
-30.7369
 20
327.820
 30
0.000000
  70
    32
  0
VERTEX
  8
0
  5
C5B
 10
-30.7367
 20
327.820
 30
0.000000
  70
    32
  0
VERTEX
  8
0
  5
C5C
 10
-30.7365
 20
327.820
 30
0.000000
  70
    32
  0
VERTEX
  8
0
  5
C5D
 10
-30.7362
 20
327.820
 30
0.000000
  70
    32
  0
VERTEX
  8
0
  5
C5E
 10
-30.7360
 20
327.821
 30
0.000000
  70
    32
  0
VERTEX
  8
0
  5
C5F
 10
-30.7358
 20
327.821
 30
0.000000
  70
    32
  0
VERTEX
  8
0
  5
C60
 10
-30.7356
 20
327.821
 30
0.000000
  70
    32
  0
VERTEX
  8
0
  5
C61
 10
-30.7353
 20
327.821
 30
0.000000
  70
    32
  0
VERTEX
  8
0
  5
C62
 10
-30.7351
 20
327.822
 30
0.000000
  70
    32
  0
VERTEX
  8
0
  5
C63
 10
-30.7349
 20
327.822
 30
0.000000
  70
    32
  0
VERTEX
  8
0
  5
C64
 10
-30.7346
 20
327.822
 30
0.000000
  70
    32
  0
VERTEX
  8
0
  5
C65
 10
-30.7344
 20
327.822
 30
0.000000
  70
    32
  0
VERTEX
  8
0
  5
C66
 10
-30.7342
 20
327.822
 30
0.000000
  70
    32
  0
VERTEX
  8
0
  5
C67
 10
-30.7340
 20
327.823
 30
0.000000
  70
    32
  0
VERTEX
  8
0
  5
C68
 10
-30.7337
 20
327.823
 30
0.000000
  70
    32
  0
VERTEX
  8
0
  5
C69
 10
-30.7335
 20
327.823
 30
0.000000
  70
    32
  0
VERTEX
  8
0
  5
C6A
 10
-30.7333
 20
327.823
 30
0.000000
  70
    32
  0
VERTEX
  8
0
  5
C6B
 10
-30.7331
 20
327.823
 30
0.000000
  70
    32
  0
VERTEX
  8
0
  5
C6C
 10
-30.7328
 20
327.824
 30
0.000000
  70
    32
  0
VERTEX
  8
0
  5
C6D
 10
-30.7326
 20
327.824
 30
0.000000
  70
    32
  0
VERTEX
  8
0
  5
C6E
 10
-30.7324
 20
327.824
 30
0.000000
  70
    32
  0
VERTEX
  8
0
  5
C6F
 10
-30.7322
 20
327.824
 30
0.000000
  70
    32
  0
VERTEX
  8
0
  5
C70
 10
-30.7319
 20
327.824
 30
0.000000
  70
    32
  0
VERTEX
  8
0
  5
C71
 10
-30.7317
 20
327.825
 30
0.000000
  70
    32
  0
VERTEX
  8
0
  5
C72
 10
-30.7315
 20
327.825
 30
0.000000
  70
    32
  0
VERTEX
  8
0
  5
C73
 10
-30.7313
 20
327.825
 30
0.000000
  70
    32
  0
SEQEND
  8
0
  5
C74
  0
POLYLINE
  8
0
  5
C75
  62
7
  66
     1
 10
0.000000
 20
0.000000
 30
0.000000
  70
     8
  0
VERTEX
  8
0
  5
C76
 10
-31.7343
 20
327.738
 30
0.000000
  70
    32
  0
VERTEX
  8
0
  5
C77
 10
-31.7294
 20
327.738
 30
0.000000
  70
    32
  0
VERTEX
  8
0
  5
C78
 10
-31.7245
 20
327.737
 30
0.000000
  70
    32
  0
VERTEX
  8
0
  5
C79
 10
-31.7196
 20
327.737
 30
0.000000
  70
    32
  0
VERTEX
  8
0
  5
C7A
 10
-31.7147
 20
327.737
 30
0.000000
  70
    32
  0
VERTEX
  8
0
  5
C7B
 10
-31.7098
 20
327.737
 30
0.000000
  70
    32
  0
VERTEX
  8
0
  5
C7C
 10
-31.7049
 20
327.736
 30
0.000000
  70
    32
  0
VERTEX
  8
0
  5
C7D
 10
-31.7000
 20
327.736
 30
0.000000
  70
    32
  0
VERTEX
  8
0
  5
C7E
 10
-31.6951
 20
327.736
 30
0.000000
  70
    32
  0
VERTEX
  8
0
  5
C7F
 10
-31.6902
 20
327.736
 30
0.000000
  70
    32
  0
VERTEX
  8
0
  5
C80
 10
-31.6853
 20
327.736
 30
0.000000
  70
    32
  0
VERTEX
  8
0
  5
C81
 10
-31.6804
 20
327.735
 30
0.000000
  70
    32
  0
VERTEX
  8
0
  5
C82
 10
-31.6755
 20
327.735
 30
0.000000
  70
    32
  0
VERTEX
  8
0
  5
C83
 10
-31.6706
 20
327.735
 30
0.000000
  70
    32
  0
VERTEX
  8
0
  5
C84
 10
-31.6657
 20
327.735
 30
0.000000
  70
    32
  0
VERTEX
  8
0
  5
C85
 10
-31.6608
 20
327.734
 30
0.000000
  70
    32
  0
VERTEX
  8
0
  5
C86
 10
-31.6559
 20
327.734
 30
0.000000
  70
    32
  0
VERTEX
  8
0
  5
C87
 10
-31.6510
 20
327.734
 30
0.000000
  70
    32
  0
VERTEX
  8
0
  5
C88
 10
-31.6461
 20
327.734
 30
0.000000
  70
    32
  0
VERTEX
  8
0
  5
C89
 10
-31.6412
 20
327.733
 30
0.000000
  70
    32
  0
VERTEX
  8
0
  5
C8A
 10
-31.6363
 20
327.733
 30
0.000000
  70
    32
  0
VERTEX
  8
0
  5
C8B
 10
-31.6313
 20
327.733
 30
0.000000
  70
    32
  0
VERTEX
  8
0
  5
C8C
 10
-31.6264
 20
327.733
 30
0.000000
  70
    32
  0
VERTEX
  8
0
  5
C8D
 10
-31.6215
 20
327.732
 30
0.000000
  70
    32
  0
VERTEX
  8
0
  5
C8E
 10
-31.6166
 20
327.732
 30
0.000000
  70
    32
  0
VERTEX
  8
0
  5
C8F
 10
-31.6117
 20
327.732
 30
0.000000
  70
    32
  0
VERTEX
  8
0
  5
C90
 10
-31.6068
 20
327.732
 30
0.000000
  70
    32
  0
VERTEX
  8
0
  5
C91
 10
-31.6019
 20
327.732
 30
0.000000
  70
    32
  0
VERTEX
  8
0
  5
C92
 10
-31.5970
 20
327.731
 30
0.000000
  70
    32
  0
VERTEX
  8
0
  5
C93
 10
-31.5921
 20
327.731
 30
0.000000
  70
    32
  0
VERTEX
  8
0
  5
C94
 10
-31.5872
 20
327.731
 30
0.000000
  70
    32
  0
VERTEX
  8
0
  5
C95
 10
-31.5823
 20
327.731
 30
0.000000
  70
    32
  0
VERTEX
  8
0
  5
C96
 10
-31.5774
 20
327.730
 30
0.000000
  70
    32
  0
VERTEX
  8
0
  5
C97
 10
-31.5725
 20
327.730
 30
0.000000
  70
    32
  0
VERTEX
  8
0
  5
C98
 10
-31.5676
 20
327.730
 30
0.000000
  70
    32
  0
VERTEX
  8
0
  5
C99
 10
-31.5627
 20
327.730
 30
0.000000
  70
    32
  0
VERTEX
  8
0
  5
C9A
 10
-31.5578
 20
327.730
 30
0.000000
  70
    32
  0
VERTEX
  8
0
  5
C9B
 10
-31.5529
 20
327.729
 30
0.000000
  70
    32
  0
VERTEX
  8
0
  5
C9C
 10
-31.5480
 20
327.729
 30
0.000000
  70
    32
  0
VERTEX
  8
0
  5
C9D
 10
-31.5431
 20
327.729
 30
0.000000
  70
    32
  0
VERTEX
  8
0
  5
C9E
 10
-31.5382
 20
327.729
 30
0.000000
  70
    32
  0
VERTEX
  8
0
  5
C9F
 10
-31.5333
 20
327.728
 30
0.000000
  70
    32
  0
VERTEX
  8
0
  5
CA0
 10
-31.5284
 20
327.728
 30
0.000000
  70
    32
  0
VERTEX
  8
0
  5
CA1
 10
-31.5235
 20
327.728
 30
0.000000
  70
    32
  0
VERTEX
  8
0
  5
CA2
 10
-31.5186
 20
327.728
 30
0.000000
  70
    32
  0
VERTEX
  8
0
  5
CA3
 10
-31.5137
 20
327.728
 30
0.000000
  70
    32
  0
VERTEX
  8
0
  5
CA4
 10
-31.5088
 20
327.727
 30
0.000000
  70
    32
  0
VERTEX
  8
0
  5
CA5
 10
-31.5038
 20
327.727
 30
0.000000
  70
    32
  0
VERTEX
  8
0
  5
CA6
 10
-31.4989
 20
327.727
 30
0.000000
  70
    32
  0
VERTEX
  8
0
  5
CA7
 10
-31.4940
 20
327.727
 30
0.000000
  70
    32
  0
VERTEX
  8
0
  5
CA8
 10
-31.4891
 20
327.726
 30
0.000000
  70
    32
  0
VERTEX
  8
0
  5
CA9
 10
-31.4842
 20
327.726
 30
0.000000
  70
    32
  0
VERTEX
  8
0
  5
CAA
 10
-31.4793
 20
327.726
 30
0.000000
  70
    32
  0
VERTEX
  8
0
  5
CAB
 10
-31.4744
 20
327.726
 30
0.000000
  70
    32
  0
VERTEX
  8
0
  5
CAC
 10
-31.4695
 20
327.726
 30
0.000000
  70
    32
  0
VERTEX
  8
0
  5
CAD
 10
-31.4646
 20
327.725
 30
0.000000
  70
    32
  0
VERTEX
  8
0
  5
CAE
 10
-31.4597
 20
327.725
 30
0.000000
  70
    32
  0
VERTEX
  8
0
  5
CAF
 10
-31.4548
 20
327.725
 30
0.000000
  70
    32
  0
VERTEX
  8
0
  5
CB0
 10
-31.4499
 20
327.725
 30
0.000000
  70
    32
  0
VERTEX
  8
0
  5
CB1
 10
-31.4450
 20
327.725
 30
0.000000
  70
    32
  0
VERTEX
  8
0
  5
CB2
 10
-31.4401
 20
327.724
 30
0.000000
  70
    32
  0
VERTEX
  8
0
  5
CB3
 10
-31.4352
 20
327.724
 30
0.000000
  70
    32
  0
VERTEX
  8
0
  5
CB4
 10
-31.4303
 20
327.724
 30
0.000000
  70
    32
  0
VERTEX
  8
0
  5
CB5
 10
-31.4254
 20
327.724
 30
0.000000
  70
    32
  0
VERTEX
  8
0
  5
CB6
 10
-31.4205
 20
327.724
 30
0.000000
  70
    32
  0
VERTEX
  8
0
  5
CB7
 10
-31.4156
 20
327.723
 30
0.000000
  70
    32
  0
VERTEX
  8
0
  5
CB8
 10
-31.4107
 20
327.723
 30
0.000000
  70
    32
  0
VERTEX
  8
0
  5
CB9
 10
-31.4058
 20
327.723
 30
0.000000
  70
    32
  0
VERTEX
  8
0
  5
CBA
 10
-31.4009
 20
327.723
 30
0.000000
  70
    32
  0
VERTEX
  8
0
  5
CBB
 10
-31.3959
 20
327.723
 30
0.000000
  70
    32
  0
VERTEX
  8
0
  5
CBC
 10
-31.3910
 20
327.722
 30
0.000000
  70
    32
  0
VERTEX
  8
0
  5
CBD
 10
-31.3861
 20
327.722
 30
0.000000
  70
    32
  0
VERTEX
  8
0
  5
CBE
 10
-31.3812
 20
327.722
 30
0.000000
  70
    32
  0
VERTEX
  8
0
  5
CBF
 10
-31.3763
 20
327.722
 30
0.000000
  70
    32
  0
VERTEX
  8
0
  5
CC0
 10
-31.3714
 20
327.722
 30
0.000000
  70
    32
  0
VERTEX
  8
0
  5
CC1
 10
-31.3665
 20
327.721
 30
0.000000
  70
    32
  0
VERTEX
  8
0
  5
CC2
 10
-31.3616
 20
327.721
 30
0.000000
  70
    32
  0
VERTEX
  8
0
  5
CC3
 10
-31.3567
 20
327.721
 30
0.000000
  70
    32
  0
VERTEX
  8
0
  5
CC4
 10
-31.3518
 20
327.721
 30
0.000000
  70
    32
  0
VERTEX
  8
0
  5
CC5
 10
-31.3469
 20
327.721
 30
0.000000
  70
    32
  0
VERTEX
  8
0
  5
CC6
 10
-31.3420
 20
327.720
 30
0.000000
  70
    32
  0
VERTEX
  8
0
  5
CC7
 10
-31.3371
 20
327.720
 30
0.000000
  70
    32
  0
VERTEX
  8
0
  5
CC8
 10
-31.3322
 20
327.720
 30
0.000000
  70
    32
  0
VERTEX
  8
0
  5
CC9
 10
-31.3273
 20
327.720
 30
0.000000
  70
    32
  0
VERTEX
  8
0
  5
CCA
 10
-31.3224
 20
327.720
 30
0.000000
  70
    32
  0
VERTEX
  8
0
  5
CCB
 10
-31.3175
 20
327.719
 30
0.000000
  70
    32
  0
VERTEX
  8
0
  5
CCC
 10
-31.3126
 20
327.719
 30
0.000000
  70
    32
  0
VERTEX
  8
0
  5
CCD
 10
-31.3077
 20
327.719
 30
0.000000
  70
    32
  0
VERTEX
  8
0
  5
CCE
 10
-31.3028
 20
327.719
 30
0.000000
  70
    32
  0
VERTEX
  8
0
  5
CCF
 10
-31.2978
 20
327.719
 30
0.000000
  70
    32
  0
VERTEX
  8
0
  5
CD0
 10
-31.2929
 20
327.718
 30
0.000000
  70
    32
  0
VERTEX
  8
0
  5
CD1
 10
-31.2880
 20
327.718
 30
0.000000
  70
    32
  0
VERTEX
  8
0
  5
CD2
 10
-31.2831
 20
327.718
 30
0.000000
  70
    32
  0
VERTEX
  8
0
  5
CD3
 10
-31.2782
 20
327.718
 30
0.000000
  70
    32
  0
VERTEX
  8
0
  5
CD4
 10
-31.2733
 20
327.718
 30
0.000000
  70
    32
  0
VERTEX
  8
0
  5
CD5
 10
-31.2684
 20
327.717
 30
0.000000
  70
    32
  0
VERTEX
  8
0
  5
CD6
 10
-31.2635
 20
327.717
 30
0.000000
  70
    32
  0
VERTEX
  8
0
  5
CD7
 10
-31.2586
 20
327.717
 30
0.000000
  70
    32
  0
VERTEX
  8
0
  5
CD8
 10
-31.2537
 20
327.717
 30
0.000000
  70
    32
  0
VERTEX
  8
0
  5
CD9
 10
-31.2488
 20
327.717
 30
0.000000
  70
    32
  0
VERTEX
  8
0
  5
CDA
 10
-31.2439
 20
327.717
 30
0.000000
  70
    32
  0
VERTEX
  8
0
  5
CDB
 10
-31.2390
 20
327.716
 30
0.000000
  70
    32
  0
VERTEX
  8
0
  5
CDC
 10
-31.2341
 20
327.716
 30
0.000000
  70
    32
  0
VERTEX
  8
0
  5
CDD
 10
-31.2292
 20
327.716
 30
0.000000
  70
    32
  0
VERTEX
  8
0
  5
CDE
 10
-31.2243
 20
327.716
 30
0.000000
  70
    32
  0
VERTEX
  8
0
  5
CDF
 10
-31.2194
 20
327.716
 30
0.000000
  70
    32
  0
VERTEX
  8
0
  5
CE0
 10
-31.2145
 20
327.715
 30
0.000000
  70
    32
  0
VERTEX
  8
0
  5
CE1
 10
-31.2095
 20
327.715
 30
0.000000
  70
    32
  0
VERTEX
  8
0
  5
CE2
 10
-31.2046
 20
327.715
 30
0.000000
  70
    32
  0
VERTEX
  8
0
  5
CE3
 10
-31.1997
 20
327.715
 30
0.000000
  70
    32
  0
VERTEX
  8
0
  5
CE4
 10
-31.1948
 20
327.715
 30
0.000000
  70
    32
  0
VERTEX
  8
0
  5
CE5
 10
-31.1899
 20
327.715
 30
0.000000
  70
    32
  0
VERTEX
  8
0
  5
CE6
 10
-31.1850
 20
327.714
 30
0.000000
  70
    32
  0
VERTEX
  8
0
  5
CE7
 10
-31.1801
 20
327.714
 30
0.000000
  70
    32
  0
VERTEX
  8
0
  5
CE8
 10
-31.1752
 20
327.714
 30
0.000000
  70
    32
  0
VERTEX
  8
0
  5
CE9
 10
-31.1703
 20
327.714
 30
0.000000
  70
    32
  0
VERTEX
  8
0
  5
CEA
 10
-31.1654
 20
327.714
 30
0.000000
  70
    32
  0
VERTEX
  8
0
  5
CEB
 10
-31.1605
 20
327.714
 30
0.000000
  70
    32
  0
VERTEX
  8
0
  5
CEC
 10
-31.1556
 20
327.713
 30
0.000000
  70
    32
  0
VERTEX
  8
0
  5
CED
 10
-31.1507
 20
327.713
 30
0.000000
  70
    32
  0
VERTEX
  8
0
  5
CEE
 10
-31.1458
 20
327.713
 30
0.000000
  70
    32
  0
VERTEX
  8
0
  5
CEF
 10
-31.1409
 20
327.713
 30
0.000000
  70
    32
  0
VERTEX
  8
0
  5
CF0
 10
-31.1360
 20
327.713
 30
0.000000
  70
    32
  0
VERTEX
  8
0
  5
CF1
 10
-31.1311
 20
327.713
 30
0.000000
  70
    32
  0
VERTEX
  8
0
  5
CF2
 10
-31.1261
 20
327.712
 30
0.000000
  70
    32
  0
VERTEX
  8
0
  5
CF3
 10
-31.1212
 20
327.712
 30
0.000000
  70
    32
  0
VERTEX
  8
0
  5
CF4
 10
-31.1163
 20
327.712
 30
0.000000
  70
    32
  0
VERTEX
  8
0
  5
CF5
 10
-31.1114
 20
327.712
 30
0.000000
  70
    32
  0
SEQEND
  8
0
  5
CF6
  0
POLYLINE
  8
0
  5
CF7
  62
7
  66
     1
 10
0.000000
 20
0.000000
 30
0.000000
  70
     8
  0
VERTEX
  8
0
  5
CF8
 10
210.497
 20
319.252
 30
0.000000
  70
    32
  0
VERTEX
  8
0
  5
CF9
 10
210.496
 20
319.252
 30
0.000000
  70
    32
  0
VERTEX
  8
0
  5
CFA
 10
210.496
 20
319.252
 30
0.000000
  70
    32
  0
VERTEX
  8
0
  5
CFB
 10
210.495
 20
319.252
 30
0.000000
  70
    32
  0
VERTEX
  8
0
  5
CFC
 10
210.494
 20
319.252
 30
0.000000
  70
    32
  0
VERTEX
  8
0
  5
CFD
 10
210.494
 20
319.252
 30
0.000000
  70
    32
  0
VERTEX
  8
0
  5
CFE
 10
210.493
 20
319.252
 30
0.000000
  70
    32
  0
VERTEX
  8
0
  5
CFF
 10
210.493
 20
319.252
 30
0.000000
  70
    32
  0
VERTEX
  8
0
  5
D00
 10
210.492
 20
319.252
 30
0.000000
  70
    32
  0
VERTEX
  8
0
  5
D01
 10
210.491
 20
319.252
 30
0.000000
  70
    32
  0
VERTEX
  8
0
  5
D02
 10
210.491
 20
319.252
 30
0.000000
  70
    32
  0
VERTEX
  8
0
  5
D03
 10
210.490
 20
319.252
 30
0.000000
  70
    32
  0
VERTEX
  8
0
  5
D04
 10
210.490
 20
319.252
 30
0.000000
  70
    32
  0
VERTEX
  8
0
  5
D05
 10
210.489
 20
319.252
 30
0.000000
  70
    32
  0
VERTEX
  8
0
  5
D06
 10
210.489
 20
319.252
 30
0.000000
  70
    32
  0
VERTEX
  8
0
  5
D07
 10
210.488
 20
319.252
 30
0.000000
  70
    32
  0
VERTEX
  8
0
  5
D08
 10
210.487
 20
319.252
 30
0.000000
  70
    32
  0
VERTEX
  8
0
  5
D09
 10
210.487
 20
319.252
 30
0.000000
  70
    32
  0
VERTEX
  8
0
  5
D0A
 10
210.486
 20
319.252
 30
0.000000
  70
    32
  0
VERTEX
  8
0
  5
D0B
 10
210.486
 20
319.252
 30
0.000000
  70
    32
  0
VERTEX
  8
0
  5
D0C
 10
210.485
 20
319.252
 30
0.000000
  70
    32
  0
VERTEX
  8
0
  5
D0D
 10
210.485
 20
319.252
 30
0.000000
  70
    32
  0
VERTEX
  8
0
  5
D0E
 10
210.484
 20
319.252
 30
0.000000
  70
    32
  0
VERTEX
  8
0
  5
D0F
 10
210.483
 20
319.252
 30
0.000000
  70
    32
  0
VERTEX
  8
0
  5
D10
 10
210.483
 20
319.252
 30
0.000000
  70
    32
  0
VERTEX
  8
0
  5
D11
 10
210.482
 20
319.252
 30
0.000000
  70
    32
  0
VERTEX
  8
0
  5
D12
 10
210.482
 20
319.252
 30
0.000000
  70
    32
  0
VERTEX
  8
0
  5
D13
 10
210.481
 20
319.252
 30
0.000000
  70
    32
  0
VERTEX
  8
0
  5
D14
 10
210.481
 20
319.252
 30
0.000000
  70
    32
  0
VERTEX
  8
0
  5
D15
 10
210.480
 20
319.252
 30
0.000000
  70
    32
  0
VERTEX
  8
0
  5
D16
 10
210.479
 20
319.252
 30
0.000000
  70
    32
  0
VERTEX
  8
0
  5
D17
 10
210.479
 20
319.252
 30
0.000000
  70
    32
  0
VERTEX
  8
0
  5
D18
 10
210.478
 20
319.252
 30
0.000000
  70
    32
  0
VERTEX
  8
0
  5
D19
 10
210.478
 20
319.252
 30
0.000000
  70
    32
  0
VERTEX
  8
0
  5
D1A
 10
210.477
 20
319.252
 30
0.000000
  70
    32
  0
VERTEX
  8
0
  5
D1B
 10
210.476
 20
319.252
 30
0.000000
  70
    32
  0
VERTEX
  8
0
  5
D1C
 10
210.476
 20
319.252
 30
0.000000
  70
    32
  0
VERTEX
  8
0
  5
D1D
 10
210.475
 20
319.252
 30
0.000000
  70
    32
  0
VERTEX
  8
0
  5
D1E
 10
210.475
 20
319.252
 30
0.000000
  70
    32
  0
VERTEX
  8
0
  5
D1F
 10
210.474
 20
319.252
 30
0.000000
  70
    32
  0
VERTEX
  8
0
  5
D20
 10
210.474
 20
319.252
 30
0.000000
  70
    32
  0
VERTEX
  8
0
  5
D21
 10
210.473
 20
319.252
 30
0.000000
  70
    32
  0
VERTEX
  8
0
  5
D22
 10
210.472
 20
319.252
 30
0.000000
  70
    32
  0
VERTEX
  8
0
  5
D23
 10
210.472
 20
319.252
 30
0.000000
  70
    32
  0
VERTEX
  8
0
  5
D24
 10
210.471
 20
319.252
 30
0.000000
  70
    32
  0
VERTEX
  8
0
  5
D25
 10
210.471
 20
319.252
 30
0.000000
  70
    32
  0
VERTEX
  8
0
  5
D26
 10
210.470
 20
319.252
 30
0.000000
  70
    32
  0
VERTEX
  8
0
  5
D27
 10
210.470
 20
319.252
 30
0.000000
  70
    32
  0
VERTEX
  8
0
  5
D28
 10
210.469
 20
319.252
 30
0.000000
  70
    32
  0
VERTEX
  8
0
  5
D29
 10
210.468
 20
319.252
 30
0.000000
  70
    32
  0
VERTEX
  8
0
  5
D2A
 10
210.468
 20
319.252
 30
0.000000
  70
    32
  0
VERTEX
  8
0
  5
D2B
 10
210.467
 20
319.252
 30
0.000000
  70
    32
  0
VERTEX
  8
0
  5
D2C
 10
210.467
 20
319.252
 30
0.000000
  70
    32
  0
VERTEX
  8
0
  5
D2D
 10
210.466
 20
319.252
 30
0.000000
  70
    32
  0
VERTEX
  8
0
  5
D2E
 10
210.465
 20
319.252
 30
0.000000
  70
    32
  0
VERTEX
  8
0
  5
D2F
 10
210.465
 20
319.252
 30
0.000000
  70
    32
  0
VERTEX
  8
0
  5
D30
 10
210.464
 20
319.252
 30
0.000000
  70
    32
  0
VERTEX
  8
0
  5
D31
 10
210.464
 20
319.252
 30
0.000000
  70
    32
  0
VERTEX
  8
0
  5
D32
 10
210.463
 20
319.252
 30
0.000000
  70
    32
  0
VERTEX
  8
0
  5
D33
 10
210.463
 20
319.252
 30
0.000000
  70
    32
  0
VERTEX
  8
0
  5
D34
 10
210.462
 20
319.252
 30
0.000000
  70
    32
  0
VERTEX
  8
0
  5
D35
 10
210.461
 20
319.252
 30
0.000000
  70
    32
  0
VERTEX
  8
0
  5
D36
 10
210.461
 20
319.252
 30
0.000000
  70
    32
  0
VERTEX
  8
0
  5
D37
 10
210.460
 20
319.252
 30
0.000000
  70
    32
  0
VERTEX
  8
0
  5
D38
 10
210.460
 20
319.252
 30
0.000000
  70
    32
  0
VERTEX
  8
0
  5
D39
 10
210.459
 20
319.252
 30
0.000000
  70
    32
  0
VERTEX
  8
0
  5
D3A
 10
210.459
 20
319.252
 30
0.000000
  70
    32
  0
VERTEX
  8
0
  5
D3B
 10
210.458
 20
319.252
 30
0.000000
  70
    32
  0
VERTEX
  8
0
  5
D3C
 10
210.457
 20
319.252
 30
0.000000
  70
    32
  0
VERTEX
  8
0
  5
D3D
 10
210.457
 20
319.252
 30
0.000000
  70
    32
  0
VERTEX
  8
0
  5
D3E
 10
210.456
 20
319.252
 30
0.000000
  70
    32
  0
VERTEX
  8
0
  5
D3F
 10
210.456
 20
319.252
 30
0.000000
  70
    32
  0
VERTEX
  8
0
  5
D40
 10
210.455
 20
319.252
 30
0.000000
  70
    32
  0
VERTEX
  8
0
  5
D41
 10
210.455
 20
319.252
 30
0.000000
  70
    32
  0
VERTEX
  8
0
  5
D42
 10
210.454
 20
319.252
 30
0.000000
  70
    32
  0
VERTEX
  8
0
  5
D43
 10
210.453
 20
319.252
 30
0.000000
  70
    32
  0
VERTEX
  8
0
  5
D44
 10
210.453
 20
319.252
 30
0.000000
  70
    32
  0
VERTEX
  8
0
  5
D45
 10
210.452
 20
319.252
 30
0.000000
  70
    32
  0
VERTEX
  8
0
  5
D46
 10
210.452
 20
319.252
 30
0.000000
  70
    32
  0
VERTEX
  8
0
  5
D47
 10
210.451
 20
319.252
 30
0.000000
  70
    32
  0
VERTEX
  8
0
  5
D48
 10
210.450
 20
319.252
 30
0.000000
  70
    32
  0
VERTEX
  8
0
  5
D49
 10
210.450
 20
319.252
 30
0.000000
  70
    32
  0
VERTEX
  8
0
  5
D4A
 10
210.449
 20
319.252
 30
0.000000
  70
    32
  0
VERTEX
  8
0
  5
D4B
 10
210.449
 20
319.252
 30
0.000000
  70
    32
  0
VERTEX
  8
0
  5
D4C
 10
210.448
 20
319.252
 30
0.000000
  70
    32
  0
VERTEX
  8
0
  5
D4D
 10
210.448
 20
319.252
 30
0.000000
  70
    32
  0
VERTEX
  8
0
  5
D4E
 10
210.447
 20
319.252
 30
0.000000
  70
    32
  0
VERTEX
  8
0
  5
D4F
 10
210.446
 20
319.252
 30
0.000000
  70
    32
  0
VERTEX
  8
0
  5
D50
 10
210.446
 20
319.252
 30
0.000000
  70
    32
  0
VERTEX
  8
0
  5
D51
 10
210.445
 20
319.252
 30
0.000000
  70
    32
  0
VERTEX
  8
0
  5
D52
 10
210.445
 20
319.252
 30
0.000000
  70
    32
  0
VERTEX
  8
0
  5
D53
 10
210.444
 20
319.252
 30
0.000000
  70
    32
  0
VERTEX
  8
0
  5
D54
 10
210.444
 20
319.252
 30
0.000000
  70
    32
  0
VERTEX
  8
0
  5
D55
 10
210.443
 20
319.252
 30
0.000000
  70
    32
  0
VERTEX
  8
0
  5
D56
 10
210.442
 20
319.252
 30
0.000000
  70
    32
  0
VERTEX
  8
0
  5
D57
 10
210.442
 20
319.252
 30
0.000000
  70
    32
  0
VERTEX
  8
0
  5
D58
 10
210.441
 20
319.252
 30
0.000000
  70
    32
  0
VERTEX
  8
0
  5
D59
 10
210.441
 20
319.252
 30
0.000000
  70
    32
  0
VERTEX
  8
0
  5
D5A
 10
210.440
 20
319.252
 30
0.000000
  70
    32
  0
VERTEX
  8
0
  5
D5B
 10
210.439
 20
319.252
 30
0.000000
  70
    32
  0
VERTEX
  8
0
  5
D5C
 10
210.439
 20
319.252
 30
0.000000
  70
    32
  0
VERTEX
  8
0
  5
D5D
 10
210.438
 20
319.252
 30
0.000000
  70
    32
  0
VERTEX
  8
0
  5
D5E
 10
210.438
 20
319.252
 30
0.000000
  70
    32
  0
VERTEX
  8
0
  5
D5F
 10
210.437
 20
319.252
 30
0.000000
  70
    32
  0
VERTEX
  8
0
  5
D60
 10
210.437
 20
319.252
 30
0.000000
  70
    32
  0
VERTEX
  8
0
  5
D61
 10
210.436
 20
319.252
 30
0.000000
  70
    32
  0
VERTEX
  8
0
  5
D62
 10
210.435
 20
319.252
 30
0.000000
  70
    32
  0
VERTEX
  8
0
  5
D63
 10
210.435
 20
319.252
 30
0.000000
  70
    32
  0
VERTEX
  8
0
  5
D64
 10
210.434
 20
319.252
 30
0.000000
  70
    32
  0
VERTEX
  8
0
  5
D65
 10
210.434
 20
319.252
 30
0.000000
  70
    32
  0
VERTEX
  8
0
  5
D66
 10
210.433
 20
319.252
 30
0.000000
  70
    32
  0
VERTEX
  8
0
  5
D67
 10
210.433
 20
319.252
 30
0.000000
  70
    32
  0
VERTEX
  8
0
  5
D68
 10
210.432
 20
319.252
 30
0.000000
  70
    32
  0
VERTEX
  8
0
  5
D69
 10
210.431
 20
319.252
 30
0.000000
  70
    32
  0
VERTEX
  8
0
  5
D6A
 10
210.431
 20
319.252
 30
0.000000
  70
    32
  0
VERTEX
  8
0
  5
D6B
 10
210.430
 20
319.252
 30
0.000000
  70
    32
  0
VERTEX
  8
0
  5
D6C
 10
210.430
 20
319.252
 30
0.000000
  70
    32
  0
VERTEX
  8
0
  5
D6D
 10
210.429
 20
319.252
 30
0.000000
  70
    32
  0
VERTEX
  8
0
  5
D6E
 10
210.429
 20
319.252
 30
0.000000
  70
    32
  0
VERTEX
  8
0
  5
D6F
 10
210.428
 20
319.252
 30
0.000000
  70
    32
  0
VERTEX
  8
0
  5
D70
 10
210.427
 20
319.252
 30
0.000000
  70
    32
  0
VERTEX
  8
0
  5
D71
 10
210.427
 20
319.252
 30
0.000000
  70
    32
  0
VERTEX
  8
0
  5
D72
 10
210.426
 20
319.252
 30
0.000000
  70
    32
  0
VERTEX
  8
0
  5
D73
 10
210.426
 20
319.252
 30
0.000000
  70
    32
  0
VERTEX
  8
0
  5
D74
 10
210.425
 20
319.252
 30
0.000000
  70
    32
  0
VERTEX
  8
0
  5
D75
 10
210.424
 20
319.252
 30
0.000000
  70
    32
  0
VERTEX
  8
0
  5
D76
 10
210.424
 20
319.252
 30
0.000000
  70
    32
  0
VERTEX
  8
0
  5
D77
 10
210.423
 20
319.252
 30
0.000000
  70
    32
  0
SEQEND
  8
0
  5
D78
  0
LINE
  5
6AF
  8
0
 10
619.87823863885478
 20
519.19388835293341
 30
0.0
 11
626.46735892485697
 21
519.22513855560339
 31
0.0
  0
LINE
  5
6B0
  8
0
 10
-90.03798432094294
 20
519.22513855560339
 30
0.0
 11
-83.448864034947675
 21
519.19388835293421
 31
0.0
  0
ENDSEC
  0
EOF
