  0
SECTION
  2
HEADER
  9
$ACADVER
  1
AC1009
  9
$INSBASE
 10
0.0
 20
0.0
 30
0.0
  9
$EXTMIN
 10
592.39485192456641
 20
502.23368789813662
 30
-0.0015258207003583
  9
$EXTMAX
 10
797.37458719026154
 20
982.28965668991418
 30
0.0000000349246037
  9
$LIMMIN
 10
0.0
 20
0.0
  9
$LIMMAX
 10
1117.5999999999999
 20
863.60000000000014
  9
$ORTHOMODE
 70
     0
  9
$REGENMODE
 70
     1
  9
$FILLMODE
 70
     1
  9
$QTEXTMODE
 70
     0
  9
$MIRRTEXT
 70
     1
  9
$DRAGMODE
 70
     2
  9
$LTSCALE
 40
61.468000000000004
  9
$OSMODE
 70
    39
  9
$ATTMODE
 70
     1
  9
$TEXTSIZE
 40
0.2
  9
$TRACEWID
 40
0.05
  9
$TEXTSTYLE
  7
STANDARD
  9
$CLAYER
  8
0
  9
$CELTYPE
  6
BYLAYER
  9
$CECOLOR
 62
   256
  9
$DIMSCALE
 40
1.0
  9
$DIMASZ
 40
3.0
  9
$DIMEXO
 40
6.9850000000000003
  9
$DIMDLI
 40
42.468799999999987
  9
$DIMRND
 40
0.0
  9
$DIMDLE
 40
0.0
  9
$DIMEXE
 40
20.116800000000001
  9
$DIMTP
 40
0.0
  9
$DIMTM
 40
0.0
  9
$DIMTXT
 40
3.5
  9
$DIMCEN
 40
10.058400000000001
  9
$DIMTSZ
 40
0.0
  9
$DIMTOL
 70
     0
  9
$DIMLIM
 70
     0
  9
$DIMTIH
 70
     1
  9
$DIMTOH
 70
     1
  9
$DIMSE1
 70
     0
  9
$DIMSE2
 70
     0
  9
$DIMTAD
 70
     0
  9
$DIMZIN
 70
     0
  9
$DIMBLK
  1

  9
$DIMASO
 70
     1
  9
$DIMSHO
 70
     1
  9
$DIMPOST
  1

  9
$DIMAPOST
  1

  9
$DIMALT
 70
     0
  9
$DIMALTD
 70
     2
  9
$DIMALTF
 40
25.399999999999999
  9
$DIMLFAC
 40
1.0
  9
$DIMTOFL
 70
     0
  9
$DIMTVP
 40
0.0
  9
$DIMTIX
 70
     0
  9
$DIMSOXD
 70
     0
  9
$DIMSAH
 70
     0
  9
$DIMBLK1
  1

  9
$DIMBLK2
  1

  9
$DIMSTYLE
  2
STANDARD
  9
$DIMCLRD
 70
     0
  9
$DIMCLRE
 70
     0
  9
$DIMCLRT
 70
     0
  9
$DIMTFAC
 40
1.0
  9
$DIMGAP
 40
0.09
  9
$LUNITS
 70
     2
  9
$LUPREC
 70
     4
  9
$SKETCHINC
 40
0.1
  9
$FILLETRAD
 40
0.0
  9
$AUNITS
 70
     0
  9
$AUPREC
 70
     0
  9
$MENU
  1
acad
  9
$ELEVATION
 40
0.0
  9
$PELEVATION
 40
0.0
  9
$THICKNESS
 40
0.0
  9
$LIMCHECK
 70
     0
  9
$BLIPMODE
 70
     0
  9
$CHAMFERA
 40
0.0
  9
$CHAMFERB
 40
0.0
  9
$SKPOLY
 70
     0
  9
$TDCREATE
 40
2454355.4379962971
  9
$TDUPDATE
 40
2454455.5584884142
  9
$TDINDWG
 40
0.0046540741
  9
$TDUSRTIMER
 40
0.0046540741
  9
$USRTIMER
 70
     1
  9
$ANGBASE
 50
0.0
  9
$ANGDIR
 70
     0
  9
$PDMODE
 70
     3
  9
$PDSIZE
 40
0.5
  9
$PLINEWID
 40
0.0
  9
$COORDS
 70
     1
  9
$SPLFRAME
 70
     0
  9
$SPLINETYPE
 70
     6
  9
$SPLINESEGS
 70
     8
  9
$ATTDIA
 70
     0
  9
$ATTREQ
 70
     1
  9
$HANDLING
 70
     1
  9
$HANDSEED
  5
FCD
  9
$SURFTAB1
 70
     6
  9
$SURFTAB2
 70
     6
  9
$SURFTYPE
 70
     6
  9
$SURFU
 70
     6
  9
$SURFV
 70
     6
  9
$UCSNAME
  2

  9
$UCSORG
 10
0.0
 20
0.0
 30
0.0
  9
$UCSXDIR
 10
1.0
 20
0.0
 30
0.0
  9
$UCSYDIR
 10
0.0
 20
1.0
 30
0.0
  9
$PUCSNAME
  2

  9
$PUCSORG
 10
0.0
 20
0.0
 30
0.0
  9
$PUCSXDIR
 10
1.0
 20
0.0
 30
0.0
  9
$PUCSYDIR
 10
0.0
 20
1.0
 30
0.0
  9
$USERI1
 70
     0
  9
$USERI2
 70
     0
  9
$USERI3
 70
     0
  9
$USERI4
 70
     0
  9
$USERI5
 70
     0
  9
$USERR1
 40
0.0
  9
$USERR2
 40
0.0
  9
$USERR3
 40
0.0
  9
$USERR4
 40
0.0
  9
$USERR5
 40
0.0
  9
$WORLDVIEW
 70
     1
  9
$SHADEDGE
 70
     3
  9
$SHADEDIF
 70
    70
  9
$TILEMODE
 70
     1
  9
$MAXACTVP
 70
    16
  9
$PLIMCHECK
 70
     0
  9
$PEXTMIN
 10
1.0000000000000000E+020
 20
1.0000000000000000E+020
 30
1.0000000000000000E+020
  9
$PEXTMAX
 10
-1.0000000000000000E+020
 20
-1.0000000000000000E+020
 30
-1.0000000000000000E+020
  9
$PLIMMIN
 10
0.0
 20
0.0
  9
$PLIMMAX
 10
12.0
 20
9.0
  9
$UNITMODE
 70
     0
  9
$VISRETAIN
 70
     0
  9
$PLINEGEN
 70
     1
  9
$PSLTSCALE
 70
     0
  0
ENDSEC
  0
SECTION
  2
TABLES
  0
TABLE
  2
VPORT
 70
     1
  0
VPORT
  2
*ACTIVE
 70
     0
 10
0.0
 20
0.0
 11
1.0
 21
1.0
 12
694.88471955741386
 22
742.26167229402529
 13
0.0
 23
0.0
 14
1.0
 24
1.0
 15
0.0
 25
0.0
 16
0.0
 26
0.0
 36
1.0
 17
0.0
 27
0.0
 37
0.0
 40
483.75819991356491
 41
1.5250965250965249
 42
50.0
 43
0.0
 44
0.0
 50
0.0
 51
0.0
 71
     0
 72
   100
 73
     1
 74
     1
 75
     0
 76
     0
 77
     0
 78
     0
  0
ENDTAB
  0
TABLE
  2
LTYPE
 70
    17
  0
LTYPE
  2
CONTINUOUS
 70
     0
  3
Solid line
 72
    65
 73
     0
 40
0.0
  0
LTYPE
  2
CENTER
 70
     0
  3
____ _ ____ _ ____ _ ____ _ ____ _ ____ _ ____
 72
    65
 73
     4
 40
0.6
 49
0.375
 49
-0.075
 49
0.075
 49
-0.075
  0
LTYPE
  2
HIDDEN
 70
     0
  3
- - - - - - - - - - - - - - - - - - - -
 72
    65
 73
     2
 40
0.2
 49
0.1
 49
-0.1
  0
LTYPE
  2
PHANTOM
 70
     0
  3
_____ _ _ _____ _ _ _____ _ _ _____
 72
    65
 73
     6
 40
0.8
 49
0.45
 49
-0.05
 49
0.1
 49
-0.05
 49
0.1
 49
-0.05
  0
LTYPE
  2
DOT
 70
     0
  3
. . . . . . . . . . . . . . . . . . . .
 72
    65
 73
     2
 40
0.2
 49
0.1
 49
-0.1
  0
LTYPE
  2
DASHED
 70
     0
  3
- - - - - - - - - - - - - - - - - - - -
 72
    65
 73
     2
 40
0.2
 49
0.1
 49
-0.1
  0
LTYPE
  2
PHANTOM2
 70
     0
  3
Phantom (.5x) ___ _ _ ___ _ _ ___ _ _ ___ _ _
 72
    65
 73
     6
 40
31.75
 49
15.875
 49
-3.1749999999999989
 49
3.1749999999999989
 49
-3.1749999999999989
 49
3.1749999999999989
 49
-3.1749999999999989
  0
LTYPE
  2
AM_ISO02W050
 70
     0
  3
__ __ __ __ __ __ __ __ __ __ __ __ __ __ __
 72
    65
 73
     2
 40
7.5
 49
6.0
 49
-1.5
  0
LTYPE
  2
AM_ISO08W050
 70
     0
  3
____ . ____ . ____ . ____ . ____ . ____ . ____
 72
    65
 73
     4
 40
18.0
 49
12.0
 49
-1.5
 49
3.0
 49
-1.5
  0
LTYPE
  2
AM_ISO09W050
 70
     0
  3
_____ . . _____ . . _____ . . ____ .. ____
 72
    65
 73
     6
 40
22.5
 49
12.0
 49
-1.5
 49
3.0
 49
-1.5
 49
3.0
 49
-1.5
  0
LTYPE
  2
AMCONSTR
 70
     0
  3
_______________________
 72
    65
 73
     2
 40
9999.0
 49
9999.0
 49
0.0
  0
LTYPE
  2
AM_ISO08W050X2
 70
     0
  3
__ . __ . __ . __ . __ . __
 72
    65
 73
     4
 40
9.0
 49
6.0
 49
-0.75
 49
1.5
 49
-0.75
  0
LTYPE
  2
AM_ISO02W050X2
 70
     0
  3
 _ _ _ _ _ _ _ _ _ _ _ _
 72
    65
 73
     2
 40
3.75
 49
3.0
 49
-0.75
  0
LTYPE
  2
AMZIGZAG
 70
     0
  3
/\/-/\/-/\/-/\/-/\/-/\/
 72
    65
 73
     2
 40
11.0001
 49
0.0001
 49
-11.0
  0
LTYPE
  2
ACISOWELD
 70
     0
  3
_ _ _ _ _
 72
    65
 73
     2
 40
2.0
 49
2.0
 49
-1.0
  0
LTYPE
  2
ACISOTGB
 70
     0
  3
__ . . __ . .
 72
    65
 73
     6
 40
9.0
 49
4.0
 49
-1.0
 49
1.0
 49
-1.0
 49
1.0
 49
-1.0
  0
LTYPE
  2
ACISOTGL
 70
     0
  3
_ _ _ _ _
 72
    65
 73
     2
 40
3.0
 49
2.0
 49
-1.0
  0
ENDTAB
  0
TABLE
  2
LAYER
 70
    21
  0
LAYER
  2
0
 70
     0
 62
     7
  6
CONTINUOUS
  0
LAYER
  2
DEFAULT_1
 70
     0
 62
     7
  6
CENTER
  0
LAYER
  2
DEFAULT_2
 70
     0
 62
     8
  6
HIDDEN
  0
LAYER
  2
DEFAULT_3
 70
     0
 62
     7
  6
PHANTOM
  0
LAYER
  2
_2D_DELETED_OBJS
 70
     0
 62
     7
  6
CONTINUOUS
  0
LAYER
  2
_BLACK_HOLE
 70
     0
 62
     7
  6
CONTINUOUS
  0
LAYER
  2
AXIS
 70
     0
 62
     7
  6
CONTINUOUS
  0
LAYER
  2
COSM_SKETCH
 70
     0
 62
     7
  6
CONTINUOUS
  0
LAYER
  2
CURVE
 70
     0
 62
     7
  6
CONTINUOUS
  0
LAYER
  2
DATUM-CSYS
 70
     0
 62
     7
  6
CONTINUOUS
  0
LAYER
  2
DATUM-PLN
 70
     0
 62
     7
  6
CONTINUOUS
  0
LAYER
  2
DATUM_AXIS
 70
     0
 62
     7
  6
CONTINUOUS
  0
LAYER
  2
DATUM_PLANE
 70
     0
 62
     7
  6
CONTINUOUS
  0
LAYER
  2
SURFACE
 70
     0
 62
     7
  6
CONTINUOUS
  0
LAYER
  2
_CURVE
 70
     0
 62
     7
  6
CONTINUOUS
  0
LAYER
  2
_SURFACE
 70
     0
 62
     7
  6
CONTINUOUS
  0
LAYER
  2
___COSMETIC_SKETCH
 70
     0
 62
     7
  6
CONTINUOUS
  0
LAYER
  2
___GDT
 70
     0
 62
     7
  6
CONTINUOUS
  0
LAYER
  2
___NOTE
 70
     0
 62
     7
  6
CONTINUOUS
  0
LAYER
  2
___SYMBOL
 70
     0
 62
     7
  6
CONTINUOUS
  0
LAYER
  2
DEFPOINTS
 70
     0
 62
     7
  6
CONTINUOUS
  0
ENDTAB
  0
TABLE
  2
STYLE
 70
     5
  0
STYLE
  2
STANDARD
 70
     0
 40
0.0
 41
0.75
 50
0.0
 71
     0
 42
0.2
  3
txt
  4

  0
STYLE
  2
TEXTSTYLE_1
 70
     0
 40
0.0
 41
0.8
 50
0.0
 71
     0
 42
0.2
  3
txt
  4

  0
STYLE
  2

 70
     1
 40
0.0
 41
1.0
 50
0.0
 71
     0
 42
0.2
  3
genltshp.shx
  4

  0
STYLE
  2
ACISOTS
 70
     0
 40
1.0
 41
1.0
 50
0.0
 71
     0
 42
0.2
  3
isocp.shx
  4

  0
STYLE
  2
ACISOGDT
 70
     0
 40
0.0
 41
1.0
 50
0.0
 71
     0
 42
0.2
  3
AMGDT
  4

  0
ENDTAB
  0
TABLE
  2
VIEW
 70
     0
  0
ENDTAB
  0
TABLE
  2
UCS
 70
     0
  0
ENDTAB
  0
TABLE
  2
APPID
 70
    13
  0
APPID
  2
ACAD
 70
     0
  0
APPID
  2
DCO15
 70
     0
  0
APPID
  2
MCAD_NO_VIS
 70
     0
  0
APPID
  2
ACAD_TEMP_GRAPHIC
 70
     0
  0
APPID
  2
AD_DRAW
 70
     0
  0
APPID
  2
ACATTRIBSERVICES
 70
     0
  0
APPID
  2
DESIGNERASSEMBLIES
 70
     0
  0
APPID
  2
ACADM_DIM_EDIT
 70
     0
  0
APPID
  2
AMDT_DM_ADJ
 70
     0
  0
APPID
  2
ACAD_DSTYLE_DIMARC_LENGTH_
 70
     0
  0
APPID
  2
ACAD_DSTYLE_DIMJOGGED_JOGA
 70
     0
  0
APPID
  2
ACAD_EXEMPT_FROM_CAD_STANDARDS
 70
     0
  0
APPID
  2
ACAD_DSTYLE_DIMARC_LENGTH_SYMBOL
 70
     0
  0
ENDTAB
  0
TABLE
  2
DIMSTYLE
 70
     8
  0
DIMSTYLE
  2
STANDARD
 70
     0
  3

  4

  5

  6

  7

 40
1.0
 41
3.0
 42
0.0625
 43
0.38
 44
0.18
 45
0.0
 46
0.0
 47
0.01
 48
0.01
140
3.5
141
0.09
142
0.0
143
25.399999999999999
144
1.0
145
0.0
146
1.0
147
0.09
 71
     0
 72
     0
 73
     0
 74
     0
 75
     0
 76
     0
 77
     1
 78
     8
170
     0
171
     2
172
     0
173
     0
174
     0
175
     0
176
     0
177
     0
178
     5
  0
DIMSTYLE
  2
AM_ISO
 70
     0
  3

  4
"
  5

  6

  7

 40
1.0
 41
2.5
 42
1.0
 43
10.0
 44
1.0
 45
0.0
 46
0.0
 47
0.1
 48
0.1
140
3.5
141
0.0
142
0.0
143
0.0393701
144
1.0
145
0.0
146
0.71
147
1.5
 71
     0
 72
     0
 73
     0
 74
     0
 75
     0
 76
     0
 77
     1
 78
     8
170
     0
171
     2
172
     1
173
     0
174
     0
175
     0
176
   256
177
   256
178
     2
  0
DIMSTYLE
  2
AM_ISO$3
 70
     0
  3

  4
"
  5

  6

  7

 40
1.0
 41
2.5
 42
1.0
 43
10.0
 44
1.0
 45
0.0
 46
0.0
 47
0.1
 48
0.1
140
3.5
141
0.0
142
0.0
143
0.0393701
144
1.0
145
0.0
146
0.71
147
1.5
 71
     0
 72
     0
 73
     0
 74
     1
 75
     0
 76
     0
 77
     1
 78
     8
170
     0
171
     2
172
     0
173
     0
174
     0
175
     0
176
   256
177
   256
178
     2
  0
DIMSTYLE
  2
AM_ISO$4
 70
     0
  3

  4
"
  5

  6

  7

 40
1.0
 41
2.5
 42
1.0
 43
10.0
 44
1.0
 45
0.0
 46
0.0
 47
0.1
 48
0.1
140
3.5
141
0.0
142
0.0
143
0.0393701
144
1.0
145
0.0
146
0.71
147
1.5
 71
     0
 72
     0
 73
     0
 74
     1
 75
     0
 76
     0
 77
     1
 78
     8
170
     0
171
     2
172
     0
173
     0
174
     0
175
     0
176
   256
177
   256
178
     2
  0
DIMSTYLE
  2
AM_ISO$6
 70
     0
  3

  4
"
  5

  6

  7

 40
1.0
 41
2.5
 42
1.0
 43
10.0
 44
1.0
 45
0.0
 46
0.0
 47
0.1
 48
0.1
140
3.5
141
0.0
142
0.0
143
0.0393701
144
1.0
145
0.0
146
0.71
147
1.5
 71
     0
 72
     0
 73
     0
 74
     0
 75
     0
 76
     0
 77
     0
 78
     8
170
     0
171
     2
172
     1
173
     0
174
     0
175
     0
176
   256
177
   256
178
     2
  0
DIMSTYLE
  2
AM_ISO$7
 70
     0
  3

  4
"
  5

  6

  7

 40
1.0
 41
2.5
 42
1.0
 43
10.0
 44
1.0
 45
0.0
 46
0.0
 47
0.1
 48
0.1
140
5.0
141
0.0
142
0.0
143
0.0393701
144
1.0
145
0.0
146
0.71
147
1.5
 71
     0
 72
     0
 73
     0
 74
     0
 75
     0
 76
     0
 77
     1
 78
     8
170
     0
171
     2
172
     1
173
     0
174
     0
175
     0
176
   256
177
   256
178
     2
  0
DIMSTYLE
  2
AM_ISO$SF
 70
     0
  3

  4
"
  5

  6

  7

 40
1.0
 41
2.5
 42
1.0
 43
10.0
 44
1.0
 45
0.0
 46
0.0
 47
0.1
 48
0.1
140
3.5
141
0.0
142
0.0
143
0.0393701
144
1.0
145
0.0
146
0.71
147
1.5
 71
     0
 72
     0
 73
     0
 74
     0
 75
     1
 76
     1
 77
     1
 78
     8
170
     0
171
     2
172
     1
173
     0
174
     0
175
     0
176
   256
177
   256
178
     2
  0
DIMSTYLE
  2
AM_ISO$SH
 70
     0
  3

  4
"
  5

  6
GENAXEH
  7

 40
1.0
 41
2.5
 42
1.0
 43
10.0
 44
1.0
 45
0.0
 46
0.0
 47
0.1
 48
0.1
140
3.5
141
0.0
142
0.0
143
0.0393701
144
2.0
145
0.0
146
0.71
147
1.5
 71
     0
 72
     0
 73
     0
 74
     0
 75
     1
 76
     1
 77
     1
 78
     8
170
     0
171
     2
172
     1
173
     1
174
     0
175
     0
176
   256
177
   256
178
     2
  0
ENDTAB
  0
ENDSEC
  0
SECTION
  2
BLOCKS
  0
BLOCK
  8
0
  2
$MODEL_SPACE
 70
     0
 10
0.0
 20
0.0
 30
0.0
  3
$MODEL_SPACE
  1

  0
ENDBLK
  5
21
  8
0
  0
BLOCK
 67
     1
  8
0
  2
$PAPER_SPACE
 70
     0
 10
0.0
 20
0.0
 30
0.0
  3
$PAPER_SPACE
  1

  0
ENDBLK
  5
1D
 67
     1
  8
0
  0
BLOCK
  8
DEFAULT_2
  6
HIDDEN
 62
     8
  2
C_ARROW_BL0
 70
     0
 10
558.79999999999995
 20
855.66250000000002
 30
0.0
  3
C_ARROW_BL0
  1

  0
LINE
  5
215
  8
DEFAULT_2
  6
HIDDEN
 62
     8
 10
558.79999999999995
 20
850.89999999999998
 30
0.0
 11
561.18124999999998
 21
855.66250000000002
 31
0.0
  0
LINE
  5
216
  8
DEFAULT_2
  6
HIDDEN
 62
     8
 10
558.79999999999995
 20
850.89999999999998
 30
0.0
 11
556.41875000000005
 21
855.66250000000002
 31
0.0
  0
LINE
  5
217
  8
DEFAULT_2
  6
HIDDEN
 62
     8
 10
558.20468749999986
 20
855.66250000000002
 30
0.0
 11
556.41875000000005
 21
855.66250000000002
 31
0.0
  0
LINE
  5
218
  8
DEFAULT_2
  6
HIDDEN
 62
     8
 10
558.20468749999986
 20
860.42499999999995
 30
0.0
 11
558.20468749999986
 21
855.66250000000002
 31
0.0
  0
LINE
  5
219
  8
DEFAULT_2
  6
HIDDEN
 62
     8
 10
558.20468749999986
 20
860.42499999999995
 30
0.0
 11
559.39531250000005
 21
860.42499999999995
 31
0.0
  0
LINE
  5
21A
  8
DEFAULT_2
  6
HIDDEN
 62
     8
 10
559.39531250000005
 20
855.66250000000002
 30
0.0
 11
559.39531250000005
 21
860.42499999999995
 31
0.0
  0
LINE
  5
21B
  8
DEFAULT_2
  6
HIDDEN
 62
     8
 10
561.18124999999998
 20
855.66250000000002
 30
0.0
 11
559.39531250000005
 21
855.66250000000002
 31
0.0
  0
POLYLINE
  5
21C
  8
DEFAULT_2
  6
HIDDEN
 62
     8
 66
     1
 10
0.0
 20
0.0
 30
0.0
  0
VERTEX
  5
B6E
  8
DEFAULT_2
  6
HIDDEN
 62
     8
 10
558.79999999999995
 20
850.89999999999998
 30
0.0
  0
VERTEX
  5
B6F
  8
DEFAULT_2
  6
HIDDEN
 62
     8
 10
556.41875000000005
 20
855.66250000000002
 30
0.0
  0
VERTEX
  5
B70
  8
DEFAULT_2
  6
HIDDEN
 62
     8
 10
558.20468749999986
 20
855.66250000000002
 30
0.0
  0
VERTEX
  5
B71
  8
DEFAULT_2
  6
HIDDEN
 62
     8
 10
558.20468749999986
 20
860.42499999999995
 30
0.0
  0
VERTEX
  5
B72
  8
DEFAULT_2
  6
HIDDEN
 62
     8
 10
559.39531250000005
 20
860.42499999999995
 30
0.0
  0
VERTEX
  5
B73
  8
DEFAULT_2
  6
HIDDEN
 62
     8
 10
559.39531250000005
 20
855.66250000000002
 30
0.0
  0
VERTEX
  5
B74
  8
DEFAULT_2
  6
HIDDEN
 62
     8
 10
561.18124999999998
 20
855.66250000000002
 30
0.0
  0
VERTEX
  5
B75
  8
DEFAULT_2
  6
HIDDEN
 62
     8
 10
558.79999999999995
 20
850.89999999999998
 30
0.0
  0
SEQEND
  5
B76
  8
DEFAULT_2
  6
HIDDEN
 62
     8
  0
INSERT
  5
21D
  8
DEFAULT_2
  6
CONTINUOUS
 62
     8
  2
*U6
 10
0.0
 20
0.0
 30
0.0
1001
ACAD
1002
{
1000
R14_HATCH_DATA
1000
21D
1011
1.0
1021
0.0
1031
0.0
1021
0.0
1031
0.0
1011
0.0
1021
0.0
1031
0.0
1021
1.0
1031
0.0
1011
0.0
1021
0.0
1031
0.0
1021
0.0
1031
1.0
1040
0.0
1010
0.0
1020
0.0
1030
1.0
1000
SOLID
1070
     1
1070
     1
1071
        1
1071
        1
1071
        7
1070
     1
1040
558.79999999999995
1040
850.89999999999998
1040
556.41875000000005
1040
855.66250000000002
1070
     1
1040
556.41875000000005
1040
855.66250000000002
1040
558.20468749999986
1040
855.66250000000002
1070
     1
1040
558.20468749999986
1040
855.66250000000002
1040
558.20468749999986
1040
860.42499999999995
1070
     1
1040
558.20468749999986
1040
860.42499999999995
1040
559.39531250000005
1040
860.42499999999995
1070
     1
1040
559.39531250000005
1040
860.42499999999995
1040
559.39531250000005
1040
855.66250000000002
1070
     1
1040
559.39531250000005
1040
855.66250000000002
1040
561.18124999999998
1040
855.66250000000002
1070
     1
1040
561.18124999999998
1040
855.66250000000002
1040
558.79999999999995
1040
850.89999999999998
1071
        1
1005
21C
1070
     0
1070
     1
1071
        1
1040
0.0
1040
0.0
1040
0.0
1002
}
  0
ENDBLK
  5
21E
  8
0
  6
BYBLOCK
 62
     0
  0
BLOCK
  8
DEFAULT_2
  6
HIDDEN
 62
     8
  2
C_ARROW_BL1
 70
     0
 10
7.9252314115000004
 20
431.80000000000001
 30
0.0
  3
C_ARROW_BL1
  1

  0
LINE
  5
220
  8
DEFAULT_2
  6
HIDDEN
 62
     8
 10
12.6877314115
 20
431.80000000000001
 30
0.0
 11
7.9252314115000004
 21
434.18124999999992
 31
0.0
  0
LINE
  5
221
  8
DEFAULT_2
  6
HIDDEN
 62
     8
 10
12.6877314115
 20
431.80000000000001
 30
0.0
 11
7.9252314115000004
 21
429.41874999999987
 31
0.0
  0
LINE
  5
222
  8
DEFAULT_2
  6
HIDDEN
 62
     8
 10
7.9252314115000004
 20
431.20468749999998
 30
0.0
 11
7.9252314115000004
 21
429.41874999999987
 31
0.0
  0
LINE
  5
223
  8
DEFAULT_2
  6
HIDDEN
 62
     8
 10
3.1627314114999989
 20
431.20468749999998
 30
0.0
 11
7.9252314115000004
 21
431.20468749999998
 31
0.0
  0
LINE
  5
224
  8
DEFAULT_2
  6
HIDDEN
 62
     8
 10
3.1627314114999989
 20
431.20468749999998
 30
0.0
 11
3.1627314114999989
 21
432.39531249999999
 31
0.0
  0
LINE
  5
225
  8
DEFAULT_2
  6
HIDDEN
 62
     8
 10
7.9252314115000004
 20
432.39531249999999
 30
0.0
 11
3.1627314114999989
 21
432.39531249999999
 31
0.0
  0
LINE
  5
226
  8
DEFAULT_2
  6
HIDDEN
 62
     8
 10
7.9252314115000004
 20
434.18124999999992
 30
0.0
 11
7.9252314115000004
 21
432.39531249999999
 31
0.0
  0
POLYLINE
  5
227
  8
DEFAULT_2
  6
HIDDEN
 62
     8
 66
     1
 10
0.0
 20
0.0
 30
0.0
  0
VERTEX
  5
B87
  8
DEFAULT_2
  6
HIDDEN
 62
     8
 10
12.6877314115
 20
431.80000000000001
 30
0.0
  0
VERTEX
  5
B88
  8
DEFAULT_2
  6
HIDDEN
 62
     8
 10
7.9252314115000004
 20
429.41874999999987
 30
0.0
  0
VERTEX
  5
B89
  8
DEFAULT_2
  6
HIDDEN
 62
     8
 10
7.9252314115000004
 20
431.20468749999998
 30
0.0
  0
VERTEX
  5
B8A
  8
DEFAULT_2
  6
HIDDEN
 62
     8
 10
3.1627314114999989
 20
431.20468749999998
 30
0.0
  0
VERTEX
  5
B8B
  8
DEFAULT_2
  6
HIDDEN
 62
     8
 10
3.1627314114999989
 20
432.39531249999999
 30
0.0
  0
VERTEX
  5
B8C
  8
DEFAULT_2
  6
HIDDEN
 62
     8
 10
7.9252314115000004
 20
432.39531249999999
 30
0.0
  0
VERTEX
  5
B8D
  8
DEFAULT_2
  6
HIDDEN
 62
     8
 10
7.9252314115000004
 20
434.18124999999992
 30
0.0
  0
VERTEX
  5
B8E
  8
DEFAULT_2
  6
HIDDEN
 62
     8
 10
12.6877314115
 20
431.80000000000001
 30
0.0
  0
SEQEND
  5
B8F
  8
DEFAULT_2
  6
HIDDEN
 62
     8
  0
INSERT
  5
228
  8
DEFAULT_2
  6
CONTINUOUS
 62
     8
  2
*U7
 10
0.0
 20
0.0
 30
0.0
1001
ACAD
1002
{
1000
R14_HATCH_DATA
1000
228
1011
1.0
1021
0.0
1031
0.0
1021
0.0
1031
0.0
1011
0.0
1021
0.0
1031
0.0
1021
1.0
1031
0.0
1011
0.0
1021
0.0
1031
0.0
1021
0.0
1031
1.0
1040
0.0
1010
0.0
1020
0.0
1030
1.0
1000
SOLID
1070
     1
1070
     1
1071
        1
1071
        1
1071
        7
1070
     1
1040
12.6877314115
1040
431.80000000000001
1040
7.9252314115000004
1040
429.41874999999987
1070
     1
1040
7.9252314115000004
1040
429.41874999999987
1040
7.9252314115000004
1040
431.20468749999998
1070
     1
1040
7.9252314115000004
1040
431.20468749999998
1040
3.1627314114999989
1040
431.20468749999998
1070
     1
1040
3.1627314114999989
1040
431.20468749999998
1040
3.1627314114999989
1040
432.39531249999999
1070
     1
1040
3.1627314114999989
1040
432.39531249999999
1040
7.9252314115000004
1040
432.39531249999999
1070
     1
1040
7.9252314115000004
1040
432.39531249999999
1040
7.9252314115000004
1040
434.18124999999992
1070
     1
1040
7.9252314115000004
1040
434.18124999999992
1040
12.6877314115
1040
431.80000000000001
1071
        1
1005
227
1070
     0
1070
     1
1071
        1
1040
0.0
1040
0.0
1040
0.0
1002
}
  0
ENDBLK
  5
229
  8
0
  6
BYBLOCK
 62
     0
  0
BLOCK
  8
DEFAULT_2
  6
HIDDEN
 62
     8
  2
C_ARROW_BL2
 70
     0
 10
558.79999999999995
 20
7.9375
 30
0.0
  3
C_ARROW_BL2
  1

  0
LINE
  5
22B
  8
DEFAULT_2
  6
HIDDEN
 62
     8
 10
558.79999999999995
 20
12.699999999999999
 30
0.0
 11
556.41875000000005
 21
7.9375
 31
0.0
  0
LINE
  5
22C
  8
DEFAULT_2
  6
HIDDEN
 62
     8
 10
558.79999999999995
 20
12.699999999999999
 30
0.0
 11
561.18124999999998
 21
7.9375
 31
0.0
  0
LINE
  5
22D
  8
DEFAULT_2
  6
HIDDEN
 62
     8
 10
559.39531250000005
 20
7.9375
 30
0.0
 11
561.18124999999998
 21
7.9375
 31
0.0
  0
LINE
  5
22E
  8
DEFAULT_2
  6
HIDDEN
 62
     8
 10
559.39531250000005
 20
3.1749999999999989
 30
0.0
 11
559.39531250000005
 21
7.9375
 31
0.0
  0
LINE
  5
22F
  8
DEFAULT_2
  6
HIDDEN
 62
     8
 10
559.39531250000005
 20
3.1749999999999989
 30
0.0
 11
558.20468749999986
 21
3.1749999999999989
 31
0.0
  0
LINE
  5
230
  8
DEFAULT_2
  6
HIDDEN
 62
     8
 10
558.20468749999986
 20
7.9375
 30
0.0
 11
558.20468749999986
 21
3.1749999999999989
 31
0.0
  0
LINE
  5
231
  8
DEFAULT_2
  6
HIDDEN
 62
     8
 10
556.41875000000005
 20
7.9375
 30
0.0
 11
558.20468749999986
 21
7.9375
 31
0.0
  0
POLYLINE
  5
232
  8
DEFAULT_2
  6
HIDDEN
 62
     8
 66
     1
 10
0.0
 20
0.0
 30
0.0
  0
VERTEX
  5
BA5
  8
DEFAULT_2
  6
HIDDEN
 62
     8
 10
558.79999999999995
 20
12.699999999999999
 30
0.0
  0
VERTEX
  5
BA6
  8
DEFAULT_2
  6
HIDDEN
 62
     8
 10
561.18124999999998
 20
7.9375
 30
0.0
  0
VERTEX
  5
BA7
  8
DEFAULT_2
  6
HIDDEN
 62
     8
 10
559.39531250000005
 20
7.9375
 30
0.0
  0
VERTEX
  5
BA8
  8
DEFAULT_2
  6
HIDDEN
 62
     8
 10
559.39531250000005
 20
3.1749999999999989
 30
0.0
  0
VERTEX
  5
BA9
  8
DEFAULT_2
  6
HIDDEN
 62
     8
 10
558.20468749999986
 20
3.1749999999999989
 30
0.0
  0
VERTEX
  5
BAA
  8
DEFAULT_2
  6
HIDDEN
 62
     8
 10
558.20468749999986
 20
7.9375
 30
0.0
  0
VERTEX
  5
BAB
  8
DEFAULT_2
  6
HIDDEN
 62
     8
 10
556.41875000000005
 20
7.9375
 30
0.0
  0
VERTEX
  5
BAC
  8
DEFAULT_2
  6
HIDDEN
 62
     8
 10
558.79999999999995
 20
12.699999999999999
 30
0.0
  0
SEQEND
  5
BAD
  8
DEFAULT_2
  6
HIDDEN
 62
     8
  0
INSERT
  5
233
  8
DEFAULT_2
  6
CONTINUOUS
 62
     8
  2
*U8
 10
0.0
 20
0.0
 30
0.0
1001
ACAD
1002
{
1000
R14_HATCH_DATA
1000
233
1011
1.0
1021
0.0
1031
0.0
1021
0.0
1031
0.0
1011
0.0
1021
0.0
1031
0.0
1021
1.0
1031
0.0
1011
0.0
1021
0.0
1031
0.0
1021
0.0
1031
1.0
1040
0.0
1010
0.0
1020
0.0
1030
1.0
1000
SOLID
1070
     1
1070
     1
1071
        1
1071
        1
1071
        7
1070
     1
1040
558.79999999999995
1040
12.699999999999999
1040
561.18124999999998
1040
7.9375
1070
     1
1040
561.18124999999998
1040
7.9375
1040
559.39531250000005
1040
7.9375
1070
     1
1040
559.39531250000005
1040
7.9375
1040
559.39531250000005
1040
3.1749999999999989
1070
     1
1040
559.39531250000005
1040
3.1749999999999989
1040
558.20468749999986
1040
3.1749999999999989
1070
     1
1040
558.20468749999986
1040
3.1749999999999989
1040
558.20468749999986
1040
7.9375
1070
     1
1040
558.20468749999986
1040
7.9375
1040
556.41875000000005
1040
7.9375
1070
     1
1040
556.41875000000005
1040
7.9375
1040
558.79999999999995
1040
12.699999999999999
1071
        1
1005
232
1070
     0
1070
     1
1071
        1
1040
0.0
1040
0.0
1040
0.0
1002
}
  0
ENDBLK
  5
234
  8
0
  6
BYBLOCK
 62
     0
  0
BLOCK
  8
DEFAULT_2
  6
HIDDEN
 62
     8
  2
C_ARROW_BL3
 70
     0
 10
1109.6718621486
 20
431.80000000000001
 30
0.0
  3
C_ARROW_BL3
  1

  0
LINE
  5
236
  8
DEFAULT_2
  6
HIDDEN
 62
     8
 10
1104.9093621484999
 20
431.80000000000001
 30
0.0
 11
1109.6718621486
 21
429.41874999999987
 31
0.0
  0
LINE
  5
237
  8
DEFAULT_2
  6
HIDDEN
 62
     8
 10
1104.9093621484999
 20
431.80000000000001
 30
0.0
 11
1109.6718621486
 21
434.18124999999992
 31
0.0
  0
LINE
  5
238
  8
DEFAULT_2
  6
HIDDEN
 62
     8
 10
1109.6718621486
 20
432.39531249999999
 30
0.0
 11
1109.6718621486
 21
434.18124999999992
 31
0.0
  0
LINE
  5
239
  8
DEFAULT_2
  6
HIDDEN
 62
     8
 10
1114.4343621486
 20
432.39531249999999
 30
0.0
 11
1109.6718621486
 21
432.39531249999999
 31
0.0
  0
LINE
  5
23A
  8
DEFAULT_2
  6
HIDDEN
 62
     8
 10
1114.4343621486
 20
432.39531249999999
 30
0.0
 11
1114.4343621486
 21
431.20468749999998
 31
0.0
  0
LINE
  5
23B
  8
DEFAULT_2
  6
HIDDEN
 62
     8
 10
1109.6718621486
 20
431.20468749999998
 30
0.0
 11
1114.4343621486
 21
431.20468749999998
 31
0.0
  0
LINE
  5
23C
  8
DEFAULT_2
  6
HIDDEN
 62
     8
 10
1109.6718621486
 20
429.41874999999987
 30
0.0
 11
1109.6718621486
 21
431.20468749999998
 31
0.0
  0
POLYLINE
  5
23D
  8
DEFAULT_2
  6
HIDDEN
 62
     8
 66
     1
 10
0.0
 20
0.0
 30
0.0
  0
VERTEX
  5
BBE
  8
DEFAULT_2
  6
HIDDEN
 62
     8
 10
1104.9093621484999
 20
431.80000000000001
 30
0.0
  0
VERTEX
  5
BBF
  8
DEFAULT_2
  6
HIDDEN
 62
     8
 10
1109.6718621486
 20
434.18124999999992
 30
0.0
  0
VERTEX
  5
BC0
  8
DEFAULT_2
  6
HIDDEN
 62
     8
 10
1109.6718621486
 20
432.39531249999999
 30
0.0
  0
VERTEX
  5
BC1
  8
DEFAULT_2
  6
HIDDEN
 62
     8
 10
1114.4343621486
 20
432.39531249999999
 30
0.0
  0
VERTEX
  5
BC2
  8
DEFAULT_2
  6
HIDDEN
 62
     8
 10
1114.4343621486
 20
431.20468749999998
 30
0.0
  0
VERTEX
  5
BC3
  8
DEFAULT_2
  6
HIDDEN
 62
     8
 10
1109.6718621486
 20
431.20468749999998
 30
0.0
  0
VERTEX
  5
BC4
  8
DEFAULT_2
  6
HIDDEN
 62
     8
 10
1109.6718621486
 20
429.41874999999987
 30
0.0
  0
VERTEX
  5
BC5
  8
DEFAULT_2
  6
HIDDEN
 62
     8
 10
1104.9093621484999
 20
431.80000000000001
 30
0.0
  0
SEQEND
  5
BC6
  8
DEFAULT_2
  6
HIDDEN
 62
     8
  0
INSERT
  5
23E
  8
DEFAULT_2
  6
CONTINUOUS
 62
     8
  2
*U9
 10
0.0
 20
0.0
 30
0.0
1001
ACAD
1002
{
1000
R14_HATCH_DATA
1000
23E
1011
1.0
1021
0.0
1031
0.0
1021
0.0
1031
0.0
1011
0.0
1021
0.0
1031
0.0
1021
1.0
1031
0.0
1011
0.0
1021
0.0
1031
0.0
1021
0.0
1031
1.0
1040
0.0
1010
0.0
1020
0.0
1030
1.0
1000
SOLID
1070
     1
1070
     1
1071
        1
1071
        1
1071
        7
1070
     1
1040
1104.9093621484999
1040
431.80000000000001
1040
1109.6718621486
1040
434.18124999999992
1070
     1
1040
1109.6718621486
1040
434.18124999999992
1040
1109.6718621486
1040
432.39531249999999
1070
     1
1040
1109.6718621486
1040
432.39531249999999
1040
1114.4343621486
1040
432.39531249999999
1070
     1
1040
1114.4343621486
1040
432.39531249999999
1040
1114.4343621486
1040
431.20468749999998
1070
     1
1040
1114.4343621486
1040
431.20468749999998
1040
1109.6718621486
1040
431.20468749999998
1070
     1
1040
1109.6718621486
1040
431.20468749999998
1040
1109.6718621486
1040
429.41874999999987
1070
     1
1040
1109.6718621486
1040
429.41874999999987
1040
1104.9093621484999
1040
431.80000000000001
1071
        1
1005
23D
1070
     0
1070
     1
1071
        1
1040
0.0
1040
0.0
1040
0.0
1002
}
  0
ENDBLK
  5
23F
  8
0
  6
BYBLOCK
 62
     0
  0
BLOCK
  8
0
  2
GENAXEH
 70
     0
 10
0.0
 20
0.0
 30
0.0
  3
GENAXEH
  1

  0
LINE
  5
76F
  8
0
 10
-1.0
 20
0.0
 30
0.0
 11
1.0
 21
0.0
 31
0.0
  0
ENDBLK
  5
771
  8
0
  0
BLOCK
  8
0
  2
*D5
 70
     1
 10
0.0
 20
0.0
 30
0.0
  3
*D5
  1

  0
LINE
  5
ACB
  8
0
 62
     0
 10
605.75519742226902
 20
982.27550216316297
 30
0.0
 11
674.87784458349836
 21
982.27550216316297
 31
0.0
  0
LINE
  5
ACC
  8
0
 62
     0
 10
605.75519742226902
 20
502.27550216316303
 30
0.0
 11
674.87784458349824
 21
502.27550216316303
 31
0.0
  0
LINE
  5
ACD
  8
0
 62
     0
 10
654.76104458349835
 20
979.27550216316308
 30
0.0
 11
654.76104458349835
 21
744.115502163163
 31
0.0
  0
LINE
  5
ACE
  8
0
 62
     0
 10
654.76104458349835
 20
505.27550216316303
 30
0.0
 11
654.76104458349835
 21
740.43550216316305
 31
0.0
  0
SOLID
  5
ACF
  8
0
 62
     0
 10
654.26104458349835
 20
979.27550216316308
 30
0.0
 11
655.26104458349835
 21
979.27550216316308
 31
0.0
 12
654.76104458349835
 22
982.27550216316297
 32
0.0
 13
654.76104458349835
 23
982.27550216316297
 33
0.0
  0
SOLID
  5
AD0
  8
0
 62
     0
 10
654.26104458349835
 20
505.27550216316303
 30
0.0
 11
655.26104458349835
 21
505.27550216316303
 31
0.0
 12
654.76104458349835
 22
502.27550216316303
 32
0.0
 13
654.76104458349835
 23
502.27550216316303
 33
0.0
  0
INSERT
  5
AD1
  8
0
  2
*U10
 10
0.0
 20
0.0
 30
0.0
  0
POINT
  5
AD2
  8
DEFPOINTS
 62
     0
 10
598.77019742226901
 20
982.27550216316297
 30
0.0
  0
POINT
  5
AD3
  8
DEFPOINTS
 62
     0
 10
598.77019742226901
 20
502.27550216316303
 30
0.0
  0
POINT
  5
AD4
  8
DEFPOINTS
 62
     0
 10
654.76104458349835
 20
502.27550216316303
 30
0.0
  0
ENDBLK
  5
AD6
  8
0
  0
BLOCK
  8
0
  2
*U6
 70
     1
 10
0.0
 20
0.0
 30
0.0
  3
*U6
  1

  0
SOLID
  5
B78
  8
DEFAULT_2
  6
CONTINUOUS
 62
     8
 10
558.20468749999986
 20
860.42499999999995
 30
0.0
 11
558.20468749999986
 21
860.42499999999995
 31
0.0
 12
559.39531250000005
 22
860.42499999999995
 32
0.0
 13
559.39531250000005
 23
860.42499999999995
 33
0.0
210
0.0
220
0.0
230
1.0
  0
SOLID
  5
B79
  8
DEFAULT_2
  6
CONTINUOUS
 62
     8
 10
558.20468749999986
 20
860.42499999999995
 30
0.0
 11
558.20468749999986
 21
855.66250000000002
 31
0.0
 12
559.39531250000005
 22
855.66250000000002
 32
0.0
 13
559.39531250000005
 23
855.66250000000002
 33
0.0
210
0.0
220
0.0
230
1.0
  0
SOLID
  5
B7A
  8
DEFAULT_2
  6
CONTINUOUS
 62
     8
 10
-558.20468749999986
 20
860.42499999999995
 30
0.0
 11
-559.39531250000005
 21
860.42499999999995
 31
0.0
 12
-559.39531250000005
 22
855.66250000000002
 32
0.0
 13
-559.39531250000005
 23
855.66250000000002
 33
0.0
210
0.0
220
0.0
230
-1.0
  0
SOLID
  5
B7B
  8
DEFAULT_2
  6
CONTINUOUS
 62
     8
 10
556.41875000000005
 20
855.66250000000002
 30
0.0
 11
556.41875000000005
 21
855.66250000000002
 31
0.0
 12
558.20468749999986
 22
855.66250000000002
 32
0.0
 13
558.20468749999986
 23
855.66250000000002
 33
0.0
210
0.0
220
0.0
230
1.0
  0
SOLID
  5
B7C
  8
DEFAULT_2
  6
CONTINUOUS
 62
     8
 10
559.39531250000005
 20
855.66250000000002
 30
0.0
 11
559.39531250000005
 21
855.66250000000002
 31
0.0
 12
561.18124999999998
 22
855.66250000000002
 32
0.0
 13
561.18124999999998
 23
855.66250000000002
 33
0.0
210
0.0
220
0.0
230
1.0
  0
SOLID
  5
B7D
  8
DEFAULT_2
  6
CONTINUOUS
 62
     8
 10
-556.41875000000005
 20
855.66250000000002
 30
0.0
 11
-561.18124999999998
 21
855.66250000000002
 31
0.0
 12
-558.79999999999995
 22
850.89999999999998
 32
0.0
 13
-558.79999999999995
 23
850.89999999999998
 33
0.0
210
0.0
220
0.0
230
-1.0
  0
LINE
  5
B7E
  8
DEFAULT_2
  6
CONTINUOUS
 62
     8
 10
558.20468749999986
 20
860.42499999999995
 30
0.0
 11
559.39531250000005
 21
860.42499999999995
 31
0.0
  0
LINE
  5
B7F
  8
DEFAULT_2
  6
CONTINUOUS
 62
     8
 10
558.20468749999986
 20
860.42499999999995
 30
0.0
 11
558.20468749999986
 21
855.66250000000002
 31
0.0
  0
LINE
  5
B80
  8
DEFAULT_2
  6
CONTINUOUS
 62
     8
 10
559.39531250000005
 20
860.42499999999995
 30
0.0
 11
559.39531250000005
 21
855.66250000000002
 31
0.0
  0
LINE
  5
B81
  8
DEFAULT_2
  6
CONTINUOUS
 62
     8
 10
556.41875000000005
 20
855.66250000000002
 30
0.0
 11
558.20468749999986
 21
855.66250000000002
 31
0.0
  0
LINE
  5
B82
  8
DEFAULT_2
  6
CONTINUOUS
 62
     8
 10
559.39531250000005
 20
855.66250000000002
 30
0.0
 11
561.18124999999998
 21
855.66250000000002
 31
0.0
  0
LINE
  5
B83
  8
DEFAULT_2
  6
CONTINUOUS
 62
     8
 10
561.18124999999998
 20
855.66250000000002
 30
0.0
 11
558.79999999999995
 21
850.89999999999998
 31
0.0
  0
LINE
  5
B84
  8
DEFAULT_2
  6
CONTINUOUS
 62
     8
 10
558.79999999999995
 20
850.89999999999998
 30
0.0
 11
556.41875000000005
 21
855.66250000000002
 31
0.0
  0
ENDBLK
  5
B86
  8
0
  0
BLOCK
  8
0
  2
*U7
 70
     1
 10
0.0
 20
0.0
 30
0.0
  3
*U7
  1

  0
SOLID
  5
B91
  8
DEFAULT_2
  6
CONTINUOUS
 62
     8
 10
7.9252314115000004
 20
434.18124999999992
 30
0.0
 11
7.9252314115000004
 21
432.39531249999999
 31
0.0
 12
11.497106411500029
 22
432.39531249999999
 32
0.0
 13
11.497106411500029
 23
432.39531249999999
 33
0.0
210
0.0
220
0.0
230
1.0
  0
SOLID
  5
B92
  8
DEFAULT_2
  6
CONTINUOUS
 62
     8
 10
3.1627314114999989
 20
432.39531249999999
 30
0.0
 11
3.1627314114999989
 21
432.39531249999999
 31
0.0
 12
7.9252314115000004
 22
432.39531249999999
 32
0.0
 13
7.9252314115000004
 23
432.39531249999999
 33
0.0
210
0.0
220
0.0
230
1.0
  0
SOLID
  5
B93
  8
DEFAULT_2
  6
CONTINUOUS
 62
     8
 10
3.1627314114999989
 20
432.39531249999999
 30
0.0
 11
3.1627314114999989
 21
431.80000000000001
 31
0.0
 12
12.6877314115
 22
431.80000000000001
 32
0.0
 13
12.6877314115
 23
431.80000000000001
 33
0.0
  0
SOLID
  5
B94
  8
DEFAULT_2
  6
CONTINUOUS
 62
     8
 10
-3.1627314114999989
 20
432.39531249999999
 30
0.0
 11
-11.497106411500029
 21
432.39531249999999
 31
0.0
 12
-12.6877314115
 22
431.80000000000001
 32
0.0
 13
-12.6877314115
 23
431.80000000000001
 33
0.0
210
0.0
220
0.0
230
-1.0
  0
SOLID
  5
B95
  8
DEFAULT_2
  6
CONTINUOUS
 62
     8
 10
3.1627314114999989
 20
431.80000000000001
 30
0.0
 11
3.1627314114999989
 21
431.20468749999998
 31
0.0
 12
11.49710641149994
 22
431.20468749999998
 32
0.0
 13
11.49710641149994
 23
431.20468749999998
 33
0.0
210
0.0
220
0.0
230
1.0
  0
SOLID
  5
B96
  8
DEFAULT_2
  6
CONTINUOUS
 62
     8
 10
-3.1627314114999989
 20
431.80000000000001
 30
0.0
 11
-12.6877314115
 21
431.80000000000001
 31
0.0
 12
-11.49710641149994
 22
431.20468749999998
 32
0.0
 13
-11.49710641149994
 23
431.20468749999998
 33
0.0
210
0.0
220
0.0
230
-1.0
  0
SOLID
  5
B97
  8
DEFAULT_2
  6
CONTINUOUS
 62
     8
 10
3.1627314114999989
 20
431.20468749999998
 30
0.0
 11
3.1627314114999989
 21
431.20468749999998
 31
0.0
 12
7.9252314115000004
 22
431.20468749999998
 32
0.0
 13
7.9252314115000004
 23
431.20468749999998
 33
0.0
210
0.0
220
0.0
230
1.0
  0
SOLID
  5
B98
  8
DEFAULT_2
  6
CONTINUOUS
 62
     8
 10
-7.9252314115000004
 20
431.20468749999998
 30
0.0
 11
-11.49710641149994
 21
431.20468749999998
 31
0.0
 12
-7.9252314115000004
 22
429.41874999999987
 32
0.0
 13
-7.9252314115000004
 23
429.41874999999987
 33
0.0
210
0.0
220
0.0
230
-1.0
  0
LINE
  5
B99
  8
DEFAULT_2
  6
CONTINUOUS
 62
     8
 10
7.9252314115000004
 20
434.18124999999992
 30
0.0
 11
7.9252314115000004
 21
432.39531249999999
 31
0.0
  0
LINE
  5
B9A
  8
DEFAULT_2
  6
CONTINUOUS
 62
     8
 10
11.497106411500029
 20
432.39531249999999
 30
0.0
 11
7.9252314115000004
 21
434.18124999999992
 31
0.0
  0
LINE
  5
B9B
  8
DEFAULT_2
  6
CONTINUOUS
 62
     8
 10
3.1627314114999989
 20
432.39531249999999
 30
0.0
 11
7.9252314115000004
 21
432.39531249999999
 31
0.0
  0
LINE
  5
B9C
  8
DEFAULT_2
  6
CONTINUOUS
 62
     8
 10
3.1627314114999989
 20
432.39531249999999
 30
0.0
 11
3.1627314114999989
 21
431.80000000000001
 31
0.0
  0
LINE
  5
B9D
  8
DEFAULT_2
  6
CONTINUOUS
 62
     8
 10
11.497106411500029
 20
432.39531249999999
 30
0.0
 11
12.6877314115
 21
431.80000000000001
 31
0.0
  0
LINE
  5
B9E
  8
DEFAULT_2
  6
CONTINUOUS
 62
     8
 10
3.1627314114999989
 20
431.80000000000001
 30
0.0
 11
3.1627314114999989
 21
431.20468749999998
 31
0.0
  0
LINE
  5
B9F
  8
DEFAULT_2
  6
CONTINUOUS
 62
     8
 10
12.6877314115
 20
431.80000000000001
 30
0.0
 11
11.49710641149994
 21
431.20468749999998
 31
0.0
  0
LINE
  5
BA0
  8
DEFAULT_2
  6
CONTINUOUS
 62
     8
 10
3.1627314114999989
 20
431.20468749999998
 30
0.0
 11
7.9252314115000004
 21
431.20468749999998
 31
0.0
  0
LINE
  5
BA1
  8
DEFAULT_2
  6
CONTINUOUS
 62
     8
 10
11.49710641149994
 20
431.20468749999998
 30
0.0
 11
7.9252314115000004
 21
429.41874999999987
 31
0.0
  0
LINE
  5
BA2
  8
DEFAULT_2
  6
CONTINUOUS
 62
     8
 10
7.9252314115000004
 20
429.41874999999987
 30
0.0
 11
7.9252314115000004
 21
431.20468749999998
 31
0.0
  0
ENDBLK
  5
BA4
  8
0
  0
BLOCK
  8
0
  2
*U8
 70
     1
 10
0.0
 20
0.0
 30
0.0
  3
*U8
  1

  0
SOLID
  5
BAF
  8
DEFAULT_2
  6
CONTINUOUS
 62
     8
 10
558.79999999999995
 20
12.699999999999999
 30
0.0
 11
556.41875000000005
 21
7.9375
 31
0.0
 12
561.18124999999998
 22
7.9375
 32
0.0
 13
561.18124999999998
 23
7.9375
 33
0.0
210
0.0
220
0.0
230
1.0
  0
SOLID
  5
BB0
  8
DEFAULT_2
  6
CONTINUOUS
 62
     8
 10
556.41875000000005
 20
7.9375
 30
0.0
 11
556.41875000000005
 21
7.9375
 31
0.0
 12
558.20468749999986
 22
7.9375
 32
0.0
 13
558.20468749999986
 23
7.9375
 33
0.0
210
0.0
220
0.0
230
1.0
  0
SOLID
  5
BB1
  8
DEFAULT_2
  6
CONTINUOUS
 62
     8
 10
559.39531250000005
 20
7.9375
 30
0.0
 11
559.39531250000005
 21
7.9375
 31
0.0
 12
561.18124999999998
 22
7.9375
 32
0.0
 13
561.18124999999998
 23
7.9375
 33
0.0
210
0.0
220
0.0
230
1.0
  0
SOLID
  5
BB2
  8
DEFAULT_2
  6
CONTINUOUS
 62
     8
 10
558.20468749999986
 20
7.9375
 30
0.0
 11
558.20468749999986
 21
3.1749999999999989
 31
0.0
 12
559.39531250000005
 22
3.1749999999999989
 32
0.0
 13
559.39531250000005
 23
3.1749999999999989
 33
0.0
  0
SOLID
  5
BB3
  8
DEFAULT_2
  6
CONTINUOUS
 62
     8
 10
-558.20468749999986
 20
7.9375
 30
0.0
 11
-559.39531250000005
 21
7.9375
 31
0.0
 12
-559.39531250000005
 22
3.1749999999999989
 32
0.0
 13
-559.39531250000005
 23
3.1749999999999989
 33
0.0
210
0.0
220
0.0
230
-1.0
  0
SOLID
  5
BB4
  8
DEFAULT_2
  6
CONTINUOUS
 62
     8
 10
558.20468749999986
 20
3.1749999999999989
 30
0.0
 11
558.20468749999986
 21
3.1749999999999989
 31
0.0
 12
559.39531250000005
 22
3.1749999999999989
 32
0.0
 13
559.39531250000005
 23
3.1749999999999989
 33
0.0
210
0.0
220
0.0
230
1.0
  0
LINE
  5
BB5
  8
DEFAULT_2
  6
CONTINUOUS
 62
     8
 10
558.79999999999995
 20
12.699999999999999
 30
0.0
 11
556.41875000000005
 21
7.9375
 31
0.0
  0
LINE
  5
BB6
  8
DEFAULT_2
  6
CONTINUOUS
 62
     8
 10
561.18124999999998
 20
7.9375
 30
0.0
 11
558.79999999999995
 21
12.699999999999999
 31
0.0
  0
LINE
  5
BB7
  8
DEFAULT_2
  6
CONTINUOUS
 62
     8
 10
556.41875000000005
 20
7.9375
 30
0.0
 11
558.20468749999986
 21
7.9375
 31
0.0
  0
LINE
  5
BB8
  8
DEFAULT_2
  6
CONTINUOUS
 62
     8
 10
559.39531250000005
 20
7.9375
 30
0.0
 11
561.18124999999998
 21
7.9375
 31
0.0
  0
LINE
  5
BB9
  8
DEFAULT_2
  6
CONTINUOUS
 62
     8
 10
558.20468749999986
 20
7.9375
 30
0.0
 11
558.20468749999986
 21
3.1749999999999989
 31
0.0
  0
LINE
  5
BBA
  8
DEFAULT_2
  6
CONTINUOUS
 62
     8
 10
559.39531250000005
 20
7.9375
 30
0.0
 11
559.39531250000005
 21
3.1749999999999989
 31
0.0
  0
LINE
  5
BBB
  8
DEFAULT_2
  6
CONTINUOUS
 62
     8
 10
558.20468749999986
 20
3.1749999999999989
 30
0.0
 11
559.39531250000005
 21
3.1749999999999989
 31
0.0
  0
ENDBLK
  5
BBD
  8
0
  0
BLOCK
  8
0
  2
*U9
 70
     1
 10
0.0
 20
0.0
 30
0.0
  3
*U9
  1

  0
SOLID
  5
BC8
  8
DEFAULT_2
  6
CONTINUOUS
 62
     8
 10
1109.6718621486
 20
434.18124999999992
 30
0.0
 11
1106.0999871485251
 21
432.39531249999999
 31
0.0
 12
1109.6718621486
 22
432.39531249999999
 32
0.0
 13
1109.6718621486
 23
432.39531249999999
 33
0.0
210
0.0
220
0.0
230
1.0
  0
SOLID
  5
BC9
  8
DEFAULT_2
  6
CONTINUOUS
 62
     8
 10
1109.6718621486
 20
432.39531249999999
 30
0.0
 11
1109.6718621486
 21
432.39531249999999
 31
0.0
 12
1114.4343621486
 22
432.39531249999999
 32
0.0
 13
1114.4343621486
 23
432.39531249999999
 33
0.0
210
0.0
220
0.0
230
1.0
  0
SOLID
  5
BCA
  8
DEFAULT_2
  6
CONTINUOUS
 62
     8
 10
1106.0999871485251
 20
432.39531249999999
 30
0.0
 11
1104.9093621484999
 21
431.80000000000001
 31
0.0
 12
1114.4343621486
 22
431.80000000000001
 32
0.0
 13
1114.4343621486
 23
431.80000000000001
 33
0.0
210
0.0
220
0.0
230
1.0
  0
SOLID
  5
BCB
  8
DEFAULT_2
  6
CONTINUOUS
 62
     8
 10
-1106.0999871485251
 20
432.39531249999999
 30
0.0
 11
-1114.4343621486
 21
432.39531249999999
 31
0.0
 12
-1114.4343621486
 22
431.80000000000001
 32
0.0
 13
-1114.4343621486
 23
431.80000000000001
 33
0.0
210
0.0
220
0.0
230
-1.0
  0
SOLID
  5
BCC
  8
DEFAULT_2
  6
CONTINUOUS
 62
     8
 10
1104.9093621484999
 20
431.80000000000001
 30
0.0
 11
1106.0999871485251
 21
431.20468749999998
 31
0.0
 12
1114.4343621486
 22
431.20468749999998
 32
0.0
 13
1114.4343621486
 23
431.20468749999998
 33
0.0
210
0.0
220
0.0
230
1.0
  0
SOLID
  5
BCD
  8
DEFAULT_2
  6
CONTINUOUS
 62
     8
 10
-1104.9093621484999
 20
431.80000000000001
 30
0.0
 11
-1114.4343621486
 21
431.80000000000001
 31
0.0
 12
-1114.4343621486
 22
431.20468749999998
 32
0.0
 13
-1114.4343621486
 23
431.20468749999998
 33
0.0
210
0.0
220
0.0
230
-1.0
  0
SOLID
  5
BCE
  8
DEFAULT_2
  6
CONTINUOUS
 62
     8
 10
1109.6718621486
 20
431.20468749999998
 30
0.0
 11
1109.6718621486
 21
431.20468749999998
 31
0.0
 12
1114.4343621486
 22
431.20468749999998
 32
0.0
 13
1114.4343621486
 23
431.20468749999998
 33
0.0
210
0.0
220
0.0
230
1.0
  0
SOLID
  5
BCF
  8
DEFAULT_2
  6
CONTINUOUS
 62
     8
 10
-1106.0999871485251
 20
431.20468749999998
 30
0.0
 11
-1109.6718621486
 21
431.20468749999998
 31
0.0
 12
-1109.6718621486
 22
429.41874999999987
 32
0.0
 13
-1109.6718621486
 23
429.41874999999987
 33
0.0
210
0.0
220
0.0
230
-1.0
  0
LINE
  5
BD0
  8
DEFAULT_2
  6
CONTINUOUS
 62
     8
 10
1109.6718621486
 20
434.18124999999992
 30
0.0
 11
1106.0999871485251
 21
432.39531249999999
 31
0.0
  0
LINE
  5
BD1
  8
DEFAULT_2
  6
CONTINUOUS
 62
     8
 10
1109.6718621486
 20
432.39531249999999
 30
0.0
 11
1109.6718621486
 21
434.18124999999992
 31
0.0
  0
LINE
  5
BD2
  8
DEFAULT_2
  6
CONTINUOUS
 62
     8
 10
1109.6718621486
 20
432.39531249999999
 30
0.0
 11
1114.4343621486
 21
432.39531249999999
 31
0.0
  0
LINE
  5
BD3
  8
DEFAULT_2
  6
CONTINUOUS
 62
     8
 10
1106.0999871485251
 20
432.39531249999999
 30
0.0
 11
1104.9093621484999
 21
431.80000000000001
 31
0.0
  0
LINE
  5
BD4
  8
DEFAULT_2
  6
CONTINUOUS
 62
     8
 10
1114.4343621486
 20
432.39531249999999
 30
0.0
 11
1114.4343621486
 21
431.80000000000001
 31
0.0
  0
LINE
  5
BD5
  8
DEFAULT_2
  6
CONTINUOUS
 62
     8
 10
1104.9093621484999
 20
431.80000000000001
 30
0.0
 11
1106.0999871485251
 21
431.20468749999998
 31
0.0
  0
LINE
  5
BD6
  8
DEFAULT_2
  6
CONTINUOUS
 62
     8
 10
1114.4343621486
 20
431.80000000000001
 30
0.0
 11
1114.4343621486
 21
431.20468749999998
 31
0.0
  0
LINE
  5
BD7
  8
DEFAULT_2
  6
CONTINUOUS
 62
     8
 10
1109.6718621486
 20
431.20468749999998
 30
0.0
 11
1114.4343621486
 21
431.20468749999998
 31
0.0
  0
LINE
  5
BD8
  8
DEFAULT_2
  6
CONTINUOUS
 62
     8
 10
1109.6718621486
 20
431.20468749999998
 30
0.0
 11
1109.6718621486
 21
429.41874999999987
 31
0.0
  0
LINE
  5
BD9
  8
DEFAULT_2
  6
CONTINUOUS
 62
     8
 10
1109.6718621486
 20
429.41874999999987
 30
0.0
 11
1106.0999871485251
 21
431.20468749999998
 31
0.0
  0
ENDBLK
  5
BDB
  8
0
  0
BLOCK
  8
0
  2
*U10
 70
     1
 10
0.0
 20
0.0
 30
0.0
  3
*U10
  1

  0
TEXT
  5
C1C
  8
0
 62
     0
 10
646.66729458349823
 20
740.52550216316308
 30
0.0
 40
3.5
  1
480.0000
 41
0.75
  0
ENDBLK
  5
C1E
  8
0
  0
ENDSEC
  0
SECTION
  2
ENTITIES
  0
TEXT
  5
265
  8
0
  6
CONTINUOUS
 62
     5
 10
1043.7780773816
 20
29.254440431399999
 30
0.0
 40
6.0960000000000001
  1
 
 41
0.8
 51
0.000018724
  0
TEXT
  5
295
  8
0
  6
CONTINUOUS
 62
     5
 10
972.73533333329988
 20
52.07
 30
0.0
 40
2.54
  1
 
 41
0.8
  7
TEXTSTYLE_1
  0
TEXT
  5
2A2
  8
0
  6
CONTINUOUS
 62
     5
 10
1027.4935
 20
89.534999999999997
 30
0.0
 40
2.54
  1
 
 41
0.95
 72
     1
 11
1028.7
 21
89.534999999999997
 31
0.0
  0
LINE
  5
49E
  8
0
  6
CONTINUOUS
 62
     7
 10
753.94751394246896
 20
554.01754683396302
 30
0.0
 11
734.81219399226904
 21
552.67947491436303
 31
0.0
  0
LINE
  5
49F
  8
0
  6
CONTINUOUS
 62
     7
 10
734.70743377926885
 20
552.67214936656319
 30
0.0
 11
605.01517152726899
 21
543.60318293356318
 31
0.0
  0
LINE
  5
4A5
  8
0
  6
CONTINUOUS
 62
     7
 10
592.42019742226887
 20
514.97550216316313
 30
0.0
 11
592.42019742226887
 21
969.57550216316292
 31
0.0
  0
LINE
  5
4AA
  8
0
  6
CONTINUOUS
 62
     7
 10
598.77019742226901
 20
502.27550216316303
 30
0.0
 11
598.77019742226901
 21
982.27550216316297
 31
0.0
  0
LINE
  5
4AB
  8
0
  6
CONTINUOUS
 62
     7
 10
601.29419742226878
 20
534.02283054036309
 30
0.0
 11
601.29419742226878
 21
932.27550216316297
 31
0.0
  0
LINE
  5
4AC
  8
0
  6
CONTINUOUS
 62
     7
 10
601.29419742226878
 20
932.27550216316297
 30
0.0
 11
601.29419742226878
 21
950.52817354336298
 31
0.0
  0
LINE
  5
4C6
  8
0
  6
CONTINUOUS
 62
     7
 10
753.60818572266885
 20
554.10646334576313
 30
0.0
 11
753.60941091386906
 21
554.00796390976302
 31
0.0
  0
LINE
  5
4CD
  8
0
  6
CONTINUOUS
 62
     7
 10
773.23626620326888
 20
802.59623190216303
 30
0.0
 11
772.21867000026907
 21
821.85387571736305
 31
0.0
  0
LINE
  5
4D1
  8
0
  6
CONTINUOUS
 62
     7
 10
777.31919742226887
 20
697.47350216316306
 30
0.0
 11
777.31919742226887
 21
787.47350216316306
 31
0.0
  0
LINE
  5
4D5
  8
0
  6
CONTINUOUS
 62
     7
 10
771.21958697886885
 20
590.81204202656306
 30
0.0
 11
773.26848905246891
 21
682.31419460896313
 31
0.0
  0
POLYLINE
  5
4D7
  8
0
  6
CONTINUOUS
 62
     7
 66
     1
 10
0.0
 20
0.0
 30
0.0
  0
VERTEX
  5
BDC
  8
0
  6
CONTINUOUS
 62
     7
 10
773.26848908906891
 20
682.31419468776312
 30
0.0
  0
VERTEX
  5
BDD
  8
0
  6
CONTINUOUS
 62
     7
 10
773.28660408446876
 20
682.58295984116307
 30
0.0
  0
VERTEX
  5
BDE
  8
0
  6
CONTINUOUS
 62
     7
 10
773.33844094886888
 20
682.89451022636308
 30
0.0
  0
VERTEX
  5
BDF
  8
0
  6
CONTINUOUS
 62
     7
 10
773.42613370546894
 20
683.20895538176308
 30
0.0
  0
VERTEX
  5
BE0
  8
0
  6
CONTINUOUS
 62
     7
 10
773.552022764669
 20
683.52174943316288
 30
0.0
  0
VERTEX
  5
BE1
  8
0
  6
CONTINUOUS
 62
     7
 10
773.71779872446893
 20
683.82748305796304
 30
0.0
  0
VERTEX
  5
BE2
  8
0
  6
CONTINUOUS
 62
     7
 10
773.75240639966898
 20
683.88200085516314
 30
0.0
  0
SEQEND
  5
BE3
  8
0
  6
CONTINUOUS
 62
     7
  0
LINE
  5
4DC
  8
0
  6
CONTINUOUS
 62
     7
 10
793.21184604986888
 20
802.5662419857631
 30
0.0
 11
791.73462448086889
 21
821.46795768376319
 31
0.0
  0
LINE
  5
4E0
  8
0
  6
CONTINUOUS
 62
     7
 10
797.31919742226887
 20
697.47350216316306
 30
0.0
 11
797.31919742226887
 21
787.47350216316306
 31
0.0
  0
LINE
  5
4E4
  8
0
  6
CONTINUOUS
 62
     7
 10
790.29985992726904
 20
591.74638330616301
 30
0.0
 11
793.25727701046901
 21
682.32638041836287
 31
0.0
  0
POLYLINE
  5
4E6
  8
0
  6
CONTINUOUS
 62
     7
 66
     1
 10
0.0
 20
0.0
 30
0.0
  0
VERTEX
  5
BE4
  8
0
  6
CONTINUOUS
 62
     7
 10
793.25727701106905
 20
682.32638042636313
 30
0.0
  0
VERTEX
  5
BE5
  8
0
  6
CONTINUOUS
 62
     7
 10
793.27702880546894
 20
682.58575257396319
 30
0.0
  0
VERTEX
  5
BE6
  8
0
  6
CONTINUOUS
 62
     7
 10
793.33624914726886
 20
682.91908278036306
 30
0.0
  0
VERTEX
  5
BE7
  8
0
  6
CONTINUOUS
 62
     7
 10
793.43375626866907
 20
683.2466927181631
 30
0.0
  0
VERTEX
  5
BE8
  8
0
  6
CONTINUOUS
 62
     7
 10
793.56936329406892
 20
683.56403797296321
 30
0.0
  0
VERTEX
  5
BE9
  8
0
  6
CONTINUOUS
 62
     7
 10
793.7403484266689
 20
683.86344829076302
 30
0.0
  0
SEQEND
  5
BEA
  8
0
  6
CONTINUOUS
 62
     7
  0
LINE
  5
4E7
  8
0
  6
CONTINUOUS
 62
     7
 10
777.31919742226887
 20
697.47350216316306
 30
0.0
 11
774.687961340269
 21
685.77911957696301
 31
0.0
  0
LINE
  5
4E8
  8
0
  6
CONTINUOUS
 62
     7
 10
774.13929678106899
 20
684.47721495516305
 30
0.0
 11
773.75275757486895
 21
683.88253925316303
 31
0.0
  0
LINE
  5
4EA
  8
0
  6
CONTINUOUS
 62
     7
 10
774.13929678106899
 20
800.46978937136305
 30
0.0
 11
773.71736920886894
 21
801.11890871336288
 31
0.0
  0
POLYLINE
  5
4EB
  8
0
  6
CONTINUOUS
 62
     7
 66
     1
 10
0.0
 20
0.0
 30
0.0
  0
VERTEX
  5
BEB
  8
0
  6
CONTINUOUS
 62
     7
 10
773.71676491506889
 20
801.11958967776297
 30
0.0
  0
VERTEX
  5
BEC
  8
0
  6
CONTINUOUS
 62
     7
 10
773.68681311846888
 20
801.16662015756299
 30
0.0
  0
VERTEX
  5
BED
  8
0
  6
CONTINUOUS
 62
     7
 10
773.64480262546897
 20
801.236031127763
 30
0.0
  0
VERTEX
  5
BEE
  8
0
  6
CONTINUOUS
 62
     7
 10
773.60511322346895
 20
801.30577523636316
 30
0.0
  0
VERTEX
  5
BEF
  8
0
  6
CONTINUOUS
 62
     7
 10
773.56771140526905
 20
801.37576733856292
 30
0.0
  0
SEQEND
  5
BF0
  8
0
  6
CONTINUOUS
 62
     7
  0
POLYLINE
  5
4EC
  8
0
  6
CONTINUOUS
 62
     7
 66
     1
 10
0.0
 20
0.0
 30
0.0
  0
VERTEX
  5
BF1
  8
0
  6
CONTINUOUS
 62
     7
 10
773.56771140526905
 20
801.37576733856292
 30
0.0
  0
VERTEX
  5
BF2
  8
0
  6
CONTINUOUS
 62
     7
 10
773.53260181326903
 20
801.44584150296305
 30
0.0
  0
VERTEX
  5
BF3
  8
0
  6
CONTINUOUS
 62
     7
 10
773.49973969306905
 20
801.51591545376289
 30
0.0
  0
SEQEND
  5
BF4
  8
0
  6
CONTINUOUS
 62
     7
  0
POLYLINE
  5
4ED
  8
0
  6
CONTINUOUS
 62
     7
 66
     1
 10
0.0
 20
0.0
 30
0.0
  0
VERTEX
  5
BF5
  8
0
  6
CONTINUOUS
 62
     7
 10
773.49973969306905
 20
801.51591545376289
 30
0.0
  0
VERTEX
  5
BF6
  8
0
  6
CONTINUOUS
 62
     7
 10
773.46907819766886
 20
801.58591030896309
 30
0.0
  0
VERTEX
  5
BF7
  8
0
  6
CONTINUOUS
 62
     7
 10
773.44060266646886
 20
801.65566397336295
 30
0.0
  0
VERTEX
  5
BF8
  8
0
  6
CONTINUOUS
 62
     7
 10
773.41425509466876
 20
801.72510478436311
 30
0.0
  0
VERTEX
  5
BF9
  8
0
  6
CONTINUOUS
 62
     7
 10
773.38997828246875
 20
801.79415900756305
 30
0.0
  0
VERTEX
  5
BFA
  8
0
  6
CONTINUOUS
 62
     7
 10
773.3677429772689
 20
801.86266167856309
 30
0.0
  0
VERTEX
  5
BFB
  8
0
  6
CONTINUOUS
 62
     7
 10
773.34746894166904
 20
801.9305908509632
 30
0.0
  0
VERTEX
  5
BFC
  8
0
  6
CONTINUOUS
 62
     7
 10
773.32910215286904
 20
801.99784167116297
 30
0.0
  0
VERTEX
  5
BFD
  8
0
  6
CONTINUOUS
 62
     7
 10
773.31262837026895
 20
802.06412384956309
 30
0.0
  0
SEQEND
  5
BFE
  8
0
  6
CONTINUOUS
 62
     7
  0
LINE
  5
4EE
  8
0
  6
CONTINUOUS
 62
     7
 10
777.31919742226887
 20
787.47350216316306
 30
0.0
 11
774.687961340269
 21
799.16788474936311
 31
0.0
  0
POLYLINE
  5
4EF
  8
0
  6
CONTINUOUS
 62
     7
 66
     1
 10
0.0
 20
0.0
 30
0.0
  0
VERTEX
  5
BFF
  8
0
  6
CONTINUOUS
 62
     7
 10
773.31262837026895
 20
802.06412384956309
 30
0.0
  0
VERTEX
  5
C00
  8
0
  6
CONTINUOUS
 62
     7
 10
773.29795396246902
 20
802.12941907336301
 30
0.0
  0
VERTEX
  5
C01
  8
0
  6
CONTINUOUS
 62
     7
 10
773.28500400166877
 20
802.19363510596315
 30
0.0
  0
VERTEX
  5
C02
  8
0
  6
CONTINUOUS
 62
     7
 10
773.27375348526891
 20
802.256368434563
 30
0.0
  0
VERTEX
  5
C03
  8
0
  6
CONTINUOUS
 62
     7
 10
773.26408259606899
 20
802.31766301136304
 30
0.0
  0
VERTEX
  5
C04
  8
0
  6
CONTINUOUS
 62
     7
 10
773.25590414886904
 20
802.377383803763
 30
0.0
  0
VERTEX
  5
C05
  8
0
  6
CONTINUOUS
 62
     7
 10
773.24918353306884
 20
802.43485647316311
 30
0.0
  0
VERTEX
  5
C06
  8
0
  6
CONTINUOUS
 62
     7
 10
773.24374440786903
 20
802.49049706616302
 30
0.0
  0
VERTEX
  5
C07
  8
0
  6
CONTINUOUS
 62
     7
 10
773.23951165966889
 20
802.54382121536298
 30
0.0
  0
VERTEX
  5
C08
  8
0
  6
CONTINUOUS
 62
     7
 10
773.23628203306885
 20
802.59623147176308
 30
0.0
  0
SEQEND
  5
C09
  8
0
  6
CONTINUOUS
 62
     7
  0
LINE
  5
4F0
  8
0
  6
CONTINUOUS
 62
     7
 10
794.687961340269
 20
685.77911957696301
 30
0.0
 11
797.31919742226887
 21
697.47350216316306
 31
0.0
  0
LINE
  5
4F1
  8
0
  6
CONTINUOUS
 62
     7
 10
793.74041386966894
 20
683.86354893756311
 30
0.0
 11
794.13929678106888
 21
684.47721495516305
 31
0.0
  0
LINE
  5
4F3
  8
0
  6
CONTINUOUS
 62
     7
 10
601.29419742226867
 20
868.20801724929549
 30
0.0
 11
755.44173177506877
 21
857.42897160316295
 31
0.0
  0
LINE
  5
4F4
  8
0
  6
CONTINUOUS
 62
     7
 10
793.68740110766896
 20
801.16501348436304
 30
0.0
 11
794.13929678106888
 21
800.46978937136305
 31
0.0
  0
POLYLINE
  5
4F5
  8
0
  6
CONTINUOUS
 62
     7
 66
     1
 10
0.0
 20
0.0
 30
0.0
  0
VERTEX
  5
C0A
  8
0
  6
CONTINUOUS
 62
     7
 10
793.68739518766904
 20
801.16502251876307
 30
0.0
  0
VERTEX
  5
C0B
  8
0
  6
CONTINUOUS
 62
     7
 10
793.65595548906902
 20
801.21444041636289
 30
0.0
  0
VERTEX
  5
C0C
  8
0
  6
CONTINUOUS
 62
     7
 10
793.49065244986878
 20
801.51754581276305
 30
0.0
  0
SEQEND
  5
C0D
  8
0
  6
CONTINUOUS
 62
     7
  0
LINE
  5
4F6
  8
0
  6
CONTINUOUS
 62
     7
 10
793.49065244986878
 20
801.51754581276305
 30
0.0
 11
793.36485349626889
 21
801.82711581936314
 31
0.0
  0
POLYLINE
  5
4F7
  8
0
  6
CONTINUOUS
 62
     7
 66
     1
 10
0.0
 20
0.0
 30
0.0
  0
VERTEX
  5
C0E
  8
0
  6
CONTINUOUS
 62
     7
 10
793.36485349626889
 20
801.82711581936314
 30
0.0
  0
VERTEX
  5
C0F
  8
0
  6
CONTINUOUS
 62
     7
 10
793.27672759646885
 20
802.13776922876298
 30
0.0
  0
VERTEX
  5
C10
  8
0
  6
CONTINUOUS
 62
     7
 10
793.2237960684688
 20
802.44505622656311
 30
0.0
  0
VERTEX
  5
C11
  8
0
  6
CONTINUOUS
 62
     7
 10
793.21184607066891
 20
802.56624189856302
 30
0.0
  0
SEQEND
  5
C12
  8
0
  6
CONTINUOUS
 62
     7
  0
LINE
  5
4F8
  8
0
  6
CONTINUOUS
 62
     7
 10
794.687961340269
 20
799.16788474936311
 30
0.0
 11
797.31919742226887
 21
787.47350216316306
 31
0.0
  0
ARC
  5
54B
  8
0
  6
CONTINUOUS
 62
     7
 10
608.29519742226876
 20
969.57550216316292
 30
0.0
 40
15.875
 50
126.86989764580041
 51
180.0
  0
ARC
  5
54C
  8
0
  6
CONTINUOUS
 62
     7
 10
790.78552231586889
 20
798.28983596896319
 30
0.0
 40
4.0
 50
15.222979594099
 51
33.023867555800877
  0
ARC
  5
54D
  8
0
  6
CONTINUOUS
 62
     7
 10
790.78552231586889
 20
686.65716835756302
 30
0.0
 40
4.0
 50
326.9761324441991
 51
344.77702040549968
  0
ARC
  5
54E
  8
0
  6
CONTINUOUS
 62
     7
 10
770.78552231586889
 20
798.28983596896319
 30
0.0
 40
4.0
 50
12.68038349180131
 51
30.480628567501469
  0
ARC
  5
54F
  8
0
  6
CONTINUOUS
 62
     7
 10
770.78552231586889
 20
686.65716835756302
 30
0.0
 40
4.0
 50
329.51937143199922
 51
347.31961650819869
  0
ARC
  5
550
  8
0
  6
CONTINUOUS
 62
     7
 10
732.12928750306889
 20
591.68734603176301
 30
0.0
 40
39.100000000000001
 50
273.99999999999977
 51
358.71725603200042
  0
ARC
  5
551
  8
0
  6
CONTINUOUS
 62
     7
 10
733.17314277606874
 20
819.79066482336304
 30
0.0
 40
39.100000000000001
 50
3.0247619919010269
 51
86.000000000000242
  0
ARC
  5
552
  8
0
  6
CONTINUOUS
 62
     7
 10
751.22032896226904
 20
593.02232169756303
 30
0.0
 40
39.100000000000001
 50
273.99999999999977
 51
358.12996926080092
  0
ARC
  5
553
  8
0
  6
CONTINUOUS
 62
     7
 10
587.59419742226885
 20
950.52817379796306
 30
0.0
 40
13.699999999999999
 50
0.0
 51
35.321720168198603
  0
ARC
  5
554
  8
0
  6
CONTINUOUS
 62
     7
 10
752.75348861766895
 20
818.42147366176289
 30
0.0
 40
39.100000000000001
 50
4.4687407326994251
 51
86.000000000000242
  0
ARC
  5
555
  8
0
  6
CONTINUOUS
 62
     7
 10
608.29519742226876
 20
514.97550216316313
 30
0.0
 40
15.875
 50
180.0
 51
233.13010235419961
  0
ARC
  5
556
  8
0
  6
CONTINUOUS
 62
     7
 10
605.29419742226878
 20
539.61292673256298
 30
0.0
 40
4.0
 50
93.999999999999744
 51
165.66666666590089
  0
ARC
  5
557
  8
0
  6
CONTINUOUS
 62
     7
 10
587.59419742226885
 20
534.02283054036309
 30
0.0
 40
13.699999999999999
 50
324.77162921540099
 51
0.0
  0
POLYLINE
  8
0
  5
C1F
  62
7
  66
     1
 10
0.000000
 20
0.000000
 30
0.000000
  70
     8
  0
VERTEX
  8
0
  5
C20
 10
753.982
 20
554.020
 30
0.000000
  70
    32
  0
VERTEX
  8
0
  5
C21
 10
753.981
 20
554.020
 30
0.000000
  70
    32
  0
VERTEX
  8
0
  5
C22
 10
753.980
 20
554.020
 30
0.000000
  70
    32
  0
VERTEX
  8
0
  5
C23
 10
753.979
 20
554.020
 30
0.000000
  70
    32
  0
VERTEX
  8
0
  5
C24
 10
753.978
 20
554.020
 30
0.000000
  70
    32
  0
VERTEX
  8
0
  5
C25
 10
753.977
 20
554.020
 30
0.000000
  70
    32
  0
VERTEX
  8
0
  5
C26
 10
753.976
 20
554.020
 30
0.000000
  70
    32
  0
VERTEX
  8
0
  5
C27
 10
753.975
 20
554.020
 30
0.000000
  70
    32
  0
VERTEX
  8
0
  5
C28
 10
753.974
 20
554.020
 30
0.000000
  70
    32
  0
VERTEX
  8
0
  5
C29
 10
753.973
 20
554.020
 30
0.000000
  70
    32
  0
VERTEX
  8
0
  5
C2A
 10
753.972
 20
554.019
 30
0.000000
  70
    32
  0
VERTEX
  8
0
  5
C2B
 10
753.971
 20
554.019
 30
0.000000
  70
    32
  0
VERTEX
  8
0
  5
C2C
 10
753.970
 20
554.019
 30
0.000000
  70
    32
  0
VERTEX
  8
0
  5
C2D
 10
753.969
 20
554.019
 30
0.000000
  70
    32
  0
VERTEX
  8
0
  5
C2E
 10
753.968
 20
554.019
 30
0.000000
  70
    32
  0
VERTEX
  8
0
  5
C2F
 10
753.967
 20
554.019
 30
0.000000
  70
    32
  0
VERTEX
  8
0
  5
C30
 10
753.966
 20
554.019
 30
0.000000
  70
    32
  0
VERTEX
  8
0
  5
C31
 10
753.965
 20
554.019
 30
0.000000
  70
    32
  0
VERTEX
  8
0
  5
C32
 10
753.964
 20
554.019
 30
0.000000
  70
    32
  0
VERTEX
  8
0
  5
C33
 10
753.963
 20
554.019
 30
0.000000
  70
    32
  0
VERTEX
  8
0
  5
C34
 10
753.962
 20
554.019
 30
0.000000
  70
    32
  0
VERTEX
  8
0
  5
C35
 10
753.961
 20
554.019
 30
0.000000
  70
    32
  0
VERTEX
  8
0
  5
C36
 10
753.960
 20
554.019
 30
0.000000
  70
    32
  0
VERTEX
  8
0
  5
C37
 10
753.959
 20
554.018
 30
0.000000
  70
    32
  0
VERTEX
  8
0
  5
C38
 10
753.958
 20
554.018
 30
0.000000
  70
    32
  0
VERTEX
  8
0
  5
C39
 10
753.957
 20
554.018
 30
0.000000
  70
    32
  0
VERTEX
  8
0
  5
C3A
 10
753.956
 20
554.018
 30
0.000000
  70
    32
  0
VERTEX
  8
0
  5
C3B
 10
753.955
 20
554.018
 30
0.000000
  70
    32
  0
VERTEX
  8
0
  5
C3C
 10
753.954
 20
554.018
 30
0.000000
  70
    32
  0
VERTEX
  8
0
  5
C3D
 10
753.953
 20
554.018
 30
0.000000
  70
    32
  0
VERTEX
  8
0
  5
C3E
 10
753.952
 20
554.018
 30
0.000000
  70
    32
  0
VERTEX
  8
0
  5
C3F
 10
753.951
 20
554.018
 30
0.000000
  70
    32
  0
VERTEX
  8
0
  5
C40
 10
753.950
 20
554.018
 30
0.000000
  70
    32
  0
VERTEX
  8
0
  5
C41
 10
753.949
 20
554.018
 30
0.000000
  70
    32
  0
VERTEX
  8
0
  5
C42
 10
753.948
 20
554.018
 30
0.000000
  70
    32
  0
VERTEX
  8
0
  5
C43
 10
753.947
 20
554.018
 30
0.000000
  70
    32
  0
VERTEX
  8
0
  5
C44
 10
753.946
 20
554.018
 30
0.000000
  70
    32
  0
VERTEX
  8
0
  5
C45
 10
753.945
 20
554.017
 30
0.000000
  70
    32
  0
VERTEX
  8
0
  5
C46
 10
753.944
 20
554.017
 30
0.000000
  70
    32
  0
VERTEX
  8
0
  5
C47
 10
753.943
 20
554.017
 30
0.000000
  70
    32
  0
VERTEX
  8
0
  5
C48
 10
753.942
 20
554.017
 30
0.000000
  70
    32
  0
VERTEX
  8
0
  5
C49
 10
753.941
 20
554.017
 30
0.000000
  70
    32
  0
VERTEX
  8
0
  5
C4A
 10
753.940
 20
554.017
 30
0.000000
  70
    32
  0
VERTEX
  8
0
  5
C4B
 10
753.939
 20
554.017
 30
0.000000
  70
    32
  0
VERTEX
  8
0
  5
C4C
 10
753.938
 20
554.017
 30
0.000000
  70
    32
  0
VERTEX
  8
0
  5
C4D
 10
753.937
 20
554.017
 30
0.000000
  70
    32
  0
VERTEX
  8
0
  5
C4E
 10
753.936
 20
554.017
 30
0.000000
  70
    32
  0
VERTEX
  8
0
  5
C4F
 10
753.935
 20
554.017
 30
0.000000
  70
    32
  0
VERTEX
  8
0
  5
C50
 10
753.934
 20
554.017
 30
0.000000
  70
    32
  0
VERTEX
  8
0
  5
C51
 10
753.933
 20
554.017
 30
0.000000
  70
    32
  0
VERTEX
  8
0
  5
C52
 10
753.932
 20
554.017
 30
0.000000
  70
    32
  0
VERTEX
  8
0
  5
C53
 10
753.931
 20
554.016
 30
0.000000
  70
    32
  0
VERTEX
  8
0
  5
C54
 10
753.930
 20
554.016
 30
0.000000
  70
    32
  0
VERTEX
  8
0
  5
C55
 10
753.929
 20
554.016
 30
0.000000
  70
    32
  0
VERTEX
  8
0
  5
C56
 10
753.928
 20
554.016
 30
0.000000
  70
    32
  0
VERTEX
  8
0
  5
C57
 10
753.927
 20
554.016
 30
0.000000
  70
    32
  0
VERTEX
  8
0
  5
C58
 10
753.926
 20
554.016
 30
0.000000
  70
    32
  0
VERTEX
  8
0
  5
C59
 10
753.925
 20
554.016
 30
0.000000
  70
    32
  0
VERTEX
  8
0
  5
C5A
 10
753.924
 20
554.016
 30
0.000000
  70
    32
  0
VERTEX
  8
0
  5
C5B
 10
753.923
 20
554.016
 30
0.000000
  70
    32
  0
VERTEX
  8
0
  5
C5C
 10
753.922
 20
554.016
 30
0.000000
  70
    32
  0
VERTEX
  8
0
  5
C5D
 10
753.921
 20
554.016
 30
0.000000
  70
    32
  0
VERTEX
  8
0
  5
C5E
 10
753.920
 20
554.016
 30
0.000000
  70
    32
  0
VERTEX
  8
0
  5
C5F
 10
753.919
 20
554.016
 30
0.000000
  70
    32
  0
VERTEX
  8
0
  5
C60
 10
753.918
 20
554.016
 30
0.000000
  70
    32
  0
VERTEX
  8
0
  5
C61
 10
753.917
 20
554.015
 30
0.000000
  70
    32
  0
VERTEX
  8
0
  5
C62
 10
753.916
 20
554.015
 30
0.000000
  70
    32
  0
VERTEX
  8
0
  5
C63
 10
753.915
 20
554.015
 30
0.000000
  70
    32
  0
VERTEX
  8
0
  5
C64
 10
753.914
 20
554.015
 30
0.000000
  70
    32
  0
VERTEX
  8
0
  5
C65
 10
753.913
 20
554.015
 30
0.000000
  70
    32
  0
VERTEX
  8
0
  5
C66
 10
753.912
 20
554.015
 30
0.000000
  70
    32
  0
VERTEX
  8
0
  5
C67
 10
753.911
 20
554.015
 30
0.000000
  70
    32
  0
VERTEX
  8
0
  5
C68
 10
753.910
 20
554.015
 30
0.000000
  70
    32
  0
VERTEX
  8
0
  5
C69
 10
753.909
 20
554.015
 30
0.000000
  70
    32
  0
VERTEX
  8
0
  5
C6A
 10
753.908
 20
554.015
 30
0.000000
  70
    32
  0
VERTEX
  8
0
  5
C6B
 10
753.907
 20
554.015
 30
0.000000
  70
    32
  0
VERTEX
  8
0
  5
C6C
 10
753.906
 20
554.015
 30
0.000000
  70
    32
  0
VERTEX
  8
0
  5
C6D
 10
753.905
 20
554.015
 30
0.000000
  70
    32
  0
VERTEX
  8
0
  5
C6E
 10
753.904
 20
554.015
 30
0.000000
  70
    32
  0
VERTEX
  8
0
  5
C6F
 10
753.902
 20
554.014
 30
0.000000
  70
    32
  0
VERTEX
  8
0
  5
C70
 10
753.901
 20
554.014
 30
0.000000
  70
    32
  0
VERTEX
  8
0
  5
C71
 10
753.900
 20
554.014
 30
0.000000
  70
    32
  0
VERTEX
  8
0
  5
C72
 10
753.899
 20
554.014
 30
0.000000
  70
    32
  0
VERTEX
  8
0
  5
C73
 10
753.898
 20
554.014
 30
0.000000
  70
    32
  0
VERTEX
  8
0
  5
C74
 10
753.897
 20
554.014
 30
0.000000
  70
    32
  0
VERTEX
  8
0
  5
C75
 10
753.896
 20
554.014
 30
0.000000
  70
    32
  0
VERTEX
  8
0
  5
C76
 10
753.895
 20
554.014
 30
0.000000
  70
    32
  0
VERTEX
  8
0
  5
C77
 10
753.894
 20
554.014
 30
0.000000
  70
    32
  0
VERTEX
  8
0
  5
C78
 10
753.893
 20
554.014
 30
0.000000
  70
    32
  0
VERTEX
  8
0
  5
C79
 10
753.892
 20
554.014
 30
0.000000
  70
    32
  0
VERTEX
  8
0
  5
C7A
 10
753.891
 20
554.014
 30
0.000000
  70
    32
  0
VERTEX
  8
0
  5
C7B
 10
753.890
 20
554.014
 30
0.000000
  70
    32
  0
VERTEX
  8
0
  5
C7C
 10
753.889
 20
554.013
 30
0.000000
  70
    32
  0
VERTEX
  8
0
  5
C7D
 10
753.888
 20
554.013
 30
0.000000
  70
    32
  0
VERTEX
  8
0
  5
C7E
 10
753.887
 20
554.013
 30
0.000000
  70
    32
  0
VERTEX
  8
0
  5
C7F
 10
753.886
 20
554.013
 30
0.000000
  70
    32
  0
VERTEX
  8
0
  5
C80
 10
753.885
 20
554.013
 30
0.000000
  70
    32
  0
VERTEX
  8
0
  5
C81
 10
753.884
 20
554.013
 30
0.000000
  70
    32
  0
VERTEX
  8
0
  5
C82
 10
753.883
 20
554.013
 30
0.000000
  70
    32
  0
VERTEX
  8
0
  5
C83
 10
753.882
 20
554.013
 30
0.000000
  70
    32
  0
VERTEX
  8
0
  5
C84
 10
753.881
 20
554.013
 30
0.000000
  70
    32
  0
VERTEX
  8
0
  5
C85
 10
753.880
 20
554.013
 30
0.000000
  70
    32
  0
VERTEX
  8
0
  5
C86
 10
753.879
 20
554.013
 30
0.000000
  70
    32
  0
VERTEX
  8
0
  5
C87
 10
753.878
 20
554.013
 30
0.000000
  70
    32
  0
VERTEX
  8
0
  5
C88
 10
753.877
 20
554.013
 30
0.000000
  70
    32
  0
VERTEX
  8
0
  5
C89
 10
753.876
 20
554.013
 30
0.000000
  70
    32
  0
VERTEX
  8
0
  5
C8A
 10
753.875
 20
554.012
 30
0.000000
  70
    32
  0
VERTEX
  8
0
  5
C8B
 10
753.874
 20
554.012
 30
0.000000
  70
    32
  0
VERTEX
  8
0
  5
C8C
 10
753.873
 20
554.012
 30
0.000000
  70
    32
  0
VERTEX
  8
0
  5
C8D
 10
753.872
 20
554.012
 30
0.000000
  70
    32
  0
VERTEX
  8
0
  5
C8E
 10
753.871
 20
554.012
 30
0.000000
  70
    32
  0
VERTEX
  8
0
  5
C8F
 10
753.870
 20
554.012
 30
0.000000
  70
    32
  0
VERTEX
  8
0
  5
C90
 10
753.869
 20
554.012
 30
0.000000
  70
    32
  0
VERTEX
  8
0
  5
C91
 10
753.868
 20
554.012
 30
0.000000
  70
    32
  0
VERTEX
  8
0
  5
C92
 10
753.867
 20
554.012
 30
0.000000
  70
    32
  0
VERTEX
  8
0
  5
C93
 10
753.866
 20
554.012
 30
0.000000
  70
    32
  0
VERTEX
  8
0
  5
C94
 10
753.865
 20
554.012
 30
0.000000
  70
    32
  0
VERTEX
  8
0
  5
C95
 10
753.864
 20
554.012
 30
0.000000
  70
    32
  0
VERTEX
  8
0
  5
C96
 10
753.863
 20
554.012
 30
0.000000
  70
    32
  0
VERTEX
  8
0
  5
C97
 10
753.862
 20
554.012
 30
0.000000
  70
    32
  0
VERTEX
  8
0
  5
C98
 10
753.861
 20
554.012
 30
0.000000
  70
    32
  0
VERTEX
  8
0
  5
C99
 10
753.860
 20
554.011
 30
0.000000
  70
    32
  0
VERTEX
  8
0
  5
C9A
 10
753.859
 20
554.011
 30
0.000000
  70
    32
  0
VERTEX
  8
0
  5
C9B
 10
753.858
 20
554.011
 30
0.000000
  70
    32
  0
VERTEX
  8
0
  5
C9C
 10
753.857
 20
554.011
 30
0.000000
  70
    32
  0
VERTEX
  8
0
  5
C9D
 10
753.856
 20
554.011
 30
0.000000
  70
    32
  0
VERTEX
  8
0
  5
C9E
 10
753.855
 20
554.011
 30
0.000000
  70
    32
  0
VERTEX
  8
0
  5
C9F
 10
753.854
 20
554.011
 30
0.000000
  70
    32
  0
SEQEND
  8
0
  5
CA0
  0
POLYLINE
  8
0
  5
CA1
  62
7
  66
     1
 10
0.000000
 20
0.000000
 30
0.000000
  70
     8
  0
VERTEX
  8
0
  5
CA2
 10
753.982
 20
554.020
 30
0.000000
  70
    32
  0
VERTEX
  8
0
  5
CA3
 10
753.981
 20
554.020
 30
0.000000
  70
    32
  0
VERTEX
  8
0
  5
CA4
 10
753.980
 20
554.020
 30
0.000000
  70
    32
  0
VERTEX
  8
0
  5
CA5
 10
753.979
 20
554.020
 30
0.000000
  70
    32
  0
VERTEX
  8
0
  5
CA6
 10
753.978
 20
554.020
 30
0.000000
  70
    32
  0
VERTEX
  8
0
  5
CA7
 10
753.977
 20
554.020
 30
0.000000
  70
    32
  0
VERTEX
  8
0
  5
CA8
 10
753.976
 20
554.020
 30
0.000000
  70
    32
  0
VERTEX
  8
0
  5
CA9
 10
753.975
 20
554.020
 30
0.000000
  70
    32
  0
VERTEX
  8
0
  5
CAA
 10
753.974
 20
554.020
 30
0.000000
  70
    32
  0
VERTEX
  8
0
  5
CAB
 10
753.973
 20
554.020
 30
0.000000
  70
    32
  0
VERTEX
  8
0
  5
CAC
 10
753.972
 20
554.019
 30
0.000000
  70
    32
  0
VERTEX
  8
0
  5
CAD
 10
753.971
 20
554.019
 30
0.000000
  70
    32
  0
VERTEX
  8
0
  5
CAE
 10
753.970
 20
554.019
 30
0.000000
  70
    32
  0
VERTEX
  8
0
  5
CAF
 10
753.969
 20
554.019
 30
0.000000
  70
    32
  0
VERTEX
  8
0
  5
CB0
 10
753.968
 20
554.019
 30
0.000000
  70
    32
  0
VERTEX
  8
0
  5
CB1
 10
753.967
 20
554.019
 30
0.000000
  70
    32
  0
VERTEX
  8
0
  5
CB2
 10
753.966
 20
554.019
 30
0.000000
  70
    32
  0
VERTEX
  8
0
  5
CB3
 10
753.965
 20
554.019
 30
0.000000
  70
    32
  0
VERTEX
  8
0
  5
CB4
 10
753.964
 20
554.019
 30
0.000000
  70
    32
  0
VERTEX
  8
0
  5
CB5
 10
753.963
 20
554.019
 30
0.000000
  70
    32
  0
VERTEX
  8
0
  5
CB6
 10
753.962
 20
554.019
 30
0.000000
  70
    32
  0
VERTEX
  8
0
  5
CB7
 10
753.961
 20
554.019
 30
0.000000
  70
    32
  0
VERTEX
  8
0
  5
CB8
 10
753.960
 20
554.019
 30
0.000000
  70
    32
  0
VERTEX
  8
0
  5
CB9
 10
753.959
 20
554.018
 30
0.000000
  70
    32
  0
VERTEX
  8
0
  5
CBA
 10
753.958
 20
554.018
 30
0.000000
  70
    32
  0
VERTEX
  8
0
  5
CBB
 10
753.957
 20
554.018
 30
0.000000
  70
    32
  0
VERTEX
  8
0
  5
CBC
 10
753.956
 20
554.018
 30
0.000000
  70
    32
  0
VERTEX
  8
0
  5
CBD
 10
753.955
 20
554.018
 30
0.000000
  70
    32
  0
VERTEX
  8
0
  5
CBE
 10
753.954
 20
554.018
 30
0.000000
  70
    32
  0
VERTEX
  8
0
  5
CBF
 10
753.953
 20
554.018
 30
0.000000
  70
    32
  0
VERTEX
  8
0
  5
CC0
 10
753.952
 20
554.018
 30
0.000000
  70
    32
  0
VERTEX
  8
0
  5
CC1
 10
753.951
 20
554.018
 30
0.000000
  70
    32
  0
VERTEX
  8
0
  5
CC2
 10
753.950
 20
554.018
 30
0.000000
  70
    32
  0
VERTEX
  8
0
  5
CC3
 10
753.949
 20
554.018
 30
0.000000
  70
    32
  0
VERTEX
  8
0
  5
CC4
 10
753.948
 20
554.018
 30
0.000000
  70
    32
  0
VERTEX
  8
0
  5
CC5
 10
753.947
 20
554.018
 30
0.000000
  70
    32
  0
VERTEX
  8
0
  5
CC6
 10
753.946
 20
554.018
 30
0.000000
  70
    32
  0
VERTEX
  8
0
  5
CC7
 10
753.945
 20
554.017
 30
0.000000
  70
    32
  0
VERTEX
  8
0
  5
CC8
 10
753.944
 20
554.017
 30
0.000000
  70
    32
  0
VERTEX
  8
0
  5
CC9
 10
753.943
 20
554.017
 30
0.000000
  70
    32
  0
VERTEX
  8
0
  5
CCA
 10
753.942
 20
554.017
 30
0.000000
  70
    32
  0
VERTEX
  8
0
  5
CCB
 10
753.941
 20
554.017
 30
0.000000
  70
    32
  0
VERTEX
  8
0
  5
CCC
 10
753.940
 20
554.017
 30
0.000000
  70
    32
  0
VERTEX
  8
0
  5
CCD
 10
753.939
 20
554.017
 30
0.000000
  70
    32
  0
VERTEX
  8
0
  5
CCE
 10
753.938
 20
554.017
 30
0.000000
  70
    32
  0
VERTEX
  8
0
  5
CCF
 10
753.937
 20
554.017
 30
0.000000
  70
    32
  0
VERTEX
  8
0
  5
CD0
 10
753.936
 20
554.017
 30
0.000000
  70
    32
  0
VERTEX
  8
0
  5
CD1
 10
753.935
 20
554.017
 30
0.000000
  70
    32
  0
VERTEX
  8
0
  5
CD2
 10
753.934
 20
554.017
 30
0.000000
  70
    32
  0
VERTEX
  8
0
  5
CD3
 10
753.933
 20
554.017
 30
0.000000
  70
    32
  0
VERTEX
  8
0
  5
CD4
 10
753.932
 20
554.017
 30
0.000000
  70
    32
  0
VERTEX
  8
0
  5
CD5
 10
753.931
 20
554.016
 30
0.000000
  70
    32
  0
VERTEX
  8
0
  5
CD6
 10
753.930
 20
554.016
 30
0.000000
  70
    32
  0
VERTEX
  8
0
  5
CD7
 10
753.929
 20
554.016
 30
0.000000
  70
    32
  0
VERTEX
  8
0
  5
CD8
 10
753.928
 20
554.016
 30
0.000000
  70
    32
  0
VERTEX
  8
0
  5
CD9
 10
753.927
 20
554.016
 30
0.000000
  70
    32
  0
VERTEX
  8
0
  5
CDA
 10
753.926
 20
554.016
 30
0.000000
  70
    32
  0
VERTEX
  8
0
  5
CDB
 10
753.925
 20
554.016
 30
0.000000
  70
    32
  0
VERTEX
  8
0
  5
CDC
 10
753.924
 20
554.016
 30
0.000000
  70
    32
  0
VERTEX
  8
0
  5
CDD
 10
753.923
 20
554.016
 30
0.000000
  70
    32
  0
VERTEX
  8
0
  5
CDE
 10
753.922
 20
554.016
 30
0.000000
  70
    32
  0
VERTEX
  8
0
  5
CDF
 10
753.921
 20
554.016
 30
0.000000
  70
    32
  0
VERTEX
  8
0
  5
CE0
 10
753.920
 20
554.016
 30
0.000000
  70
    32
  0
VERTEX
  8
0
  5
CE1
 10
753.919
 20
554.016
 30
0.000000
  70
    32
  0
VERTEX
  8
0
  5
CE2
 10
753.918
 20
554.016
 30
0.000000
  70
    32
  0
VERTEX
  8
0
  5
CE3
 10
753.917
 20
554.015
 30
0.000000
  70
    32
  0
VERTEX
  8
0
  5
CE4
 10
753.916
 20
554.015
 30
0.000000
  70
    32
  0
VERTEX
  8
0
  5
CE5
 10
753.915
 20
554.015
 30
0.000000
  70
    32
  0
VERTEX
  8
0
  5
CE6
 10
753.914
 20
554.015
 30
0.000000
  70
    32
  0
VERTEX
  8
0
  5
CE7
 10
753.913
 20
554.015
 30
0.000000
  70
    32
  0
VERTEX
  8
0
  5
CE8
 10
753.912
 20
554.015
 30
0.000000
  70
    32
  0
VERTEX
  8
0
  5
CE9
 10
753.911
 20
554.015
 30
0.000000
  70
    32
  0
VERTEX
  8
0
  5
CEA
 10
753.910
 20
554.015
 30
0.000000
  70
    32
  0
VERTEX
  8
0
  5
CEB
 10
753.909
 20
554.015
 30
0.000000
  70
    32
  0
VERTEX
  8
0
  5
CEC
 10
753.908
 20
554.015
 30
0.000000
  70
    32
  0
VERTEX
  8
0
  5
CED
 10
753.907
 20
554.015
 30
0.000000
  70
    32
  0
VERTEX
  8
0
  5
CEE
 10
753.906
 20
554.015
 30
0.000000
  70
    32
  0
VERTEX
  8
0
  5
CEF
 10
753.905
 20
554.015
 30
0.000000
  70
    32
  0
VERTEX
  8
0
  5
CF0
 10
753.904
 20
554.015
 30
0.000000
  70
    32
  0
VERTEX
  8
0
  5
CF1
 10
753.902
 20
554.014
 30
0.000000
  70
    32
  0
VERTEX
  8
0
  5
CF2
 10
753.901
 20
554.014
 30
0.000000
  70
    32
  0
VERTEX
  8
0
  5
CF3
 10
753.900
 20
554.014
 30
0.000000
  70
    32
  0
VERTEX
  8
0
  5
CF4
 10
753.899
 20
554.014
 30
0.000000
  70
    32
  0
VERTEX
  8
0
  5
CF5
 10
753.898
 20
554.014
 30
0.000000
  70
    32
  0
VERTEX
  8
0
  5
CF6
 10
753.897
 20
554.014
 30
0.000000
  70
    32
  0
VERTEX
  8
0
  5
CF7
 10
753.896
 20
554.014
 30
0.000000
  70
    32
  0
VERTEX
  8
0
  5
CF8
 10
753.895
 20
554.014
 30
0.000000
  70
    32
  0
VERTEX
  8
0
  5
CF9
 10
753.894
 20
554.014
 30
0.000000
  70
    32
  0
VERTEX
  8
0
  5
CFA
 10
753.893
 20
554.014
 30
0.000000
  70
    32
  0
VERTEX
  8
0
  5
CFB
 10
753.892
 20
554.014
 30
0.000000
  70
    32
  0
VERTEX
  8
0
  5
CFC
 10
753.891
 20
554.014
 30
0.000000
  70
    32
  0
VERTEX
  8
0
  5
CFD
 10
753.890
 20
554.014
 30
0.000000
  70
    32
  0
VERTEX
  8
0
  5
CFE
 10
753.889
 20
554.013
 30
0.000000
  70
    32
  0
VERTEX
  8
0
  5
CFF
 10
753.888
 20
554.013
 30
0.000000
  70
    32
  0
VERTEX
  8
0
  5
D00
 10
753.887
 20
554.013
 30
0.000000
  70
    32
  0
VERTEX
  8
0
  5
D01
 10
753.886
 20
554.013
 30
0.000000
  70
    32
  0
VERTEX
  8
0
  5
D02
 10
753.885
 20
554.013
 30
0.000000
  70
    32
  0
VERTEX
  8
0
  5
D03
 10
753.884
 20
554.013
 30
0.000000
  70
    32
  0
VERTEX
  8
0
  5
D04
 10
753.883
 20
554.013
 30
0.000000
  70
    32
  0
VERTEX
  8
0
  5
D05
 10
753.882
 20
554.013
 30
0.000000
  70
    32
  0
VERTEX
  8
0
  5
D06
 10
753.881
 20
554.013
 30
0.000000
  70
    32
  0
VERTEX
  8
0
  5
D07
 10
753.880
 20
554.013
 30
0.000000
  70
    32
  0
VERTEX
  8
0
  5
D08
 10
753.879
 20
554.013
 30
0.000000
  70
    32
  0
VERTEX
  8
0
  5
D09
 10
753.878
 20
554.013
 30
0.000000
  70
    32
  0
VERTEX
  8
0
  5
D0A
 10
753.877
 20
554.013
 30
0.000000
  70
    32
  0
VERTEX
  8
0
  5
D0B
 10
753.876
 20
554.013
 30
0.000000
  70
    32
  0
VERTEX
  8
0
  5
D0C
 10
753.875
 20
554.012
 30
0.000000
  70
    32
  0
VERTEX
  8
0
  5
D0D
 10
753.874
 20
554.012
 30
0.000000
  70
    32
  0
VERTEX
  8
0
  5
D0E
 10
753.873
 20
554.012
 30
0.000000
  70
    32
  0
VERTEX
  8
0
  5
D0F
 10
753.872
 20
554.012
 30
0.000000
  70
    32
  0
VERTEX
  8
0
  5
D10
 10
753.871
 20
554.012
 30
0.000000
  70
    32
  0
VERTEX
  8
0
  5
D11
 10
753.870
 20
554.012
 30
0.000000
  70
    32
  0
VERTEX
  8
0
  5
D12
 10
753.869
 20
554.012
 30
0.000000
  70
    32
  0
VERTEX
  8
0
  5
D13
 10
753.868
 20
554.012
 30
0.000000
  70
    32
  0
VERTEX
  8
0
  5
D14
 10
753.867
 20
554.012
 30
0.000000
  70
    32
  0
VERTEX
  8
0
  5
D15
 10
753.866
 20
554.012
 30
0.000000
  70
    32
  0
VERTEX
  8
0
  5
D16
 10
753.865
 20
554.012
 30
0.000000
  70
    32
  0
VERTEX
  8
0
  5
D17
 10
753.864
 20
554.012
 30
0.000000
  70
    32
  0
VERTEX
  8
0
  5
D18
 10
753.863
 20
554.012
 30
0.000000
  70
    32
  0
VERTEX
  8
0
  5
D19
 10
753.862
 20
554.012
 30
0.000000
  70
    32
  0
VERTEX
  8
0
  5
D1A
 10
753.861
 20
554.012
 30
0.000000
  70
    32
  0
VERTEX
  8
0
  5
D1B
 10
753.860
 20
554.011
 30
0.000000
  70
    32
  0
VERTEX
  8
0
  5
D1C
 10
753.859
 20
554.011
 30
0.000000
  70
    32
  0
VERTEX
  8
0
  5
D1D
 10
753.858
 20
554.011
 30
0.000000
  70
    32
  0
VERTEX
  8
0
  5
D1E
 10
753.857
 20
554.011
 30
0.000000
  70
    32
  0
VERTEX
  8
0
  5
D1F
 10
753.856
 20
554.011
 30
0.000000
  70
    32
  0
VERTEX
  8
0
  5
D20
 10
753.855
 20
554.011
 30
0.000000
  70
    32
  0
VERTEX
  8
0
  5
D21
 10
753.854
 20
554.011
 30
0.000000
  70
    32
  0
SEQEND
  8
0
  5
D22
  0
POLYLINE
  8
0
  5
D23
  62
7
  66
     1
 10
0.000000
 20
0.000000
 30
0.000000
  70
     8
  0
VERTEX
  8
0
  5
D24
 10
793.257
 20
682.365
 30
0.000000
  70
    32
  0
VERTEX
  8
0
  5
D25
 10
793.257
 20
682.365
 30
0.000000
  70
    32
  0
VERTEX
  8
0
  5
D26
 10
793.257
 20
682.365
 30
0.000000
  70
    32
  0
VERTEX
  8
0
  5
D27
 10
793.257
 20
682.364
 30
0.000000
  70
    32
  0
VERTEX
  8
0
  5
D28
 10
793.257
 20
682.364
 30
0.000000
  70
    32
  0
VERTEX
  8
0
  5
D29
 10
793.257
 20
682.364
 30
0.000000
  70
    32
  0
VERTEX
  8
0
  5
D2A
 10
793.257
 20
682.364
 30
0.000000
  70
    32
  0
VERTEX
  8
0
  5
D2B
 10
793.257
 20
682.363
 30
0.000000
  70
    32
  0
VERTEX
  8
0
  5
D2C
 10
793.257
 20
682.363
 30
0.000000
  70
    32
  0
VERTEX
  8
0
  5
D2D
 10
793.257
 20
682.363
 30
0.000000
  70
    32
  0
VERTEX
  8
0
  5
D2E
 10
793.257
 20
682.363
 30
0.000000
  70
    32
  0
VERTEX
  8
0
  5
D2F
 10
793.257
 20
682.363
 30
0.000000
  70
    32
  0
VERTEX
  8
0
  5
D30
 10
793.257
 20
682.362
 30
0.000000
  70
    32
  0
VERTEX
  8
0
  5
D31
 10
793.257
 20
682.362
 30
0.000000
  70
    32
  0
VERTEX
  8
0
  5
D32
 10
793.257
 20
682.362
 30
0.000000
  70
    32
  0
VERTEX
  8
0
  5
D33
 10
793.257
 20
682.362
 30
0.000000
  70
    32
  0
VERTEX
  8
0
  5
D34
 10
793.257
 20
682.361
 30
0.000000
  70
    32
  0
VERTEX
  8
0
  5
D35
 10
793.257
 20
682.361
 30
0.000000
  70
    32
  0
VERTEX
  8
0
  5
D36
 10
793.258
 20
682.361
 30
0.000000
  70
    32
  0
VERTEX
  8
0
  5
D37
 10
793.258
 20
682.361
 30
0.000000
  70
    32
  0
VERTEX
  8
0
  5
D38
 10
793.258
 20
682.361
 30
0.000000
  70
    32
  0
VERTEX
  8
0
  5
D39
 10
793.258
 20
682.360
 30
0.000000
  70
    32
  0
VERTEX
  8
0
  5
D3A
 10
793.258
 20
682.360
 30
0.000000
  70
    32
  0
VERTEX
  8
0
  5
D3B
 10
793.258
 20
682.360
 30
0.000000
  70
    32
  0
VERTEX
  8
0
  5
D3C
 10
793.258
 20
682.360
 30
0.000000
  70
    32
  0
VERTEX
  8
0
  5
D3D
 10
793.258
 20
682.359
 30
0.000000
  70
    32
  0
VERTEX
  8
0
  5
D3E
 10
793.258
 20
682.359
 30
0.000000
  70
    32
  0
VERTEX
  8
0
  5
D3F
 10
793.258
 20
682.359
 30
0.000000
  70
    32
  0
VERTEX
  8
0
  5
D40
 10
793.258
 20
682.359
 30
0.000000
  70
    32
  0
VERTEX
  8
0
  5
D41
 10
793.258
 20
682.359
 30
0.000000
  70
    32
  0
VERTEX
  8
0
  5
D42
 10
793.258
 20
682.358
 30
0.000000
  70
    32
  0
VERTEX
  8
0
  5
D43
 10
793.258
 20
682.358
 30
0.000000
  70
    32
  0
VERTEX
  8
0
  5
D44
 10
793.258
 20
682.358
 30
0.000000
  70
    32
  0
VERTEX
  8
0
  5
D45
 10
793.258
 20
682.358
 30
0.000000
  70
    32
  0
VERTEX
  8
0
  5
D46
 10
793.258
 20
682.358
 30
0.000000
  70
    32
  0
VERTEX
  8
0
  5
D47
 10
793.258
 20
682.357
 30
0.000000
  70
    32
  0
VERTEX
  8
0
  5
D48
 10
793.258
 20
682.357
 30
0.000000
  70
    32
  0
VERTEX
  8
0
  5
D49
 10
793.258
 20
682.357
 30
0.000000
  70
    32
  0
VERTEX
  8
0
  5
D4A
 10
793.258
 20
682.357
 30
0.000000
  70
    32
  0
VERTEX
  8
0
  5
D4B
 10
793.258
 20
682.357
 30
0.000000
  70
    32
  0
VERTEX
  8
0
  5
D4C
 10
793.258
 20
682.356
 30
0.000000
  70
    32
  0
VERTEX
  8
0
  5
D4D
 10
793.258
 20
682.356
 30
0.000000
  70
    32
  0
VERTEX
  8
0
  5
D4E
 10
793.258
 20
682.356
 30
0.000000
  70
    32
  0
VERTEX
  8
0
  5
D4F
 10
793.258
 20
682.356
 30
0.000000
  70
    32
  0
VERTEX
  8
0
  5
D50
 10
793.258
 20
682.356
 30
0.000000
  70
    32
  0
VERTEX
  8
0
  5
D51
 10
793.258
 20
682.355
 30
0.000000
  70
    32
  0
VERTEX
  8
0
  5
D52
 10
793.258
 20
682.355
 30
0.000000
  70
    32
  0
VERTEX
  8
0
  5
D53
 10
793.258
 20
682.355
 30
0.000000
  70
    32
  0
VERTEX
  8
0
  5
D54
 10
793.258
 20
682.355
 30
0.000000
  70
    32
  0
VERTEX
  8
0
  5
D55
 10
793.258
 20
682.354
 30
0.000000
  70
    32
  0
VERTEX
  8
0
  5
D56
 10
793.259
 20
682.354
 30
0.000000
  70
    32
  0
VERTEX
  8
0
  5
D57
 10
793.259
 20
682.354
 30
0.000000
  70
    32
  0
VERTEX
  8
0
  5
D58
 10
793.259
 20
682.354
 30
0.000000
  70
    32
  0
VERTEX
  8
0
  5
D59
 10
793.259
 20
682.354
 30
0.000000
  70
    32
  0
VERTEX
  8
0
  5
D5A
 10
793.259
 20
682.353
 30
0.000000
  70
    32
  0
VERTEX
  8
0
  5
D5B
 10
793.259
 20
682.353
 30
0.000000
  70
    32
  0
VERTEX
  8
0
  5
D5C
 10
793.259
 20
682.353
 30
0.000000
  70
    32
  0
VERTEX
  8
0
  5
D5D
 10
793.259
 20
682.353
 30
0.000000
  70
    32
  0
VERTEX
  8
0
  5
D5E
 10
793.259
 20
682.353
 30
0.000000
  70
    32
  0
VERTEX
  8
0
  5
D5F
 10
793.259
 20
682.352
 30
0.000000
  70
    32
  0
VERTEX
  8
0
  5
D60
 10
793.259
 20
682.352
 30
0.000000
  70
    32
  0
VERTEX
  8
0
  5
D61
 10
793.259
 20
682.352
 30
0.000000
  70
    32
  0
VERTEX
  8
0
  5
D62
 10
793.259
 20
682.352
 30
0.000000
  70
    32
  0
VERTEX
  8
0
  5
D63
 10
793.259
 20
682.352
 30
0.000000
  70
    32
  0
VERTEX
  8
0
  5
D64
 10
793.259
 20
682.351
 30
0.000000
  70
    32
  0
VERTEX
  8
0
  5
D65
 10
793.259
 20
682.351
 30
0.000000
  70
    32
  0
VERTEX
  8
0
  5
D66
 10
793.259
 20
682.351
 30
0.000000
  70
    32
  0
VERTEX
  8
0
  5
D67
 10
793.259
 20
682.351
 30
0.000000
  70
    32
  0
VERTEX
  8
0
  5
D68
 10
793.259
 20
682.351
 30
0.000000
  70
    32
  0
VERTEX
  8
0
  5
D69
 10
793.259
 20
682.350
 30
0.000000
  70
    32
  0
VERTEX
  8
0
  5
D6A
 10
793.259
 20
682.350
 30
0.000000
  70
    32
  0
VERTEX
  8
0
  5
D6B
 10
793.259
 20
682.350
 30
0.000000
  70
    32
  0
VERTEX
  8
0
  5
D6C
 10
793.259
 20
682.350
 30
0.000000
  70
    32
  0
VERTEX
  8
0
  5
D6D
 10
793.259
 20
682.349
 30
0.000000
  70
    32
  0
VERTEX
  8
0
  5
D6E
 10
793.259
 20
682.349
 30
0.000000
  70
    32
  0
VERTEX
  8
0
  5
D6F
 10
793.259
 20
682.349
 30
0.000000
  70
    32
  0
VERTEX
  8
0
  5
D70
 10
793.259
 20
682.349
 30
0.000000
  70
    32
  0
VERTEX
  8
0
  5
D71
 10
793.259
 20
682.349
 30
0.000000
  70
    32
  0
VERTEX
  8
0
  5
D72
 10
793.259
 20
682.348
 30
0.000000
  70
    32
  0
VERTEX
  8
0
  5
D73
 10
793.259
 20
682.348
 30
0.000000
  70
    32
  0
VERTEX
  8
0
  5
D74
 10
793.259
 20
682.348
 30
0.000000
  70
    32
  0
VERTEX
  8
0
  5
D75
 10
793.259
 20
682.348
 30
0.000000
  70
    32
  0
VERTEX
  8
0
  5
D76
 10
793.259
 20
682.348
 30
0.000000
  70
    32
  0
VERTEX
  8
0
  5
D77
 10
793.259
 20
682.347
 30
0.000000
  70
    32
  0
VERTEX
  8
0
  5
D78
 10
793.259
 20
682.347
 30
0.000000
  70
    32
  0
VERTEX
  8
0
  5
D79
 10
793.259
 20
682.347
 30
0.000000
  70
    32
  0
VERTEX
  8
0
  5
D7A
 10
793.259
 20
682.347
 30
0.000000
  70
    32
  0
VERTEX
  8
0
  5
D7B
 10
793.259
 20
682.346
 30
0.000000
  70
    32
  0
VERTEX
  8
0
  5
D7C
 10
793.259
 20
682.346
 30
0.000000
  70
    32
  0
VERTEX
  8
0
  5
D7D
 10
793.259
 20
682.346
 30
0.000000
  70
    32
  0
VERTEX
  8
0
  5
D7E
 10
793.260
 20
682.346
 30
0.000000
  70
    32
  0
VERTEX
  8
0
  5
D7F
 10
793.260
 20
682.345
 30
0.000000
  70
    32
  0
VERTEX
  8
0
  5
D80
 10
793.260
 20
682.345
 30
0.000000
  70
    32
  0
VERTEX
  8
0
  5
D81
 10
793.260
 20
682.345
 30
0.000000
  70
    32
  0
VERTEX
  8
0
  5
D82
 10
793.260
 20
682.345
 30
0.000000
  70
    32
  0
VERTEX
  8
0
  5
D83
 10
793.260
 20
682.345
 30
0.000000
  70
    32
  0
VERTEX
  8
0
  5
D84
 10
793.260
 20
682.344
 30
0.000000
  70
    32
  0
VERTEX
  8
0
  5
D85
 10
793.260
 20
682.344
 30
0.000000
  70
    32
  0
VERTEX
  8
0
  5
D86
 10
793.260
 20
682.344
 30
0.000000
  70
    32
  0
VERTEX
  8
0
  5
D87
 10
793.259
 20
682.344
 30
0.000000
  70
    32
  0
VERTEX
  8
0
  5
D88
 10
793.259
 20
682.343
 30
0.000000
  70
    32
  0
VERTEX
  8
0
  5
D89
 10
793.259
 20
682.343
 30
0.000000
  70
    32
  0
VERTEX
  8
0
  5
D8A
 10
793.259
 20
682.343
 30
0.000000
  70
    32
  0
VERTEX
  8
0
  5
D8B
 10
793.259
 20
682.343
 30
0.000000
  70
    32
  0
VERTEX
  8
0
  5
D8C
 10
793.259
 20
682.342
 30
0.000000
  70
    32
  0
VERTEX
  8
0
  5
D8D
 10
793.259
 20
682.342
 30
0.000000
  70
    32
  0
VERTEX
  8
0
  5
D8E
 10
793.259
 20
682.342
 30
0.000000
  70
    32
  0
VERTEX
  8
0
  5
D8F
 10
793.259
 20
682.342
 30
0.000000
  70
    32
  0
VERTEX
  8
0
  5
D90
 10
793.259
 20
682.341
 30
0.000000
  70
    32
  0
VERTEX
  8
0
  5
D91
 10
793.259
 20
682.341
 30
0.000000
  70
    32
  0
VERTEX
  8
0
  5
D92
 10
793.259
 20
682.341
 30
0.000000
  70
    32
  0
VERTEX
  8
0
  5
D93
 10
793.259
 20
682.340
 30
0.000000
  70
    32
  0
VERTEX
  8
0
  5
D94
 10
793.259
 20
682.340
 30
0.000000
  70
    32
  0
VERTEX
  8
0
  5
D95
 10
793.259
 20
682.340
 30
0.000000
  70
    32
  0
VERTEX
  8
0
  5
D96
 10
793.259
 20
682.340
 30
0.000000
  70
    32
  0
VERTEX
  8
0
  5
D97
 10
793.259
 20
682.339
 30
0.000000
  70
    32
  0
VERTEX
  8
0
  5
D98
 10
793.259
 20
682.339
 30
0.000000
  70
    32
  0
VERTEX
  8
0
  5
D99
 10
793.259
 20
682.339
 30
0.000000
  70
    32
  0
VERTEX
  8
0
  5
D9A
 10
793.259
 20
682.339
 30
0.000000
  70
    32
  0
VERTEX
  8
0
  5
D9B
 10
793.259
 20
682.338
 30
0.000000
  70
    32
  0
VERTEX
  8
0
  5
D9C
 10
793.259
 20
682.338
 30
0.000000
  70
    32
  0
VERTEX
  8
0
  5
D9D
 10
793.259
 20
682.338
 30
0.000000
  70
    32
  0
VERTEX
  8
0
  5
D9E
 10
793.259
 20
682.337
 30
0.000000
  70
    32
  0
VERTEX
  8
0
  5
D9F
 10
793.259
 20
682.337
 30
0.000000
  70
    32
  0
VERTEX
  8
0
  5
DA0
 10
793.259
 20
682.337
 30
0.000000
  70
    32
  0
VERTEX
  8
0
  5
DA1
 10
793.259
 20
682.336
 30
0.000000
  70
    32
  0
VERTEX
  8
0
  5
DA2
 10
793.259
 20
682.336
 30
0.000000
  70
    32
  0
VERTEX
  8
0
  5
DA3
 10
793.259
 20
682.336
 30
0.000000
  70
    32
  0
VERTEX
  8
0
  5
DA4
 10
793.258
 20
682.336
 30
0.000000
  70
    32
  0
VERTEX
  8
0
  5
DA5
 10
793.258
 20
682.335
 30
0.000000
  70
    32
  0
VERTEX
  8
0
  5
DA6
 10
793.258
 20
682.335
 30
0.000000
  70
    32
  0
VERTEX
  8
0
  5
DA7
 10
793.258
 20
682.335
 30
0.000000
  70
    32
  0
VERTEX
  8
0
  5
DA8
 10
793.258
 20
682.334
 30
0.000000
  70
    32
  0
VERTEX
  8
0
  5
DA9
 10
793.258
 20
682.334
 30
0.000000
  70
    32
  0
VERTEX
  8
0
  5
DAA
 10
793.258
 20
682.334
 30
0.000000
  70
    32
  0
VERTEX
  8
0
  5
DAB
 10
793.258
 20
682.333
 30
0.000000
  70
    32
  0
VERTEX
  8
0
  5
DAC
 10
793.258
 20
682.333
 30
0.000000
  70
    32
  0
VERTEX
  8
0
  5
DAD
 10
793.258
 20
682.333
 30
0.000000
  70
    32
  0
VERTEX
  8
0
  5
DAE
 10
793.258
 20
682.332
 30
0.000000
  70
    32
  0
VERTEX
  8
0
  5
DAF
 10
793.258
 20
682.332
 30
0.000000
  70
    32
  0
VERTEX
  8
0
  5
DB0
 10
793.257
 20
682.332
 30
0.000000
  70
    32
  0
VERTEX
  8
0
  5
DB1
 10
793.257
 20
682.331
 30
0.000000
  70
    32
  0
VERTEX
  8
0
  5
DB2
 10
793.257
 20
682.331
 30
0.000000
  70
    32
  0
VERTEX
  8
0
  5
DB3
 10
793.257
 20
682.331
 30
0.000000
  70
    32
  0
VERTEX
  8
0
  5
DB4
 10
793.257
 20
682.330
 30
0.000000
  70
    32
  0
VERTEX
  8
0
  5
DB5
 10
793.257
 20
682.330
 30
0.000000
  70
    32
  0
VERTEX
  8
0
  5
DB6
 10
793.257
 20
682.330
 30
0.000000
  70
    32
  0
VERTEX
  8
0
  5
DB7
 10
793.257
 20
682.329
 30
0.000000
  70
    32
  0
VERTEX
  8
0
  5
DB8
 10
793.257
 20
682.329
 30
0.000000
  70
    32
  0
VERTEX
  8
0
  5
DB9
 10
793.257
 20
682.329
 30
0.000000
  70
    32
  0
VERTEX
  8
0
  5
DBA
 10
793.257
 20
682.328
 30
0.000000
  70
    32
  0
VERTEX
  8
0
  5
DBB
 10
793.256
 20
682.328
 30
0.000000
  70
    32
  0
VERTEX
  8
0
  5
DBC
 10
793.256
 20
682.328
 30
0.000000
  70
    32
  0
VERTEX
  8
0
  5
DBD
 10
793.257
 20
682.328
 30
0.000000
  70
    32
  0
VERTEX
  8
0
  5
DBE
 10
793.257
 20
682.327
 30
0.000000
  70
    32
  0
VERTEX
  8
0
  5
DBF
 10
793.257
 20
682.327
 30
0.000000
  70
    32
  0
VERTEX
  8
0
  5
DC0
 10
793.257
 20
682.327
 30
0.000000
  70
    32
  0
VERTEX
  8
0
  5
DC1
 10
793.257
 20
682.327
 30
0.000000
  70
    32
  0
VERTEX
  8
0
  5
DC2
 10
793.257
 20
682.327
 30
0.000000
  70
    32
  0
VERTEX
  8
0
  5
DC3
 10
793.257
 20
682.327
 30
0.000000
  70
    32
  0
SEQEND
  8
0
  5
DC4
  0
POLYLINE
  8
0
  5
DC5
  62
7
  66
     1
 10
0.000000
 20
0.000000
 30
0.000000
  70
     8
  0
VERTEX
  8
0
  5
DC6
 10
735.038
 20
858.740
 30
0.000000
  70
    32
  0
VERTEX
  8
0
  5
DC7
 10
735.039
 20
858.740
 30
0.000000
  70
    32
  0
VERTEX
  8
0
  5
DC8
 10
735.039
 20
858.741
 30
0.000000
  70
    32
  0
VERTEX
  8
0
  5
DC9
 10
735.039
 20
858.742
 30
0.000000
  70
    32
  0
VERTEX
  8
0
  5
DCA
 10
735.039
 20
858.743
 30
0.000000
  70
    32
  0
VERTEX
  8
0
  5
DCB
 10
735.039
 20
858.743
 30
0.000000
  70
    32
  0
VERTEX
  8
0
  5
DCC
 10
735.039
 20
858.744
 30
0.000000
  70
    32
  0
VERTEX
  8
0
  5
DCD
 10
735.039
 20
858.745
 30
0.000000
  70
    32
  0
VERTEX
  8
0
  5
DCE
 10
735.039
 20
858.746
 30
0.000000
  70
    32
  0
VERTEX
  8
0
  5
DCF
 10
735.039
 20
858.746
 30
0.000000
  70
    32
  0
VERTEX
  8
0
  5
DD0
 10
735.039
 20
858.747
 30
0.000000
  70
    32
  0
VERTEX
  8
0
  5
DD1
 10
735.039
 20
858.748
 30
0.000000
  70
    32
  0
VERTEX
  8
0
  5
DD2
 10
735.039
 20
858.749
 30
0.000000
  70
    32
  0
VERTEX
  8
0
  5
DD3
 10
735.039
 20
858.750
 30
0.000000
  70
    32
  0
VERTEX
  8
0
  5
DD4
 10
735.039
 20
858.750
 30
0.000000
  70
    32
  0
VERTEX
  8
0
  5
DD5
 10
735.039
 20
858.751
 30
0.000000
  70
    32
  0
VERTEX
  8
0
  5
DD6
 10
735.039
 20
858.752
 30
0.000000
  70
    32
  0
VERTEX
  8
0
  5
DD7
 10
735.039
 20
858.753
 30
0.000000
  70
    32
  0
VERTEX
  8
0
  5
DD8
 10
735.039
 20
858.753
 30
0.000000
  70
    32
  0
VERTEX
  8
0
  5
DD9
 10
735.039
 20
858.754
 30
0.000000
  70
    32
  0
VERTEX
  8
0
  5
DDA
 10
735.039
 20
858.755
 30
0.000000
  70
    32
  0
VERTEX
  8
0
  5
DDB
 10
735.039
 20
858.756
 30
0.000000
  70
    32
  0
VERTEX
  8
0
  5
DDC
 10
735.039
 20
858.756
 30
0.000000
  70
    32
  0
VERTEX
  8
0
  5
DDD
 10
735.039
 20
858.757
 30
0.000000
  70
    32
  0
VERTEX
  8
0
  5
DDE
 10
735.039
 20
858.758
 30
0.000000
  70
    32
  0
VERTEX
  8
0
  5
DDF
 10
735.039
 20
858.759
 30
0.000000
  70
    32
  0
VERTEX
  8
0
  5
DE0
 10
735.039
 20
858.760
 30
0.000000
  70
    32
  0
VERTEX
  8
0
  5
DE1
 10
735.039
 20
858.760
 30
0.000000
  70
    32
  0
VERTEX
  8
0
  5
DE2
 10
735.039
 20
858.761
 30
0.000000
  70
    32
  0
VERTEX
  8
0
  5
DE3
 10
735.039
 20
858.762
 30
0.000000
  70
    32
  0
VERTEX
  8
0
  5
DE4
 10
735.039
 20
858.763
 30
0.000000
  70
    32
  0
VERTEX
  8
0
  5
DE5
 10
735.039
 20
858.763
 30
0.000000
  70
    32
  0
VERTEX
  8
0
  5
DE6
 10
735.039
 20
858.764
 30
0.000000
  70
    32
  0
VERTEX
  8
0
  5
DE7
 10
735.039
 20
858.765
 30
0.000000
  70
    32
  0
VERTEX
  8
0
  5
DE8
 10
735.039
 20
858.766
 30
0.000000
  70
    32
  0
VERTEX
  8
0
  5
DE9
 10
735.039
 20
858.766
 30
0.000000
  70
    32
  0
VERTEX
  8
0
  5
DEA
 10
735.039
 20
858.767
 30
0.000000
  70
    32
  0
VERTEX
  8
0
  5
DEB
 10
735.039
 20
858.768
 30
0.000000
  70
    32
  0
VERTEX
  8
0
  5
DEC
 10
735.039
 20
858.769
 30
0.000000
  70
    32
  0
VERTEX
  8
0
  5
DED
 10
735.039
 20
858.770
 30
0.000000
  70
    32
  0
VERTEX
  8
0
  5
DEE
 10
735.039
 20
858.770
 30
0.000000
  70
    32
  0
VERTEX
  8
0
  5
DEF
 10
735.039
 20
858.771
 30
0.000000
  70
    32
  0
VERTEX
  8
0
  5
DF0
 10
735.039
 20
858.772
 30
0.000000
  70
    32
  0
VERTEX
  8
0
  5
DF1
 10
735.039
 20
858.773
 30
0.000000
  70
    32
  0
VERTEX
  8
0
  5
DF2
 10
735.039
 20
858.773
 30
0.000000
  70
    32
  0
VERTEX
  8
0
  5
DF3
 10
735.039
 20
858.774
 30
0.000000
  70
    32
  0
VERTEX
  8
0
  5
DF4
 10
735.039
 20
858.775
 30
0.000000
  70
    32
  0
VERTEX
  8
0
  5
DF5
 10
735.039
 20
858.776
 30
0.000000
  70
    32
  0
VERTEX
  8
0
  5
DF6
 10
735.039
 20
858.776
 30
0.000000
  70
    32
  0
VERTEX
  8
0
  5
DF7
 10
735.039
 20
858.777
 30
0.000000
  70
    32
  0
VERTEX
  8
0
  5
DF8
 10
735.039
 20
858.778
 30
0.000000
  70
    32
  0
VERTEX
  8
0
  5
DF9
 10
735.039
 20
858.779
 30
0.000000
  70
    32
  0
VERTEX
  8
0
  5
DFA
 10
735.039
 20
858.780
 30
0.000000
  70
    32
  0
VERTEX
  8
0
  5
DFB
 10
735.039
 20
858.780
 30
0.000000
  70
    32
  0
VERTEX
  8
0
  5
DFC
 10
735.039
 20
858.781
 30
0.000000
  70
    32
  0
VERTEX
  8
0
  5
DFD
 10
735.039
 20
858.782
 30
0.000000
  70
    32
  0
VERTEX
  8
0
  5
DFE
 10
735.039
 20
858.783
 30
0.000000
  70
    32
  0
VERTEX
  8
0
  5
DFF
 10
735.039
 20
858.783
 30
0.000000
  70
    32
  0
VERTEX
  8
0
  5
E00
 10
735.039
 20
858.784
 30
0.000000
  70
    32
  0
VERTEX
  8
0
  5
E01
 10
735.039
 20
858.785
 30
0.000000
  70
    32
  0
VERTEX
  8
0
  5
E02
 10
735.039
 20
858.786
 30
0.000000
  70
    32
  0
VERTEX
  8
0
  5
E03
 10
735.039
 20
858.786
 30
0.000000
  70
    32
  0
VERTEX
  8
0
  5
E04
 10
735.039
 20
858.787
 30
0.000000
  70
    32
  0
VERTEX
  8
0
  5
E05
 10
735.039
 20
858.788
 30
0.000000
  70
    32
  0
VERTEX
  8
0
  5
E06
 10
735.039
 20
858.789
 30
0.000000
  70
    32
  0
VERTEX
  8
0
  5
E07
 10
735.039
 20
858.790
 30
0.000000
  70
    32
  0
VERTEX
  8
0
  5
E08
 10
735.039
 20
858.790
 30
0.000000
  70
    32
  0
VERTEX
  8
0
  5
E09
 10
735.039
 20
858.791
 30
0.000000
  70
    32
  0
VERTEX
  8
0
  5
E0A
 10
735.039
 20
858.792
 30
0.000000
  70
    32
  0
VERTEX
  8
0
  5
E0B
 10
735.039
 20
858.793
 30
0.000000
  70
    32
  0
VERTEX
  8
0
  5
E0C
 10
735.039
 20
858.793
 30
0.000000
  70
    32
  0
VERTEX
  8
0
  5
E0D
 10
735.039
 20
858.794
 30
0.000000
  70
    32
  0
VERTEX
  8
0
  5
E0E
 10
735.039
 20
858.795
 30
0.000000
  70
    32
  0
VERTEX
  8
0
  5
E0F
 10
735.039
 20
858.796
 30
0.000000
  70
    32
  0
VERTEX
  8
0
  5
E10
 10
735.039
 20
858.796
 30
0.000000
  70
    32
  0
VERTEX
  8
0
  5
E11
 10
735.039
 20
858.797
 30
0.000000
  70
    32
  0
VERTEX
  8
0
  5
E12
 10
735.039
 20
858.798
 30
0.000000
  70
    32
  0
VERTEX
  8
0
  5
E13
 10
735.039
 20
858.799
 30
0.000000
  70
    32
  0
VERTEX
  8
0
  5
E14
 10
735.039
 20
858.800
 30
0.000000
  70
    32
  0
VERTEX
  8
0
  5
E15
 10
735.039
 20
858.800
 30
0.000000
  70
    32
  0
VERTEX
  8
0
  5
E16
 10
735.039
 20
858.801
 30
0.000000
  70
    32
  0
VERTEX
  8
0
  5
E17
 10
735.039
 20
858.802
 30
0.000000
  70
    32
  0
VERTEX
  8
0
  5
E18
 10
735.039
 20
858.803
 30
0.000000
  70
    32
  0
VERTEX
  8
0
  5
E19
 10
735.039
 20
858.803
 30
0.000000
  70
    32
  0
VERTEX
  8
0
  5
E1A
 10
735.039
 20
858.804
 30
0.000000
  70
    32
  0
VERTEX
  8
0
  5
E1B
 10
735.039
 20
858.805
 30
0.000000
  70
    32
  0
VERTEX
  8
0
  5
E1C
 10
735.039
 20
858.806
 30
0.000000
  70
    32
  0
VERTEX
  8
0
  5
E1D
 10
735.039
 20
858.806
 30
0.000000
  70
    32
  0
VERTEX
  8
0
  5
E1E
 10
735.039
 20
858.807
 30
0.000000
  70
    32
  0
VERTEX
  8
0
  5
E1F
 10
735.039
 20
858.808
 30
0.000000
  70
    32
  0
VERTEX
  8
0
  5
E20
 10
735.039
 20
858.809
 30
0.000000
  70
    32
  0
VERTEX
  8
0
  5
E21
 10
735.039
 20
858.810
 30
0.000000
  70
    32
  0
VERTEX
  8
0
  5
E22
 10
735.039
 20
858.810
 30
0.000000
  70
    32
  0
VERTEX
  8
0
  5
E23
 10
735.039
 20
858.811
 30
0.000000
  70
    32
  0
VERTEX
  8
0
  5
E24
 10
735.039
 20
858.812
 30
0.000000
  70
    32
  0
VERTEX
  8
0
  5
E25
 10
735.039
 20
858.813
 30
0.000000
  70
    32
  0
VERTEX
  8
0
  5
E26
 10
735.039
 20
858.813
 30
0.000000
  70
    32
  0
VERTEX
  8
0
  5
E27
 10
735.039
 20
858.814
 30
0.000000
  70
    32
  0
VERTEX
  8
0
  5
E28
 10
735.039
 20
858.815
 30
0.000000
  70
    32
  0
VERTEX
  8
0
  5
E29
 10
735.040
 20
858.816
 30
0.000000
  70
    32
  0
VERTEX
  8
0
  5
E2A
 10
735.040
 20
858.816
 30
0.000000
  70
    32
  0
VERTEX
  8
0
  5
E2B
 10
735.040
 20
858.817
 30
0.000000
  70
    32
  0
VERTEX
  8
0
  5
E2C
 10
735.040
 20
858.818
 30
0.000000
  70
    32
  0
VERTEX
  8
0
  5
E2D
 10
735.040
 20
858.819
 30
0.000000
  70
    32
  0
VERTEX
  8
0
  5
E2E
 10
735.040
 20
858.820
 30
0.000000
  70
    32
  0
VERTEX
  8
0
  5
E2F
 10
735.040
 20
858.820
 30
0.000000
  70
    32
  0
VERTEX
  8
0
  5
E30
 10
735.040
 20
858.821
 30
0.000000
  70
    32
  0
VERTEX
  8
0
  5
E31
 10
735.040
 20
858.822
 30
0.000000
  70
    32
  0
VERTEX
  8
0
  5
E32
 10
735.040
 20
858.823
 30
0.000000
  70
    32
  0
VERTEX
  8
0
  5
E33
 10
735.040
 20
858.823
 30
0.000000
  70
    32
  0
VERTEX
  8
0
  5
E34
 10
735.040
 20
858.824
 30
0.000000
  70
    32
  0
VERTEX
  8
0
  5
E35
 10
735.040
 20
858.825
 30
0.000000
  70
    32
  0
VERTEX
  8
0
  5
E36
 10
735.040
 20
858.826
 30
0.000000
  70
    32
  0
VERTEX
  8
0
  5
E37
 10
735.040
 20
858.826
 30
0.000000
  70
    32
  0
VERTEX
  8
0
  5
E38
 10
735.040
 20
858.827
 30
0.000000
  70
    32
  0
VERTEX
  8
0
  5
E39
 10
735.040
 20
858.828
 30
0.000000
  70
    32
  0
VERTEX
  8
0
  5
E3A
 10
735.040
 20
858.829
 30
0.000000
  70
    32
  0
VERTEX
  8
0
  5
E3B
 10
735.040
 20
858.830
 30
0.000000
  70
    32
  0
VERTEX
  8
0
  5
E3C
 10
735.040
 20
858.830
 30
0.000000
  70
    32
  0
VERTEX
  8
0
  5
E3D
 10
735.040
 20
858.831
 30
0.000000
  70
    32
  0
VERTEX
  8
0
  5
E3E
 10
735.040
 20
858.832
 30
0.000000
  70
    32
  0
VERTEX
  8
0
  5
E3F
 10
735.040
 20
858.833
 30
0.000000
  70
    32
  0
VERTEX
  8
0
  5
E40
 10
735.040
 20
858.833
 30
0.000000
  70
    32
  0
VERTEX
  8
0
  5
E41
 10
735.040
 20
858.834
 30
0.000000
  70
    32
  0
VERTEX
  8
0
  5
E42
 10
735.040
 20
858.835
 30
0.000000
  70
    32
  0
VERTEX
  8
0
  5
E43
 10
735.040
 20
858.836
 30
0.000000
  70
    32
  0
VERTEX
  8
0
  5
E44
 10
735.040
 20
858.836
 30
0.000000
  70
    32
  0
VERTEX
  8
0
  5
E45
 10
735.040
 20
858.837
 30
0.000000
  70
    32
  0
SEQEND
  8
0
  5
E46
  0
POLYLINE
  8
0
  5
E47
  62
7
  66
     1
 10
0.000000
 20
0.000000
 30
0.000000
  70
     8
  0
VERTEX
  8
0
  5
E48
 10
735.040
 20
858.856
 30
0.000000
  70
    32
  0
VERTEX
  8
0
  5
E49
 10
735.044
 20
858.855
 30
0.000000
  70
    32
  0
VERTEX
  8
0
  5
E4A
 10
735.049
 20
858.855
 30
0.000000
  70
    32
  0
VERTEX
  8
0
  5
E4B
 10
735.053
 20
858.855
 30
0.000000
  70
    32
  0
VERTEX
  8
0
  5
E4C
 10
735.057
 20
858.854
 30
0.000000
  70
    32
  0
VERTEX
  8
0
  5
E4D
 10
735.061
 20
858.854
 30
0.000000
  70
    32
  0
VERTEX
  8
0
  5
E4E
 10
735.066
 20
858.854
 30
0.000000
  70
    32
  0
VERTEX
  8
0
  5
E4F
 10
735.070
 20
858.853
 30
0.000000
  70
    32
  0
VERTEX
  8
0
  5
E50
 10
735.074
 20
858.853
 30
0.000000
  70
    32
  0
VERTEX
  8
0
  5
E51
 10
735.079
 20
858.853
 30
0.000000
  70
    32
  0
VERTEX
  8
0
  5
E52
 10
735.083
 20
858.853
 30
0.000000
  70
    32
  0
VERTEX
  8
0
  5
E53
 10
735.087
 20
858.852
 30
0.000000
  70
    32
  0
VERTEX
  8
0
  5
E54
 10
735.091
 20
858.852
 30
0.000000
  70
    32
  0
VERTEX
  8
0
  5
E55
 10
735.096
 20
858.852
 30
0.000000
  70
    32
  0
VERTEX
  8
0
  5
E56
 10
735.100
 20
858.851
 30
0.000000
  70
    32
  0
VERTEX
  8
0
  5
E57
 10
735.104
 20
858.851
 30
0.000000
  70
    32
  0
VERTEX
  8
0
  5
E58
 10
735.108
 20
858.851
 30
0.000000
  70
    32
  0
VERTEX
  8
0
  5
E59
 10
735.113
 20
858.850
 30
0.000000
  70
    32
  0
VERTEX
  8
0
  5
E5A
 10
735.117
 20
858.850
 30
0.000000
  70
    32
  0
VERTEX
  8
0
  5
E5B
 10
735.121
 20
858.850
 30
0.000000
  70
    32
  0
VERTEX
  8
0
  5
E5C
 10
735.126
 20
858.850
 30
0.000000
  70
    32
  0
VERTEX
  8
0
  5
E5D
 10
735.130
 20
858.849
 30
0.000000
  70
    32
  0
VERTEX
  8
0
  5
E5E
 10
735.134
 20
858.849
 30
0.000000
  70
    32
  0
VERTEX
  8
0
  5
E5F
 10
735.138
 20
858.849
 30
0.000000
  70
    32
  0
VERTEX
  8
0
  5
E60
 10
735.143
 20
858.848
 30
0.000000
  70
    32
  0
VERTEX
  8
0
  5
E61
 10
735.147
 20
858.848
 30
0.000000
  70
    32
  0
VERTEX
  8
0
  5
E62
 10
735.151
 20
858.848
 30
0.000000
  70
    32
  0
VERTEX
  8
0
  5
E63
 10
735.156
 20
858.847
 30
0.000000
  70
    32
  0
VERTEX
  8
0
  5
E64
 10
735.160
 20
858.847
 30
0.000000
  70
    32
  0
VERTEX
  8
0
  5
E65
 10
735.164
 20
858.847
 30
0.000000
  70
    32
  0
VERTEX
  8
0
  5
E66
 10
735.168
 20
858.846
 30
0.000000
  70
    32
  0
VERTEX
  8
0
  5
E67
 10
735.173
 20
858.846
 30
0.000000
  70
    32
  0
VERTEX
  8
0
  5
E68
 10
735.177
 20
858.846
 30
0.000000
  70
    32
  0
VERTEX
  8
0
  5
E69
 10
735.181
 20
858.845
 30
0.000000
  70
    32
  0
VERTEX
  8
0
  5
E6A
 10
735.185
 20
858.845
 30
0.000000
  70
    32
  0
VERTEX
  8
0
  5
E6B
 10
735.190
 20
858.845
 30
0.000000
  70
    32
  0
VERTEX
  8
0
  5
E6C
 10
735.194
 20
858.845
 30
0.000000
  70
    32
  0
VERTEX
  8
0
  5
E6D
 10
735.198
 20
858.844
 30
0.000000
  70
    32
  0
VERTEX
  8
0
  5
E6E
 10
735.203
 20
858.844
 30
0.000000
  70
    32
  0
VERTEX
  8
0
  5
E6F
 10
735.207
 20
858.844
 30
0.000000
  70
    32
  0
VERTEX
  8
0
  5
E70
 10
735.211
 20
858.843
 30
0.000000
  70
    32
  0
VERTEX
  8
0
  5
E71
 10
735.215
 20
858.843
 30
0.000000
  70
    32
  0
VERTEX
  8
0
  5
E72
 10
735.220
 20
858.843
 30
0.000000
  70
    32
  0
VERTEX
  8
0
  5
E73
 10
735.224
 20
858.842
 30
0.000000
  70
    32
  0
VERTEX
  8
0
  5
E74
 10
735.228
 20
858.842
 30
0.000000
  70
    32
  0
VERTEX
  8
0
  5
E75
 10
735.233
 20
858.842
 30
0.000000
  70
    32
  0
VERTEX
  8
0
  5
E76
 10
735.237
 20
858.841
 30
0.000000
  70
    32
  0
VERTEX
  8
0
  5
E77
 10
735.241
 20
858.841
 30
0.000000
  70
    32
  0
VERTEX
  8
0
  5
E78
 10
735.245
 20
858.841
 30
0.000000
  70
    32
  0
VERTEX
  8
0
  5
E79
 10
735.250
 20
858.840
 30
0.000000
  70
    32
  0
VERTEX
  8
0
  5
E7A
 10
735.254
 20
858.840
 30
0.000000
  70
    32
  0
VERTEX
  8
0
  5
E7B
 10
735.258
 20
858.840
 30
0.000000
  70
    32
  0
VERTEX
  8
0
  5
E7C
 10
735.262
 20
858.839
 30
0.000000
  70
    32
  0
VERTEX
  8
0
  5
E7D
 10
735.267
 20
858.839
 30
0.000000
  70
    32
  0
VERTEX
  8
0
  5
E7E
 10
735.271
 20
858.839
 30
0.000000
  70
    32
  0
VERTEX
  8
0
  5
E7F
 10
735.275
 20
858.838
 30
0.000000
  70
    32
  0
VERTEX
  8
0
  5
E80
 10
735.280
 20
858.838
 30
0.000000
  70
    32
  0
VERTEX
  8
0
  5
E81
 10
735.284
 20
858.838
 30
0.000000
  70
    32
  0
VERTEX
  8
0
  5
E82
 10
735.288
 20
858.837
 30
0.000000
  70
    32
  0
VERTEX
  8
0
  5
E83
 10
735.292
 20
858.837
 30
0.000000
  70
    32
  0
VERTEX
  8
0
  5
E84
 10
735.297
 20
858.837
 30
0.000000
  70
    32
  0
VERTEX
  8
0
  5
E85
 10
735.301
 20
858.836
 30
0.000000
  70
    32
  0
VERTEX
  8
0
  5
E86
 10
735.305
 20
858.836
 30
0.000000
  70
    32
  0
VERTEX
  8
0
  5
E87
 10
735.309
 20
858.836
 30
0.000000
  70
    32
  0
VERTEX
  8
0
  5
E88
 10
735.314
 20
858.835
 30
0.000000
  70
    32
  0
VERTEX
  8
0
  5
E89
 10
735.318
 20
858.835
 30
0.000000
  70
    32
  0
VERTEX
  8
0
  5
E8A
 10
735.322
 20
858.835
 30
0.000000
  70
    32
  0
VERTEX
  8
0
  5
E8B
 10
735.327
 20
858.834
 30
0.000000
  70
    32
  0
VERTEX
  8
0
  5
E8C
 10
735.331
 20
858.834
 30
0.000000
  70
    32
  0
VERTEX
  8
0
  5
E8D
 10
735.335
 20
858.834
 30
0.000000
  70
    32
  0
VERTEX
  8
0
  5
E8E
 10
735.339
 20
858.834
 30
0.000000
  70
    32
  0
VERTEX
  8
0
  5
E8F
 10
735.344
 20
858.833
 30
0.000000
  70
    32
  0
VERTEX
  8
0
  5
E90
 10
735.348
 20
858.833
 30
0.000000
  70
    32
  0
VERTEX
  8
0
  5
E91
 10
735.352
 20
858.833
 30
0.000000
  70
    32
  0
VERTEX
  8
0
  5
E92
 10
735.356
 20
858.832
 30
0.000000
  70
    32
  0
VERTEX
  8
0
  5
E93
 10
735.361
 20
858.832
 30
0.000000
  70
    32
  0
VERTEX
  8
0
  5
E94
 10
735.365
 20
858.832
 30
0.000000
  70
    32
  0
VERTEX
  8
0
  5
E95
 10
735.369
 20
858.831
 30
0.000000
  70
    32
  0
VERTEX
  8
0
  5
E96
 10
735.374
 20
858.831
 30
0.000000
  70
    32
  0
VERTEX
  8
0
  5
E97
 10
735.378
 20
858.830
 30
0.000000
  70
    32
  0
VERTEX
  8
0
  5
E98
 10
735.382
 20
858.830
 30
0.000000
  70
    32
  0
VERTEX
  8
0
  5
E99
 10
735.386
 20
858.830
 30
0.000000
  70
    32
  0
VERTEX
  8
0
  5
E9A
 10
735.391
 20
858.829
 30
0.000000
  70
    32
  0
VERTEX
  8
0
  5
E9B
 10
735.395
 20
858.829
 30
0.000000
  70
    32
  0
VERTEX
  8
0
  5
E9C
 10
735.399
 20
858.829
 30
0.000000
  70
    32
  0
VERTEX
  8
0
  5
E9D
 10
735.404
 20
858.828
 30
0.000000
  70
    32
  0
VERTEX
  8
0
  5
E9E
 10
735.408
 20
858.828
 30
0.000000
  70
    32
  0
VERTEX
  8
0
  5
E9F
 10
735.412
 20
858.828
 30
0.000000
  70
    32
  0
VERTEX
  8
0
  5
EA0
 10
735.416
 20
858.827
 30
0.000000
  70
    32
  0
VERTEX
  8
0
  5
EA1
 10
735.421
 20
858.827
 30
0.000000
  70
    32
  0
VERTEX
  8
0
  5
EA2
 10
735.425
 20
858.827
 30
0.000000
  70
    32
  0
VERTEX
  8
0
  5
EA3
 10
735.429
 20
858.826
 30
0.000000
  70
    32
  0
VERTEX
  8
0
  5
EA4
 10
735.433
 20
858.826
 30
0.000000
  70
    32
  0
VERTEX
  8
0
  5
EA5
 10
735.438
 20
858.826
 30
0.000000
  70
    32
  0
VERTEX
  8
0
  5
EA6
 10
735.442
 20
858.825
 30
0.000000
  70
    32
  0
VERTEX
  8
0
  5
EA7
 10
735.446
 20
858.825
 30
0.000000
  70
    32
  0
VERTEX
  8
0
  5
EA8
 10
735.451
 20
858.825
 30
0.000000
  70
    32
  0
VERTEX
  8
0
  5
EA9
 10
735.455
 20
858.824
 30
0.000000
  70
    32
  0
VERTEX
  8
0
  5
EAA
 10
735.459
 20
858.824
 30
0.000000
  70
    32
  0
VERTEX
  8
0
  5
EAB
 10
735.463
 20
858.824
 30
0.000000
  70
    32
  0
VERTEX
  8
0
  5
EAC
 10
735.468
 20
858.823
 30
0.000000
  70
    32
  0
VERTEX
  8
0
  5
EAD
 10
735.472
 20
858.823
 30
0.000000
  70
    32
  0
VERTEX
  8
0
  5
EAE
 10
735.476
 20
858.823
 30
0.000000
  70
    32
  0
VERTEX
  8
0
  5
EAF
 10
735.480
 20
858.822
 30
0.000000
  70
    32
  0
VERTEX
  8
0
  5
EB0
 10
735.485
 20
858.822
 30
0.000000
  70
    32
  0
VERTEX
  8
0
  5
EB1
 10
735.489
 20
858.822
 30
0.000000
  70
    32
  0
VERTEX
  8
0
  5
EB2
 10
735.493
 20
858.821
 30
0.000000
  70
    32
  0
VERTEX
  8
0
  5
EB3
 10
735.498
 20
858.821
 30
0.000000
  70
    32
  0
VERTEX
  8
0
  5
EB4
 10
735.502
 20
858.821
 30
0.000000
  70
    32
  0
VERTEX
  8
0
  5
EB5
 10
735.506
 20
858.820
 30
0.000000
  70
    32
  0
VERTEX
  8
0
  5
EB6
 10
735.510
 20
858.820
 30
0.000000
  70
    32
  0
VERTEX
  8
0
  5
EB7
 10
735.515
 20
858.819
 30
0.000000
  70
    32
  0
VERTEX
  8
0
  5
EB8
 10
735.519
 20
858.819
 30
0.000000
  70
    32
  0
VERTEX
  8
0
  5
EB9
 10
735.523
 20
858.819
 30
0.000000
  70
    32
  0
VERTEX
  8
0
  5
EBA
 10
735.527
 20
858.818
 30
0.000000
  70
    32
  0
VERTEX
  8
0
  5
EBB
 10
735.532
 20
858.818
 30
0.000000
  70
    32
  0
VERTEX
  8
0
  5
EBC
 10
735.536
 20
858.818
 30
0.000000
  70
    32
  0
VERTEX
  8
0
  5
EBD
 10
735.540
 20
858.817
 30
0.000000
  70
    32
  0
VERTEX
  8
0
  5
EBE
 10
735.545
 20
858.817
 30
0.000000
  70
    32
  0
VERTEX
  8
0
  5
EBF
 10
735.549
 20
858.817
 30
0.000000
  70
    32
  0
VERTEX
  8
0
  5
EC0
 10
735.553
 20
858.816
 30
0.000000
  70
    32
  0
VERTEX
  8
0
  5
EC1
 10
735.557
 20
858.816
 30
0.000000
  70
    32
  0
VERTEX
  8
0
  5
EC2
 10
735.562
 20
858.816
 30
0.000000
  70
    32
  0
VERTEX
  8
0
  5
EC3
 10
735.566
 20
858.815
 30
0.000000
  70
    32
  0
VERTEX
  8
0
  5
EC4
 10
735.570
 20
858.815
 30
0.000000
  70
    32
  0
VERTEX
  8
0
  5
EC5
 10
735.574
 20
858.815
 30
0.000000
  70
    32
  0
VERTEX
  8
0
  5
EC6
 10
735.579
 20
858.814
 30
0.000000
  70
    32
  0
VERTEX
  8
0
  5
EC7
 10
735.583
 20
858.814
 30
0.000000
  70
    32
  0
SEQEND
  8
0
  5
EC8
  0
POLYLINE
  8
0
  5
EC9
  62
7
  66
     1
 10
0.000000
 20
0.000000
 30
0.000000
  70
     8
  0
VERTEX
  8
0
  5
ECA
 10
735.553
 20
858.820
 30
0.000000
  70
    32
  0
VERTEX
  8
0
  5
ECB
 10
735.556
 20
858.820
 30
0.000000
  70
    32
  0
VERTEX
  8
0
  5
ECC
 10
735.559
 20
858.819
 30
0.000000
  70
    32
  0
VERTEX
  8
0
  5
ECD
 10
735.562
 20
858.819
 30
0.000000
  70
    32
  0
VERTEX
  8
0
  5
ECE
 10
735.565
 20
858.819
 30
0.000000
  70
    32
  0
VERTEX
  8
0
  5
ECF
 10
735.568
 20
858.819
 30
0.000000
  70
    32
  0
VERTEX
  8
0
  5
ED0
 10
735.571
 20
858.818
 30
0.000000
  70
    32
  0
VERTEX
  8
0
  5
ED1
 10
735.574
 20
858.818
 30
0.000000
  70
    32
  0
VERTEX
  8
0
  5
ED2
 10
735.577
 20
858.818
 30
0.000000
  70
    32
  0
VERTEX
  8
0
  5
ED3
 10
735.580
 20
858.818
 30
0.000000
  70
    32
  0
VERTEX
  8
0
  5
ED4
 10
735.583
 20
858.818
 30
0.000000
  70
    32
  0
VERTEX
  8
0
  5
ED5
 10
735.586
 20
858.817
 30
0.000000
  70
    32
  0
VERTEX
  8
0
  5
ED6
 10
735.589
 20
858.817
 30
0.000000
  70
    32
  0
VERTEX
  8
0
  5
ED7
 10
735.592
 20
858.817
 30
0.000000
  70
    32
  0
VERTEX
  8
0
  5
ED8
 10
735.595
 20
858.817
 30
0.000000
  70
    32
  0
VERTEX
  8
0
  5
ED9
 10
735.598
 20
858.817
 30
0.000000
  70
    32
  0
VERTEX
  8
0
  5
EDA
 10
735.601
 20
858.816
 30
0.000000
  70
    32
  0
VERTEX
  8
0
  5
EDB
 10
735.604
 20
858.816
 30
0.000000
  70
    32
  0
VERTEX
  8
0
  5
EDC
 10
735.607
 20
858.816
 30
0.000000
  70
    32
  0
VERTEX
  8
0
  5
EDD
 10
735.610
 20
858.816
 30
0.000000
  70
    32
  0
VERTEX
  8
0
  5
EDE
 10
735.613
 20
858.815
 30
0.000000
  70
    32
  0
VERTEX
  8
0
  5
EDF
 10
735.616
 20
858.815
 30
0.000000
  70
    32
  0
VERTEX
  8
0
  5
EE0
 10
735.619
 20
858.815
 30
0.000000
  70
    32
  0
VERTEX
  8
0
  5
EE1
 10
735.622
 20
858.815
 30
0.000000
  70
    32
  0
VERTEX
  8
0
  5
EE2
 10
735.625
 20
858.815
 30
0.000000
  70
    32
  0
VERTEX
  8
0
  5
EE3
 10
735.628
 20
858.814
 30
0.000000
  70
    32
  0
VERTEX
  8
0
  5
EE4
 10
735.631
 20
858.814
 30
0.000000
  70
    32
  0
VERTEX
  8
0
  5
EE5
 10
735.634
 20
858.814
 30
0.000000
  70
    32
  0
VERTEX
  8
0
  5
EE6
 10
735.637
 20
858.814
 30
0.000000
  70
    32
  0
VERTEX
  8
0
  5
EE7
 10
735.640
 20
858.814
 30
0.000000
  70
    32
  0
VERTEX
  8
0
  5
EE8
 10
735.643
 20
858.813
 30
0.000000
  70
    32
  0
VERTEX
  8
0
  5
EE9
 10
735.646
 20
858.813
 30
0.000000
  70
    32
  0
VERTEX
  8
0
  5
EEA
 10
735.649
 20
858.813
 30
0.000000
  70
    32
  0
VERTEX
  8
0
  5
EEB
 10
735.652
 20
858.813
 30
0.000000
  70
    32
  0
VERTEX
  8
0
  5
EEC
 10
735.655
 20
858.812
 30
0.000000
  70
    32
  0
VERTEX
  8
0
  5
EED
 10
735.658
 20
858.812
 30
0.000000
  70
    32
  0
VERTEX
  8
0
  5
EEE
 10
735.661
 20
858.812
 30
0.000000
  70
    32
  0
VERTEX
  8
0
  5
EEF
 10
735.664
 20
858.812
 30
0.000000
  70
    32
  0
VERTEX
  8
0
  5
EF0
 10
735.667
 20
858.812
 30
0.000000
  70
    32
  0
VERTEX
  8
0
  5
EF1
 10
735.670
 20
858.811
 30
0.000000
  70
    32
  0
VERTEX
  8
0
  5
EF2
 10
735.673
 20
858.811
 30
0.000000
  70
    32
  0
VERTEX
  8
0
  5
EF3
 10
735.676
 20
858.811
 30
0.000000
  70
    32
  0
VERTEX
  8
0
  5
EF4
 10
735.679
 20
858.811
 30
0.000000
  70
    32
  0
VERTEX
  8
0
  5
EF5
 10
735.682
 20
858.810
 30
0.000000
  70
    32
  0
VERTEX
  8
0
  5
EF6
 10
735.685
 20
858.810
 30
0.000000
  70
    32
  0
VERTEX
  8
0
  5
EF7
 10
735.688
 20
858.810
 30
0.000000
  70
    32
  0
VERTEX
  8
0
  5
EF8
 10
735.691
 20
858.810
 30
0.000000
  70
    32
  0
VERTEX
  8
0
  5
EF9
 10
735.694
 20
858.810
 30
0.000000
  70
    32
  0
VERTEX
  8
0
  5
EFA
 10
735.697
 20
858.809
 30
0.000000
  70
    32
  0
VERTEX
  8
0
  5
EFB
 10
735.700
 20
858.809
 30
0.000000
  70
    32
  0
VERTEX
  8
0
  5
EFC
 10
735.703
 20
858.809
 30
0.000000
  70
    32
  0
VERTEX
  8
0
  5
EFD
 10
735.706
 20
858.809
 30
0.000000
  70
    32
  0
VERTEX
  8
0
  5
EFE
 10
735.709
 20
858.808
 30
0.000000
  70
    32
  0
VERTEX
  8
0
  5
EFF
 10
735.712
 20
858.808
 30
0.000000
  70
    32
  0
VERTEX
  8
0
  5
F00
 10
735.715
 20
858.808
 30
0.000000
  70
    32
  0
VERTEX
  8
0
  5
F01
 10
735.718
 20
858.808
 30
0.000000
  70
    32
  0
VERTEX
  8
0
  5
F02
 10
735.721
 20
858.808
 30
0.000000
  70
    32
  0
VERTEX
  8
0
  5
F03
 10
735.724
 20
858.807
 30
0.000000
  70
    32
  0
VERTEX
  8
0
  5
F04
 10
735.727
 20
858.807
 30
0.000000
  70
    32
  0
VERTEX
  8
0
  5
F05
 10
735.730
 20
858.807
 30
0.000000
  70
    32
  0
VERTEX
  8
0
  5
F06
 10
735.733
 20
858.807
 30
0.000000
  70
    32
  0
VERTEX
  8
0
  5
F07
 10
735.736
 20
858.806
 30
0.000000
  70
    32
  0
VERTEX
  8
0
  5
F08
 10
735.739
 20
858.806
 30
0.000000
  70
    32
  0
VERTEX
  8
0
  5
F09
 10
735.742
 20
858.806
 30
0.000000
  70
    32
  0
VERTEX
  8
0
  5
F0A
 10
735.745
 20
858.806
 30
0.000000
  70
    32
  0
VERTEX
  8
0
  5
F0B
 10
735.748
 20
858.806
 30
0.000000
  70
    32
  0
VERTEX
  8
0
  5
F0C
 10
735.751
 20
858.805
 30
0.000000
  70
    32
  0
VERTEX
  8
0
  5
F0D
 10
735.754
 20
858.805
 30
0.000000
  70
    32
  0
VERTEX
  8
0
  5
F0E
 10
735.757
 20
858.805
 30
0.000000
  70
    32
  0
VERTEX
  8
0
  5
F0F
 10
735.760
 20
858.805
 30
0.000000
  70
    32
  0
VERTEX
  8
0
  5
F10
 10
735.763
 20
858.804
 30
0.000000
  70
    32
  0
VERTEX
  8
0
  5
F11
 10
735.766
 20
858.804
 30
0.000000
  70
    32
  0
VERTEX
  8
0
  5
F12
 10
735.769
 20
858.804
 30
0.000000
  70
    32
  0
VERTEX
  8
0
  5
F13
 10
735.772
 20
858.804
 30
0.000000
  70
    32
  0
VERTEX
  8
0
  5
F14
 10
735.775
 20
858.804
 30
0.000000
  70
    32
  0
VERTEX
  8
0
  5
F15
 10
735.778
 20
858.803
 30
0.000000
  70
    32
  0
VERTEX
  8
0
  5
F16
 10
735.781
 20
858.803
 30
0.000000
  70
    32
  0
VERTEX
  8
0
  5
F17
 10
735.785
 20
858.803
 30
0.000000
  70
    32
  0
VERTEX
  8
0
  5
F18
 10
735.788
 20
858.803
 30
0.000000
  70
    32
  0
VERTEX
  8
0
  5
F19
 10
735.791
 20
858.802
 30
0.000000
  70
    32
  0
VERTEX
  8
0
  5
F1A
 10
735.794
 20
858.802
 30
0.000000
  70
    32
  0
VERTEX
  8
0
  5
F1B
 10
735.797
 20
858.802
 30
0.000000
  70
    32
  0
VERTEX
  8
0
  5
F1C
 10
735.800
 20
858.802
 30
0.000000
  70
    32
  0
VERTEX
  8
0
  5
F1D
 10
735.803
 20
858.801
 30
0.000000
  70
    32
  0
VERTEX
  8
0
  5
F1E
 10
735.806
 20
858.801
 30
0.000000
  70
    32
  0
VERTEX
  8
0
  5
F1F
 10
735.809
 20
858.801
 30
0.000000
  70
    32
  0
VERTEX
  8
0
  5
F20
 10
735.812
 20
858.801
 30
0.000000
  70
    32
  0
VERTEX
  8
0
  5
F21
 10
735.815
 20
858.801
 30
0.000000
  70
    32
  0
VERTEX
  8
0
  5
F22
 10
735.818
 20
858.800
 30
0.000000
  70
    32
  0
VERTEX
  8
0
  5
F23
 10
735.821
 20
858.800
 30
0.000000
  70
    32
  0
VERTEX
  8
0
  5
F24
 10
735.824
 20
858.800
 30
0.000000
  70
    32
  0
VERTEX
  8
0
  5
F25
 10
735.827
 20
858.800
 30
0.000000
  70
    32
  0
VERTEX
  8
0
  5
F26
 10
735.830
 20
858.799
 30
0.000000
  70
    32
  0
VERTEX
  8
0
  5
F27
 10
735.833
 20
858.799
 30
0.000000
  70
    32
  0
VERTEX
  8
0
  5
F28
 10
735.836
 20
858.799
 30
0.000000
  70
    32
  0
VERTEX
  8
0
  5
F29
 10
735.839
 20
858.799
 30
0.000000
  70
    32
  0
VERTEX
  8
0
  5
F2A
 10
735.842
 20
858.798
 30
0.000000
  70
    32
  0
VERTEX
  8
0
  5
F2B
 10
735.845
 20
858.798
 30
0.000000
  70
    32
  0
VERTEX
  8
0
  5
F2C
 10
735.848
 20
858.798
 30
0.000000
  70
    32
  0
VERTEX
  8
0
  5
F2D
 10
735.851
 20
858.798
 30
0.000000
  70
    32
  0
VERTEX
  8
0
  5
F2E
 10
735.854
 20
858.798
 30
0.000000
  70
    32
  0
VERTEX
  8
0
  5
F2F
 10
735.857
 20
858.797
 30
0.000000
  70
    32
  0
VERTEX
  8
0
  5
F30
 10
735.860
 20
858.797
 30
0.000000
  70
    32
  0
VERTEX
  8
0
  5
F31
 10
735.863
 20
858.797
 30
0.000000
  70
    32
  0
VERTEX
  8
0
  5
F32
 10
735.866
 20
858.797
 30
0.000000
  70
    32
  0
VERTEX
  8
0
  5
F33
 10
735.869
 20
858.796
 30
0.000000
  70
    32
  0
VERTEX
  8
0
  5
F34
 10
735.872
 20
858.796
 30
0.000000
  70
    32
  0
VERTEX
  8
0
  5
F35
 10
735.875
 20
858.796
 30
0.000000
  70
    32
  0
VERTEX
  8
0
  5
F36
 10
735.878
 20
858.796
 30
0.000000
  70
    32
  0
VERTEX
  8
0
  5
F37
 10
735.881
 20
858.795
 30
0.000000
  70
    32
  0
VERTEX
  8
0
  5
F38
 10
735.884
 20
858.795
 30
0.000000
  70
    32
  0
VERTEX
  8
0
  5
F39
 10
735.887
 20
858.795
 30
0.000000
  70
    32
  0
VERTEX
  8
0
  5
F3A
 10
735.890
 20
858.795
 30
0.000000
  70
    32
  0
VERTEX
  8
0
  5
F3B
 10
735.893
 20
858.794
 30
0.000000
  70
    32
  0
VERTEX
  8
0
  5
F3C
 10
735.896
 20
858.794
 30
0.000000
  70
    32
  0
VERTEX
  8
0
  5
F3D
 10
735.899
 20
858.794
 30
0.000000
  70
    32
  0
VERTEX
  8
0
  5
F3E
 10
735.902
 20
858.794
 30
0.000000
  70
    32
  0
VERTEX
  8
0
  5
F3F
 10
735.905
 20
858.794
 30
0.000000
  70
    32
  0
VERTEX
  8
0
  5
F40
 10
735.908
 20
858.793
 30
0.000000
  70
    32
  0
VERTEX
  8
0
  5
F41
 10
735.911
 20
858.793
 30
0.000000
  70
    32
  0
VERTEX
  8
0
  5
F42
 10
735.914
 20
858.793
 30
0.000000
  70
    32
  0
VERTEX
  8
0
  5
F43
 10
735.917
 20
858.793
 30
0.000000
  70
    32
  0
VERTEX
  8
0
  5
F44
 10
735.920
 20
858.792
 30
0.000000
  70
    32
  0
VERTEX
  8
0
  5
F45
 10
735.923
 20
858.792
 30
0.000000
  70
    32
  0
VERTEX
  8
0
  5
F46
 10
735.926
 20
858.792
 30
0.000000
  70
    32
  0
VERTEX
  8
0
  5
F47
 10
735.929
 20
858.792
 30
0.000000
  70
    32
  0
VERTEX
  8
0
  5
F48
 10
735.932
 20
858.791
 30
0.000000
  70
    32
  0
VERTEX
  8
0
  5
F49
 10
735.935
 20
858.791
 30
0.000000
  70
    32
  0
SEQEND
  8
0
  5
F4A
  0
POLYLINE
  8
0
  5
F4B
  62
7
  66
     1
 10
0.000000
 20
0.000000
 30
0.000000
  70
     8
  0
VERTEX
  8
0
  5
F4C
 10
753.885
 20
554.014
 30
0.000000
  70
    32
  0
VERTEX
  8
0
  5
F4D
 10
753.882
 20
554.014
 30
0.000000
  70
    32
  0
VERTEX
  8
0
  5
F4E
 10
753.880
 20
554.014
 30
0.000000
  70
    32
  0
VERTEX
  8
0
  5
F4F
 10
753.878
 20
554.014
 30
0.000000
  70
    32
  0
VERTEX
  8
0
  5
F50
 10
753.876
 20
554.013
 30
0.000000
  70
    32
  0
VERTEX
  8
0
  5
F51
 10
753.874
 20
554.013
 30
0.000000
  70
    32
  0
VERTEX
  8
0
  5
F52
 10
753.872
 20
554.013
 30
0.000000
  70
    32
  0
VERTEX
  8
0
  5
F53
 10
753.869
 20
554.013
 30
0.000000
  70
    32
  0
VERTEX
  8
0
  5
F54
 10
753.867
 20
554.013
 30
0.000000
  70
    32
  0
VERTEX
  8
0
  5
F55
 10
753.865
 20
554.013
 30
0.000000
  70
    32
  0
VERTEX
  8
0
  5
F56
 10
753.863
 20
554.012
 30
0.000000
  70
    32
  0
VERTEX
  8
0
  5
F57
 10
753.861
 20
554.012
 30
0.000000
  70
    32
  0
VERTEX
  8
0
  5
F58
 10
753.859
 20
554.012
 30
0.000000
  70
    32
  0
VERTEX
  8
0
  5
F59
 10
753.856
 20
554.012
 30
0.000000
  70
    32
  0
VERTEX
  8
0
  5
F5A
 10
753.854
 20
554.012
 30
0.000000
  70
    32
  0
VERTEX
  8
0
  5
F5B
 10
753.852
 20
554.012
 30
0.000000
  70
    32
  0
VERTEX
  8
0
  5
F5C
 10
753.850
 20
554.011
 30
0.000000
  70
    32
  0
VERTEX
  8
0
  5
F5D
 10
753.848
 20
554.011
 30
0.000000
  70
    32
  0
VERTEX
  8
0
  5
F5E
 10
753.846
 20
554.011
 30
0.000000
  70
    32
  0
VERTEX
  8
0
  5
F5F
 10
753.843
 20
554.011
 30
0.000000
  70
    32
  0
VERTEX
  8
0
  5
F60
 10
753.841
 20
554.011
 30
0.000000
  70
    32
  0
VERTEX
  8
0
  5
F61
 10
753.839
 20
554.011
 30
0.000000
  70
    32
  0
VERTEX
  8
0
  5
F62
 10
753.837
 20
554.010
 30
0.000000
  70
    32
  0
VERTEX
  8
0
  5
F63
 10
753.835
 20
554.010
 30
0.000000
  70
    32
  0
VERTEX
  8
0
  5
F64
 10
753.833
 20
554.010
 30
0.000000
  70
    32
  0
VERTEX
  8
0
  5
F65
 10
753.830
 20
554.010
 30
0.000000
  70
    32
  0
VERTEX
  8
0
  5
F66
 10
753.828
 20
554.010
 30
0.000000
  70
    32
  0
VERTEX
  8
0
  5
F67
 10
753.826
 20
554.010
 30
0.000000
  70
    32
  0
VERTEX
  8
0
  5
F68
 10
753.824
 20
554.010
 30
0.000000
  70
    32
  0
VERTEX
  8
0
  5
F69
 10
753.822
 20
554.009
 30
0.000000
  70
    32
  0
VERTEX
  8
0
  5
F6A
 10
753.820
 20
554.009
 30
0.000000
  70
    32
  0
VERTEX
  8
0
  5
F6B
 10
753.817
 20
554.009
 30
0.000000
  70
    32
  0
VERTEX
  8
0
  5
F6C
 10
753.815
 20
554.009
 30
0.000000
  70
    32
  0
VERTEX
  8
0
  5
F6D
 10
753.813
 20
554.009
 30
0.000000
  70
    32
  0
VERTEX
  8
0
  5
F6E
 10
753.811
 20
554.009
 30
0.000000
  70
    32
  0
VERTEX
  8
0
  5
F6F
 10
753.809
 20
554.008
 30
0.000000
  70
    32
  0
VERTEX
  8
0
  5
F70
 10
753.807
 20
554.008
 30
0.000000
  70
    32
  0
VERTEX
  8
0
  5
F71
 10
753.804
 20
554.008
 30
0.000000
  70
    32
  0
VERTEX
  8
0
  5
F72
 10
753.802
 20
554.008
 30
0.000000
  70
    32
  0
VERTEX
  8
0
  5
F73
 10
753.800
 20
554.008
 30
0.000000
  70
    32
  0
VERTEX
  8
0
  5
F74
 10
753.798
 20
554.008
 30
0.000000
  70
    32
  0
VERTEX
  8
0
  5
F75
 10
753.796
 20
554.007
 30
0.000000
  70
    32
  0
VERTEX
  8
0
  5
F76
 10
753.794
 20
554.007
 30
0.000000
  70
    32
  0
VERTEX
  8
0
  5
F77
 10
753.791
 20
554.007
 30
0.000000
  70
    32
  0
VERTEX
  8
0
  5
F78
 10
753.789
 20
554.007
 30
0.000000
  70
    32
  0
VERTEX
  8
0
  5
F79
 10
753.787
 20
554.007
 30
0.000000
  70
    32
  0
VERTEX
  8
0
  5
F7A
 10
753.785
 20
554.007
 30
0.000000
  70
    32
  0
VERTEX
  8
0
  5
F7B
 10
753.783
 20
554.006
 30
0.000000
  70
    32
  0
VERTEX
  8
0
  5
F7C
 10
753.781
 20
554.006
 30
0.000000
  70
    32
  0
VERTEX
  8
0
  5
F7D
 10
753.778
 20
554.006
 30
0.000000
  70
    32
  0
VERTEX
  8
0
  5
F7E
 10
753.776
 20
554.006
 30
0.000000
  70
    32
  0
VERTEX
  8
0
  5
F7F
 10
753.774
 20
554.006
 30
0.000000
  70
    32
  0
VERTEX
  8
0
  5
F80
 10
753.772
 20
554.006
 30
0.000000
  70
    32
  0
VERTEX
  8
0
  5
F81
 10
753.770
 20
554.005
 30
0.000000
  70
    32
  0
VERTEX
  8
0
  5
F82
 10
753.768
 20
554.005
 30
0.000000
  70
    32
  0
VERTEX
  8
0
  5
F83
 10
753.765
 20
554.005
 30
0.000000
  70
    32
  0
VERTEX
  8
0
  5
F84
 10
753.763
 20
554.005
 30
0.000000
  70
    32
  0
VERTEX
  8
0
  5
F85
 10
753.761
 20
554.005
 30
0.000000
  70
    32
  0
VERTEX
  8
0
  5
F86
 10
753.759
 20
554.005
 30
0.000000
  70
    32
  0
VERTEX
  8
0
  5
F87
 10
753.757
 20
554.004
 30
0.000000
  70
    32
  0
VERTEX
  8
0
  5
F88
 10
753.755
 20
554.004
 30
0.000000
  70
    32
  0
VERTEX
  8
0
  5
F89
 10
753.752
 20
554.004
 30
0.000000
  70
    32
  0
VERTEX
  8
0
  5
F8A
 10
753.750
 20
554.004
 30
0.000000
  70
    32
  0
VERTEX
  8
0
  5
F8B
 10
753.748
 20
554.004
 30
0.000000
  70
    32
  0
VERTEX
  8
0
  5
F8C
 10
753.746
 20
554.004
 30
0.000000
  70
    32
  0
VERTEX
  8
0
  5
F8D
 10
753.744
 20
554.004
 30
0.000000
  70
    32
  0
VERTEX
  8
0
  5
F8E
 10
753.742
 20
554.003
 30
0.000000
  70
    32
  0
VERTEX
  8
0
  5
F8F
 10
753.740
 20
554.003
 30
0.000000
  70
    32
  0
VERTEX
  8
0
  5
F90
 10
753.737
 20
554.003
 30
0.000000
  70
    32
  0
VERTEX
  8
0
  5
F91
 10
753.735
 20
554.003
 30
0.000000
  70
    32
  0
VERTEX
  8
0
  5
F92
 10
753.733
 20
554.003
 30
0.000000
  70
    32
  0
VERTEX
  8
0
  5
F93
 10
753.731
 20
554.003
 30
0.000000
  70
    32
  0
VERTEX
  8
0
  5
F94
 10
753.729
 20
554.002
 30
0.000000
  70
    32
  0
VERTEX
  8
0
  5
F95
 10
753.727
 20
554.002
 30
0.000000
  70
    32
  0
VERTEX
  8
0
  5
F96
 10
753.724
 20
554.002
 30
0.000000
  70
    32
  0
VERTEX
  8
0
  5
F97
 10
753.722
 20
554.002
 30
0.000000
  70
    32
  0
VERTEX
  8
0
  5
F98
 10
753.720
 20
554.002
 30
0.000000
  70
    32
  0
VERTEX
  8
0
  5
F99
 10
753.718
 20
554.002
 30
0.000000
  70
    32
  0
VERTEX
  8
0
  5
F9A
 10
753.716
 20
554.001
 30
0.000000
  70
    32
  0
VERTEX
  8
0
  5
F9B
 10
753.714
 20
554.001
 30
0.000000
  70
    32
  0
VERTEX
  8
0
  5
F9C
 10
753.711
 20
554.001
 30
0.000000
  70
    32
  0
VERTEX
  8
0
  5
F9D
 10
753.709
 20
554.001
 30
0.000000
  70
    32
  0
VERTEX
  8
0
  5
F9E
 10
753.707
 20
554.001
 30
0.000000
  70
    32
  0
VERTEX
  8
0
  5
F9F
 10
753.705
 20
554.001
 30
0.000000
  70
    32
  0
VERTEX
  8
0
  5
FA0
 10
753.703
 20
554.001
 30
0.000000
  70
    32
  0
VERTEX
  8
0
  5
FA1
 10
753.701
 20
554.000
 30
0.000000
  70
    32
  0
VERTEX
  8
0
  5
FA2
 10
753.698
 20
554.000
 30
0.000000
  70
    32
  0
VERTEX
  8
0
  5
FA3
 10
753.696
 20
554.000
 30
0.000000
  70
    32
  0
VERTEX
  8
0
  5
FA4
 10
753.694
 20
554.000
 30
0.000000
  70
    32
  0
VERTEX
  8
0
  5
FA5
 10
753.692
 20
554.000
 30
0.000000
  70
    32
  0
VERTEX
  8
0
  5
FA6
 10
753.690
 20
554.000
 30
0.000000
  70
    32
  0
VERTEX
  8
0
  5
FA7
 10
753.688
 20
553.999
 30
0.000000
  70
    32
  0
VERTEX
  8
0
  5
FA8
 10
753.685
 20
553.999
 30
0.000000
  70
    32
  0
VERTEX
  8
0
  5
FA9
 10
753.683
 20
553.999
 30
0.000000
  70
    32
  0
VERTEX
  8
0
  5
FAA
 10
753.681
 20
553.999
 30
0.000000
  70
    32
  0
VERTEX
  8
0
  5
FAB
 10
753.679
 20
553.999
 30
0.000000
  70
    32
  0
VERTEX
  8
0
  5
FAC
 10
753.677
 20
553.999
 30
0.000000
  70
    32
  0
VERTEX
  8
0
  5
FAD
 10
753.675
 20
553.999
 30
0.000000
  70
    32
  0
VERTEX
  8
0
  5
FAE
 10
753.672
 20
553.998
 30
0.000000
  70
    32
  0
VERTEX
  8
0
  5
FAF
 10
753.670
 20
553.998
 30
0.000000
  70
    32
  0
VERTEX
  8
0
  5
FB0
 10
753.668
 20
553.998
 30
0.000000
  70
    32
  0
VERTEX
  8
0
  5
FB1
 10
753.666
 20
553.998
 30
0.000000
  70
    32
  0
VERTEX
  8
0
  5
FB2
 10
753.664
 20
553.998
 30
0.000000
  70
    32
  0
VERTEX
  8
0
  5
FB3
 10
753.662
 20
553.998
 30
0.000000
  70
    32
  0
VERTEX
  8
0
  5
FB4
 10
753.659
 20
553.997
 30
0.000000
  70
    32
  0
VERTEX
  8
0
  5
FB5
 10
753.657
 20
553.997
 30
0.000000
  70
    32
  0
VERTEX
  8
0
  5
FB6
 10
753.655
 20
553.997
 30
0.000000
  70
    32
  0
VERTEX
  8
0
  5
FB7
 10
753.653
 20
553.997
 30
0.000000
  70
    32
  0
VERTEX
  8
0
  5
FB8
 10
753.651
 20
553.997
 30
0.000000
  70
    32
  0
VERTEX
  8
0
  5
FB9
 10
753.649
 20
553.997
 30
0.000000
  70
    32
  0
VERTEX
  8
0
  5
FBA
 10
753.646
 20
553.997
 30
0.000000
  70
    32
  0
VERTEX
  8
0
  5
FBB
 10
753.644
 20
553.996
 30
0.000000
  70
    32
  0
VERTEX
  8
0
  5
FBC
 10
753.642
 20
553.996
 30
0.000000
  70
    32
  0
VERTEX
  8
0
  5
FBD
 10
753.640
 20
553.996
 30
0.000000
  70
    32
  0
VERTEX
  8
0
  5
FBE
 10
753.638
 20
553.996
 30
0.000000
  70
    32
  0
VERTEX
  8
0
  5
FBF
 10
753.636
 20
553.996
 30
0.000000
  70
    32
  0
VERTEX
  8
0
  5
FC0
 10
753.633
 20
553.996
 30
0.000000
  70
    32
  0
VERTEX
  8
0
  5
FC1
 10
753.631
 20
553.995
 30
0.000000
  70
    32
  0
VERTEX
  8
0
  5
FC2
 10
753.629
 20
553.995
 30
0.000000
  70
    32
  0
VERTEX
  8
0
  5
FC3
 10
753.627
 20
553.995
 30
0.000000
  70
    32
  0
VERTEX
  8
0
  5
FC4
 10
753.625
 20
553.995
 30
0.000000
  70
    32
  0
VERTEX
  8
0
  5
FC5
 10
753.623
 20
553.995
 30
0.000000
  70
    32
  0
VERTEX
  8
0
  5
FC6
 10
753.620
 20
553.995
 30
0.000000
  70
    32
  0
VERTEX
  8
0
  5
FC7
 10
753.618
 20
553.995
 30
0.000000
  70
    32
  0
VERTEX
  8
0
  5
FC8
 10
753.616
 20
553.994
 30
0.000000
  70
    32
  0
VERTEX
  8
0
  5
FC9
 10
753.614
 20
553.994
 30
0.000000
  70
    32
  0
VERTEX
  8
0
  5
FCA
 10
753.612
 20
553.994
 30
0.000000
  70
    32
  0
VERTEX
  8
0
  5
FCB
 10
753.610
 20
553.994
 30
0.000000
  70
    32
  0
SEQEND
  8
0
  5
FCC
  0
LINE
  5
7AD
  8
0
 10
794.687961340269
 20
799.16788474936311
 30
0.0
 11
794.64516735889777
 21
799.34014075416735
 31
0.0
  0
LINE
  5
7AE
  8
0
 10
774.13929678106899
 20
684.47721495516305
 30
0.0
 11
774.23272514591667
 21
684.62818027270157
 31
0.0
  0
LINE
  5
7AF
  8
0
 10
774.23272514593452
 20
800.3188240537944
 30
0.0
 11
774.13929678106899
 21
800.46978937136305
 31
0.0
  0
ENDSEC
  0
EOF
