  0
SECTION
  2
HEADER
  9
$ACADVER
  1
AC1015
  9
$ACADMAINTVER
 70
    20
  9
$DWGCODEPAGE
  3
ANSI_936
  9
$INSBASE
 10
0.0
 20
0.0
 30
0.0
  9
$EXTMIN
 10
32.24346501868659
 20
17.63744132085322
 30
0.0
  9
$EXTMAX
 10
93.10661346322495
 20
129.5889875072073
 30
0.0
  9
$LIMMIN
 10
0.0
 20
0.0
  9
$LIMMAX
 10
17.0
 20
11.0
  9
$ORTHOMODE
 70
     0
  9
$REGENMODE
 70
     1
  9
$FILLMODE
 70
     1
  9
$QTEXTMODE
 70
     0
  9
$MIRRTEXT
 70
     1
  9
$LTSCALE
 40
1.0
  9
$ATTMODE
 70
     1
  9
$TEXTSIZE
 40
0.2
  9
$TRACEWID
 40
0.05
  9
$TEXTSTYLE
  7
STANDARD
  9
$CLAYER
  8
0
  9
$CELTYPE
  6
ByLayer
  9
$CECOLOR
 62
   256
  9
$CELTSCALE
 40
1.0
  9
$DISPSILH
 70
     0
  9
$DIMSCALE
 40
1.0
  9
$DIMASZ
 40
0.12
  9
$DIMEXO
 40
0.05
  9
$DIMDLI
 40
0.5
  9
$DIMRND
 40
0.0
  9
$DIMDLE
 40
0.0
  9
$DIMEXE
 40
0.1
  9
$DIMTP
 40
0.1
  9
$DIMTM
 40
0.1
  9
$DIMTXT
 40
0.12
  9
$DIMCEN
 40
0.0
  9
$DIMTSZ
 40
0.0
  9
$DIMTOL
 70
     0
  9
$DIMLIM
 70
     0
  9
$DIMTIH
 70
     1
  9
$DIMTOH
 70
     1
  9
$DIMSE1
 70
     0
  9
$DIMSE2
 70
     0
  9
$DIMTAD
 70
     0
  9
$DIMZIN
 70
     7
  9
$DIMBLK
  1

  9
$DIMASO
 70
     1
  9
$DIMSHO
 70
     1
  9
$DIMPOST
  1

  9
$DIMAPOST
  1
mm
  9
$DIMALT
 70
     0
  9
$DIMALTD
 70
     2
  9
$DIMALTF
 40
25.4
  9
$DIMLFAC
 40
1.0
  9
$DIMTOFL
 70
     0
  9
$DIMTVP
 40
0.0
  9
$DIMTIX
 70
     0
  9
$DIMSOXD
 70
     0
  9
$DIMSAH
 70
     0
  9
$DIMBLK1
  1

  9
$DIMBLK2
  1

  9
$DIMSTYLE
  2
AM_ANSI
  9
$DIMCLRD
 70
   256
  9
$DIMCLRE
 70
   256
  9
$DIMCLRT
 70
   140
  9
$DIMTFAC
 40
0.71
  9
$DIMGAP
 40
0.06
  9
$DIMJUST
 70
     0
  9
$DIMSD1
 70
     0
  9
$DIMSD2
 70
     0
  9
$DIMTOLJ
 70
     1
  9
$DIMTZIN
 70
     7
  9
$DIMALTZ
 70
     0
  9
$DIMALTTZ
 70
     0
  9
$DIMUPT
 70
     0
  9
$DIMDEC
 70
     4
  9
$DIMTDEC
 70
     4
  9
$DIMALTU
 70
     2
  9
$DIMALTTD
 70
     4
  9
$DIMTXSTY
  7
STANDARD
  9
$DIMAUNIT
 70
     0
  9
$DIMADEC
 70
     0
  9
$DIMALTRND
 40
0.0
  9
$DIMAZIN
 70
     2
  9
$DIMDSEP
 70
    46
  9
$DIMATFIT
 70
     3
  9
$DIMFRAC
 70
     0
  9
$DIMLDRBLK
  1

  9
$DIMLUNIT
 70
     2
  9
$DIMLWD
 70
    -1
  9
$DIMLWE
 70
    -1
  9
$DIMTMOVE
 70
     0
  9
$LUNITS
 70
     2
  9
$LUPREC
 70
     4
  9
$SKETCHINC
 40
0.1
  9
$FILLETRAD
 40
0.125
  9
$AUNITS
 70
     0
  9
$AUPREC
 70
     0
  9
$MENU
  1
.
  9
$ELEVATION
 40
0.0
  9
$PELEVATION
 40
0.0
  9
$THICKNESS
 40
0.0
  9
$LIMCHECK
 70
     0
  9
$CHAMFERA
 40
0.125
  9
$CHAMFERB
 40
0.125
  9
$CHAMFERC
 40
1.0
  9
$CHAMFERD
 40
0.0
  9
$SKPOLY
 70
     0
  9
$TDCREATE
 40
2455303.663696042
  9
$TDUCREATE
 40
2455303.330362708
  9
$TDUPDATE
 40
2455303.670630012
  9
$TDUUPDATE
 40
2455303.337296678
  9
$TDINDWG
 40
0.0069345023
  9
$TDUSRTIMER
 40
0.0069343287
  9
$USRTIMER
 70
     1
  9
$ANGBASE
 50
0.0
  9
$ANGDIR
 70
     0
  9
$PDMODE
 70
     0
  9
$PDSIZE
 40
0.0
  9
$PLINEWID
 40
0.0
  9
$SPLFRAME
 70
     0
  9
$SPLINETYPE
 70
     6
  9
$SPLINESEGS
 70
     8
  9
$HANDSEED
  5
1386
  9
$SURFTAB1
 70
     6
  9
$SURFTAB2
 70
     6
  9
$SURFTYPE
 70
     6
  9
$SURFU
 70
     6
  9
$SURFV
 70
     6
  9
$UCSBASE
  2

  9
$UCSNAME
  2

  9
$UCSORG
 10
0.0
 20
0.0
 30
0.0
  9
$UCSXDIR
 10
1.0
 20
0.0
 30
0.0
  9
$UCSYDIR
 10
0.0
 20
1.0
 30
0.0
  9
$UCSORTHOREF
  2

  9
$UCSORTHOVIEW
 70
     0
  9
$UCSORGTOP
 10
0.0
 20
0.0
 30
0.0
  9
$UCSORGBOTTOM
 10
0.0
 20
0.0
 30
0.0
  9
$UCSORGLEFT
 10
0.0
 20
0.0
 30
0.0
  9
$UCSORGRIGHT
 10
0.0
 20
0.0
 30
0.0
  9
$UCSORGFRONT
 10
0.0
 20
0.0
 30
0.0
  9
$UCSORGBACK
 10
0.0
 20
0.0
 30
0.0
  9
$PUCSBASE
  2

  9
$PUCSNAME
  2

  9
$PUCSORG
 10
0.0
 20
0.0
 30
0.0
  9
$PUCSXDIR
 10
1.0
 20
0.0
 30
0.0
  9
$PUCSYDIR
 10
0.0
 20
1.0
 30
0.0
  9
$PUCSORTHOREF
  2

  9
$PUCSORTHOVIEW
 70
     0
  9
$PUCSORGTOP
 10
0.0
 20
0.0
 30
0.0
  9
$PUCSORGBOTTOM
 10
0.0
 20
0.0
 30
0.0
  9
$PUCSORGLEFT
 10
0.0
 20
0.0
 30
0.0
  9
$PUCSORGRIGHT
 10
0.0
 20
0.0
 30
0.0
  9
$PUCSORGFRONT
 10
0.0
 20
0.0
 30
0.0
  9
$PUCSORGBACK
 10
0.0
 20
0.0
 30
0.0
  9
$USERI1
 70
     0
  9
$USERI2
 70
     0
  9
$USERI3
 70
     0
  9
$USERI4
 70
     0
  9
$USERI5
 70
     0
  9
$USERR1
 40
0.0
  9
$USERR2
 40
0.0
  9
$USERR3
 40
0.0
  9
$USERR4
 40
0.0
  9
$USERR5
 40
0.0
  9
$WORLDVIEW
 70
     1
  9
$SHADEDGE
 70
     3
  9
$SHADEDIF
 70
    70
  9
$TILEMODE
 70
     1
  9
$MAXACTVP
 70
    64
  9
$PINSBASE
 10
0.0
 20
0.0
 30
0.0
  9
$PLIMCHECK
 70
     0
  9
$PEXTMIN
 10
1.000000000000000E+20
 20
1.000000000000000E+20
 30
1.000000000000000E+20
  9
$PEXTMAX
 10
-1.000000000000000E+20
 20
-1.000000000000000E+20
 30
-1.000000000000000E+20
  9
$PLIMMIN
 10
0.0
 20
0.0
  9
$PLIMMAX
 10
12.0
 20
9.0
  9
$UNITMODE
 70
     0
  9
$VISRETAIN
 70
     1
  9
$PLINEGEN
 70
     0
  9
$PSLTSCALE
 70
     1
  9
$TREEDEPTH
 70
  3020
  9
$CMLSTYLE
  2
Standard
  9
$CMLJUST
 70
     0
  9
$CMLSCALE
 40
1.0
  9
$PROXYGRAPHICS
 70
     1
  9
$MEASUREMENT
 70
     0
  9
$CELWEIGHT
370
    -1
  9
$ENDCAPS
280
     0
  9
$JOINSTYLE
280
     0
  9
$LWDISPLAY
290
     0
  9
$INSUNITS
 70
     1
  9
$HYPERLINKBASE
  1

  9
$STYLESHEET
  1

  9
$XEDIT
290
     1
  9
$CEPSNTYPE
380
     0
  9
$PSTYLEMODE
290
     1
  9
$FINGERPRINTGUID
  2
{C143988C-6A68-40A1-8557-6688193556E0}
  9
$VERSIONGUID
  2
{AC8F2C8F-046C-4FEE-9EA9-9DE656C40850}
  9
$EXTNAMES
290
     1
  9
$PSVPSCALE
 40
0.0
  9
$OLESTARTUP
290
     0
  0
ENDSEC
  0
SECTION
  2
CLASSES
  0
CLASS
  1
ACDBDICTIONARYWDFLT
  2
AcDbDictionaryWithDefault
  3
ObjectDBX Classes
 90
        0
280
     0
281
     0
  0
CLASS
  1
ACDBPLACEHOLDER
  2
AcDbPlaceHolder
  3
ObjectDBX Classes
 90
        0
280
     0
281
     0
  0
CLASS
  1
LAYOUT
  2
AcDbLayout
  3
ObjectDBX Classes
 90
        0
280
     0
281
     0
  0
CLASS
  1
ACME_DOCUMENT
  2
AcMeDbDoc
  3
AcMeServices
 90
     1024
280
     0
281
     0
  0
CLASS
  1
AMGSETTINGSOBJ
  2
AmgSettingsObj
  3
"AcadM|Product Description: AutoCAD Mechanical|Company: Autodesk, Inc."
 90
     1024
280
     0
281
     0
  0
CLASS
  1
ACMESCOPE
  2
AcMeScope
  3
AcMeServices
 90
     1024
280
     0
281
     0
  0
CLASS
  1
ACMECOMMANDHISTORY
  2
AcMeCommandHistory
  3
AcMeServices
 90
     1024
280
     0
281
     0
  0
CLASS
  1
ACIMSYSVARMAN
  2
AcImSysVarManager
  3
AcMeServices
 90
     1024
280
     0
281
     0
  0
CLASS
  1
ACIMREALSYSVAR
  2
AcImRealSysVar
  3
AcMeServices
 90
     1024
280
     0
281
     0
  0
CLASS
  1
ACIMINTSYSVAR
  2
AcImIntSysVar
  3
AcMeServices
 90
     1024
280
     0
281
     0
  0
CLASS
  1
ACMEDRAWINGMAN
  2
AcMeDrawingMan
  3
AcMeServices
 90
     1024
280
     0
281
     0
  0
CLASS
  1
ACMEVIEW
  2
AcMeView
  3
AcMeServices
 90
     1024
280
     0
281
     0
  0
CLASS
  1
ACDBENTITYCACHE
  2
AcMeEntityCache
  3
AcMeServices
 90
     1024
280
     0
281
     0
  0
CLASS
  1
GSMANAGER
  2
AcMeGSManager
  3
AcMeServices
 90
     1024
280
     0
281
     0
  0
CLASS
  1
AMDTINTERNALREACTOR
  2
AmdtInternalReactor
  3
AcMeServices
 90
     1024
280
     0
281
     0
  0
CLASS
  1
ACMESTATEMGR
  2
AcMeStateMgr
  3
AcMeServices
 90
     1024
280
     0
281
     0
  0
CLASS
  1
ACGREFMASTER
  2
AcGrefMaster
  3
AcAttribServices
 90
     1024
280
     0
281
     0
  0
CLASS
  1
ACME_DATABASE
  2
AcMeDbDatabase
  3
AcMeServices
 90
     1024
280
     0
281
     0
  0
CLASS
  1
ACRFINSADJUSTERMGR
  2
AcRfInsAdjusterMgr
  3
AcMeServices
 90
     1024
280
     0
281
     0
  0
CLASS
  1
ACGREFACADMASTER
  2
AcGrefacadMaster
  3
AcGrefServices
 90
     1024
280
     0
281
     0
  0
CLASS
  1
AMIMASTER
  2
AmiMaster
  3
AmiServices
 90
     1024
280
     0
281
     0
  0
CLASS
  1
ACMDATADICTIONARY
  2
AcmDataDictionary
  3
"AcmSymBB|Product Description: AutoCAD Mechanical|Company: Autodesk, Inc."
 90
     1024
280
     0
281
     0
  0
CLASS
  1
ACMDATAENTRYBLOCK
  2
AcmDataEntryBlock
  3
AcmSymBB|Product Description: AutoCAD Mechanical|Company: Autodesk, Inc.
 90
     1024
280
     0
281
     0
  0
CLASS
  1
ACIMSTRSYSVAR
  2
AcImStrSysVar
  3
AcMeServices
 90
     1024
280
     0
281
     0
  0
CLASS
  1
ACMSTANDARDANSI
  2
AcmStandardANSI
  3
"Amdt_StdImp|Product Description: AutoCAD Mechanical|Company: Autodesk, Inc."
 90
     1024
280
     0
281
     0
  0
CLASS
  1
AMGOBJPROPCFG
  2
AmgObjPropCfg
  3
"AmgLay|Product Description: AutoCAD Mechanical|Company: Autodesk, Inc."
 90
     1025
280
     0
281
     0
  0
CLASS
  1
ACMSURFSTANDARDANSI
  2
AcmSurfTextStdANSI
  3
"Amdt_StdImp|Product Description: AutoCAD Mechanical|Company: Autodesk, Inc."
 90
     1024
280
     0
281
     0
  0
CLASS
  1
ACMFCFSTANDARDANSI
  2
AcmFCFStdANSI
  3
"Amdt_StdImp|Product Description: AutoCAD Mechanical|Company: Autodesk, Inc."
 90
     1024
280
     0
281
     0
  0
CLASS
  1
ACMWELDSTANDARDANSI
  2
AcmWeldingStdANSI
  3
"Amdt_StdImp|Product Description: AutoCAD Mechanical|Company: Autodesk, Inc."
 90
     1024
280
     0
281
     0
  0
CLASS
  1
ACMIDSTANDARDANSI
  2
AcmIdStdANSI
  3
"Amdt_StdImp|Product Description: AutoCAD Mechanical|Company: Autodesk, Inc."
 90
     1024
280
     0
281
     0
  0
CLASS
  1
ACMDATUMSTANDARDANSI
  2
AcmDatumStdANSI
  3
"Amdt_StdImp|Product Description: AutoCAD Mechanical|Company: Autodesk, Inc."
 90
     1024
280
     0
281
     0
  0
CLASS
  1
ACMBOMSTANDARDANSI
  2
AcmBOMStdANSI
  3
"Amdt_StdImp|Product Description: AutoCAD Mechanical|Company: Autodesk, Inc."
 90
     1024
280
     0
281
     0
  0
CLASS
  1
ACMDETAILSTANDARDANSI
  2
AmdtDetailSymStdANSI
  3
"Amdt_StdImp|Product Description: AutoCAD Mechanical|Company: Autodesk, Inc."
 90
     1024
280
     0
281
     0
  0
CLASS
  1
ACMSECTIONSTANDARDANSI
  2
AmdtSectionSymStdANSI
  3
"Amdt_StdImp|Product Description: AutoCAD Mechanical|Company: Autodesk, Inc."
 90
     1024
280
     0
281
     0
  0
CLASS
  1
ACMCENTERLINESTANDARDANSI
  2
AmdtCenterLineStdANSI
  3
"Amdt_StdImp|Product Description: AutoCAD Mechanical|Company: Autodesk, Inc."
 90
     1024
280
     0
281
     0
  0
CLASS
  1
ACMNOTESTANDARDANSI
  2
AmdtNoteStdANSI
  3
"Amdt_StdImp|Product Description: AutoCAD Mechanical|Company: Autodesk, Inc."
 90
     1024
280
     0
281
     0
  0
CLASS
  1
ACAMGLAYSTD
  2
AcAmgLayStd
  3
"AmgLay|Product Description: AutoCAD Mechanical|Company: Autodesk, Inc."
 90
     1024
280
     0
281
     0
  0
CLASS
  1
ACAMGDIMSTD
  2
AcAmgDimStd
  3
"AmgDim|Product Description: AutoCAD Mechanical|Company: Autodesk, Inc."
 90
     1024
280
     0
281
     0
  0
CLASS
  1
ACAMGHOLECHARTSTDANSI
  2
AcAmgHoleChartStdANSI
  3
AmgDim|Product Description: AutoCAD Mechanical|Company: Autodesk, Inc.
 90
     1024
280
     0
281
     0
  0
CLASS
  1
ACAMGTITLESTD
  2
AcAmgTitleStd
  3
"AmgTitle|Product Description: AutoCAD Mechanical|Company: Autodesk, Inc."
 90
     4095
280
     0
281
     0
  0
CLASS
  1
LAYER_INDEX
  2
AcDbLayerIndex
  3
ObjectDBX Classes
 90
    32768
280
     0
281
     0
  0
CLASS
  1
IDBUFFER
  2
AcDbIdBuffer
  3
ObjectDBX Classes
 90
    32768
280
     0
281
     0
  0
CLASS
  1
DICTIONARYVAR
  2
AcDbDictionaryVar
  3
ObjectDBX Classes
 90
        0
280
     0
281
     0
  0
CLASS
  1
AM_DRAWING_MGR
  2
AcDmDwgMgr
  3
AcMechDwgViewMgmt
 90
     1024
280
     0
281
     0
  0
CLASS
  1
AM_DWG_DOCUMENT
  2
AcDmDwgDocument
  3
AcMechDwgViewMgmt
 90
     1024
280
     0
281
     0
  0
CLASS
  1
AM_DWG_SHEET
  2
AcDmSheet
  3
AcMechDwgViewMgmt
 90
     1024
280
     0
281
     0
  0
CLASS
  1
AM_VIEWDIMPARMAP
  2
AcDmViewDimParMap
  3
AcMechDwgViewMgmt
 90
     1024
280
     0
281
     0
  0
CLASS
  1
AM_DWGMGR_NAME
  2
AcDmDwgMgrName
  3
AcMechDwgViewMgmt
 90
     1024
280
     0
281
     0
  0
CLASS
  1
AMDTMENUSTATEMGR
  2
AmdtMenuStateMgr
  3
McadcomServices
 90
     1024
280
     0
281
     0
  0
CLASS
  1
AMDTMCOMMENUSTATE
  2
AmdtMcomMenuState
  3
McadcomServices
 90
     1024
280
     0
281
     0
  0
CLASS
  1
MAPIAMMOUDLE
  2
MApiAmModule
  3
MApiAmServices
 90
     1024
280
     0
281
     0
  0
CLASS
  1
AMDTADMENUSTATE
  2
AmdtAdMenuState
  3
DesignerServices
 90
     1024
280
     0
281
     0
  0
CLASS
  1
ADAPPL
  2
AcAdAppl
  3
DesignerServices
 90
     1024
280
     0
281
     0
  0
CLASS
  1
DEPMGR
  2
AcAdDepMgr
  3
DesignerServices
 90
     1024
280
     0
281
     0
  0
CLASS
  1
PARAMMGR
  2
AcAdParamMgr
  3
DesignerServices
 90
     1024
280
     0
281
     0
  0
CLASS
  1
PARAMSCOPE
  2
AcAdParamScope
  3
DesignerServices
 90
     1024
280
     0
281
     0
  0
CLASS
  1
NAMEDAPPL
  2
AcAdNamedAppl
  3
DesignerServices
 90
     1024
280
     0
281
     0
  0
CLASS
  1
AMDTDMMENUSTATE
  2
AmdtDmMenuState
  3
AcMechDwgViewMgmt
 90
     1024
280
     0
281
     0
  0
CLASS
  1
AMDTAMMENUSTATE
  2
AmdtAmMenuState
  3
DesignerAssemblies
 90
     1024
280
     0
281
     0
  0
CLASS
  1
ACAMPROJECT
  2
AcAmProject
  3
DesignerAssemblies
 90
     1024
280
     0
281
     0
  0
CLASS
  1
ACAMGRCOMPDEF
  2
AcAmGrCompDef
  3
DesignerAssemblies
 90
     1024
280
     0
281
     0
  0
CLASS
  1
ACCMCONTEXT
  2
AcCmContext
  3
DesignerAssemblies
 90
     1024
280
     0
281
     0
  0
CLASS
  1
ACAMCOMPDEF
  2
AcAmCompDef
  3
DesignerAssemblies
 90
     1024
280
     0
281
     0
  0
CLASS
  1
ACAMCOMPDEFMGR
  2
AcAmCompDefMgr
  3
DesignerAssemblies
 90
     1024
280
     0
281
     0
  0
CLASS
  1
AMCONTEXTMGR
  2
AcAmContextMgr
  3
DesignerAssemblies
 90
     1024
280
     0
281
     0
  0
CLASS
  1
ACAMCONTEXTMODELER
  2
AcAmContextModeler
  3
DesignerAssemblies
 90
     1024
280
     0
281
     0
  0
CLASS
  1
ACMTHREADLINESTANDARDANSI
  2
AmdtThreadLineStdANSI
  3
"Amdt_StdImp|Product Description: AutoCAD Mechanical|Company: Autodesk, Inc."
 90
     1024
280
     0
281
     0
  0
CLASS
  1
CATALOGSTATE
  2
AcAmCatalogState
  3
DesignerAssemblies
 90
     1024
280
     0
281
     0
  0
CLASS
  1
ACAMGRCOMPDEFSET
  2
AcAmGrCompDefSet
  3
DesignerAssemblies
 90
     1024
280
     0
281
     0
  0
CLASS
  1
AMDTBROWSERDBTAB
  2
AmdtBrowserDbTab
  3
McadcomServices
 90
     1024
280
     0
281
     0
  0
CLASS
  1
CBROWSERAPPOBJECT
  2
CBrowserAppObject
  3
McadcomServices
 90
     1024
280
     0
281
     0
  0
CLASS
  1
DM_PLACEHOLDER
  2
AcDmSelsetPlaceholder
  3
AcMechDwgViewMgmt
 90
     1024
280
     0
281
     0
  0
CLASS
  1
TABLESTYLE
  2
AcDbTableStyle
  3
ObjectDBX Classes
 90
     4095
280
     0
281
     0
  0
CLASS
  1
AMDTNOTETEMPLATEDB
  2
AmdtNoteTemplateDB
  3
AcmSymBB|Product Description: AutoCAD Mechanical|Company: Autodesk, Inc.
 90
     1024
280
     0
281
     0
  0
CLASS
  1
MATERIAL
  2
AcDbMaterial
  3
ObjectDBX Classes
 90
     1153
280
     0
281
     0
  0
CLASS
  1
VISUALSTYLE
  2
AcDbVisualStyle
  3
ObjectDBX Classes
 90
     4095
280
     0
281
     0
  0
CLASS
  1
ACRFATTGENMGR
  2
AcRfAttGeneralMgr
  3
AcAttribServices
 90
     1024
280
     0
281
     0
  0
CLASS
  1
ACRFOBJATTMGR
  2
AcRfObjAttGroupMgr
  3
AcAttribServices
 90
     1024
280
     0
281
     0
  0
CLASS
  1
ACRFMCADAPIATTHOLDER
  2
AcRfMCADAPIAttHolder
  3
AcAttribServices
 90
     1024
280
     0
281
     0
  0
CLASS
  1
AMDTSYSATTR
  2
AmdtSystemAttribute
  3
AcAttribServices
 90
     1024
280
     0
281
     0
  0
CLASS
  1
ACMTAPERSTANDARDANSI
  2
AcmTaperStdANSI
  3
"Amdt_StdImp|Product Description: AutoCAD Mechanical|Company: Autodesk, Inc."
 90
     1024
280
     0
281
     0
  0
CLASS
  1
CAMSSTRUCTBTNSTATE
  2
StructBtnState
  3
DesignerAssemblies
 90
     1024
280
     0
281
     0
  0
CLASS
  1
SCALE
  2
AcDbScale
  3
ObjectDBX Classes
 90
     1153
280
     0
281
     0
  0
CLASS
  1
MLEADERSTYLE
  2
AcDbMLeaderStyle
  3
ACDB_MLEADERSTYLE_CLASS
 90
     4095
280
     0
281
     0
  0
CLASS
  1
ACMANOOTATIONVIEWSTANDARDANSI
  2
AmdtAnViewStdANSI
  3
"Amdt_StdImp|Product Description: AutoCAD Mechanical|Company: Autodesk, Inc."
 90
     1024
280
     0
281
     0
  0
CLASS
  1
CELLSTYLEMAP
  2
AcDbCellStyleMap
  3
ObjectDBX Classes
 90
     1152
280
     0
281
     0
  0
CLASS
  1
EXACXREFPANELOBJECT
  2
ExAcXREFPanelObject
  3
EXAC_ESW
 90
     1025
280
     0
281
     0
  0
CLASS
  1
NPOCOLLECTION
  2
AcDbImpNonPersistentObjectsCollection
  3
ObjectDBX Classes
 90
     1153
280
     0
281
     0
  0
CLASS
  1
SORTENTSTABLE
  2
AcDbSortentsTable
  3
ObjectDBX Classes
 90
        0
280
     0
281
     0
  0
CLASS
  1
ACAMGFILTERDAT
  2
AcAmgFilterDat
  3
"AcadM|Product Description: AutoCAD Mechanical|Company: Autodesk, Inc."
 90
     1024
280
     0
281
     0
  0
ENDSEC
  0
SECTION
  2
TABLES
  0
TABLE
  2
VPORT
  5
8
330
0
100
AcDbSymbolTable
 70
     1
  0
VPORT
  5
291
330
8
100
AcDbSymbolTableRecord
100
AcDbViewportTableRecord
  2
*Active
 70
     0
 10
0.0
 20
0.0
 11
1.0
 21
1.0
 12
50.14035691834941
 22
75.39864248409466
 13
0.0
 23
0.0
 14
0.125
 24
0.125
 15
1.0
 25
1.0
 16
0.0
 26
0.0
 36
1.0
 17
0.0
 27
0.0
 37
0.0
 40
30.2424579277368
 41
2.152278177458033
 42
50.0
 43
0.0
 44
0.0
 50
0.0
 51
0.0
 71
     0
 72
   100
 73
     1
 74
     3
 75
     0
 76
     0
 77
     0
 78
     0
281
     0
 65
     1
110
0.0
120
0.0
130
0.0
111
1.0
121
0.0
131
0.0
112
0.0
122
1.0
132
0.0
 79
     0
146
0.0
  0
ENDTAB
  0
TABLE
  2
LTYPE
  5
5
330
0
100
AcDbSymbolTable
 70
    16
  0
LTYPE
  5
14
330
5
100
AcDbSymbolTableRecord
100
AcDbLinetypeTableRecord
  2
ByBlock
 70
     0
  3

 72
    65
 73
     0
 40
0.0
  0
LTYPE
  5
15
330
5
100
AcDbSymbolTableRecord
100
AcDbLinetypeTableRecord
  2
ByLayer
 70
     0
  3

 72
    65
 73
     0
 40
0.0
  0
LTYPE
  5
16
330
5
100
AcDbSymbolTableRecord
100
AcDbLinetypeTableRecord
  2
Continuous
 70
     0
  3
Solid line
 72
    65
 73
     0
 40
0.0
  0
LTYPE
  5
6C
330
5
100
AcDbSymbolTableRecord
100
AcDbLinetypeTableRecord
  2
AM_ISO02W050
 70
     0
  3
__ __ __ __ __ __ __ __ __ __ __ __ __ __ __
 72
    65
 73
     2
 40
7.5
 49
6.0
 74
     0
 49
-1.5
 74
     0
  0
LTYPE
  5
6D
330
5
100
AcDbSymbolTableRecord
100
AcDbLinetypeTableRecord
  2
AM_ISO08W050
 70
     0
  3
____ . ____ . ____ . ____ . ____ . ____ . ____
 72
    65
 73
     4
 40
18.0
 49
12.0
 74
     0
 49
-1.5
 74
     0
 49
3.0
 74
     0
 49
-1.5
 74
     0
  0
LTYPE
  5
6E
330
5
100
AcDbSymbolTableRecord
100
AcDbLinetypeTableRecord
  2
AM_ISO09W050
 70
     0
  3
_____ . . _____ . . _____ . . ____ .. ____
 72
    65
 73
     6
 40
22.5
 49
12.0
 74
     0
 49
-1.5
 74
     0
 49
3.0
 74
     0
 49
-1.5
 74
     0
 49
3.0
 74
     0
 49
-1.5
 74
     0
  0
LTYPE
  5
6F
330
5
100
AcDbSymbolTableRecord
100
AcDbLinetypeTableRecord
  2
Amconstr
 70
     0
  3
_______________________
 72
    65
 73
     2
 40
9999.0
 49
9999.0
 74
     0
 49
0.0
 74
     0
  0
LTYPE
  5
70
330
5
100
AcDbSymbolTableRecord
100
AcDbLinetypeTableRecord
  2
AM_ISO08W050x2
 70
     0
  3
__ . __ . __ . __ . __ . __
 72
    65
 73
     4
 40
9.0
 49
6.0
 74
     0
 49
-0.75
 74
     0
 49
1.5
 74
     0
 49
-0.75
 74
     0
  0
LTYPE
  5
71
330
5
100
AcDbSymbolTableRecord
100
AcDbLinetypeTableRecord
  2
AM_ISO02W050x2
 70
     0
  3
 _ _ _ _ _ _ _ _ _ _ _ _
 72
    65
 73
     2
 40
3.75
 49
3.0
 74
     0
 49
-0.75
 74
     0
  0
LTYPE
  5
74
330
5
100
AcDbSymbolTableRecord
100
AcDbLinetypeTableRecord
  2
Amzigzag
 70
     0
  3
/\/-/\/-/\/-/\/-/\/-/\/
 72
    65
 73
     2
 40
11.0001
 49
0.0001
 74
     4
 75
   136
340
254
 46
0.04
 50
0.0
 44
0.0
 45
0.0
 49
-11.0
 74
     0
  0
LTYPE
  5
75
330
5
100
AcDbSymbolTableRecord
100
AcDbLinetypeTableRecord
  2
HIDDEN
 70
     0
  3
Hidden __ __ __ __ __ __ __ __ __ __ __ __ __ _
 72
    65
 73
     2
 40
0.375
 49
0.25
 74
     0
 49
-0.125
 74
     0
  0
LTYPE
  5
76
330
5
100
AcDbSymbolTableRecord
100
AcDbLinetypeTableRecord
  2
CENTER
 70
     0
  3
Center ____ _ ____ _ ____ _ ____ _ ____ _ ____
 72
    65
 73
     4
 40
2.0
 49
1.25
 74
     0
 49
-0.25
 74
     0
 49
0.25
 74
     0
 49
-0.25
 74
     0
  0
LTYPE
  5
77
330
5
100
AcDbSymbolTableRecord
100
AcDbLinetypeTableRecord
  2
PHANTOM2
 70
     0
  3
Phantom (.5x) ___ _ _ ___ _ _ ___ _ _ ___ _ _
 72
    65
 73
     6
 40
1.25
 49
0.625
 74
     0
 49
-0.125
 74
     0
 49
0.125
 74
     0
 49
-0.125
 74
     0
 49
0.125
 74
     0
 49
-0.125
 74
     0
  0
LTYPE
  5
78
330
5
100
AcDbSymbolTableRecord
100
AcDbLinetypeTableRecord
  2
CENTER2
 70
     0
  3
Center (.5x) ___ _ ___ _ ___ _ ___ _ ___ _ ___
 72
    65
 73
     4
 40
1.125
 49
0.75
 74
     0
 49
-0.125
 74
     0
 49
0.125
 74
     0
 49
-0.125
 74
     0
  0
LTYPE
  5
79
330
5
100
AcDbSymbolTableRecord
100
AcDbLinetypeTableRecord
  2
HIDDEN2
 70
     0
  3
Hidden (.5x) _ _ _ _ _ _ _ _ _ _ _ _ _ _ _ _ _
 72
    65
 73
     2
 40
0.1875
 49
0.125
 74
     0
 49
-0.0625
 74
     0
  0
LTYPE
  5
7A
330
5
100
AcDbSymbolTableRecord
100
AcDbLinetypeTableRecord
  2
Amzigzag2
 70
     0
  3
/\/-/\/-/\/-/\/-/\/-/\/
 72
    65
 73
     2
 40
0.4401
 49
0.0001
 74
     4
 75
   136
340
254
 46
0.0016
 50
0.0
 44
0.0
 45
0.0
 49
-0.4400000000000001
 74
     0
  0
LTYPE
  5
87
330
5
100
AcDbSymbolTableRecord
100
AcDbLinetypeTableRecord
  2
ACANSTGB
 70
     0
  3
__ . . __ . .
 72
    65
 73
     6
 40
0.35433070866
 49
0.15748031496
 74
     0
 49
-0.03937007874
 74
     0
 49
0.03937007874
 74
     0
 49
-0.03937007874
 74
     0
 49
0.03937007874
 74
     0
 49
-0.03937007874
 74
     0
  0
LTYPE
  5
88
330
5
100
AcDbSymbolTableRecord
100
AcDbLinetypeTableRecord
  2
ACANSTGL
 70
     0
  3
_ _ _ _ _
 72
    65
 73
     2
 40
0.11811023622
 49
0.07874015748
 74
     0
 49
-0.03937007874
 74
     0
  0
ENDTAB
  0
TABLE
  2
LAYER
  5
2
330
0
100
AcDbSymbolTable
 70
     5
  0
LAYER
  5
10
102
{ACAD_XDICTIONARY
360
B67
102
}
330
2
100
AcDbSymbolTableRecord
100
AcDbLayerTableRecord
  2
0
 70
     0
 62
     7
  6
Continuous
370
    -3
390
F
  0
LAYER
  5
38C
102
{ACAD_XDICTIONARY
360
38D
102
}
330
2
100
AcDbSymbolTableRecord
100
AcDbLayerTableRecord
  2
SURFACE
 70
     0
 62
     7
  6
Continuous
370
    -3
390
F
  0
LAYER
  5
38E
102
{ACAD_XDICTIONARY
360
38F
102
}
330
2
100
AcDbSymbolTableRecord
100
AcDbLayerTableRecord
  2
_SURFACE
 70
     0
 62
     7
  6
Continuous
370
    -3
390
F
  0
LAYER
  5
390
102
{ACAD_XDICTIONARY
360
391
102
}
330
2
100
AcDbSymbolTableRecord
100
AcDbLayerTableRecord
  2
__SOLID_BOWL
 70
     0
 62
     7
  6
Continuous
370
    -3
390
F
  0
LAYER
  5
392
102
{ACAD_XDICTIONARY
360
393
102
}
330
2
100
AcDbSymbolTableRecord
100
AcDbLayerTableRecord
  2
__SOLID_RIM
 70
     0
 62
     7
  6
Continuous
370
    -3
390
F
  0
ENDTAB
  0
TABLE
  2
STYLE
  5
3
330
0
100
AcDbSymbolTable
 70
     8
  0
STYLE
  5
11
330
3
100
AcDbSymbolTableRecord
100
AcDbTextStyleTableRecord
  2
STANDARD
 70
     0
 40
0.0
 41
1.0
 50
0.0
 71
     0
 42
0.2
  3
ROMANS.SHX
  4

  0
STYLE
  5
73
330
3
100
AcDbSymbolTableRecord
100
AcDbTextStyleTableRecord
  2

 70
     1
 40
0.0
 41
1.0
 50
0.0
 71
     0
 42
0.2
  3
ltypeshp.shx
  4

  0
STYLE
  5
7B
330
3
100
AcDbSymbolTableRecord
100
AcDbTextStyleTableRecord
  2
ACANSTS
 70
     0
 40
1.0
 41
1.0
 50
0.0
 71
     0
 42
0.2
  3
romans.shx
  4

  0
STYLE
  5
86
330
3
100
AcDbSymbolTableRecord
100
AcDbTextStyleTableRecord
  2
ACANSGDT
 70
     0
 40
0.0
 41
1.0
 50
0.0
 71
     0
 42
0.2
  3
amgdt.shx
  4

  0
STYLE
  5
13F
330
3
100
AcDbSymbolTableRecord
100
AcDbTextStyleTableRecord
  2
USER1
 70
     0
 40
0.0
 41
1.0
 50
0.0
 71
     0
 42
0.2
  3
TXT.SHX
  4

  0
STYLE
  5
140
330
3
100
AcDbSymbolTableRecord
100
AcDbTextStyleTableRecord
  2
USER2
 70
     0
 40
0.0
 41
1.0
 50
0.0
 71
     0
 42
0.2
  3
SIMPLEX.SHX
  4

  0
STYLE
  5
141
330
3
100
AcDbSymbolTableRecord
100
AcDbTextStyleTableRecord
  2
USER3
 70
     0
 40
0.0
 41
1.0
 50
0.0
 71
     0
 42
0.2
  3
ITALIC.SHX
  4

  0
STYLE
  5
254
330
3
100
AcDbSymbolTableRecord
100
AcDbTextStyleTableRecord
  2

 70
     1
 40
0.0
 41
1.0
 50
0.0
 71
     0
 42
0.2
  3
genltshp.shx
  4

  0
ENDTAB
  0
TABLE
  2
VIEW
  5
6
330
0
100
AcDbSymbolTable
 70
     0
  0
ENDTAB
  0
TABLE
  2
UCS
  5
7
330
0
100
AcDbSymbolTable
 70
     0
  0
ENDTAB
  0
TABLE
  2
APPID
  5
9
330
0
100
AcDbSymbolTable
 70
    14
  0
APPID
  5
12
330
9
100
AcDbSymbolTableRecord
100
AcDbRegAppTableRecord
  2
ACAD
 70
     0
  0
APPID
  5
4E
330
9
100
AcDbSymbolTableRecord
100
AcDbRegAppTableRecord
  2
MCAD_NO_VIS
 70
     0
  0
APPID
  5
4F
330
9
100
AcDbSymbolTableRecord
100
AcDbRegAppTableRecord
  2
ACAD_TEMP_GRAPHIC
 70
     0
  0
APPID
  5
60
330
9
100
AcDbSymbolTableRecord
100
AcDbRegAppTableRecord
  2
ACATTRIBSERVICES
 70
     0
  0
APPID
  5
F7
330
9
100
AcDbSymbolTableRecord
100
AcDbRegAppTableRecord
  2
AD_DRAW
 70
     0
  0
APPID
  5
115
330
9
100
AcDbSymbolTableRecord
100
AcDbRegAppTableRecord
  2
DESIGNERASSEMBLIES
 70
     0
  0
APPID
  5
11A
330
9
100
AcDbSymbolTableRecord
100
AcDbRegAppTableRecord
  2
ACADM_DIM_EDIT
 70
     0
  0
APPID
  5
11B
330
9
100
AcDbSymbolTableRecord
100
AcDbRegAppTableRecord
  2
AMDT_DM_ADJ
 70
     0
  0
APPID
  5
1D3
330
9
100
AcDbSymbolTableRecord
100
AcDbRegAppTableRecord
  2
ACAD_DSTYLE_DIMARC_LENGTH_SYMBOL
 70
     0
  0
APPID
  5
1D4
330
9
100
AcDbSymbolTableRecord
100
AcDbRegAppTableRecord
  2
ACAD_DSTYLE_DIMJOGGED_JOGANGLE_SYMBOL
 70
     0
  0
APPID
  5
2EE
330
9
100
AcDbSymbolTableRecord
100
AcDbRegAppTableRecord
  2
ACAD_MLEADERVER
 70
     0
  0
APPID
  5
137A
330
9
100
AcDbSymbolTableRecord
100
AcDbRegAppTableRecord
  2
ACAD_DSTYLE_DIM_LINETYPE
 70
     0
  0
APPID
  5
137B
330
9
100
AcDbSymbolTableRecord
100
AcDbRegAppTableRecord
  2
ACAD_DSTYLE_DIM_EXT1_LINETYPE
 70
     0
  0
APPID
  5
137C
330
9
100
AcDbSymbolTableRecord
100
AcDbRegAppTableRecord
  2
ACAD_DSTYLE_DIM_EXT2_LINETYPE
 70
     0
  0
ENDTAB
  0
TABLE
  2
DIMSTYLE
  5
A
330
0
100
AcDbSymbolTable
 70
     7
100
AcDbDimStyleTable
 71
     1
340
8C
  0
DIMSTYLE
105
27
330
A
100
AcDbSymbolTableRecord
100
AcDbDimStyleTableRecord
  2
Standard
 70
     0
340
11
  0
DIMSTYLE
105
8C
102
{ACAD_REACTORS
330
6A
102
}
330
A
100
AcDbSymbolTableRecord
100
AcDbDimStyleTableRecord
  2
AM_ANSI
 70
     0
  4
mm
 41
0.12
 42
0.05
 43
0.5
 44
0.1
 47
0.1
 48
0.1
 78
     7
 79
     2
140
0.12
141
0.0
146
0.71
147
0.06
176
   256
177
   256
178
   140
274
     4
284
     7
340
11
371
    -1
372
    -1
1001
ACAD_DSTYLE_DIMJOGGED_JOGANGLE_SYMBOL
1070
   384
1040
0.7853981633974483
1001
ACAD_DSTYLE_DIMARC_LENGTH_SYMBOL
1070
   379
1070
     1
1001
ACAD_DSTYLE_DIM_LINETYPE
1070
   380
1005
14
1001
ACAD_DSTYLE_DIM_EXT1_LINETYPE
1070
   381
1005
14
1001
ACAD_DSTYLE_DIM_EXT2_LINETYPE
1070
   382
1005
14
  0
DIMSTYLE
105
8D
330
A
100
AcDbSymbolTableRecord
100
AcDbDimStyleTableRecord
  2
AM_ANSI$3
 70
     0
  4
mm
 41
0.12
 42
0.05
 43
0.5
 44
0.1
 47
0.1
 48
0.1
 78
     7
 79
     2
140
0.12
141
0.0
146
0.71
147
0.06
176
   256
177
   256
178
   140
274
     4
284
     7
288
     1
289
     0
340
11
371
    -1
372
    -1
1001
ACAD_DSTYLE_DIMJOGGED_JOGANGLE_SYMBOL
1070
   384
1040
0.7853981633974483
1001
ACAD_DSTYLE_DIMARC_LENGTH_SYMBOL
1070
   379
1070
     1
1001
ACAD_DSTYLE_DIM_LINETYPE
1070
   380
1005
14
1001
ACAD_DSTYLE_DIM_EXT1_LINETYPE
1070
   381
1005
14
1001
ACAD_DSTYLE_DIM_EXT2_LINETYPE
1070
   382
1005
14
  0
DIMSTYLE
105
8E
330
A
100
AcDbSymbolTableRecord
100
AcDbDimStyleTableRecord
  2
AM_ANSI$4
 70
     0
  4
mm
 41
0.12
 42
0.05
 43
0.5
 44
0.1
 47
0.1
 48
0.1
 78
     7
 79
     2
140
0.12
141
0.0
146
0.71
147
0.06
176
   256
177
   256
178
   140
274
     4
284
     7
340
11
371
    -1
372
    -1
1001
ACAD_DSTYLE_DIMJOGGED_JOGANGLE_SYMBOL
1070
   384
1040
0.7853981633974483
1001
ACAD_DSTYLE_DIMARC_LENGTH_SYMBOL
1070
   379
1070
     1
1001
ACAD_DSTYLE_DIM_LINETYPE
1070
   380
1005
14
1001
ACAD_DSTYLE_DIM_EXT1_LINETYPE
1070
   381
1005
14
1001
ACAD_DSTYLE_DIM_EXT2_LINETYPE
1070
   382
1005
14
  0
DIMSTYLE
105
8F
330
A
100
AcDbSymbolTableRecord
100
AcDbDimStyleTableRecord
  2
AM_ANSI$7
 70
     0
  4
mm
 41
0.12
 42
0.05
 43
0.5
 44
0.1
 47
0.1
 48
0.1
 78
     7
 79
     2
140
0.12
141
0.0
146
0.71
147
0.06
176
   256
177
   256
178
   140
274
     4
284
     7
340
11
371
    -1
372
    -1
1001
ACAD_DSTYLE_DIMJOGGED_JOGANGLE_SYMBOL
1070
   384
1040
0.7853981633974483
1001
ACAD_DSTYLE_DIMARC_LENGTH_SYMBOL
1070
   379
1070
     1
1001
ACAD_DSTYLE_DIM_LINETYPE
1070
   380
1005
14
1001
ACAD_DSTYLE_DIM_EXT1_LINETYPE
1070
   381
1005
14
1001
ACAD_DSTYLE_DIM_EXT2_LINETYPE
1070
   382
1005
14
  0
DIMSTYLE
105
90
330
A
100
AcDbSymbolTableRecord
100
AcDbDimStyleTableRecord
  2
AM_ANSI$SF
 70
     0
  4
mm
 41
0.12
 42
0.05
 43
0.5
 44
0.1
 47
0.1
 48
0.1
 75
     1
 76
     1
 78
     7
 79
     2
140
0.12
141
0.0
146
0.71
147
0.06
176
   256
177
   256
178
   140
274
     4
284
     7
340
11
371
    -1
372
    -1
1001
ACAD_DSTYLE_DIMJOGGED_JOGANGLE_SYMBOL
1070
   384
1040
0.7853981633974483
1001
ACAD_DSTYLE_DIMARC_LENGTH_SYMBOL
1070
   379
1070
     1
1001
ACAD_DSTYLE_DIM_LINETYPE
1070
   380
1005
14
1001
ACAD_DSTYLE_DIM_EXT1_LINETYPE
1070
   381
1005
14
1001
ACAD_DSTYLE_DIM_EXT2_LINETYPE
1070
   382
1005
14
  0
DIMSTYLE
105
95
330
A
100
AcDbSymbolTableRecord
100
AcDbDimStyleTableRecord
  2
AM_ANSI$SH
 70
     0
  4
mm
 41
0.12
 42
0.05
 43
0.5
 44
0.1
 47
0.1
 48
0.1
 75
     1
 76
     1
 78
     7
 79
     2
140
0.12
141
0.0
146
0.71
147
0.06
173
     1
176
   256
177
   256
178
   140
274
     4
284
     7
340
11
343
91
371
    -1
372
    -1
1001
ACAD_DSTYLE_DIMJOGGED_JOGANGLE_SYMBOL
1070
   384
1040
0.7853981633974483
1001
ACAD_DSTYLE_DIMARC_LENGTH_SYMBOL
1070
   379
1070
     1
1001
ACAD_DSTYLE_DIM_LINETYPE
1070
   380
1005
14
1001
ACAD_DSTYLE_DIM_EXT1_LINETYPE
1070
   381
1005
14
1001
ACAD_DSTYLE_DIM_EXT2_LINETYPE
1070
   382
1005
14
  0
ENDTAB
  0
TABLE
  2
BLOCK_RECORD
  5
1
330
0
100
AcDbSymbolTable
 70
     5
  0
BLOCK_RECORD
  5
1F
102
{ACAD_XDICTIONARY
360
99
102
}
330
1
100
AcDbSymbolTableRecord
100
AcDbBlockTableRecord
  2
*Model_Space
340
22
  0
BLOCK_RECORD
  5
1B
330
1
100
AcDbSymbolTableRecord
100
AcDbBlockTableRecord
  2
*Paper_Space
340
1E
  0
BLOCK_RECORD
  5
23
330
1
100
AcDbSymbolTableRecord
100
AcDbBlockTableRecord
  2
*Paper_Space0
340
26
  0
BLOCK_RECORD
  5
91
330
1
100
AcDbSymbolTableRecord
100
AcDbBlockTableRecord
  2
GENAXEH
340
0
  0
ENDTAB
  0
ENDSEC
  0
SECTION
  2
BLOCKS
  0
BLOCK
  5
20
330
1F
100
AcDbEntity
  8
0
100
AcDbBlockBegin
  2
*Model_Space
 70
     0
 10
0.0
 20
0.0
 30
0.0
  3
*Model_Space
  1

  0
ENDBLK
  5
21
330
1F
100
AcDbEntity
  8
0
100
AcDbBlockEnd
  0
BLOCK
  5
1C
330
1B
100
AcDbEntity
 67
     1
  8
0
100
AcDbBlockBegin
  2
*Paper_Space
 70
     0
 10
0.0
 20
0.0
 30
0.0
  3
*Paper_Space
  1

  0
ENDBLK
  5
1D
330
1B
100
AcDbEntity
 67
     1
  8
0
100
AcDbBlockEnd
  0
BLOCK
  5
24
330
23
100
AcDbEntity
 67
     1
  8
0
100
AcDbBlockBegin
  2
*Paper_Space0
 70
     0
 10
0.0
 20
0.0
 30
0.0
  3
*Paper_Space0
  1

  0
ENDBLK
  5
25
330
23
100
AcDbEntity
 67
     1
  8
0
100
AcDbBlockEnd
  0
BLOCK
  5
93
330
91
100
AcDbEntity
  8
0
100
AcDbBlockBegin
  2
GENAXEH
 70
     0
 10
0.0
 20
0.0
 30
0.0
  3
GENAXEH
  1

  0
LINE
  5
92
330
91
100
AcDbEntity
  8
0
100
AcDbLine
 10
-1.0
 20
0.0
 30
0.0
 11
1.0
 21
0.0
 31
0.0
  0
ENDBLK
  5
94
330
91
100
AcDbEntity
  8
0
100
AcDbBlockEnd
  0
ENDSEC
  0
SECTION
  2
ENTITIES
  0
LWPOLYLINE
  5
F89
330
1F
100
AcDbEntity
  8
__SOLID_RIM
  6
Continuous
 62
     7
100
AcDbPolyline
 90
       43
 70
     0
 43
0.0
 10
50.45076907062356
 20
61.80389494321659
 10
50.45257987252356
 20
61.8041512100166
 10
50.45441988172356
 20
61.8044202967166
 10
50.45628999862356
 20
61.8047030837166
 10
50.45820447282356
 20
61.80500262811659
 10
50.46016193852356
 20
61.8053197686166
 10
50.46216455072356
 20
61.8056559693166
 10
50.46423178142356
 20
61.80601587271659
 10
50.46635748452357
 20
61.8063999879166
 10
50.46854835542356
 20
61.8068112032166
 10
50.47084291452357
 20
61.80725903301659
 10
50.47323727432356
 20
61.80774558531659
 10
50.47573506182356
 20
61.80827467951659
 10
50.47838553512356
 20
61.8088607922166
 10
50.48118180722356
 20
61.8095073965166
 10
50.48412922752357
 20
61.8102211361166
 10
50.48729442152356
 20
61.8110252891166
 10
50.49066580852356
 20
61.8119257732166
 10
50.49425075722357
 20
61.81293421481659
 10
50.49814219132357
 20
61.81408969811659
 10
50.50232132922356
 20
61.81540285761659
 10
50.50679681682357
 20
61.81689422041659
 10
50.51169787852356
 20
61.81863106491659
 10
50.51701606732357
 20
61.8206418960166
 10
50.52273542042357
 20
61.8229556282166
 10
50.52896467602356
 20
61.8256602702166
 10
50.53570880392356
 20
61.82881422511659
 10
50.54291047772356
 20
61.8324532396166
 10
50.55057296522356
 20
61.83664883981659
 10
50.55869664002357
 20
61.84148389201659
 10
50.56718874642356
 20
61.84699443961659
 10
50.57590749162357
 20
61.8531775790166
 10
50.58478831222356
 20
61.86007578401659
 10
50.59377558442356
 20
61.86774199421659
 10
50.60274397692356
 20
61.87616798461659
 10
50.61159811182356
 20
61.88536046521659
 10
50.62028792772356
 20
61.89537272121659
 10
50.62874934122357
 20
61.90625503761659
 10
50.63686682832356
 20
61.9179956402166
 10
50.64456463132356
 20
61.93063820111659
 10
50.65180170172356
 20
61.9443217459166
 10
50.65845823822356
 20
61.95909890681659
 10
50.66377886652356
 20
61.9732007217166
  0
LINE
  5
F8A
330
1F
100
AcDbEntity
  8
__SOLID_RIM
  6
Continuous
 62
     7
100
AcDbLine
 10
50.44722200092356
 20
61.80341635541659
 30
0.0
 11
50.45076907062356
 21
61.80389494321659
 31
0.0
  0
LINE
  5
F8B
330
1F
100
AcDbEntity
  8
__SOLID_RIM
  6
Continuous
 62
     7
100
AcDbLine
 10
50.44373542632357
 20
61.80297424561659
 30
0.0
 11
50.44722200092356
 21
61.80341635541659
 31
0.0
  0
LINE
  5
F8C
330
1F
100
AcDbEntity
  8
__SOLID_RIM
  6
Continuous
 62
     7
100
AcDbLine
 10
50.44027485242356
 20
61.80256102211659
 30
0.0
 11
50.44373542632357
 21
61.80297424561659
 31
0.0
  0
LINE
  5
F8D
330
1F
100
AcDbEntity
  8
__SOLID_RIM
  6
Continuous
 62
     7
100
AcDbLine
 10
50.43681643452356
 20
61.8021714302166
 30
0.0
 11
50.44027485242356
 21
61.80256102211659
 31
0.0
  0
LINE
  5
F8E
330
1F
100
AcDbEntity
  8
__SOLID_RIM
  6
Continuous
 62
     7
100
AcDbLine
 10
50.43332969442356
 20
61.8018002579166
 30
0.0
 11
50.43681643452356
 21
61.8021714302166
 31
0.0
  0
LINE
  5
F8F
330
1F
100
AcDbEntity
  8
__SOLID_RIM
  6
Continuous
 62
     7
100
AcDbLine
 10
50.42978953402356
 20
61.80144358621659
 30
0.0
 11
50.43332969442356
 21
61.8018002579166
 31
0.0
  0
LINE
  5
F90
330
1F
100
AcDbEntity
  8
__SOLID_RIM
  6
Continuous
 62
     7
100
AcDbLine
 10
50.42617868492357
 20
61.8010987560166
 30
0.0
 11
50.42978953402356
 21
61.80144358621659
 31
0.0
  0
LINE
  5
F91
330
1F
100
AcDbEntity
  8
__SOLID_RIM
  6
Continuous
 62
     7
100
AcDbLine
 10
50.42247962902356
 20
61.8007633840166
 30
0.0
 11
50.42617868492357
 21
61.8010987560166
 31
0.0
  0
LINE
  5
F92
330
1F
100
AcDbEntity
  8
__SOLID_RIM
  6
Continuous
 62
     7
100
AcDbLine
 10
50.41674258892356
 20
61.80027470361659
 30
0.0
 11
50.42247962902356
 21
61.8007633840166
 31
0.0
  0
LINE
  5
F93
330
1F
100
AcDbEntity
  8
__SOLID_RIM
  6
Continuous
 62
     7
100
AcDbLine
 10
50.41075285842357
 20
61.79979937961659
 30
0.0
 11
50.41674258892356
 21
61.80027470361659
 31
0.0
  0
LINE
  5
F94
330
1F
100
AcDbEntity
  8
__SOLID_RIM
  6
Continuous
 62
     7
100
AcDbLine
 10
50.40444764962356
 20
61.79933082551659
 30
0.0
 11
50.41075285842357
 21
61.79979937961659
 31
0.0
  0
LINE
  5
F95
330
1F
100
AcDbEntity
  8
__SOLID_RIM
  6
Continuous
 62
     7
100
AcDbLine
 10
50.39762947862357
 20
61.7988560064166
 30
0.0
 11
50.40444764962356
 21
61.79933082551659
 31
0.0
  0
LINE
  5
F96
330
1F
100
AcDbEntity
  8
__SOLID_RIM
  6
Continuous
 62
     7
100
AcDbLine
 10
50.39018560362356
 20
61.79837329071659
 30
0.0
 11
50.39762947862357
 21
61.7988560064166
 31
0.0
  0
LINE
  5
F97
330
1F
100
AcDbEntity
  8
__SOLID_RIM
  6
Continuous
 62
     7
100
AcDbLine
 10
50.38207124432357
 20
61.79788632631659
 30
0.0
 11
50.39018560362356
 21
61.79837329071659
 31
0.0
  0
LINE
  5
F98
330
1F
100
AcDbEntity
  8
__SOLID_RIM
  6
Continuous
 62
     7
100
AcDbLine
 10
50.37322632622355
 20
61.7973974756166
 30
0.0
 11
50.38207124432357
 21
61.79788632631659
 31
0.0
  0
LINE
  5
F99
330
1F
100
AcDbEntity
  8
__SOLID_RIM
  6
Continuous
 62
     7
100
AcDbLine
 10
50.36016591832356
 20
61.79674473571659
 30
0.0
 11
50.37322632622355
 21
61.7973974756166
 31
0.0
  0
LINE
  5
F9A
330
1F
100
AcDbEntity
  8
__SOLID_RIM
  6
Continuous
 62
     7
100
AcDbLine
 10
50.34545117602355
 20
61.7960906422166
 30
0.0
 11
50.36016591832356
 21
61.79674473571659
 31
0.0
  0
LINE
  5
F9B
330
1F
100
AcDbEntity
  8
__SOLID_RIM
  6
Continuous
 62
     7
100
AcDbLine
 10
50.32874423862356
 20
61.7954298753166
 30
0.0
 11
50.34545117602355
 21
61.7960906422166
 31
0.0
  0
LINE
  5
F9C
330
1F
100
AcDbEntity
  8
__SOLID_RIM
  6
Continuous
 62
     7
100
AcDbLine
 10
50.30439306662356
 20
61.79458657221659
 30
0.0
 11
50.32874423862356
 21
61.7954298753166
 31
0.0
  0
LINE
  5
F9D
330
1F
100
AcDbEntity
  8
__SOLID_RIM
  6
Continuous
 62
     7
100
AcDbLine
 10
35.36450587172357
 20
61.7842385362166
 30
0.0
 11
35.62478260582356
 21
61.7921885436166
 31
0.0
  0
LINE
  5
F9E
330
1F
100
AcDbEntity
  8
__SOLID_RIM
  6
Continuous
 62
     7
100
AcDbLine
 10
50.27532757932356
 20
61.7937190757166
 30
0.0
 11
50.30439306662356
 21
61.79458657221659
 31
0.0
  0
LINE
  5
F9F
330
1F
100
AcDbEntity
  8
__SOLID_RIM
  6
Continuous
 62
     7
100
AcDbLine
 10
50.23270743152356
 20
61.7926377263166
 30
0.0
 11
50.27532757932356
 21
61.7937190757166
 31
0.0
  0
LINE
  5
FA0
330
1F
100
AcDbEntity
  8
__SOLID_RIM
  6
Continuous
 62
     7
100
AcDbLine
 10
50.15929915712357
 20
61.7911241253166
 30
0.0
 11
50.23270743152356
 21
61.7926377263166
 31
0.0
  0
LINE
  5
FA1
330
1F
100
AcDbEntity
  8
__SOLID_RIM
  6
Continuous
 62
     7
100
AcDbLine
 10
50.03260584012356
 20
61.7891187762166
 30
0.0
 11
50.15929915712357
 21
61.7911241253166
 31
0.0
  0
LWPOLYLINE
  5
FA2
330
1F
100
AcDbEntity
  8
0
  6
Continuous
 62
     7
100
AcDbPolyline
 90
       15
 70
     0
 43
0.0
 10
49.68077484632356
 20
61.8612559787166
 10
49.68631897052357
 20
61.86131580291659
 10
49.70867207832355
 20
61.86278150071659
 10
49.73078119602356
 20
61.8661918053166
 10
49.75248389412357
 20
61.8715178618166
 10
49.77360787742356
 20
61.8787103103166
 10
49.79399643382357
 20
61.88771470941659
 10
49.81349834032356
 20
61.8984601017166
 10
49.83195528892356
 20
61.91085865381659
 10
49.84922324662356
 20
61.92480902761659
 10
49.86517563802356
 20
61.9402044990166
 10
49.87969260982357
 20
61.95693078541659
 10
49.89265956092356
 20
61.97485048551659
 10
49.90397438172355
 20
61.99382393431659
 10
49.91355617962357
 20
62.0137073219166
  0
LINE
  5
FA3
330
1F
100
AcDbEntity
  8
__SOLID_RIM
  6
Continuous
 62
     7
100
AcDbLine
 10
49.76358719782357
 20
61.7861052826166
 30
0.0
 11
50.03260584012356
 21
61.7891187762166
 31
0.0
  0
LINE
  5
FA4
330
1F
100
AcDbEntity
  8
__SOLID_RIM
  6
Continuous
 62
     7
100
AcDbLine
 10
49.49407449552357
 20
61.78391599791659
 30
0.0
 11
49.76358719782357
 21
61.7861052826166
 31
0.0
  0
LINE
  5
FA5
330
1F
100
AcDbEntity
  8
__SOLID_RIM
  6
Continuous
 62
     7
100
AcDbLine
 10
49.42706252532357
 20
61.78391078821659
 30
0.0
 11
49.49407330332356
 21
61.78391593071659
 31
0.0
  0
LINE
  5
FA6
330
1F
100
AcDbEntity
  8
__SOLID_RIM
  6
Continuous
 62
     7
100
AcDbLine
 10
35.62477716072357
 20
61.7923671768166
 30
0.0
 11
48.68080992692356
 21
61.7923671768166
 31
0.0
  0
LINE
  5
FA7
330
1F
100
AcDbEntity
  8
__SOLID_RIM
  6
Continuous
 62
     7
100
AcDbLine
 10
49.73511828342356
 20
61.8268154860166
 30
0.0
 11
34.57046880412356
 21
61.8268154860166
 31
0.0
  0
LINE
  5
FA8
330
1F
100
AcDbEntity
  8
0
  6
Continuous
 62
     7
100
AcDbLine
 10
34.62481224642357
 20
61.86125517271659
 30
0.0
 11
49.68077484122357
 21
61.86125517271659
 31
0.0
  0
LINE
  5
FA9
330
1F
100
AcDbEntity
  8
__SOLID_RIM
  6
Continuous
 62
     7
100
AcDbLine
 10
34.81151357162357
 20
61.78391593221659
 30
0.0
 11
34.87852456222356
 21
61.7839115802166
 31
0.0
  0
LINE
  5
FAA
330
1F
100
AcDbEntity
  8
__SOLID_RIM
  6
Continuous
 62
     7
100
AcDbLine
 10
49.49268418912357
 20
61.78391078821659
 30
0.0
 11
49.49238320302356
 21
61.7839115802166
 31
0.0
  0
LINE
  5
FAB
330
1F
100
AcDbEntity
  8
__SOLID_RIM
  6
Continuous
 62
     7
100
AcDbLine
 10
34.36783494732357
 20
61.78791616151659
 30
0.0
 11
34.81151237942356
 21
61.78391599941659
 31
0.0
  0
LINE
  5
FAC
330
1F
100
AcDbEntity
  8
__SOLID_RIM
  6
Continuous
 62
     7
100
AcDbLine
 10
34.19652197702357
 20
61.7902588951166
 30
0.0
 11
34.36783494732357
 21
61.78791616151659
 31
0.0
  0
LINE
  5
FAD
330
1F
100
AcDbEntity
  8
__SOLID_RIM
  6
Continuous
 62
     7
100
AcDbLine
 10
34.10410644252357
 20
61.7919494659166
 30
0.0
 11
34.19652197702357
 21
61.7902588951166
 31
0.0
  0
LINE
  5
FAE
330
1F
100
AcDbEntity
  8
__SOLID_RIM
  6
Continuous
 62
     7
100
AcDbLine
 10
34.04844893132356
 20
61.7932343106166
 30
0.0
 11
34.10410644252357
 21
61.7919494659166
 31
0.0
  0
LINE
  5
FAF
330
1F
100
AcDbEntity
  8
__SOLID_RIM
  6
Continuous
 62
     7
100
AcDbLine
 10
34.01008709432357
 20
61.79430717181659
 30
0.0
 11
34.04844893132356
 21
61.7932343106166
 31
0.0
  0
LINE
  5
FB0
330
1F
100
AcDbEntity
  8
__SOLID_RIM
  6
Continuous
 62
     7
100
AcDbLine
 10
48.68080448182356
 20
61.7921885436166
 30
0.0
 11
48.94108121592356
 21
61.7842385362166
 31
0.0
  0
LINE
  5
FB1
330
1F
100
AcDbEntity
  8
__SOLID_RIM
  6
Continuous
 62
     7
100
AcDbLine
 10
33.98325481822356
 20
61.79519540991659
 30
0.0
 11
34.01008709432357
 21
61.79430717181659
 31
0.0
  0
LINE
  5
FB2
330
1F
100
AcDbEntity
  8
__SOLID_RIM
  6
Continuous
 62
     7
100
AcDbLine
 10
33.96430615502357
 20
61.7959183625166
 30
0.0
 11
33.98325481822356
 21
61.79519540991659
 31
0.0
  0
LINE
  5
FB3
330
1F
100
AcDbEntity
  8
__SOLID_RIM
  6
Continuous
 62
     7
100
AcDbLine
 10
33.95097219942356
 20
61.79648887591659
 30
0.0
 11
33.96430615502357
 21
61.7959183625166
 31
0.0
  0
LINE
  5
FB4
330
1F
100
AcDbEntity
  8
__SOLID_RIM
  6
Continuous
 62
     7
100
AcDbLine
 10
33.93897666852357
 20
61.7970573339166
 30
0.0
 11
33.95097219942356
 21
61.79648887591659
 31
0.0
  0
LINE
  5
FB5
330
1F
100
AcDbEntity
  8
__SOLID_RIM
  6
Continuous
 62
     7
100
AcDbLine
 10
33.92814797542357
 20
61.79762517681659
 30
0.0
 11
33.93897666852357
 21
61.7970573339166
 31
0.0
  0
LINE
  5
FB6
330
1F
100
AcDbEntity
  8
__SOLID_RIM
  6
Continuous
 62
     7
100
AcDbLine
 10
33.91835359592356
 20
61.79819158771659
 30
0.0
 11
33.92814797542357
 21
61.79762517681659
 31
0.0
  0
LINE
  5
FB7
330
1F
100
AcDbEntity
  8
__SOLID_RIM
  6
Continuous
 62
     7
100
AcDbLine
 10
33.90948898072357
 20
61.79875373521659
 30
0.0
 11
33.91835359592356
 21
61.79819158771659
 31
0.0
  0
LINE
  5
FB8
330
1F
100
AcDbEntity
  8
__SOLID_RIM
  6
Continuous
 62
     7
100
AcDbLine
 10
33.90147648462356
 20
61.7993065916166
 30
0.0
 11
33.90948898072357
 21
61.79875373521659
 31
0.0
  0
LINE
  5
FB9
330
1F
100
AcDbEntity
  8
__SOLID_RIM
  6
Continuous
 62
     7
100
AcDbLine
 10
33.89415904302357
 20
61.7998513768166
 30
0.0
 11
33.90147648462356
 21
61.7993065916166
 31
0.0
  0
LINE
  5
FBA
330
1F
100
AcDbEntity
  8
__SOLID_RIM
  6
Continuous
 62
     7
100
AcDbLine
 10
33.88894145762357
 20
61.80026674281659
 30
0.0
 11
33.89415904302357
 21
61.7998513768166
 31
0.0
  0
LINE
  5
FBB
330
1F
100
AcDbEntity
  8
__SOLID_RIM
  6
Continuous
 62
     7
100
AcDbLine
 10
33.88390877292356
 20
61.80069293361659
 30
0.0
 11
33.88894145762357
 21
61.80026674281659
 31
0.0
  0
LINE
  5
FBC
330
1F
100
AcDbEntity
  8
__SOLID_RIM
  6
Continuous
 62
     7
100
AcDbLine
 10
33.87903650862357
 20
61.80113344291659
 30
0.0
 11
33.88390877292356
 21
61.80069293361659
 31
0.0
  0
LINE
  5
FBD
330
1F
100
AcDbEntity
  8
__SOLID_RIM
  6
Continuous
 62
     7
100
AcDbLine
 10
33.87586265622356
 20
61.8014372053166
 30
0.0
 11
33.87903650862357
 21
61.80113344291659
 31
0.0
  0
LINE
  5
FBE
330
1F
100
AcDbEntity
  8
__SOLID_RIM
  6
Continuous
 62
     7
100
AcDbLine
 10
33.87273735602356
 20
61.8017507532166
 30
0.0
 11
33.87586265622356
 21
61.8014372053166
 31
0.0
  0
LINE
  5
FBF
330
1F
100
AcDbEntity
  8
__SOLID_RIM
  6
Continuous
 62
     7
100
AcDbLine
 10
33.86964901882357
 20
61.80207595991659
 30
0.0
 11
33.87273735602356
 21
61.8017507532166
 31
0.0
  0
LINE
  5
FC0
330
1F
100
AcDbEntity
  8
__SOLID_RIM
  6
Continuous
 62
     7
100
AcDbLine
 10
33.86658041172356
 20
61.8024155568166
 30
0.0
 11
33.86964901882357
 21
61.80207595991659
 31
0.0
  0
LINE
  5
FC1
330
1F
100
AcDbEntity
  8
__SOLID_RIM
  6
Continuous
 62
     7
100
AcDbLine
 10
33.86351811382357
 20
61.80277220501659
 30
0.0
 11
33.86658041172356
 21
61.8024155568166
 31
0.0
  0
LINE
  5
FC2
330
1F
100
AcDbEntity
  8
__SOLID_RIM
  6
Continuous
 62
     7
100
AcDbLine
 10
33.86044365142357
 20
61.8031495492166
 30
0.0
 11
33.86351811382357
 21
61.80277220501659
 31
0.0
  0
LINE
  5
FC3
330
1F
100
AcDbEntity
  8
__SOLID_RIM
  6
Continuous
 62
     7
100
AcDbLine
 10
33.85733411812356
 20
61.8035523621166
 30
0.0
 11
33.86044365142357
 21
61.8031495492166
 31
0.0
  0
LINE
  5
FC4
330
1F
100
AcDbEntity
  8
__SOLID_RIM
  6
Continuous
 62
     7
100
AcDbLine
 10
33.85417170522357
 20
61.8039854561166
 30
0.0
 11
33.85733411812356
 21
61.8035523621166
 31
0.0
  0
LWPOLYLINE
  5
FC5
330
1F
100
AcDbEntity
  8
0
  6
Continuous
 62
     7
100
AcDbPolyline
 90
       15
 70
     0
 43
0.0
 10
34.39069936092356
 20
62.0168774862166
 10
34.39999265592356
 20
61.9968869271166
 10
34.41103098522356
 20
61.9777769508166
 10
34.42373622282357
 20
61.95969062851659
 10
34.43801083952357
 20
61.94277150831659
 10
34.45374184752357
 20
61.92715772361659
 10
34.47081438912356
 20
61.91296756911659
 10
34.48910384982357
 20
61.90030833701659
 10
34.50846796182356
 20
61.8892877944166
 10
34.52874931662356
 20
61.87999594831659
 10
34.54979806852357
 20
61.87250839941659
 10
34.57145780162357
 20
61.8668829888166
 10
34.59355416282356
 20
61.86317276151659
 10
34.61592301612357
 20
61.8614101142166
 10
34.62481224632357
 20
61.8612558410166
  0
LWPOLYLINE
  5
FC6
330
1F
100
AcDbEntity
  8
__SOLID_RIM
  6
Continuous
 62
     7
100
AcDbPolyline
 90
       44
 70
     0
 43
0.0
 10
33.64180821942357
 20
61.9732007266166
 10
33.64769609182356
 20
61.95773383451659
 10
33.65442881322356
 20
61.9430181388166
 10
33.66175147392357
 20
61.9293658662166
 10
33.66954415982357
 20
61.9167366163166
 10
33.67774944822357
 20
61.90502144251659
 10
33.68628811152357
 20
61.89417806321659
 10
33.69504509482356
 20
61.88421383581659
 10
33.70393800502357
 20
61.87509418781659
 10
33.71290995392357
 20
61.86676526411659
 10
33.72186627532356
 20
61.85921250301659
 10
33.73067186312356
 20
61.85244552351659
 10
33.73925713812357
 20
61.8464149317166
 10
33.74756739792356
 20
61.8410651294166
 10
33.75548922442356
 20
61.83637863341659
 10
33.76293055732356
 20
61.8323200030166
 10
33.76989373642356
 20
61.82880672241659
 10
33.77641593142357
 20
61.82575330101659
 10
33.78245640662357
 20
61.8231214520166
 10
33.78800761972357
 20
61.82086277661659
 10
33.79316898882357
 20
61.81889561141659
 10
33.79792832932356
 20
61.8171917408166
 10
33.80227455182357
 20
61.8157254924166
 10
33.80631668902356
 20
61.81443675231659
 10
33.81005208692356
 20
61.81330847231659
 10
33.81347248462357
 20
61.8123269301166
 10
33.81668293612356
 20
61.81144952191659
 10
33.81969428732356
 20
61.81066431931659
 10
33.82249113542356
 20
61.80996711141659
 10
33.82514149962356
 20
61.8093343014166
 10
33.82765225112357
 20
61.8087593063166
 10
33.83001456682356
 20
61.8082395693166
 10
33.83227396742356
 20
61.8077613249166
 10
33.83443321942357
 20
61.8073210992166
 10
33.83648881182356
 20
61.80691691401659
 10
33.83847737512357
 20
61.8065394018166
 10
33.84040415722357
 20
61.80618596211659
 10
33.84226392552356
 20
61.8058560490166
 10
33.84407788882356
 20
61.80554461751659
 10
33.84584886682357
 20
61.80525016951659
 10
33.84757438202357
 20
61.80497215561659
 10
33.84926783442356
 20
61.8047075836166
 10
33.85093033112357
 20
61.80445559021659
 10
33.85417170522357
 20
61.8039854561166
  0
LINE
  5
FC7
330
1F
100
AcDbEntity
  8
0
  6
Continuous
 62
     7
100
AcDbLine
 10
49.92071176772356
 20
62.0418636567166
 30
0.0
 11
49.92342404322356
 21
62.04106219991659
 31
0.0
  0
LINE
  5
FC8
330
1F
100
AcDbEntity
  8
0
  6
Continuous
 62
     7
100
AcDbLine
 10
34.38322304972356
 20
62.0375914591166
 30
0.0
 11
34.39069936092356
 21
62.0168774862166
 31
0.0
  0
LINE
  5
FC9
330
1F
100
AcDbEntity
  8
0
  6
Continuous
 62
     7
100
AcDbLine
 10
34.38216913582357
 20
62.04106402821659
 30
0.0
 11
34.38322304972356
 21
62.0375914591166
 31
0.0
  0
LWPOLYLINE
  5
FCA
330
1F
100
AcDbEntity
  8
0
  6
Continuous
 62
     7
100
AcDbPolyline
 90
       10
 70
     0
 43
0.0
 10
42.15279353542356
 20
68.28699959821659
 10
41.38492252592356
 20
68.2931495097166
 10
40.57748841322356
 20
68.3128531346166
 10
39.76591834022356
 20
68.34622110161659
 10
38.95043332222356
 20
68.3933334763166
 10
38.13125898832357
 20
68.45425657611659
 10
37.30862268022356
 20
68.52904451431659
 10
36.48274918602357
 20
68.6177402892166
 10
35.65386364152356
 20
68.7203779048166
 10
34.85411621222357
 20
68.8322574669166
  0
LWPOLYLINE
  5
FCB
330
1F
100
AcDbEntity
  8
0
  6
Continuous
 62
     7
100
AcDbPolyline
 90
       16
 70
     0
 43
0.0
 10
34.85411507962356
 20
68.8322497936166
 10
34.81316826962356
 20
68.83639099441658
 10
34.77421606352357
 20
68.8368365300166
 10
34.73556329802356
 20
68.83388539101659
 10
34.69748299872357
 20
68.8275988028166
 10
34.66019331532357
 20
68.81803158621659
 10
34.62397127072357
 20
68.80525416991659
 10
34.58909878342357
 20
68.78939361991659
 10
34.55580008572356
 20
68.77055604541659
 10
34.52434594962357
 20
68.74888096401659
 10
34.49497415012356
 20
68.72456616311659
 10
34.46787067842357
 20
68.69777470561659
 10
34.44326674412356
 20
68.6687197633166
 10
34.42133182162357
 20
68.6376371618166
 10
34.40218811472357
 20
68.60469582901659
 10
34.38599475912357
 20
68.5701202747166
  0
LWPOLYLINE
  5
FCC
330
1F
100
AcDbEntity
  8
0
  6
Continuous
 62
     7
100
AcDbPolyline
 90
       27
 70
     0
 43
0.0
 10
36.05870092942357
 20
84.43847910071658
 10
35.93393011832357
 20
84.1564303943166
 10
35.80959486462357
 20
83.85650598971659
 10
35.69308651922356
 20
83.55505768581659
 10
35.58437101242357
 20
83.25209939861659
 10
35.48350441502356
 20
82.94803664311659
 10
35.39055098572357
 20
82.64362315701658
 10
35.30536056002357
 20
82.3390777045166
 10
35.22782203582357
 20
82.0346145079166
 10
35.15796274202357
 20
81.73097567231659
 10
35.09567899692357
 20
81.42834577521659
 10
35.04090061682357
 20
81.12690311111661
 10
34.99365287492356
 20
80.82738540631659
 10
34.95385037632356
 20
80.52997246931658
 10
34.92141738582357
 20
80.23483396951659
 10
34.89633013362356
 20
79.94269970481659
 10
34.87849103812357
 20
79.65374356111659
 10
34.86780837662357
 20
79.3681350555166
 10
34.86419580832357
 20
79.08660230311659
 10
34.86752634232356
 20
78.8093183439166
 10
34.87767402462357
 20
78.5364486512166
 10
34.89447257062356
 20
78.26871433391659
 10
34.91770183152357
 20
78.00629022631659
 10
34.94710546602357
 20
77.74933525311659
 10
34.98234179142357
 20
77.49852332351659
 10
35.02308284852357
 20
77.2541572146166
 10
35.06905836832357
 20
77.01617221721659
  0
LWPOLYLINE
  5
FCD
330
1F
100
AcDbEntity
  8
0
  6
Continuous
 62
     7
100
AcDbPolyline
 90
       10
 70
     0
 43
0.0
 10
36.39982208522356
 20
85.13253550341659
 10
36.36655704382356
 20
85.06913536741659
 10
36.32544610292356
 20
84.98960606451658
 10
36.28479311562357
 20
84.9096413039166
 10
36.24460153492356
 20
84.8292444817166
 10
36.20487465592356
 20
84.7484182455166
 10
36.16561579442357
 20
84.66716519701661
 10
36.12682840432356
 20
84.5854878840166
 10
36.08851664002357
 20
84.50338902941659
 10
36.05870094162356
 20
84.43847909521659
  0
LINE
  5
FCE
330
1F
100
AcDbEntity
  8
0
  6
Continuous
 62
     7
100
AcDbLine
 10
35.15796159032357
 20
76.6281185464166
 30
0.0
 11
35.15865222602356
 21
76.62555045561659
 31
0.0
  0
LINE
  5
FCF
330
1F
100
AcDbEntity
  8
0
  6
Continuous
 62
     7
100
AcDbLine
 10
35.14500805862357
 20
76.68016663451659
 30
0.0
 11
35.15796809602357
 21
76.6280920449166
 31
0.0
  0
LWPOLYLINE
  5
FD0
330
1F
100
AcDbEntity
  8
0
  6
Continuous
 62
     7
100
AcDbPolyline
 90
       12
 70
     0
 43
0.0
 10
35.15796159032357
 20
76.6281185464166
 10
35.18147422772357
 20
76.53214822011659
 10
35.22562135362357
 20
76.33485277781659
 10
35.26410353512357
 20
76.1381108028166
 10
35.29705921502357
 20
75.94180845151659
 10
35.32452184802357
 20
75.74643771801659
 10
35.34650126672357
 20
75.55310761541659
 10
35.36317912762357
 20
75.36198828101659
 10
35.37473756082356
 20
75.17326717371659
 10
35.38134120682356
 20
74.9880783887166
 10
35.38325267542357
 20
74.80660004811659
 10
35.38107894342356
 20
74.64240415061659
  0
LINE
  5
FD1
330
1F
100
AcDbEntity
  8
0
  6
Continuous
 62
     7
100
AcDbLine
 10
35.11909631402357
 20
76.7884330516166
 30
0.0
 11
35.14500805862357
 21
76.68016663451659
 31
0.0
  0
LINE
  5
FD2
330
1F
100
AcDbEntity
  8
0
  6
Continuous
 62
     7
100
AcDbLine
 10
35.10658975402357
 20
76.8428590112166
 30
0.0
 11
35.11909631402357
 21
76.7884330516166
 31
0.0
  0
LINE
  5
FD3
330
1F
100
AcDbEntity
  8
0
  6
Continuous
 62
     7
100
AcDbLine
 10
35.06905836832357
 20
77.01617221721659
 30
0.0
 11
35.10991061462357
 21
76.82826073131659
 31
0.0
  0
LINE
  5
FD4
330
1F
100
AcDbEntity
  8
0
  6
Continuous
 62
     7
100
AcDbLine
 10
35.34453063392356
 20
74.04124067671659
 30
0.0
 11
35.34373538132356
 21
74.0338165150166
 31
0.0
  0
LINE
  5
FD5
330
1F
100
AcDbEntity
  8
0
  6
Continuous
 62
     7
100
AcDbLine
 10
35.34373538132356
 20
74.0338165150166
 30
0.0
 11
35.34137247672357
 21
74.0126085472166
 31
0.0
  0
LINE
  5
FD6
330
1F
100
AcDbEntity
  8
0
  6
Continuous
 62
     7
100
AcDbLine
 10
35.34137247672357
 20
74.0126085472166
 30
0.0
 11
35.33886879202356
 21
73.9910873971166
 31
0.0
  0
LINE
  5
FD7
330
1F
100
AcDbEntity
  8
0
  6
Continuous
 62
     7
100
AcDbLine
 10
35.33886879202356
 20
73.9910873971166
 30
0.0
 11
35.33542978742357
 21
73.9627196542166
 31
0.0
  0
LINE
  5
FD8
330
1F
100
AcDbEntity
  8
0
  6
Continuous
 62
     7
100
AcDbLine
 10
35.33542978742357
 20
73.9627196542166
 30
0.0
 11
35.33110669752357
 21
73.9286459750166
 31
0.0
  0
LWPOLYLINE
  5
FD9
330
1F
100
AcDbEntity
  8
0
  6
Continuous
 62
     7
100
AcDbPolyline
 90
        3
 70
     0
 43
0.0
 10
35.33110669752357
 20
73.9286459750166
 10
35.32586705862357
 20
73.88930454131659
 10
35.32525089522356
 20
73.88480229291658
  0
LINE
  5
FDA
330
1F
100
AcDbEntity
  8
0
  6
Continuous
 62
     7
100
AcDbLine
 10
34.85395337992357
 20
68.83115502401659
 30
0.0
 11
34.85411507962356
 21
68.8322497936166
 31
0.0
  0
LWPOLYLINE
  5
FDB
330
1F
100
AcDbEntity
  8
0
  6
Continuous
 62
     7
100
AcDbPolyline
 90
       19
 70
     0
 43
0.0
 10
35.31514247912357
 20
73.81344161391659
 10
35.29800970202356
 20
73.7015169669166
 10
35.27626098102356
 20
73.5722862211166
 10
35.25278927742357
 20
73.44523478311661
 10
35.22766676572356
 20
73.3203898389166
 10
35.20096774792357
 20
73.1977949765166
 10
35.17277141682356
 20
73.07751519251659
 10
35.14315266972356
 20
72.9595873316166
 10
35.11219702942356
 20
72.84404033311659
 10
35.08001350132357
 20
72.73095228691659
 10
35.04670713902357
 20
72.6203792564166
 10
35.01238691792357
 20
72.51238108571659
 10
34.97718009552357
 20
72.4070619534166
 10
34.94120891052356
 20
72.3044908703166
 10
34.90459697222357
 20
72.20472424441659
 10
34.86748721852356
 20
72.1078551785166
 10
34.83001945532357
 20
72.01394367351659
 10
34.79232450782357
 20
71.9230124123166
 10
34.76145619252357
 20
71.8509544698166
  0
LWPOLYLINE
  5
FDC
330
1F
100
AcDbEntity
  8
0
  6
Continuous
 62
     7
100
AcDbPolyline
 90
       25
 70
     0
 43
0.0
 10
33.48185346202356
 20
68.4627965702166
 10
33.42139861112356
 20
68.22740105071659
 10
33.35070601562357
 20
67.92869917911659
 10
33.28739011432356
 20
67.6318879300166
 10
33.23154870042357
 20
67.3367886428166
 10
33.18328089212356
 20
67.04325811391659
 10
33.14280236242357
 20
66.75212587601659
 10
33.11013413022357
 20
66.4633253800166
 10
33.08527343792356
 20
66.17666935231659
 10
33.06825569802356
 20
65.89284457501659
 10
33.05900090852357
 20
65.61193110471659
 10
33.05738252722357
 20
65.33371362951659
 10
33.06323100192356
 20
65.0585000403166
 10
33.07627164442357
 20
64.78682050801658
 10
33.09626057122357
 20
64.51830669351659
 10
33.12307489342356
 20
64.2519943404166
 10
33.15653643412357
 20
63.9880824068166
 10
33.19649540782356
 20
63.7265045615166
 10
33.24305772202357
 20
63.46591806931659
 10
33.29616792192356
 20
63.20637841121659
 10
33.35575879482357
 20
62.94798102971659
 10
33.42211913442356
 20
62.68947749691659
 10
33.49540499032356
 20
62.4305216593166
 10
33.57552926482357
 20
62.17164657341659
 10
33.64165599782356
 20
61.9731187418166
  0
LINE
  5
FDD
330
1F
100
AcDbEntity
  8
0
  6
Continuous
 62
     7
100
AcDbLine
 10
35.31514362202357
 20
73.8134458124166
 30
0.0
 11
35.31514247912357
 21
73.81344161391659
 31
0.0
  0
LWPOLYLINE
  5
FDE
330
1F
100
AcDbEntity
  8
0
  6
Continuous
 62
     7
100
AcDbPolyline
 90
       10
 70
     0
 43
0.0
 10
33.76805429792356
 20
69.4030726181166
 10
33.73911942752356
 20
69.3159359025166
 10
33.70492909792356
 20
69.21110603621659
 10
33.67105747532356
 20
69.1050973163166
 10
33.63754015572356
 20
68.9978974305166
 10
33.60441880852356
 20
68.88950992191659
 10
33.57174062972357
 20
68.77995423341658
 10
33.53954868462356
 20
68.66923418761659
 10
33.50788247012356
 20
68.55733795211659
 10
33.48181084882356
 20
68.46276504551659
  0
LWPOLYLINE
  5
FDF
330
1F
100
AcDbEntity
  8
0
  6
Continuous
 62
     7
100
AcDbPolyline
 90
       19
 70
     0
 43
0.0
 10
34.37175604802356
 20
68.5306491333166
 10
34.27869708592356
 20
68.21058652871659
 10
34.18733633512356
 20
67.8552351717166
 10
34.10819632652356
 20
67.4987490764166
 10
34.04145666872356
 20
67.14210373351659
 10
33.98696762642356
 20
66.78519519621659
 10
33.94451251582356
 20
66.42680861861659
 10
33.91417587152356
 20
66.06733023561659
 10
33.89594267802357
 20
65.70718981811658
 10
33.88977137882356
 20
65.34520319011659
 10
33.89575803932357
 20
64.9817911156166
 10
33.91390086882356
 20
64.6173615333166
 10
33.94433027732357
 20
64.2507262988166
 10
33.98714967922356
 20
63.88232048501659
 10
34.04237303192356
 20
63.5125243958166
 10
34.11029842312357
 20
63.14012856301659
 10
34.19115003452357
 20
62.7650356277166
 10
34.28484911702356
 20
62.3882047011166
 10
34.38216302612357
 20
62.0410622230166
  0
LWPOLYLINE
  5
FE0
330
1F
100
AcDbEntity
  8
0
  6
Continuous
 62
     7
100
AcDbPolyline
 90
        4
 70
     0
 43
0.0
 10
33.90674011032356
 20
69.80631764301659
 10
33.85727196512357
 20
69.66492247641659
 10
33.80900588352356
 20
69.52440865161659
 10
33.76805447802357
 20
69.4030731643166
  0
LINE
  5
FE1
330
1F
100
AcDbEntity
  8
0
  6
Continuous
 62
     7
100
AcDbLine
 10
33.94644625002356
 20
69.91801784031659
 30
0.0
 11
33.90674011032356
 21
69.80631764301659
 31
0.0
  0
LINE
  5
FE2
330
1F
100
AcDbEntity
  8
0
  6
Continuous
 62
     7
100
AcDbLine
 10
34.38599475912357
 20
68.5701202747166
 30
0.0
 11
34.37176392602356
 21
68.53064671431659
 31
0.0
  0
LWPOLYLINE
  5
FE3
330
1F
100
AcDbEntity
  8
0
  6
Continuous
 62
     7
100
AcDbPolyline
 90
        7
 70
     0
 43
0.0
 10
34.04875945042357
 20
70.1857243459166
 10
34.02844278572356
 20
70.13466295421659
 10
34.00905148532357
 20
70.08516829621659
 10
33.99060417372356
 20
70.03724727031659
 10
33.97311210702357
 20
69.9908898580166
 10
33.95653424102356
 20
69.9459451706166
 10
33.94646338682357
 20
69.9180657145166
  0
LINE
  5
FE4
330
1F
100
AcDbEntity
  8
0
  6
Continuous
 62
     7
100
AcDbLine
 10
34.09219527372356
 20
70.29277654271659
 30
0.0
 11
34.04875945042357
 21
70.1857243459166
 31
0.0
  0
LINE
  5
FE5
330
1F
100
AcDbEntity
  8
0
  6
Continuous
 62
     7
100
AcDbLine
 10
34.13916437502356
 20
70.4061982212166
 30
0.0
 11
34.09219527372356
 21
70.29277654271659
 31
0.0
  0
LINE
  5
FE6
330
1F
100
AcDbEntity
  8
0
  6
Continuous
 62
     7
100
AcDbLine
 10
34.21563809942357
 20
70.5875881484166
 30
0.0
 11
34.13916437502356
 21
70.4061982212166
 31
0.0
  0
LINE
  5
FE7
330
1F
100
AcDbEntity
  8
0
  6
Continuous
 62
     7
100
AcDbLine
 10
34.35690938782356
 20
70.91717303591659
 30
0.0
 11
34.21563809942357
 21
70.5875881484166
 31
0.0
  0
LINE
  5
FE8
330
1F
100
AcDbEntity
  8
0
  6
Continuous
 62
     7
100
AcDbLine
 10
34.76145424052357
 20
71.85094997821659
 30
0.0
 11
34.35690938782356
 21
70.91717303591659
 31
0.0
  0
LWPOLYLINE
  5
FE9
330
1F
100
AcDbEntity
  8
0
  6
Continuous
 62
     7
100
AcDbPolyline
 90
       16
 70
     0
 43
0.0
 10
49.92076344382356
 20
68.5672769487166
 10
49.90481082112356
 20
68.6019759719166
 10
49.88589651082357
 20
68.63505922541659
 10
49.86417830962357
 20
68.66630119381659
 10
49.83977731862356
 20
68.6955326036166
 10
49.81286154542356
 20
68.7225164859166
 10
49.78366086852356
 20
68.74703813161659
 10
49.75235986612356
 20
68.7689336932166
 10
49.71919506062356
 20
68.78800363241658
 10
49.68443646362356
 20
68.8041065230166
 10
49.64830711162356
 20
68.81713507261659
 10
49.61108830182356
 20
68.82696010221659
 10
49.57305680232356
 20
68.8335092895166
 10
49.53442968932357
 20
68.83672653411659
 10
49.49547944792357
 20
68.83654855661659
 10
49.45654921632357
 20
68.8329699180166
  0
LINE
  5
FEA
330
1F
100
AcDbEntity
  8
0
  6
Continuous
 62
     7
100
AcDbLine
 10
50.00723611932357
 20
70.78110252801659
 30
0.0
 11
49.54413664082356
 21
71.85094124611659
 31
0.0
  0
LWPOLYLINE
  5
FEB
330
1F
100
AcDbEntity
  8
0
  6
Continuous
 62
     7
100
AcDbPolyline
 90
       19
 70
     0
 43
0.0
 10
49.54413089502356
 20
71.8509544698166
 10
49.51326257982356
 20
71.9230124123166
 10
49.47556763222356
 20
72.01394367351659
 10
49.43809986902356
 20
72.1078551785166
 10
49.40099011532357
 20
72.20472424441659
 10
49.36437817702357
 20
72.3044908703166
 10
49.32840699212356
 20
72.4070619534166
 10
49.29320016962357
 20
72.51238108571659
 10
49.25887994852356
 20
72.6203792564166
 10
49.22557358632356
 20
72.73095228691659
 10
49.19339005812356
 20
72.84404033311659
 10
49.16243441782356
 20
72.9595873316166
 10
49.13281567072356
 20
73.07751519251659
 10
49.10461933962356
 20
73.1977949765166
 10
49.07792032192356
 20
73.3203898389166
 10
49.05279781022357
 20
73.44523478311661
 10
49.02932610662356
 20
73.5722862211166
 10
49.00757738552356
 20
73.7015169669166
 10
48.99044460842357
 20
73.81344161391659
  0
LINE
  5
FEC
330
1F
100
AcDbEntity
  8
0
  6
Continuous
 62
     7
100
AcDbLine
 10
50.11619982022356
 20
70.52567141431659
 30
0.0
 11
50.00723611932357
 21
70.78110252801659
 31
0.0
  0
LWPOLYLINE
  5
FED
330
1F
100
AcDbEntity
  8
0
  6
Continuous
 62
     7
100
AcDbPolyline
 90
        3
 70
     0
 43
0.0
 10
50.19034275852356
 20
70.34868338961659
 10
50.16642271252356
 20
70.4061982212166
 10
50.11619982022356
 20
70.52567141431659
  0
LINE
  5
FEE
330
1F
100
AcDbEntity
  8
0
  6
Continuous
 62
     7
100
AcDbLine
 10
49.93382239472357
 20
68.53064656761659
 30
0.0
 11
49.92076344382356
 21
68.5672769487166
 31
0.0
  0
LWPOLYLINE
  5
FEF
330
1F
100
AcDbEntity
  8
0
  6
Continuous
 62
     7
100
AcDbPolyline
 90
        8
 70
     0
 43
0.0
 10
50.34905284652356
 20
69.9459451706166
 10
50.33247498052356
 20
69.9908898580166
 10
50.31498291382356
 20
70.03724727031659
 10
50.29653560222357
 20
70.08516829621659
 10
50.27714430182356
 20
70.13466295421659
 10
50.25682763712357
 20
70.1857243459166
 10
50.23556593392356
 20
70.23844177071659
 10
50.19034275852356
 20
70.34868338961659
  0
LINE
  5
FF0
330
1F
100
AcDbEntity
  8
0
  6
Continuous
 62
     7
100
AcDbLine
 10
50.34905284652356
 20
69.9459451706166
 30
0.0
 11
50.35944123072356
 21
69.91717873041659
 31
0.0
  0
LWPOLYLINE
  5
FF1
330
1F
100
AcDbEntity
  8
0
  6
Continuous
 62
     7
100
AcDbPolyline
 90
        5
 70
     0
 43
0.0
 10
50.53753260952356
 20
69.4030731643166
 10
50.49658120402356
 20
69.52440865161659
 10
50.44831512242357
 20
69.66492247641659
 10
50.39884697732357
 20
69.80631764301659
 10
50.35944125112356
 20
69.9171786758166
  0
LWPOLYLINE
  5
FF2
330
1F
100
AcDbEntity
  8
0
  6
Continuous
 62
     7
100
AcDbPolyline
 90
       10
 70
     0
 43
0.0
 10
50.82377623882356
 20
68.46276504551659
 10
50.79770461742356
 20
68.55733795211659
 10
50.76603840292357
 20
68.66923418761659
 10
50.73384645782356
 20
68.77995423341658
 10
50.70116827902356
 20
68.88950992191659
 10
50.66804693182357
 20
68.9978974305166
 10
50.63452961222356
 20
69.1050973163166
 10
50.60065798962356
 20
69.21110603621659
 10
50.56646766002356
 20
69.3159359025166
 10
50.53753278962357
 20
69.4030726181166
  0
LINE
  5
FF3
330
1F
100
AcDbEntity
  8
0
  6
Continuous
 62
     7
100
AcDbLine
 10
48.99044346552356
 20
73.8134458124166
 30
0.0
 11
48.99044460842357
 21
73.81344161391659
 31
0.0
  0
LINE
  5
FF4
330
1F
100
AcDbEntity
  8
0
  6
Continuous
 62
     7
100
AcDbLine
 10
49.45163259642356
 20
68.8311625548166
 30
0.0
 11
49.45147082042357
 21
68.83225745871659
 31
0.0
  0
LINE
  5
FF5
330
1F
100
AcDbEntity
  8
0
  6
Continuous
 62
     7
100
AcDbLine
 10
48.96246792982356
 20
74.0281821881166
 30
0.0
 11
48.96115094482357
 21
74.0403451608166
 31
0.0
  0
LWPOLYLINE
  5
FF6
330
1F
100
AcDbEntity
  8
0
  6
Continuous
 62
     7
100
AcDbPolyline
 90
       27
 70
     0
 43
0.0
 10
49.19564105742356
 20
76.8281056439166
 10
49.23546763032356
 20
77.01104291441659
 10
49.28160367532356
 20
77.2491607571166
 10
49.32249675752356
 20
77.49365912021659
 10
49.35787691872356
 20
77.74460110701659
 10
49.38741676742356
 20
78.0016847434166
 10
49.41077501882356
 20
78.26423961591659
 10
49.42769529802356
 20
78.53210675161659
 10
49.43795655852357
 20
78.8051108927166
 10
49.44139229122356
 20
79.08253422111659
 10
49.43787665112356
 20
79.36421080071659
 10
49.42728268852356
 20
79.64996727731659
 10
49.40952366672355
 20
79.93907893691659
 10
49.38450767382356
 20
80.23137593291659
 10
49.35213698492356
 20
80.5266840181166
 10
49.31238698692356
 20
80.82427671631661
 10
49.26518151692356
 20
81.12398398591659
 10
49.21043477872356
 20
81.4256256349166
 10
49.14817069772356
 20
81.72846713561659
 10
49.07831842972356
 20
82.03232975081659
 10
49.00077376182356
 20
82.3370283832166
 10
48.91556214222356
 20
82.6418238768166
 10
48.82257142202356
 20
82.9465013141166
 10
48.72165033102356
 20
83.2508412112166
 10
48.61286018322356
 20
83.55409242711658
 10
48.49625514352356
 20
83.85584941211659
 10
48.37180037322356
 20
84.1560959145166
  0
LINE
  5
FF7
330
1F
100
AcDbEntity
  8
0
  6
Continuous
 62
     7
100
AcDbLine
 10
49.18649077352355
 20
76.7884330516166
 30
0.0
 11
49.19899743052356
 21
76.84285899011659
 31
0.0
  0
LINE
  5
FF8
330
1F
100
AcDbEntity
  8
0
  6
Continuous
 62
     7
100
AcDbLine
 10
48.98033619232356
 20
73.88480229291658
 30
0.0
 11
48.97698767962356
 21
73.90957537931659
 31
0.0
  0
LINE
  5
FF9
330
1F
100
AcDbEntity
  8
0
  6
Continuous
 62
     7
100
AcDbLine
 10
48.97698767962356
 20
73.90957537931659
 30
0.0
 11
48.97220886932356
 21
73.94634881091659
 31
0.0
  0
LINE
  5
FFA
330
1F
100
AcDbEntity
  8
0
  6
Continuous
 62
     7
100
AcDbLine
 10
48.97220886932356
 20
73.94634881091659
 30
0.0
 11
48.96831962132356
 21
73.97772336441659
 31
0.0
  0
LINE
  5
FFB
330
1F
100
AcDbEntity
  8
0
  6
Continuous
 62
     7
100
AcDbLine
 10
48.96831962132356
 20
73.97772336441659
 30
0.0
 11
48.96535921342356
 21
74.0026663145166
 31
0.0
  0
LINE
  5
FFC
330
1F
100
AcDbEntity
  8
0
  6
Continuous
 62
     7
100
AcDbLine
 10
48.96535921342356
 20
74.0026663145166
 30
0.0
 11
48.96246792982356
 21
74.0281821881166
 31
0.0
  0
LWPOLYLINE
  5
FFD
330
1F
100
AcDbEntity
  8
0
  6
Continuous
 62
     7
100
AcDbPolyline
 90
       10
 70
     0
 43
0.0
 10
48.24688614602356
 20
84.43847909521659
 10
48.21707044752357
 20
84.50338902941659
 10
48.17875868332357
 20
84.5854878840166
 10
48.13997129312356
 20
84.66716519701661
 10
48.10071243172356
 20
84.7484182455166
 10
48.06098555262356
 20
84.8292444817166
 10
48.02079397192357
 20
84.9096413039166
 10
47.98014098472356
 20
84.98960606451658
 10
47.93903004372356
 20
85.06913536741659
 10
47.90576500232356
 20
85.13253550341659
  0
LINE
  5
FFE
330
1F
100
AcDbEntity
  8
0
  6
Continuous
 62
     7
100
AcDbLine
 10
48.37180037322356
 20
84.1560959145166
 30
0.0
 11
48.24688615812356
 21
84.43847910071658
 31
0.0
  0
LWPOLYLINE
  5
FFF
330
1F
100
AcDbEntity
  8
0
  6
Continuous
 62
     7
100
AcDbPolyline
 90
       46
 70
     0
 43
0.0
 10
47.90576499852356
 20
85.1325355014166
 10
47.81139096412355
 20
85.3079886248166
 10
47.70582259702356
 20
85.49700194171661
 10
47.59811036182356
 20
85.68257926771659
 10
47.48830440582356
 20
85.86480161671659
 10
47.37656431502356
 20
86.04357360391659
 10
47.26317724422356
 20
86.21863186831658
 10
47.14826895292357
 20
86.38999225991659
 10
47.03197139062356
 20
86.5576769168166
 10
46.91460762172356
 20
86.7214552878166
 10
46.79631094552356
 20
86.88137575821659
 10
46.67721065872356
 20
87.0374845456166
 10
46.55765063942356
 20
87.18956327321659
 10
46.43777806082356
 20
87.33768384771659
 10
46.31777877412356
 20
87.48186507651659
 10
46.19802354722356
 20
87.6219052254166
 10
46.07849705262355
 20
87.7579142690166
 10
45.95877282862356
 20
87.88961042301659
 10
45.83869987552356
 20
88.01627276481658
 10
45.71831601912356
 20
88.13728824241659
 10
45.59725476492356
 20
88.2525609145166
 10
45.47497943442357
 20
88.36213898511658
 10
45.35166364522356
 20
88.46543746741659
 10
45.22747079052356
 20
88.56245752931659
 10
45.10186639982356
 20
88.65407112091659
 10
44.97510109892355
 20
88.7404706171166
 10
44.84745651012356
 20
88.8217781147166
 10
44.71815921092356
 20
88.8986987271166
 10
44.58721433782357
 20
88.9713562343166
 10
44.45497651732356
 20
89.0396942676166
 10
44.32111311262356
 20
89.1040204800166
 10
44.18570666122356
 20
89.16440600591659
 10
44.04894648052356
 20
89.2208682003166
 10
43.91061854702356
 20
89.27350557371658
 10
43.77079704942356
 20
89.32221285001659
 10
43.62957921832356
 20
89.3668960306166
 10
43.48675411162356
 20
89.4075583456166
 10
43.34244313772356
 20
89.4440976066166
 10
43.19675304412356
 20
89.47643164141659
 10
43.04944594322356
 20
89.5045592174166
 10
42.90065209832356
 20
89.52840464571659
 10
42.75050412592356
 20
89.54791141391659
 10
42.59877057032356
 20
89.56306647251659
 10
42.44546282762356
 20
89.57381079351661
 10
42.29083353252356
 20
89.58007871621658
 10
42.15279354382356
 20
89.58185998611659
  0
LWPOLYLINE
  5
1000
330
1F
100
AcDbEntity
  8
0
  6
Continuous
 62
     7
100
AcDbPolyline
 90
       19
 70
     0
 43
0.0
 10
49.92342404322356
 20
62.04106219991659
 10
50.01999715252356
 20
62.3854123195166
 10
50.11378871722357
 20
62.76224386031659
 10
50.19473308692356
 20
63.1373377278166
 10
50.26275120902356
 20
63.50973555161659
 10
50.31806707272356
 20
63.87953442221659
 10
50.36097920562356
 20
64.24794281711659
 10
50.39150129642356
 20
64.61458044131659
 10
50.40973656712356
 20
64.97901248571659
 10
50.41581611882357
 20
65.3424265987166
 10
50.40973795922356
 20
65.70441495851659
 10
50.39159794632356
 20
66.0645568557166
 10
50.36135534162356
 20
66.42403599251659
 10
50.31899495402356
 20
66.7824225386166
 10
50.26460109352356
 20
67.13933025211659
 10
50.19795796672356
 20
67.49597373351659
 10
50.11891583072356
 20
67.85245697991659
 10
50.02765392302356
 20
68.2078046157166
 10
49.93383101942356
 20
68.53064921571659
  0
LWPOLYLINE
  5
1001
330
1F
100
AcDbEntity
  8
0
  6
Continuous
 62
     7
100
AcDbPolyline
 90
       46
 70
     0
 43
0.0
 10
42.15279354382356
 20
89.58185998611659
 10
42.01475355502355
 20
89.58007871621658
 10
41.86012425992356
 20
89.57381079351661
 10
41.70681651732356
 20
89.56306647251659
 10
41.55508296162356
 20
89.54791141391659
 10
41.40493498922356
 20
89.52840464571659
 10
41.25614114432356
 20
89.5045592174166
 10
41.10883404352356
 20
89.47643164141659
 10
40.96314394982356
 20
89.4440976066166
 10
40.81883297592356
 20
89.4075583456166
 10
40.67600786922357
 20
89.3668960306166
 10
40.53479003812356
 20
89.32221285001659
 10
40.39496854052356
 20
89.27350557371658
 10
40.25664060702356
 20
89.2208682003166
 10
40.11988042632355
 20
89.16440600591659
 10
39.98447397492357
 20
89.1040204800166
 10
39.85061057022356
 20
89.0396942676166
 10
39.71837274982357
 20
88.9713562343166
 10
39.58742787662357
 20
88.8986987271166
 10
39.45813057742357
 20
88.8217781147166
 10
39.33048598872357
 20
88.7404706171166
 10
39.20372068772356
 20
88.65407112091659
 10
39.07811629702356
 20
88.56245752931659
 10
38.95392344232357
 20
88.46543746741659
 10
38.83060765312356
 20
88.36213898511658
 10
38.70833232272357
 20
88.2525609145166
 10
38.58727106852356
 20
88.13728824241659
 10
38.46688721202357
 20
88.01627276481658
 10
38.34681425892357
 20
87.88961042301659
 10
38.22709003492356
 20
87.7579142690166
 10
38.10756354032357
 20
87.6219052254166
 10
37.98780831342357
 20
87.48186507651659
 10
37.86780902672357
 20
87.33768384771659
 10
37.74793644822356
 20
87.18956327321659
 10
37.62837642882356
 20
87.0374845456166
 10
37.50927614212357
 20
86.88137575821659
 10
37.39097946582357
 20
86.7214552878166
 10
37.27361569692356
 20
86.5576769168166
 10
37.15731813462357
 20
86.38999225991659
 10
37.04240984342356
 20
86.21863186831658
 10
36.92902277252357
 20
86.04357360391659
 10
36.81728268182356
 20
85.86480161671659
 10
36.70747672572357
 20
85.68257926771659
 10
36.59976449052356
 20
85.49700194171661
 10
36.49419612342356
 20
85.3079886248166
 10
36.39982208902357
 20
85.1325355014166
  0
LWPOLYLINE
  5
1002
330
1F
100
AcDbEntity
  8
0
  6
Continuous
 62
     7
100
AcDbPolyline
 90
       25
 70
     0
 43
0.0
 10
50.66393108972356
 20
61.9731187418166
 10
50.73005782272357
 20
62.17164657341659
 10
50.81018209722356
 20
62.4305216593166
 10
50.88346795322356
 20
62.68947749691659
 10
50.94982829282357
 20
62.94798102971659
 10
51.00941916562356
 20
63.20637841121659
 10
51.06252936562356
 20
63.46591806931659
 10
51.10909167982356
 20
63.7265045615166
 10
51.14905065352356
 20
63.9880824068166
 10
51.18251219412356
 20
64.2519943404166
 10
51.20932651642355
 20
64.51830669351659
 10
51.22931544322356
 20
64.78682050801658
 10
51.24235608562356
 20
65.0585000403166
 10
51.24820456032356
 20
65.33371362951659
 10
51.24658617902356
 20
65.61193110471659
 10
51.23733138962356
 20
65.89284457501659
 10
51.22031364962357
 20
66.17666935231659
 10
51.19545295742357
 20
66.4633253800166
 10
51.16278472512356
 20
66.75212587601659
 10
51.12230619552356
 20
67.04325811391659
 10
51.07403838722357
 20
67.3367886428166
 10
51.01819697332357
 20
67.6318879300166
 10
50.95488107202356
 20
67.92869917911659
 10
50.88418847642356
 20
68.22740105071659
 10
50.82373362552356
 20
68.4627965702166
  0
LWPOLYLINE
  5
1003
330
1F
100
AcDbEntity
  8
0
  6
Continuous
 62
     7
100
AcDbPolyline
 90
        3
 70
     0
 43
0.0
 10
49.91355617962357
 20
62.0137073219166
 10
49.92132792252355
 20
62.0343444687166
 10
49.92341788842356
 20
62.04106401871659
  0
ARC
  5
1082
330
1F
100
AcDbEntity
  8
0
  6
Continuous
 62
     7
100
AcDbCircle
 10
27.08107128772356
 20
75.0161532230166
 30
0.0
 40
8.321445325299999
100
AcDbArc
 50
351.6898744650999
 51
352.1860921064998
  0
ARC
  5
1083
330
1F
100
AcDbEntity
  8
0
  6
Continuous
 62
     7
100
AcDbCircle
 10
27.13901084702357
 20
74.84246215691659
 30
0.0
 40
8.244411107699999
100
AcDbArc
 50
355.6184624354997
 51
358.6095421786999
  0
ARC
  5
1084
330
1F
100
AcDbEntity
  8
0
  6
Continuous
 62
     7
100
AcDbCircle
 10
27.14760007532357
 20
74.84191095001659
 30
0.0
 40
8.2358054618
100
AcDbArc
 50
354.2493466388
 51
354.4041868466998
  0
ARC
  5
1085
330
1F
100
AcDbEntity
  8
0
  6
Continuous
 62
     7
100
AcDbCircle
 10
27.15139527362357
 20
74.84155169191659
 30
0.0
 40
8.231993318099998
100
AcDbArc
 50
354.4040996753
 51
355.6181955965998
  0
ARC
  5
1086
330
1F
100
AcDbEntity
  8
0
  6
Continuous
 62
     7
100
AcDbCircle
 10
34.98731408432357
 20
69.5234011208166
 30
0.0
 40
1.151126049199999
100
AcDbArc
 50
201.3843890796997
 51
201.8130404922999
  0
ARC
  5
1087
330
1F
100
AcDbEntity
  8
0
  6
Continuous
 62
     7
100
AcDbCircle
 10
34.75358689972356
 20
69.46886559631659
 30
0.0
 40
0.9087172046999999
100
AcDbArc
 50
178.8582281461
 51
182.2187719056
  0
ARC
  5
1088
330
1F
100
AcDbEntity
  8
0
  6
Continuous
 62
     7
100
AcDbCircle
 10
34.71980330692357
 20
69.46894574301659
 30
0.0
 40
0.8749410355
100
AcDbArc
 50
173.1908326028001
 51
178.8193917805998
  0
ARC
  5
1089
330
1F
100
AcDbEntity
  8
__SOLID_RIM
  6
Continuous
 62
     7
100
AcDbCircle
 10
35.35258212132357
 20
62.17378201831659
 30
0.0
 40
0.3897259284
100
AcDbArc
 50
270.0107970736002
 51
271.7532507138999
  0
ARC
  5
108A
330
1F
100
AcDbEntity
  8
__SOLID_RIM
  6
Continuous
 62
     7
100
AcDbCircle
 10
35.62650776062356
 20
62.0509635499166
 30
0.0
 40
0.2586021641
100
AcDbArc
 50
269.6165661924998
 51
270.0521282896001
  0
ARC
  5
108B
330
1F
100
AcDbEntity
  8
0
  6
Continuous
 62
     7
100
AcDbCircle
 10
34.62490325442356
 20
62.1109884151166
 30
0.0
 40
0.2497302004
100
AcDbArc
 50
261.8179007652
 51
267.5841736023001
  0
ARC
  5
108C
330
1F
100
AcDbEntity
  8
0
  6
Continuous
 62
     7
100
AcDbCircle
 10
34.62490827762356
 20
62.1104926370166
 30
0.0
 40
0.2492360226
100
AcDbArc
 50
267.5840402959001
 51
269.9779237971999
  0
ARC
  5
108D
330
1F
100
AcDbEntity
  8
0
  6
Continuous
 62
     7
100
AcDbCircle
 10
34.62482397782357
 20
62.1104358467166
 30
0.0
 40
0.2491719742
100
AcDbArc
 50
259.3254304383002
 51
261.8178612590997
  0
ARC
  5
108E
330
1F
100
AcDbEntity
  8
0
  6
Continuous
 62
     7
100
AcDbCircle
 10
35.98881321802357
 20
78.8467700137166
 30
0.0
 40
13.4730368712
100
AcDbArc
 50
24.37831289580004
 51
24.52083175659986
  0
ARC
  5
108F
330
1F
100
AcDbEntity
  8
0
  6
Continuous
 62
     7
100
AcDbCircle
 10
36.13023543582357
 20
78.9140033377166
 30
0.0
 40
13.3164619815
100
AcDbArc
 50
24.51017863730003
 51
27.83805857249996
  0
ARC
  5
1090
330
1F
100
AcDbEntity
  8
0
  6
Continuous
 62
     7
100
AcDbCircle
 10
36.27515321572357
 20
78.98971851251658
 30
0.0
 40
13.1529558946
100
AcDbArc
 50
27.84119549820021
 51
28.29812370790008
  0
CIRCLE
  5
1091
330
1F
100
AcDbEntity
  8
0
  6
Continuous
 62
     7
100
AcDbCircle
 10
39.40279354382357
 20
70.6438027841166
 30
0.0
 40
0.315
  0
ARC
  5
1092
330
1F
100
AcDbEntity
  8
0
  6
Continuous
 62
     7
100
AcDbCircle
 10
42.15109240142356
 20
84.7398296472166
 30
0.0
 40
15.7697405134
100
AcDbArc
 50
270.0061807154
 51
272.5503087777001
  0
ARC
  5
1093
330
1F
100
AcDbEntity
  8
0
  6
Continuous
 62
     7
100
AcDbCircle
 10
40.16432250622356
 20
78.8900284524166
 30
0.0
 40
9.263706166
100
AcDbArc
 50
347.2329206168999
 51
348.2095901230001
  0
ARC
  5
1094
330
1F
100
AcDbEntity
  8
0
  6
Continuous
 62
     7
100
AcDbCircle
 10
42.15247702912356
 20
84.25623204621659
 30
0.0
 40
5.325181034299999
100
AcDbArc
 50
89.99659449060006
 51
92.22078894369989
  0
ARC
  5
1095
330
1F
100
AcDbEntity
  8
0
  6
Continuous
 62
     7
100
AcDbCircle
 10
42.13027841672356
 20
117.1261324788166
 30
0.0
 40
48.8397745604
100
AcDbArc
 50
271.8951371209002
 51
272.8282909861002
  0
ARC
  5
1096
330
1F
100
AcDbEntity
  8
0
  6
Continuous
 62
     7
100
AcDbCircle
 10
42.14580480562356
 20
116.6640676568166
 30
0.0
 40
48.37744878350001
100
AcDbArc
 50
270.9376546348
 51
271.8600065664002
  0
CIRCLE
  5
1097
330
1F
100
AcDbEntity
  8
0
  6
Continuous
 62
     7
100
AcDbCircle
 10
44.90279354382356
 20
70.6438027841166
 30
0.0
 40
0.315
  0
ARC
  5
1098
330
1F
100
AcDbEntity
  8
0
  6
Continuous
 62
     7
100
AcDbCircle
 10
42.15449468612356
 20
84.7398296472166
 30
0.0
 40
15.7697405134
100
AcDbArc
 50
267.4496912222998
 51
269.9938192846
  0
ARC
  5
1099
330
1F
100
AcDbEntity
  8
0
  6
Continuous
 62
     7
100
AcDbCircle
 10
44.14250350602356
 20
78.8902999166166
 30
0.0
 40
9.2649744504
100
AcDbArc
 50
191.7653740698
 51
192.7670235090998
  0
ARC
  5
109A
330
1F
100
AcDbEntity
  8
0
  6
Continuous
 62
     7
100
AcDbCircle
 10
43.99436379202356
 20
78.8569499978166
 30
0.0
 40
9.1131271538
100
AcDbArc
 50
192.8624802691001
 51
193.4279805684001
  0
ARC
  5
109B
330
1F
100
AcDbEntity
  8
0
  6
Continuous
 62
     7
100
AcDbCircle
 10
43.89690970232356
 20
78.8336221662166
 30
0.0
 40
9.012919914400001
100
AcDbArc
 50
193.4441459670998
 51
194.1642399627998
  0
ARC
  5
109C
330
1F
100
AcDbEntity
  8
0
  6
Continuous
 62
     7
100
AcDbCircle
 10
49.31827300342356
 20
69.52340112071659
 30
0.0
 40
1.151126049
100
AcDbArc
 50
338.1869595076001
 51
338.6156109203999
  0
ARC
  5
109D
330
1F
100
AcDbEntity
  8
0
  6
Continuous
 62
     7
100
AcDbCircle
 10
49.55200018782356
 20
69.46886559631659
 30
0.0
 40
0.9087172046999999
100
AcDbArc
 50
357.7812280944
 51
1.14177185390001
  0
ARC
  5
109E
330
1F
100
AcDbEntity
  8
0
  6
Continuous
 62
     7
100
AcDbCircle
 10
49.58578378062356
 20
69.46894574301659
 30
0.0
 40
0.8749410355
100
AcDbArc
 50
1.180608219400137
 51
6.80916739719986
  0
ARC
  5
109F
330
1F
100
AcDbEntity
  8
__SOLID_RIM
  6
Continuous
 62
     7
100
AcDbCircle
 10
48.95300496622356
 20
62.17378201831659
 30
0.0
 40
0.3897259284
100
AcDbArc
 50
266.6184839365999
 51
269.9892029263998
  0
ARC
  5
10A0
330
1F
100
AcDbEntity
  8
__SOLID_RIM
  6
Continuous
 62
     7
100
AcDbCircle
 10
48.67907932692356
 20
62.0509635499166
 30
0.0
 40
0.2586021641
100
AcDbArc
 50
269.9478717103999
 51
270.3834338075002
  0
ARC
  5
10A1
330
1F
100
AcDbEntity
  8
0
  6
Continuous
 62
     7
100
AcDbCircle
 10
49.68066707382356
 20
62.11112606441659
 30
0.0
 40
0.2498688549
100
AcDbArc
 50
271.7893673398999
 51
277.4197292716998
  0
ARC
  5
10A2
330
1F
100
AcDbEntity
  8
0
  6
Continuous
 62
     7
100
AcDbCircle
 10
49.68075589832356
 20
62.1104683581166
 30
0.0
 40
0.2492051852
100
AcDbArc
 50
277.4190058483
 51
280.1397023520001
  0
ARC
  5
10A3
330
1F
100
AcDbEntity
  8
0
  6
Continuous
 62
     7
100
AcDbCircle
 10
49.68068121252357
 20
62.1103696932166
 30
0.0
 40
0.2491129402
100
AcDbArc
 50
270.0215357199999
 51
271.7887246031001
  0
ARC
  5
10A4
330
1F
100
AcDbEntity
  8
0
  6
Continuous
 62
     7
100
AcDbCircle
 10
48.31677428092357
 20
78.84676982651659
 30
0.0
 40
13.4730373231
100
AcDbArc
 50
155.4791682449998
 51
155.6220472472999
  0
ARC
  5
10A5
330
1F
100
AcDbEntity
  8
0
  6
Continuous
 62
     7
100
AcDbCircle
 10
48.17535165172356
 20
78.9140033377166
 30
0.0
 40
13.3164619815
100
AcDbArc
 50
152.1619414275
 51
155.4898213626999
  0
ARC
  5
10A6
330
1F
100
AcDbEntity
  8
0
  6
Continuous
 62
     7
100
AcDbCircle
 10
48.03043387202357
 20
78.9897185124166
 30
0.0
 40
13.1529558948
100
AcDbArc
 50
151.7018762920998
 51
152.1588045017999
  0
ARC
  5
10A7
330
1F
100
AcDbEntity
  8
0
  6
Continuous
 62
     7
100
AcDbCircle
 10
42.17523774192357
 20
117.1244093949166
 30
0.0
 40
48.8380500365
100
AcDbArc
 50
267.1749323211003
 51
268.1080271506
  0
ARC
  5
10A8
330
1F
100
AcDbEntity
  8
0
  6
Continuous
 62
     7
100
AcDbCircle
 10
42.15976078322356
 20
116.6632417699166
 30
0.0
 40
48.37662261550001
100
AcDbArc
 50
268.1433854306001
 51
269.0649917436
  0
ARC
  5
10A9
330
1F
100
AcDbEntity
  8
0
  6
Continuous
 62
     7
100
AcDbCircle
 10
57.23063944642357
 20
75.01698671051659
 30
0.0
 40
8.327625412899999
100
AcDbArc
 50
185.5451396481998
 51
187.8138611193001
  0
ARC
  5
10AA
330
1F
100
AcDbEntity
  8
0
  6
Continuous
 62
     7
100
AcDbCircle
 10
57.22791746122357
 20
75.0167093924166
 30
0.0
 40
8.3248893853
100
AcDbArc
 50
185.2590943086
 51
185.5450502099
  0
ARC
  5
10AB
330
1F
100
AcDbEntity
  8
0
  6
Continuous
 62
     7
100
AcDbCircle
 10
57.22451580002356
 20
75.0161532230166
 30
0.0
 40
8.321445325399999
100
AcDbArc
 50
187.8139078934998
 51
188.3101255349
  0
ARC
  5
10AC
330
1F
100
AcDbEntity
  8
0
  6
Continuous
 62
     7
100
AcDbCircle
 10
57.22970104572356
 20
74.84419826771659
 30
0.0
 40
8.307559455899999
100
AcDbArc
 50
166.9839242624999
 51
181.3918644867001
  0
ARC
  5
10AD
330
1F
100
AcDbEntity
  8
0
  6
Continuous
 62
     7
100
AcDbCircle
 10
57.16657623532356
 20
74.8424621565166
 30
0.0
 40
8.2444111024
100
AcDbArc
 50
181.3904586911001
 51
184.3815375645998
  0
ARC
  5
10AE
330
1F
100
AcDbEntity
  8
0
  6
Continuous
 62
     7
100
AcDbCircle
 10
57.15796225852357
 20
74.84190848041659
 30
0.0
 40
8.2357805853
100
AcDbArc
 50
185.5851884646
 51
185.7506535221999
  0
ARC
  5
10AF
330
1F
100
AcDbEntity
  8
0
  6
Continuous
 62
     7
100
AcDbCircle
 10
57.15415978812356
 20
74.8415490089166
 30
0.0
 40
8.231961181
100
AcDbArc
 50
184.3818028145997
 51
185.5852741644001
  0
LINE
  5
10F0
330
1F
100
AcDbEntity
  8
0
  6
Continuous
 62
     7
100
AcDbLine
 10
41.40774640532356
 20
68.2924652584166
 30
0.0
 11
41.37033904322357
 21
68.2930605733166
 31
0.0
  0
LINE
  5
10F1
330
1F
100
AcDbEntity
  8
0
  6
Continuous
 62
     7
100
AcDbLine
 10
40.59243722632356
 20
68.3120151821166
 30
0.0
 11
40.56284195592356
 21
68.31298336371659
 31
0.0
  0
LINE
  5
10F2
330
1F
100
AcDbEntity
  8
0
  6
Continuous
 62
     7
100
AcDbLine
 10
39.76816867132356
 20
68.34571373931659
 30
0.0
 11
39.76342323852357
 21
68.34594807491659
 31
0.0
  0
SPLINE
  5
10F3
330
1F
100
AcDbEntity
  8
0
  6
Continuous
 62
     7
100
AcDbSpline
210
0.0
220
0.0
230
1.0
 70
     8
 71
     3
 72
    13
 73
     9
 74
     7
 42
0.0000000001
 43
0.0000000001
 44
0.0000000001
 12
-0.9987805820429924
 22
0.0493695142153669
 32
0.0
 13
-0.9892911800110027
 23
0.1459553395817983
 33
0.0
 40
0.0
 40
0.0
 40
0.0
 40
0.0
 40
0.2213529901347417
 40
1.370509751620778
 40
2.416223750407965
 40
3.35885574900124
 40
4.198542388970873
 40
4.935253009360388
 40
4.935253009360388
 40
4.935253009360388
 40
4.935253009360388
 10
39.76342323852357
 20
68.34594807491659
 30
0.0
 10
39.68972888241565
 20
68.34959077144763
 30
0.0
 10
39.23350105353911
 20
68.37317316589272
 30
0.0
 10
38.42973951831877
 20
68.42594531496698
 30
0.0
 10
37.38783574597754
 20
68.51734430811898
 30
0.0
 10
36.45050225190237
 20
68.61809065966841
 30
0.0
 10
35.61727673511407
 20
68.72225862353243
 30
0.0
 10
35.09689493228083
 20
68.79532027169244
 30
0.0
 10
34.85395449262357
 20
68.8311625546166
 30
0.0
 11
39.76342323852357
 21
68.34594807491659
 31
0.0
 11
39.54236534442357
 21
68.3573740846166
 31
0.0
 11
38.39567284242356
 21
68.4325908934166
 31
0.0
 11
37.35395450232356
 21
68.52391814651659
 31
0.0
 11
36.41671628322356
 21
68.6246137543166
 31
0.0
 11
35.58351216842357
 21
68.72875095431659
 31
0.0
 11
34.85395449262357
 21
68.8311625546166
 31
0.0
  0
SPLINE
  5
10F4
330
1F
100
AcDbEntity
  8
0
  6
Continuous
 62
     7
100
AcDbSpline
210
0.0
220
0.0
230
1.0
 70
     8
 71
     3
 72
    13
 73
     9
 74
     7
 42
0.0000000001
 43
0.0000000001
 44
0.0000000001
 12
-0.98929117989355
 22
-0.1459553403778972
 32
0.0
 13
-0.9987775496696567
 23
-0.0494308231357368
 33
0.0
 40
0.0
 40
0.0
 40
0.0
 40
0.0
 40
0.7373501926784812
 40
1.577462301899793
 40
2.520306519606842
 40
3.566020161101865
 40
4.714964306914554
 40
4.932239442885089
 40
4.932239442885089
 40
4.932239442885089
 40
4.932239442885089
 10
49.45163259642356
 20
68.8311625548166
 30
0.0
 10
49.20848124905369
 20
68.79528915536656
 30
0.0
 10
48.68774738744498
 20
68.72218130050718
 30
0.0
 10
47.85409764222652
 20
68.61797420336921
 30
0.0
 10
46.91655057296928
 20
68.51722659739609
 30
0.0
 10
45.8746447485159
 20
68.42585402450717
 30
0.0
 10
45.0723093000622
 20
68.37319453066591
 30
0.0
 10
44.6175102303265
 20
68.34967697432258
 30
0.0
 10
44.54517372102356
 20
68.34609694471659
 30
0.0
 11
49.45163259642356
 21
68.8311625548166
 31
0.0
 11
48.72144093172356
 21
68.7286665088166
 31
0.0
 11
47.88781291802356
 21
68.6244902599166
 31
0.0
 11
46.95036138772356
 21
68.5237934516166
 31
0.0
 11
45.90864109012357
 21
68.4324926215166
 31
0.0
 11
44.76215897472356
 21
68.3573167659166
 31
0.0
 11
44.54517372102356
 21
68.34609694471659
 31
0.0
  0
LINE
  5
10F5
330
1F
100
AcDbEntity
  8
0
  6
Continuous
 62
     7
100
AcDbLine
 10
44.54517372102356
 20
68.34609694471659
 30
0.0
 11
44.54017673552356
 21
68.34584989251659
 31
0.0
  0
LINE
  5
10F6
330
1F
100
AcDbEntity
  8
0
  6
Continuous
 62
     7
100
AcDbLine
 10
43.74542693752355
 20
68.3130719892166
 30
0.0
 11
43.71601764102356
 21
68.31210820891659
 31
0.0
  0
LINE
  5
10F7
330
1F
100
AcDbEntity
  8
0
  6
Continuous
 62
     7
100
AcDbLine
 10
42.93747418722356
 20
68.29309691621659
 30
0.0
 11
42.90154013632355
 21
68.29252283501659
 31
0.0
  0
LINE
  5
10F8
330
1F
100
AcDbEntity
  8
0
  6
Continuous
 62
     7
100
AcDbLine
 10
49.59851977632356
 20
61.8625278050166
 30
0.0
 11
49.68077484132356
 21
61.8612559646166
 31
0.0
  0
SPLINE
  5
10F9
330
1F
100
AcDbEntity
  8
0
  6
Continuous
 62
     7
100
AcDbSpline
210
0.0
220
0.0
230
1.0
 70
     8
 71
     3
 72
    18
 73
    14
 74
    12
 42
0.0000000001
 43
0.0000000001
 44
0.0000000001
 12
0.3369565450214286
 22
-0.9415201998721121
 32
0.0
 13
0.1176605830863951
 23
-0.9930538692275305
 33
0.0
 40
0.0
 40
0.0
 40
0.0
 40
0.0
 40
0.0367115804674009
 40
0.072648807991698
 40
0.1079170263374233
 40
0.1424827052701151
 40
0.176276095763773
 40
0.2092177389920875
 40
0.2412181149918392
 40
0.2721951543479155
 40
0.3020565567354947
 40
0.3307062794126724
 40
0.3580470037475262
 40
0.3580470037475262
 40
0.3580470037475262
 40
0.3580470037475262
 10
50.35944123072356
 20
69.91717873041659
 30
0.0
 10
50.36356463316242
 20
69.90565716555683
 30
0.0
 10
50.37163733609826
 20
69.88282573244842
 30
0.0
 10
50.3833336224863
 20
69.84880746815176
 30
0.0
 10
50.39446132665213
 20
69.81535179578975
 30
0.0
 10
50.40497916142148
 20
69.78244863958531
 30
0.0
 10
50.41482012187808
 20
69.75014628330905
 30
0.0
 10
50.42390558545228
 20
69.71851165627557
 30
0.0
 10
50.43214939721512
 20
69.68761736027467
 30
0.0
 10
50.4394568781941
 20
69.65754313784717
 30
0.0
 10
50.44572618395448
 20
69.62837557546326
 30
0.0
 10
50.45084759402197
 20
69.60021499671755
 30
0.0
 10
50.45348354580115
 20
69.58173179651267
 30
0.0
 10
50.45455585432357
 20
69.57268152581659
 30
0.0
 11
50.35944123072356
 21
69.91717873041659
 31
0.0
 11
50.37167260032356
 21
69.88256466191661
 31
0.0
 11
50.38334851372356
 21
69.84857705581659
 31
0.0
 11
50.39446917952357
 21
69.81510799521659
 31
0.0
 11
50.40498150332357
 21
69.78217963041659
 31
0.0
 11
50.41481511832356
 21
69.74984863511659
 31
0.0
 11
50.42389072572357
 21
69.7181818511166
 31
0.0
 11
50.43211972192357
 21
69.68725762621659
 31
0.0
 11
50.43940819432356
 21
69.65715023281659
 31
0.0
 11
50.44565252542357
 21
69.62794900541659
 31
0.0
 11
50.45074132802357
 21
69.5997548447166
 31
0.0
 11
50.45455585432357
 21
69.57268152581659
 31
0.0
  0
SPLINE
  5
10FA
330
1F
100
AcDbEntity
  8
0
  6
Continuous
 62
     7
100
AcDbSpline
210
0.0
220
0.0
230
1.0
 70
     8
 71
     3
 72
    24
 73
    20
 74
    18
 42
0.0000000001
 43
0.0000000001
 44
0.0000000001
 12
0.2043395094174738
 22
0.978900079114833
 32
0.0
 13
-0.4127597010687449
 23
0.9108399580462203
 33
0.0
 40
0.0
 40
0.0
 40
0.0
 40
0.0
 40
0.3412826557713218
 40
0.7198943023133609
 40
1.109410414364937
 40
1.508989828172659
 40
1.919278771023151
 40
2.342440800191852
 40
2.78015185184547
 40
3.232507109363864
 40
3.698281281382153
 40
4.175975745400926
 40
4.663360928829403
 40
5.157565526150797
 40
5.654662394265425
 40
6.149401063782923
 40
6.640254774087071
 40
7.132878079882993
 40
7.594126230966273
 40
7.594126230966273
 40
7.594126230966273
 40
7.594126230966273
 10
49.23257932592356
 20
76.9971549273166
 30
0.0
 10
49.2558251694079
 20
77.10851546689496
 30
0.0
 10
49.30056267878854
 20
77.34433453595717
 30
0.0
 10
49.35587911674772
 20
77.7100677760578
 30
0.0
 10
49.399207582428
 20
78.09698229148174
 30
0.0
 10
49.42836848078728
 20
78.49581113121553
 30
0.0
 10
49.44259672067335
 20
78.9066740754329
 30
0.0
 10
49.44129073074918
 20
79.33049184410442
 30
0.0
 10
49.42357695367765
 20
79.76797758672083
 30
0.0
 10
49.38851158730884
 20
80.21866614306887
 30
0.0
 10
49.33525809945155
 20
80.68098989896137
 30
0.0
 10
49.26321567912935
 20
81.15257836721346
 30
0.0
 10
49.17208085312946
 20
81.63050460027491
 30
0.0
 10
49.06202177860286
 20
82.11106928767083
 30
0.0
 10
48.93374598847349
 20
82.58963439448725
 30
0.0
 10
48.78827448544687
 20
83.06208788539537
 30
0.0
 10
48.62585360475737
 20
83.52740850938848
 30
0.0
 10
48.45034831402823
 20
83.97597784077172
 30
0.0
 10
48.32405513637677
 20
84.26785553632273
 30
0.0
 10
48.26059358672356
 20
84.40789661851658
 30
0.0
 11
49.23257932592356
 21
76.9971549273166
 31
0.0
 11
49.29625551092357
 21
77.3324446447166
 31
0.0
 11
49.35295499292356
 21
77.7067866643166
 31
0.0
 11
49.39637453312356
 21
78.0938752137166
 31
0.0
 11
49.42558973752356
 21
78.49238516311659
 31
0.0
 11
49.43991001572356
 21
78.90242412011659
 31
0.0
 11
49.43871365712356
 21
79.32558445811659
 31
0.0
 11
49.42111098142357
 21
79.7629414182166
 31
0.0
 11
49.38611963692356
 21
80.2139412905166
 31
0.0
 11
49.33290819182357
 21
80.67666596181659
 31
0.0
 11
49.26084198232356
 21
81.14889309191658
 31
0.0
 11
49.16960793112356
 21
81.62766304181658
 31
0.0
 11
49.05930751462356
 21
82.10940156231659
 31
0.0
 11
48.93060439242356
 21
82.58954820931661
 31
0.0
 11
48.78497203702356
 21
83.0623669570166
 31
0.0
 11
48.62320529462357
 21
83.5257985981166
 31
0.0
 11
48.44375851822356
 21
83.9845758598166
 31
0.0
 11
48.26059358672356
 21
84.40789661851658
 31
0.0
  0
SPLINE
  5
10FB
330
1F
100
AcDbEntity
  8
0
  6
Continuous
 62
     7
100
AcDbSpline
210
0.0
220
0.0
230
1.0
 70
     8
 71
     3
 72
    47
 73
    43
 74
    41
 42
0.0000000001
 43
0.0000000001
 44
0.0000000001
 12
-0.3978664826182244
 22
-0.9174433290449075
 32
0.0
 13
-0.3371310769423586
 23
-0.9414577191566733
 33
0.0
 40
0.0
 40
0.0
 40
0.0
 40
0.0
 40
0.0655498241575775
 40
0.1295159357288022
 40
0.1919805718622873
 40
0.2530174353067829
 40
0.3126618275765727
 40
0.370963745855083
 40
0.4280208049459801
 40
0.4839077396625704
 40
0.5386762892716206
 40
0.5924234404034204
 40
0.6452470743777557
 40
0.6972208788428724
 40
0.7483692475560934
 40
0.7987034688592997
 40
0.84826606845137
 40
0.8971219445240526
 40
0.9453054696363443
 40
0.9928444261898979
 40
1.03980901992672
 40
1.086266379421974
 40
1.132234942264732
 40
1.177727626227935
 40
1.22275957121808
 40
1.267322680294528
 40
1.311427657133874
 40
1.355095271251541
 40
1.398282899151566
 40
1.440959116102825
 40
1.483151402151182
 40
1.524890555000034
 40
1.566161347821215
 40
1.606964385228287
 40
1.64734800892751
 40
1.68733504847102
 40
1.726888737132189
 40
1.765990826744309
 40
1.804647000043546
 40
1.842841123333774
 40
1.880552166069419
 40
1.916739307280554
 40
1.916739307280554
 40
1.916739307280554
 40
1.916739307280554
 10
34.68959953842357
 20
71.6845769709166
 30
0.0
 10
34.68090617909896
 20
71.66453088795211
 30
0.0
 10
34.66373069952699
 20
71.62492252218914
 30
0.0
 10
34.63827521967934
 20
71.56620974965251
 30
0.0
 10
34.61342186687905
 20
71.50887554135009
 30
0.0
 10
34.58914541135848
 20
71.45286135551945
 30
0.0
 10
34.56542500642894
 20
71.39811846338577
 30
0.0
 10
34.5422365707214
 20
71.34459085108102
 30
0.0
 10
34.51955100978607
 20
71.29221035170665
 30
0.0
 10
34.49733912610475
 20
71.24090821036268
 30
0.0
 10
34.47557196404603
 20
71.19061579585643
 30
0.0
 10
34.45421755937444
 20
71.14125737233641
 30
0.0
 10
34.43324142241429
 20
71.09275032556482
 30
0.0
 10
34.41261882427272
 20
71.04503418436902
 30
0.0
 10
34.39233670599387
 20
70.99807487972049
 30
0.0
 10
34.37238621888012
 20
70.95184784029687
 30
0.0
 10
34.35275327959507
 20
70.90631605041965
 30
0.0
 10
34.33342108725966
 20
70.86143528882065
 30
0.0
 10
34.3143750179674
 20
70.81716575045139
 30
0.0
 10
34.29560005022949
 20
70.77346587921097
 30
0.0
 10
34.2770771196859
 20
70.73028397711114
 30
0.0
 10
34.25878899861615
 20
70.68757095425238
 30
0.0
 10
34.2407261027798
 20
70.64529522934154
 30
0.0
 10
34.22288599324859
 20
70.60344102331693
 30
0.0
 10
34.2052700964928
 20
70.56200053700395
 30
0.0
 10
34.18788047131909
 20
70.52096652014435
 30
0.0
 10
34.17071883758073
 20
70.480329847365
 30
0.0
 10
34.15379186929446
 20
70.44009181781719
 30
0.0
 10
34.13711222115848
 20
70.40026647921786
 30
0.0
 10
34.12069181008664
 20
70.36086579901629
 30
0.0
 10
34.10453382155503
 20
70.32187891194727
 30
0.0
 10
34.08864024308547
 20
70.28328965795839
 30
0.0
 10
34.07301741976996
 20
70.24508983805978
 30
0.0
 10
34.05767037238056
 20
70.2072655597863
 30
0.0
 10
34.04260072707225
 20
70.16979072294773
 30
0.0
 10
34.02781521921276
 20
70.13265072774737
 30
0.0
 10
34.01333002636088
 20
70.09585125753059
 30
0.0
 10
33.99916466552673
 20
70.05940301028172
 30
0.0
 10
33.98533763794348
 20
70.02330993377704
 30
0.0
 10
33.97186965131703
 20
69.9875764035016
 30
0.0
 10
33.95890448040282
 20
69.95253359326756
 30
0.0
 10
33.95051285331956
 20
69.92937406145907
 30
0.0
 10
33.94644625002356
 20
69.91801784031659
 30
0.0
 11
34.68959953842357
 21
71.6845769709166
 31
0.0
 11
34.66352130342357
 21
71.6244379228166
 31
0.0
 11
34.63807677782356
 21
71.56575027891659
 31
0.0
 11
34.61323326242356
 21
71.5084385828166
 31
0.0
 11
34.58896157252357
 21
71.45243515641659
 31
0.0
 11
34.56524787102356
 21
71.3977075227166
 31
0.0
 11
34.54207248392356
 21
71.3442097180166
 31
0.0
 11
34.51939696152356
 21
71.2918520187166
 31
0.0
 11
34.49719209832357
 21
71.2405656314166
 31
0.0
 11
34.47543795802356
 21
71.1903028081166
 31
0.0
 11
34.45409675522357
 21
71.1409742229166
 31
0.0
 11
34.43313064392356
 21
71.09248960181659
 31
0.0
 11
34.41251159152356
 21
71.0447807868166
 31
0.0
 11
34.39223131072357
 21
70.99782478791659
 31
0.0
 11
34.37228681542356
 21
70.95161060241659
 31
0.0
 11
34.35266287912356
 21
70.90609848971659
 31
0.0
 11
34.33333570342357
 21
70.8612280439166
 31
0.0
 11
34.31429383712357
 21
70.8169667807166
 31
0.0
 11
34.29552870002357
 21
70.77328815871659
 31
0.0
 11
34.27701528592356
 21
70.7301265257166
 31
0.0
 11
34.25873030482357
 21
70.68741884821659
 31
0.0
 11
34.24066988902357
 21
70.64514675161659
 31
0.0
 11
34.22283262992357
 21
70.6032968235166
 31
0.0
 11
34.20521662912356
 21
70.56185345751659
 31
0.0
 11
34.18782943812356
 21
70.52082229521658
 31
0.0
 11
34.17067164512356
 21
70.48019152951659
 31
0.0
 11
34.15374044822357
 21
70.43993988241659
 31
0.0
 11
34.13705811602357
 21
70.40010433301659
 31
0.0
 11
34.12064275482356
 21
70.36071149851659
 31
0.0
 11
34.10449039892357
 21
70.32173342261661
 31
0.0
 11
34.08859678942356
 21
70.2831387331166
 31
0.0
 11
34.07297614742357
 21
70.24493828961659
 31
0.0
 11
34.05763752762356
 21
70.2071280449166
 31
0.0
 11
34.04257319332356
 21
70.1696593527166
 31
0.0
 11
34.02778590452356
 21
70.13250697161659
 31
0.0
 11
34.01330156842357
 21
70.09570074531659
 31
0.0
 11
33.99914035642357
 21
70.0592530638166
 31
0.0
 11
33.98531532472357
 21
70.0231536423166
 31
0.0
 11
33.97184930262356
 21
69.98741210761659
 31
0.0
 11
33.95876879522357
 21
69.9520423031166
 31
0.0
 11
33.94644625002356
 21
69.91801784031659
 31
0.0
  0
LINE
  5
10FC
330
1F
100
AcDbEntity
  8
0
  6
Continuous
 62
     7
100
AcDbLine
 10
35.13097056682357
 20
76.7381421602166
 30
0.0
 11
35.13036595512357
 21
76.74067287311659
 31
0.0
  0
LINE
  5
10FD
330
1F
100
AcDbEntity
  8
__SOLID_RIM
  6
Continuous
 62
     7
100
AcDbLine
 10
34.87852456222356
 20
61.7839115802166
 30
0.0
 11
35.33305932762357
 21
61.78404386361659
 31
0.0
  0
LINE
  5
10FE
330
1F
100
AcDbEntity
  8
__SOLID_RIM
  6
Continuous
 62
     7
100
AcDbLine
 10
35.33305932762357
 20
61.78404386361659
 30
0.0
 11
35.34187392812356
 21
61.78404926691659
 31
0.0
  0
LINE
  5
10FF
330
1F
100
AcDbEntity
  8
__SOLID_RIM
  6
Continuous
 62
     7
100
AcDbLine
 10
35.34187392812356
 20
61.78404926691659
 30
0.0
 11
35.35265556302356
 21
61.7840560968166
 31
0.0
  0
SPLINE
  5
1100
330
1F
100
AcDbEntity
  8
0
  6
Continuous
 62
     7
100
AcDbSpline
210
0.0
220
0.0
230
1.0
 70
     8
 71
     3
 72
    18
 73
    14
 74
    12
 42
0.0000000001
 43
0.0000000001
 44
0.0000000001
 12
-0.3369565450214286
 22
-0.9415201998721121
 32
0.0
 13
-0.1176605830863951
 23
-0.9930538692275305
 33
0.0
 40
0.0
 40
0.0
 40
0.0
 40
0.0
 40
0.036711580434084
 40
0.0726488079908704
 40
0.107917026305064
 40
0.1424827052681683
 40
0.1762760957618268
 40
0.2092177389901413
 40
0.2412181149641768
 40
0.272195154343782
 40
0.3020565567104501
 40
0.3307062794053901
 40
0.3580470037402437
 40
0.3580470037402437
 40
0.3580470037402437
 40
0.3580470037402437
 10
33.94614585682357
 20
69.91717873041659
 30
0.0
 10
33.94202245438845
 20
69.90565716556729
 30
0.0
 10
33.93394975163087
 20
69.88282573239685
 30
0.0
 10
33.9222534649809
 20
69.84880746820126
 30
0.0
 10
33.91112576106715
 20
69.81535179574439
 30
0.0
 10
33.90060792608121
 20
69.78244863961008
 30
0.0
 10
33.89076696569404
 20
69.75014628330187
 30
0.0
 10
33.88168150204502
 20
69.7185116562974
 30
0.0
 10
33.87343769051096
 20
69.68761736023829
 30
0.0
 10
33.86613020926722
 20
69.65754313788171
 30
0.0
 10
33.85986090377219
 20
69.62837557543399
 30
0.0
 10
33.85473949347834
 20
69.6002149967325
 30
0.0
 10
33.85210354174598
 20
69.58173179651267
 30
0.0
 10
33.85103123322357
 20
69.57268152581659
 30
0.0
 11
33.94614585682357
 21
69.91717873041659
 31
0.0
 11
33.93391448732356
 21
69.88256466191661
 31
0.0
 11
33.92223857382357
 21
69.84857705581659
 31
0.0
 11
33.91111790812356
 21
69.81510799521659
 31
0.0
 11
33.90060558422356
 21
69.78217963041659
 31
0.0
 11
33.89077196922356
 21
69.74984863511659
 31
0.0
 11
33.88169636182357
 21
69.7181818511166
 31
0.0
 11
33.87346736572356
 21
69.68725762621659
 31
0.0
 11
33.86617889322356
 21
69.65715023281659
 31
0.0
 11
33.85993456222357
 21
69.62794900541659
 31
0.0
 11
33.85484575952356
 21
69.5997548447166
 31
0.0
 11
33.85103123322357
 21
69.57268152581659
 31
0.0
  0
LINE
  5
1101
330
1F
100
AcDbEntity
  8
__SOLID_RIM
  6
Continuous
 62
     7
100
AcDbLine
 10
48.97252776002357
 20
61.78404386361659
 30
0.0
 11
48.96371315942356
 21
61.78404926691659
 31
0.0
  0
LINE
  5
1102
330
1F
100
AcDbEntity
  8
__SOLID_RIM
  6
Continuous
 62
     7
100
AcDbLine
 10
48.96371315942356
 20
61.78404926691659
 30
0.0
 11
48.95293152452357
 21
61.7840560968166
 31
0.0
  0
LINE
  5
1103
330
1F
100
AcDbEntity
  8
__SOLID_RIM
  6
Continuous
 62
     7
100
AcDbLine
 10
49.42706252532357
 20
61.7839115802166
 30
0.0
 11
48.97252776002357
 21
61.78404386361659
 31
0.0
  0
SPLINE
  5
1104
330
1F
100
AcDbEntity
  8
0
  6
Continuous
 62
     7
100
AcDbSpline
210
0.0
220
0.0
230
1.0
 70
     8
 71
     3
 72
    47
 73
    43
 74
    41
 42
0.0000000001
 43
0.0000000001
 44
0.0000000001
 12
0.3978664826182244
 22
-0.9174433290449075
 32
0.0
 13
0.3371310769423586
 23
-0.9414577191566733
 33
0.0
 40
0.0
 40
0.0
 40
0.0
 40
0.0
 40
0.0655498241575775
 40
0.1295159357288025
 40
0.191980571862288
 40
0.2530174353465489
 40
0.3126618276163387
 40
0.3709637458550978
 40
0.4280208049857375
 40
0.4839077397023274
 40
0.5386762892716584
 40
0.5924234404034575
 40
0.6452470743777922
 40
0.6972208788429091
 40
0.7483692475561309
 40
0.7987034688593369
 40
0.8482660684910007
 40
0.8971219445241242
 40
0.9453054696364159
 40
0.9928444261899699
 40
1.039809019926792
 40
1.086266379422047
 40
1.132234942264804
 40
1.177727626228007
 40
1.222759571257271
 40
1.267322680294703
 40
1.31142765717295
 40
1.355095271251845
 40
1.398282899151869
 40
1.440959116141593
 40
1.483151402151667
 40
1.524890555038598
 40
1.566161347859779
 40
1.606964385229259
 40
1.647348008928481
 40
1.687335048508972
 40
1.726888737133521
 40
1.765990826745642
 40
1.804647000044878
 40
1.842841123335105
 40
1.880552166070752
 40
1.916739307281886
 40
1.916739307281886
 40
1.916739307281886
 40
1.916739307281886
 10
49.61598754912356
 20
71.6845769709166
 30
0.0
 10
49.62468090844817
 20
71.66453088795211
 30
0.0
 10
49.64185638801777
 20
71.62492252218811
 30
0.0
 10
49.66731186787576
 20
71.56620974965598
 30
0.0
 10
49.69216522064473
 20
71.50887554132552
 30
0.0
 10
49.71644167630234
 20
71.45286135553984
 30
0.0
 10
49.7401620812449
 20
71.39811846341178
 30
0.0
 10
49.76335051677904
 20
71.34459085103192
 30
0.0
 10
49.78603607788442
 20
71.29221035173121
 30
0.0
 10
49.80824796155896
 20
71.24090821038428
 30
0.0
 10
49.8300151234788
 20
71.19061579583235
 30
0.0
 10
49.85136952817967
 20
71.14125737233942
 30
0.0
 10
49.87234566513177
 20
71.09275032556436
 30
0.0
 10
49.8929682632719
 20
71.04503418436792
 30
0.0
 10
49.91325038156412
 20
70.99807487972518
 30
0.0
 10
49.93320086863223
 20
70.95184784026752
 30
0.0
 10
49.95283380810334
 20
70.90631605047048
 30
0.0
 10
49.97216600025434
 20
70.86143528879202
 30
0.0
 10
49.99121206958986
 20
70.81716575045575
 30
0.0
 10
50.00998703731474
 20
70.77346587920974
 30
0.0
 10
50.02850996786279
 20
70.73028397711181
 30
0.0
 10
50.04679808892762
 20
70.68757095425095
 30
0.0
 10
50.06486098477903
 20
70.6452952293465
 30
0.0
 10
50.08270109426081
 20
70.60344102328675
 30
0.0
 10
50.10031699121684
 20
70.56200053705875
 30
0.0
 10
50.11770661616028
 20
70.52096652008749
 30
0.0
 10
50.13486825012559
 20
70.48032984741809
 30
0.0
 10
50.15179521822775
 20
70.4400918177926
 30
0.0
 10
50.16847486636206
 20
70.40026647919297
 30
0.0
 10
50.18489527761828
 20
70.36086579906797
 30
0.0
 10
50.20105326593408
 20
70.32187891189571
 30
0.0
 10
50.21694684458993
 20
70.28328965798383
 30
0.0
 10
50.23256966789049
 20
70.24508983807867
 30
0.0
 10
50.24791671515413
 20
70.20726555976766
 30
0.0
 10
50.26298636044619
 20
70.16979072292315
 30
0.0
 10
50.27777186848668
 20
70.13265072779444
 30
0.0
 10
50.29225706115171
 20
70.09585125750383
 30
0.0
 10
50.30642242203066
 20
70.05940301028577
 30
0.0
 10
50.32024944960094
 20
70.02330993377597
 30
0.0
 10
50.33371743623082
 20
69.98757640350189
 30
0.0
 10
50.34668260714412
 20
69.95253359326749
 30
0.0
 10
50.35507423422757
 20
69.92937406145907
 30
0.0
 10
50.35914083752357
 20
69.91801784031659
 30
0.0
 11
49.61598754912356
 21
71.6845769709166
 31
0.0
 11
49.64206578412356
 21
71.6244379228166
 31
0.0
 11
49.66751030972357
 21
71.56575027891659
 31
0.0
 11
49.69235382512356
 21
71.5084385828166
 31
0.0
 11
49.71662551512356
 21
71.45243515641659
 31
0.0
 11
49.74033921662357
 21
71.3977075227166
 31
0.0
 11
49.76351460362356
 21
71.3442097180166
 31
0.0
 11
49.78619012612356
 21
71.2918520187166
 31
0.0
 11
49.80839498932356
 21
71.2405656314166
 31
0.0
 11
49.83014912952356
 21
71.1903028081166
 31
0.0
 11
49.85149033232357
 21
71.1409742229166
 31
0.0
 11
49.87245644362356
 21
71.09248960181659
 31
0.0
 11
49.89307549602356
 21
71.0447807868166
 31
0.0
 11
49.91335577682356
 21
70.99782478791659
 31
0.0
 11
49.93330027212356
 21
70.95161060241659
 31
0.0
 11
49.95292420852356
 21
70.90609848971659
 31
0.0
 11
49.97225138412357
 21
70.8612280439166
 31
0.0
 11
49.99129325042357
 21
70.8169667807166
 31
0.0
 11
50.01005838752356
 21
70.77328815871659
 31
0.0
 11
50.02857180162356
 21
70.7301265257166
 31
0.0
 11
50.04685678272356
 21
70.68741884821659
 31
0.0
 11
50.06491719852355
 21
70.64514675161659
 31
0.0
 11
50.08275445762357
 21
70.6032968235166
 31
0.0
 11
50.10037045852357
 21
70.56185345751659
 31
0.0
 11
50.11775764942356
 21
70.52082229521658
 31
0.0
 11
50.13491544252357
 21
70.48019152951659
 31
0.0
 11
50.15184663932356
 21
70.43993988241659
 31
0.0
 11
50.16852897152356
 21
70.40010433301659
 31
0.0
 11
50.18494433282356
 21
70.36071149851659
 31
0.0
 11
50.20109668862357
 21
70.32173342261661
 31
0.0
 11
50.21699029822356
 21
70.2831387331166
 31
0.0
 11
50.23261094022356
 21
70.24493828961659
 31
0.0
 11
50.24794955992357
 21
70.2071280449166
 31
0.0
 11
50.26301389422356
 21
70.1696593527166
 31
0.0
 11
50.27780118312357
 21
70.13250697161659
 31
0.0
 11
50.29228551912357
 21
70.09570074531659
 31
0.0
 11
50.30644673112356
 21
70.0592530638166
 31
0.0
 11
50.32027176282356
 21
70.0231536423166
 31
0.0
 11
50.33373778492356
 21
69.98741210761659
 31
0.0
 11
50.34681829232356
 21
69.9520423031166
 31
0.0
 11
50.35914083752357
 21
69.91801784031659
 31
0.0
  0
SPLINE
  5
1105
330
1F
100
AcDbEntity
  8
0
  6
Continuous
 62
     7
100
AcDbSpline
210
0.0
220
0.0
230
1.0
 70
     8
 71
     3
 72
    12
 73
     8
 74
     6
 42
0.0000000001
 43
0.0000000001
 44
0.0000000001
 12
0.9996467691768613
 22
-0.0265769989702223
 32
0.0
 13
0.9925282926294865
 23
-0.1220147053842144
 33
0.0
 40
0.0
 40
0.0
 40
0.0
 40
0.0
 40
0.3947780266976434
 40
0.7720421348685434
 40
1.132838690788638
 40
1.477393358593804
 40
1.806096126807867
 40
1.806096126807867
 40
1.806096126807867
 40
1.806096126807867
 10
34.36900493222356
 20
69.8480621713166
 30
0.0
 10
34.50055112520034
 20
69.84456483291359
 30
0.0
 10
34.75773458468067
 20
69.83460395835738
 30
0.0
 10
35.13466568836312
 20
69.8114781236952
 30
0.0
 10
35.49436014954191
 20
69.78207457331581
 30
0.0
 10
35.83735588814412
 20
69.74783719810853
 30
0.0
 10
36.0602940268842
 20
69.72201532735747
 30
0.0
 10
36.16904295932356
 20
69.70864647021659
 30
0.0
 11
34.36900493222356
 21
69.8480621713166
 31
0.0
 11
34.76349020652357
 21
69.8328615554166
 31
0.0
 11
35.14005131242357
 21
69.80984111151659
 31
0.0
 11
35.49965571532356
 21
69.7805353411166
 31
0.0
 11
35.84251407812356
 21
69.7463876887166
 31
0.0
 11
36.16904295932356
 21
69.70864647021659
 31
0.0
  0
SPLINE
  5
1106
330
1F
100
AcDbEntity
  8
0
  6
Continuous
 62
     7
100
AcDbSpline
210
0.0
220
0.0
230
1.0
 70
     8
 71
     3
 72
    30
 73
    26
 74
    24
 42
0.0000000001
 43
0.0000000001
 44
0.0000000001
 12
-0.9989586833263832
 22
0.0456239959540918
 32
0.0
 13
-0.9926378021243534
 23
0.1211205754351137
 33
0.0
 40
0.0
 40
0.0
 40
0.0
 40
0.0
 40
0.090864923199894
 40
0.1869186662810232
 40
0.2894608417943287
 40
0.4000931557841695
 40
0.5204564896601971
 40
0.6523053403683306
 40
0.7974065098129133
 40
0.9572050264837571
 40
1.132847640660502
 40
1.325552193097255
 40
1.537625313157696
 40
1.772113428073618
 40
2.031713162697189
 40
2.318872804680031
 40
2.639947063053864
 40
3.000760134340309
 40
3.391043160942343
 40
3.779439012190841
 40
4.147958802137043
 40
4.485463368932606
 40
4.788388318839883
 40
5.062031583424062
 40
5.30894834249264
 40
5.30894834249264
 40
5.30894834249264
 40
5.30894834249264
 10
41.42519598622356
 20
68.9869466912166
 30
0.0
 10
41.39493921821013
 20
68.98832856484607
 30
0.0
 10
41.33270526759422
 20
68.99133573528938
 30
0.0
 10
41.23635697586077
 20
68.99651541057863
 30
0.0
 10
41.13346205964223
 20
69.00263379564029
 30
0.0
 10
41.02251947475875
 20
69.00989519711075
 30
0.0
 10
40.90188101433199
 20
69.01855700387688
 30
0.0
 10
40.76984887767058
 20
69.02892817237561
 30
0.0
 10
40.62479705745992
 20
69.04136684493136
 30
0.0
 10
40.46530978016952
 20
69.0562738998012
 30
0.0
 10
40.290162415999
 20
69.074084605612
 30
0.0
 10
40.09785430918636
 20
69.09531005058735
 30
0.0
 10
39.88626655898436
 20
69.12058105668717
 30
0.0
 10
39.65280475735555
 20
69.15065146182261
 30
0.0
 10
39.39484258748651
 20
69.18634358449537
 30
0.0
 10
39.10867377440434
 20
69.22866937630807
 30
0.0
 10
38.78956963059407
 20
69.27881216243699
 30
0.0
 10
38.43697598011005
 20
69.33718874289972
 30
0.0
 10
38.06264996299835
 20
69.40162886946871
 30
0.0
 10
37.68600796201886
 20
69.4677360814681
 30
0.0
 10
37.32665178264374
 20
69.53056405628408
 30
0.0
 10
36.99508683670283
 20
69.58691018424251
 30
0.0
 10
36.69427206534876
 20
69.63539436197485
 30
0.0
 10
36.42275179449629
 20
69.67574291231985
 30
0.0
 10
36.25074259566673
 20
69.69867757023561
 30
0.0
 10
36.16904295932356
 20
69.70864647021659
 30
0.0
 11
41.42519598622356
 21
68.9869466912166
 31
0.0
 11
41.33443694792356
 21
68.9913320344166
 31
0.0
 11
41.23852164202356
 21
68.9964871924166
 31
0.0
 11
41.13616013852356
 21
69.0025716283166
 31
0.0
 11
41.02576386812356
 21
69.0097946734166
 31
0.0
 11
40.90570933372356
 21
69.01841099001659
 31
0.0
 11
40.77426501972357
 21
69.02873144301659
 31
0.0
 11
40.62969399762356
 21
69.0411237367166
 31
0.0
 11
40.47058831712356
 21
69.0559880686166
 31
0.0
 11
40.29584585682356
 21
69.07374758671659
 31
0.0
 11
40.10430280792356
 21
69.0948735174166
 31
0.0
 11
39.89372372002357
 21
69.12000230551659
 31
0.0
 11
39.66115295512356
 21
69.1499274680166
 31
0.0
 11
39.40399712882356
 21
69.18546481761659
 31
0.0
 11
39.11991868172356
 21
69.22741831421659
 31
0.0
 11
38.80272158702356
 21
69.27716449501659
 31
0.0
 11
38.44672936942357
 21
69.33594896081659
 31
0.0
 11
38.06206679992357
 21
69.4019455401166
 31
0.0
 11
37.67947469302356
 21
69.4688381182166
 31
0.0
 11
37.31641571822357
 21
69.5320442603166
 31
0.0
 11
36.98363976042357
 21
69.58834252421659
 31
0.0
 11
36.68453569612356
 21
69.63630380021659
 31
0.0
 11
36.41383736272356
 21
69.67634188891659
 31
0.0
 11
36.16904295932356
 21
69.70864647021659
 31
0.0
  0
LINE
  5
1107
330
1F
100
AcDbEntity
  8
0
  6
Continuous
 62
     7
100
AcDbLine
 10
41.45084006302356
 20
68.9857948131166
 30
0.0
 11
41.42519598622356
 21
68.9869466912166
 31
0.0
  0
LINE
  5
1108
330
1F
100
AcDbEntity
  8
0
  6
Continuous
 62
     7
100
AcDbLine
 10
41.45279503112356
 20
68.9857084895166
 30
0.0
 11
41.45084006302356
 21
68.9857948131166
 31
0.0
  0
SPLINE
  5
1109
330
1F
100
AcDbEntity
  8
0
  6
Continuous
 62
     7
100
AcDbSpline
210
0.0
220
0.0
230
1.0
 70
     8
 71
     3
 72
    18
 73
    14
 74
    12
 42
0.0000000001
 43
0.0000000001
 44
0.0000000001
 12
0.3368161189794915
 22
0.9415704445210636
 32
0.0
 13
0.9715987216411217
 23
-0.2366345792679882
 33
0.0
 40
0.0
 40
0.0
 40
0.0
 40
0.0
 40
0.0579528108391022
 40
0.1159773682412842
 40
0.1740910345284495
 40
0.2323047709725205
 40
0.2906223851751498
 40
0.3490402968272819
 40
0.4075478280403197
 40
0.4661279890671395
 40
0.5247586947619125
 40
0.5834143241349656
 40
0.6420675154251773
 40
0.6420675154251773
 40
0.6420675154251773
 40
0.6420675154251773
 10
33.85103123172357
 20
69.57268152491659
 30
0.0
 10
33.85753771200049
 20
69.5908704095376
 30
0.0
 10
33.87304598819613
 20
69.62643478891149
 30
0.0
 10
33.90328351129344
 20
69.67616113648945
 30
0.0
 10
33.93998333667364
 20
69.72145374105213
 30
0.0
 10
33.98248380892414
 20
69.7614909191274
 30
0.0
 10
34.03002591341335
 20
69.79556199003552
 30
0.0
 10
34.08175937371274
 20
69.82305875728835
 30
0.0
 10
34.13676035441192
 20
69.84349172438303
 30
0.0
 10
34.1940459296597
 20
69.85649745258789
 30
0.0
 10
34.25259729622706
 20
69.86184389165564
 30
0.0
 10
34.31135689378117
 20
69.85943934747282
 30
0.0
 10
34.35000914366432
 20
69.85268862906448
 30
0.0
 10
34.36900493222356
 20
69.8480621713166
 30
0.0
 11
33.85103123172357
 21
69.57268152491659
 31
0.0
 11
33.87419386112357
 21
69.6258042214166
 31
0.0
 11
33.90433500492357
 21
69.67538608011659
 31
0.0
 11
33.94091627962357
 21
69.72054146241659
 31
0.0
 11
33.98328426752357
 21
69.76046379591659
 31
0.0
 11
34.03068218812356
 21
69.79443998241659
 31
0.0
 11
34.08226341622356
 21
69.8218631352166
 31
0.0
 11
34.13710660362357
 21
69.8422434199166
 31
0.0
 11
34.19423213722357
 21
69.85521680331659
 31
0.0
 11
34.25261963642356
 21
69.8605515561166
 31
0.0
 11
34.31122617932356
 21
69.85815239241659
 31
0.0
 11
34.36900493222356
 21
69.8480621713166
 31
0.0
  0
SPLINE
  5
110A
330
1F
100
AcDbEntity
  8
0
  6
Continuous
 62
     7
100
AcDbSpline
210
0.0
220
0.0
230
1.0
 70
     8
 71
     3
 72
    13
 73
     9
 74
     7
 42
0.0000000001
 43
0.0000000001
 44
0.0000000001
 12
0.032244814281399
 22
-0.9994800007763828
 32
0.0
 13
0.3646143352753017
 23
-0.9311586258590692
 33
0.0
 40
0.0
 40
0.0
 40
0.0
 40
0.0
 40
0.0553332005064057
 40
0.1108779540719482
 40
0.1668702467412236
 40
0.2233982153857407
 40
0.2806180741826794
 40
0.3389439772767764
 40
0.3389439772767764
 40
0.3389439772767764
 40
0.3389439772767764
 10
33.84555098082356
 20
69.4336844293166
 30
0.0
 10
33.84614571708154
 20
69.41524962022156
 30
0.0
 10
33.84844168406444
 20
69.37833572136483
 30
0.0
 10
33.85519360326424
 20
69.32309249278231
 30
0.0
 10
33.86525092147554
 20
69.26794841563249
 30
0.0
 10
33.87859564538406
 20
69.21293311485896
 30
0.0
 10
33.89521639966782
 20
69.15800730124701
 30
0.0
 10
33.9083482648949
 20
69.12177753694229
 30
0.0
 10
33.91543708502356
 20
69.1036739810166
 30
0.0
 11
33.84555098082356
 21
69.4336844293166
 31
0.0
 11
33.84898281252357
 21
69.3784577545166
 31
0.0
 11
33.85571155672356
 21
69.32332207051659
 31
0.0
 11
33.86574203912356
 21
69.26823553621659
 31
0.0
 11
33.87904612972356
 21
69.21329545601659
 31
0.0
 11
33.89559297592356
 21
69.15852033281659
 31
0.0
 11
33.91543708502356
 21
69.1036739810166
 31
0.0
  0
SPLINE
  5
110B
330
1F
100
AcDbEntity
  8
0
  6
Continuous
 62
     7
100
AcDbSpline
210
0.0
220
0.0
230
1.0
 70
     8
 71
     3
 72
    17
 73
    13
 74
    11
 42
0.0000000001
 43
0.0000000001
 44
0.0000000001
 12
-0.996463140227928
 22
0.0840310071764966
 32
0.0
 13
-0.3460650476758381
 23
-0.9382105215659862
 33
0.0
 40
0.0
 40
0.0
 40
0.0
 40
0.0
 40
0.0310270068432379
 40
0.0913324605371592
 40
0.151245204516203
 40
0.2107633398531297
 40
0.2700032624801229
 40
0.3290121793954377
 40
0.3879383487826274
 40
0.4468645505640749
 40
0.5059184746228075
 40
0.5652066357295814
 40
0.5652066357295814
 40
0.5652066357295814
 40
0.5652066357295814
 10
34.76962737042356
 20
68.83660773621659
 30
0.0
 10
34.75932161419994
 20
68.83747681309484
 30
0.0
 10
34.72889191752031
 20
68.83898810940632
 30
0.0
 10
34.67838015534749
 20
68.83631248938503
 30
0.0
 10
34.61935777674952
 20
68.82501070317426
 30
0.0
 10
34.56275708784775
 20
68.80588780276716
 30
0.0
 10
34.50956815845034
 20
68.77935086928679
 30
0.0
 10
34.46067120699518
 20
68.74590002518511
 30
0.0
 10
34.41689199559722
 20
68.70614089588578
 30
0.0
 10
34.37895981686057
 20
68.66074642660395
 30
0.0
 10
34.34753760424704
 20
68.61049565164252
 30
0.0
 10
34.33133502259024
 20
68.57436927570148
 30
0.0
 10
34.32449583582356
 20
68.55582768351659
 30
0.0
 11
34.76962737042356
 21
68.83660773621659
 31
0.0
 11
34.73863835832356
 21
68.83814275501659
 31
0.0
 11
34.67841809112356
 21
68.83493851351659
 31
0.0
 11
34.61957670242357
 21
68.82365898041659
 31
0.0
 11
34.56319339302357
 21
68.80459774081661
 31
0.0
 11
34.51018830242357
 21
68.7781434632166
 31
0.0
 11
34.46148827012357
 21
68.74482141151659
 31
0.0
 11
34.41786766032357
 21
68.70520404361659
 31
0.0
 11
34.38008091552357
 21
68.6599883475166
 31
0.0
 11
34.34876802752356
 21
68.60991970471658
 31
0.0
 11
34.32449583582356
 21
68.55582768351659
 31
0.0
  0
SPLINE
  5
110C
330
1F
100
AcDbEntity
  8
0
  6
Continuous
 62
     7
100
AcDbSpline
210
0.0
220
0.0
230
1.0
 70
     8
 71
     3
 72
    15
 73
    11
 74
     9
 42
0.0000000001
 43
0.0000000001
 44
0.0000000001
 12
0.391183067945092
 22
-0.9203128855737407
 32
0.0
 13
0.7460564950560281
 23
-0.6658826519625772
 33
0.0
 40
0.0
 40
0.0
 40
0.0
 40
0.0
 40
0.0773731627370249
 40
0.1565484585502013
 40
0.2378076699356998
 40
0.3213510398745761
 40
0.4073334672436798
 40
0.49586942896922
 40
0.5870380711204098
 40
0.6808623335738174
 40
0.6808623335738174
 40
0.6808623335738174
 40
0.6808623335738174
 10
33.91866293242357
 20
69.0958285566166
 30
0.0
 10
33.92875195614893
 20
69.07209271706176
 30
0.0
 10
33.95077042694628
 20
69.02473513383952
 30
0.0
 10
33.98869137290521
 20
68.95507037819671
 30
0.0
 10
34.03184111578177
 20
68.88607900654722
 30
0.0
 10
34.08019919537576
 20
68.81783725352558
 30
0.0
 10
34.13372870133448
 20
68.75044908442447
 30
0.0
 10
34.19237509897665
 20
68.68403602708458
 30
0.0
 10
34.25605880380562
 20
68.61873908328506
 30
0.0
 10
34.30116310295783
 20
68.57665300045024
 30
0.0
 10
34.32449583642357
 20
68.55582768421659
 30
0.0
 11
33.91866293242357
 21
69.0958285566166
 31
0.0
 11
33.95123631412356
 21
69.0256460722166
 31
0.0
 11
33.98903889662356
 21
68.9560781757166
 31
0.0
 11
34.03207690642356
 21
68.88715220711659
 31
0.0
 11
34.08033006302357
 21
68.8189530316166
 31
0.0
 11
34.13376268832357
 21
68.7515888544166
 31
0.0
 11
34.19232123432357
 21
68.68518468881659
 31
0.0
 11
34.25593446452356
 21
68.61987712221659
 31
0.0
 11
34.32449583642357
 21
68.55582768421659
 31
0.0
  0
LINE
  5
110D
330
1F
100
AcDbEntity
  8
__SOLID_RIM
  6
Continuous
 62
     7
100
AcDbLine
 10
34.81014902452356
 20
61.78393349001659
 30
0.0
 11
34.81151243612357
 21
61.78392370431659
 31
0.0
  0
LINE
  5
110E
330
1F
100
AcDbEntity
  8
__SOLID_RIM
  6
Continuous
 62
     7
100
AcDbLine
 10
34.81151243612357
 20
61.78392370431659
 30
0.0
 11
34.81320399332356
 21
61.7839115802166
 31
0.0
  0
SPLINE
  5
110F
330
1F
100
AcDbEntity
  8
__SOLID_RIM
  6
Continuous
 62
     7
100
AcDbSpline
210
0.0
220
0.0
230
1.0
 70
     8
 71
     3
 72
    15
 73
    11
 74
     9
 42
0.0000000001
 43
0.0000000001
 44
0.0000000001
 12
0.3457349814667419
 22
-0.9383322026820733
 32
0.0
 13
0.9999999999976878
 23
-0.0000021504242054
 33
0.0
 40
0.0
 40
0.0
 40
0.0
 40
0.0
 40
0.0378987797772995
 40
0.0760415911339354
 40
0.1144085364459225
 40
0.153055333963002
 40
0.1919384289864676
 40
0.231059572273573
 40
0.2703256542789757
 40
0.3097063353168697
 40
0.3097063353168697
 40
0.3097063353168697
 40
0.3097063353168697
 10
34.33048268372357
 20
61.99181608331659
 30
0.0
 10
34.33485032836487
 20
61.9799622014808
 30
0.0
 10
34.34546485611551
 20
61.95681495596382
 30
0.0
 10
34.36655147226466
 20
61.9248680494556
 30
0.0
 10
34.39243188032835
 20
61.8963147791602
 30
0.0
 10
34.42254105486265
 20
61.87187185057192
 30
0.0
 10
34.45622256830305
 20
61.85214528288723
 30
0.0
 10
34.49269290732207
 20
61.83765936146752
 30
0.0
 10
34.53108298431234
 20
61.8288011016228
 30
0.0
 10
34.5573419104443
 20
61.82681551424498
 30
0.0
 10
34.57046880412356
 20
61.8268154860166
 30
0.0
 11
34.33048268372357
 21
61.99181608331659
 31
0.0
 11
34.34627551512356
 21
61.9573646104166
 31
0.0
 11
34.36727898432356
 21
61.9255255096166
 31
0.0
 11
34.39303895812356
 21
61.8970923205166
 31
0.0
 11
34.42303726752356
 21
61.87272684511659
 31
0.0
 11
34.45658521322356
 21
61.85306901161659
 31
0.0
 11
34.49294044522357
 21
61.83862044911659
 31
0.0
 11
34.53120057242357
 21
61.82978937541659
 31
0.0
 11
34.57046880412356
 21
61.8268154860166
 31
0.0
  0
LINE
  5
1110
330
1F
100
AcDbEntity
  8
__SOLID_RIM
  6
Continuous
 62
     7
100
AcDbLine
 10
35.35265556302356
 20
61.7840560968166
 30
0.0
 11
35.36450036202356
 21
61.78441860641659
 31
0.0
  0
LINE
  5
1111
330
1F
100
AcDbEntity
  8
__SOLID_RIM
  6
Continuous
 62
     7
100
AcDbLine
 10
35.36450036202356
 20
61.78441860641659
 30
0.0
 11
35.62477716072357
 21
61.7923671768166
 31
0.0
  0
LINE
  5
1112
330
1F
100
AcDbEntity
  8
__SOLID_RIM
  6
Continuous
 62
     7
100
AcDbLine
 10
48.95293152452357
 20
61.7840560968166
 30
0.0
 11
48.94108672552356
 21
61.78441860641659
 31
0.0
  0
LINE
  5
1113
330
1F
100
AcDbEntity
  8
__SOLID_RIM
  6
Continuous
 62
     7
100
AcDbLine
 10
48.94108672552356
 20
61.78441860641659
 30
0.0
 11
48.68080992692356
 21
61.7923671768166
 31
0.0
  0
SPLINE
  5
1114
330
1F
100
AcDbEntity
  8
__SOLID_RIM
  6
Continuous
 62
     7
100
AcDbSpline
210
0.0
220
0.0
230
1.0
 70
     8
 71
     3
 72
    15
 73
    11
 74
     9
 42
0.0000000001
 43
0.0000000001
 44
0.0000000001
 12
-0.3457349814667419
 22
-0.9383322026820733
 32
0.0
 13
-0.9999999999976878
 23
-0.0000021504242054
 33
0.0
 40
0.0
 40
0.0
 40
0.0
 40
0.0
 40
0.0378987797772991
 40
0.076041591133937
 40
0.1144085364459214
 40
0.1530553338853802
 40
0.191938428995124
 40
0.2310595721892996
 40
0.270325654292143
 40
0.3097063353300361
 40
0.3097063353300361
 40
0.3097063353300361
 40
0.3097063353300361
 10
49.97510440382356
 20
61.99181608331659
 30
0.0
 10
49.97073675918226
 20
61.9799622014808
 30
0.0
 10
49.9601222314304
 20
61.95681495596545
 30
0.0
 10
49.93903561528679
 20
61.92486804944984
 30
0.0
 10
49.91315520722003
 20
61.89631477920109
 30
0.0
 10
49.88304603276485
 20
61.87187185050341
 30
0.0
 10
49.84936451927875
 20
61.85214528294899
 30
0.0
 10
49.81289418027532
 20
61.83765936142162
 30
0.0
 10
49.77450410326231
 20
61.82880110164133
 30
0.0
 10
49.74824517710283
 20
61.82681551424498
 30
0.0
 10
49.73511828342356
 20
61.8268154860166
 30
0.0
 11
49.97510440382356
 21
61.99181608331659
 31
0.0
 11
49.95931157242356
 21
61.9573646104166
 31
0.0
 11
49.93830810322356
 21
61.9255255096166
 31
0.0
 11
49.91254812942357
 21
61.8970923205166
 31
0.0
 11
49.88254982012357
 21
61.87272684511659
 31
0.0
 11
49.84900187432356
 21
61.85306901161659
 31
0.0
 11
49.81264664242356
 21
61.83862044911659
 31
0.0
 11
49.77438651512357
 21
61.82978937541659
 31
0.0
 11
49.73511828342356
 21
61.8268154860166
 31
0.0
  0
SPLINE
  5
1115
330
1F
100
AcDbEntity
  8
__SOLID_RIM
  6
Continuous
 62
     7
100
AcDbSpline
210
0.0
220
0.0
230
1.0
 70
     8
 71
     3
 72
    10
 73
     6
 74
     4
 42
0.0000000001
 43
0.0000000001
 44
0.0000000001
 12
0.9998589827130798
 22
-0.0167932929458563
 32
0.0
 13
0.9993857347433474
 23
-0.0350450166428765
 33
0.0
 40
0.0
 40
0.0
 40
0.0
 40
0.0
 40
0.2342683232360635
 40
0.4171286682006718
 40
0.5512658732214458
 40
0.5512658732214458
 40
0.5512658732214458
 40
0.5512658732214458
 10
49.73511884422356
 20
61.8268154860166
 30
0.0
 10
49.81319727334113
 20
61.82550410715658
 30
0.0
 10
49.95221832491637
 20
61.82301739811215
 30
0.0
 10
50.13593044718817
 20
61.81902902816433
 30
0.0
 10
50.24155728702486
 20
61.81608480147739
 30
0.0
 10
50.28624222342356
 20
61.8145178546166
 30
0.0
 11
49.73511884422356
 21
61.8268154860166
 31
0.0
 11
49.96934821132356
 21
61.82254338351659
 31
0.0
 11
50.15216295772356
 21
61.81845997081659
 31
0.0
 11
50.28624222342356
 21
61.8145178546166
 31
0.0
  0
SPLINE
  5
1116
330
1F
100
AcDbEntity
  8
0
  6
Continuous
 62
     7
100
AcDbSpline
210
0.0
220
0.0
230
1.0
 70
     8
 71
     3
 72
    17
 73
    13
 74
    11
 42
0.0000000001
 43
0.0000000001
 44
0.0000000001
 12
0.9965895611222704
 22
0.0825181595899986
 32
0.0
 13
0.3460650475623037
 23
-0.938210521607864
 33
0.0
 40
0.0
 40
0.0
 40
0.0
 40
0.0
 40
0.0303458783719531
 40
0.0906513320658766
 40
0.15056407604492
 40
0.2100822113818475
 40
0.2693221340088399
 40
0.3283310509241554
 40
0.387257220385371
 40
0.4461834221026929
 40
0.5052373461614267
 40
0.5645255072681989
 40
0.5645255072681989
 40
0.5645255072681989
 40
0.5645255072681989
 10
49.53663887822356
 20
68.83666449031659
 30
0.0
 10
49.54671967342642
 20
68.8374991856614
 30
0.0
 10
49.57692233953338
 20
68.83897605514237
 30
0.0
 10
49.62720703620949
 20
68.83631249096317
 30
0.0
 10
49.68622928320484
 20
68.82501070275603
 30
0.0
 10
49.74283000703323
 20
68.80588780287673
 30
0.0
 10
49.7960189271498
 20
68.77935086926362
 30
0.0
 10
49.84491588107085
 20
68.74590002515498
 30
0.0
 10
49.88869509191641
 20
68.70614089595314
 30
0.0
 10
49.92662727071067
 20
68.66074642656418
 30
0.0
 10
49.95804948329547
 20
68.61049565164837
 30
0.0
 10
49.97425206495913
 20
68.57436927570231
 30
0.0
 10
49.98109125172356
 20
68.55582768351659
 30
0.0
 11
49.53663887822356
 21
68.83666449031659
 31
0.0
 11
49.56694872922356
 21
68.83814275501659
 31
0.0
 11
49.62716899642356
 21
68.83493851351659
 31
0.0
 11
49.68601038512357
 21
68.82365898041659
 31
0.0
 11
49.74239369452356
 21
68.80459774081661
 31
0.0
 11
49.79539878512357
 21
68.7781434632166
 31
0.0
 11
49.84409881742356
 21
68.74482141151659
 31
0.0
 11
49.88771942732356
 21
68.70520404361659
 31
0.0
 11
49.92550617202356
 21
68.6599883475166
 31
0.0
 11
49.95681906002356
 21
68.60991970471658
 31
0.0
 11
49.98109125172356
 21
68.55582768351659
 31
0.0
  0
SPLINE
  5
1117
330
1F
100
AcDbEntity
  8
0
  6
Continuous
 62
     7
100
AcDbSpline
210
0.0
220
0.0
230
1.0
 70
     8
 71
     3
 72
    15
 73
    11
 74
     9
 42
0.0000000001
 43
0.0000000001
 44
0.0000000001
 12
-0.391183067945092
 22
-0.9203128855737407
 32
0.0
 13
-0.7460564950560281
 23
-0.6658826519625772
 33
0.0
 40
0.0
 40
0.0
 40
0.0
 40
0.0
 40
0.0773731627370268
 40
0.1565484585024566
 40
0.2378076699409199
 40
0.321351039879795
 40
0.4073334672488994
 40
0.4958694289744399
 40
0.5870380711256282
 40
0.6808623335790381
 40
0.6808623335790381
 40
0.6808623335790381
 40
0.6808623335790381
 10
50.38692415512357
 20
69.0958285566166
 30
0.0
 10
50.37683513139821
 20
69.07209271706176
 30
0.0
 10
50.3548166605714
 20
69.0247351338742
 30
0.0
 10
50.31689571478034
 20
68.95507037813556
 30
0.0
 10
50.27374597173969
 20
68.88607900658335
 30
0.0
 10
50.2253878921814
 20
68.81783725351951
 30
0.0
 10
50.17185838620984
 20
68.75044908442617
 30
0.0
 10
50.11321198857126
 20
68.6840360270841
 30
0.0
 10
50.04952828374128
 20
68.6187390832852
 30
0.0
 10
50.00442398458929
 20
68.57665300045024
 30
0.0
 10
49.98109125112356
 20
68.55582768421659
 30
0.0
 11
50.38692415512357
 21
69.0958285566166
 31
0.0
 11
50.35435077342356
 21
69.0256460722166
 31
0.0
 11
50.31654819102357
 21
68.9560781757166
 31
0.0
 11
50.27351018112356
 21
68.88715220711659
 31
0.0
 11
50.22525702452356
 21
68.8189530316166
 31
0.0
 11
50.17182439922357
 21
68.7515888544166
 31
0.0
 11
50.11326585322357
 21
68.68518468881659
 31
0.0
 11
50.04965262302356
 21
68.61987712221659
 31
0.0
 11
49.98109125112356
 21
68.55582768421659
 31
0.0
  0
SPLINE
  5
1118
330
1F
100
AcDbEntity
  8
0
  6
Continuous
 62
     7
100
AcDbSpline
210
0.0
220
0.0
230
1.0
 70
     8
 71
     3
 72
    13
 73
     9
 74
     7
 42
0.0000000001
 43
0.0000000001
 44
0.0000000001
 12
-0.032244814281399
 22
-0.9994800007763828
 32
0.0
 13
-0.3646143352753017
 23
-0.9311586258590692
 33
0.0
 40
0.0
 40
0.0
 40
0.0
 40
0.0
 40
0.0553332005126078
 40
0.1108779540781504
 40
0.1668702467295122
 40
0.2233982153975639
 40
0.2806180741655854
 40
0.3389439772937043
 40
0.3389439772937043
 40
0.3389439772937043
 40
0.3389439772937043
 10
50.46003610682356
 20
69.4336844293166
 30
0.0
 10
50.45944137056553
 20
69.4152496202195
 30
0.0
 10
50.45714540344993
 20
69.37833572136707
 30
0.0
 10
50.45039348424888
 20
69.32309249279703
 30
0.0
 10
50.44033616624705
 20
69.26794841560068
 30
0.0
 10
50.42699144207928
 20
69.21293311490008
 30
0.0
 10
50.41037068806274
 20
69.1580073011984
 30
0.0
 10
50.39723882265636
 20
69.12177753695285
 30
0.0
 10
50.39015000252357
 20
69.1036739810166
 30
0.0
 11
50.46003610682356
 21
69.4336844293166
 31
0.0
 11
50.45660427502356
 21
69.3784577545166
 31
0.0
 11
50.44987553082356
 21
69.32332207051659
 31
0.0
 11
50.43984504852357
 21
69.26823553621659
 31
0.0
 11
50.42654095782356
 21
69.21329545601659
 31
0.0
 11
50.40999411172356
 21
69.15852033281659
 31
0.0
 11
50.39015000252357
 21
69.1036739810166
 31
0.0
  0
SPLINE
  5
1119
330
1F
100
AcDbEntity
  8
0
  6
Continuous
 62
     7
100
AcDbSpline
210
0.0
220
0.0
230
1.0
 70
     8
 71
     3
 72
    18
 73
    14
 74
    12
 42
0.0000000001
 43
0.0000000001
 44
0.0000000001
 12
-0.3368161189794915
 22
0.9415704445210636
 32
0.0
 13
-0.9715987216411217
 23
-0.2366345792679882
 33
0.0
 40
0.0
 40
0.0
 40
0.0
 40
0.0
 40
0.0579528108391029
 40
0.1159773682412839
 40
0.17409103452845
 40
0.23230477089974
 40
0.2906223851836447
 40
0.3490402967474799
 40
0.4075478280542557
 40
0.4661279890810762
 40
0.5247586946762645
 40
0.5834143241492335
 40
0.6420675154394442
 40
0.6420675154394442
 40
0.6420675154394442
 40
0.6420675154394442
 10
50.45455585582356
 20
69.57268152491659
 30
0.0
 10
50.44804937554664
 20
69.5908704095376
 30
0.0
 10
50.43254109934945
 20
69.62643478890972
 30
0.0
 10
50.4023035762591
 20
69.67616113649566
 30
0.0
 10
50.36560375086863
 20
69.7214537410101
 30
0.0
 10
50.32310327871532
 20
69.76149091920021
 30
0.0
 10
50.2755611741554
 20
69.79556198996521
 30
0.0
 10
50.22382771389639
 20
69.82305875734659
 30
0.0
 10
50.16882673315734
 20
69.8434917243571
 30
0.0
 10
50.11154115792203
 20
69.85649745258453
 30
0.0
 10
50.05298979135337
 20
69.86184389165775
 30
0.0
 10
49.99423019379898
 20
69.85943934747773
 30
0.0
 10
49.95557794388282
 20
69.85268862906448
 30
0.0
 10
49.93658215532356
 20
69.8480621713166
 30
0.0
 11
50.45455585582356
 21
69.57268152491659
 31
0.0
 11
50.43139322642357
 21
69.6258042214166
 31
0.0
 11
50.40125208262356
 21
69.67538608011659
 31
0.0
 11
50.36467080792355
 21
69.72054146241659
 31
0.0
 11
50.32230282012356
 21
69.76046379591659
 31
0.0
 11
50.27490489942356
 21
69.79443998241659
 31
0.0
 11
50.22332367142356
 21
69.8218631352166
 31
0.0
 11
50.16848048392356
 21
69.8422434199166
 31
0.0
 11
50.11135495032355
 21
69.85521680331659
 31
0.0
 11
50.05296745122357
 21
69.8605515561166
 31
0.0
 11
49.99436090822356
 21
69.85815239241659
 31
0.0
 11
49.93658215532356
 21
69.8480621713166
 31
0.0
  0
SPLINE
  5
111A
330
1F
100
AcDbEntity
  8
0
  6
Continuous
 62
     7
100
AcDbSpline
210
0.0
220
0.0
230
1.0
 70
     8
 71
     3
 72
    12
 73
     8
 74
     6
 42
0.0000000001
 43
0.0000000001
 44
0.0000000001
 12
-0.9996467691768613
 22
-0.0265769989702223
 32
0.0
 13
-0.9925282926294865
 23
-0.1220147053842144
 33
0.0
 40
0.0
 40
0.0
 40
0.0
 40
0.0
 40
0.3947780265977188
 40
0.772042134768617
 40
1.132838690788381
 40
1.477393358593543
 40
1.806096126708272
 40
1.806096126708272
 40
1.806096126708272
 40
1.806096126708272
 10
49.93658215532356
 20
69.8480621713166
 30
0.0
 10
49.80503596238008
 20
69.84456483291447
 30
0.0
 10
49.54785250293319
 20
69.83460395835469
 30
0.0
 10
49.17092139925106
 20
69.81147812369066
 30
0.0
 10
48.81122693803827
 20
69.78207457332003
 30
0.0
 10
48.46823119943536
 20
69.74783719811681
 30
0.0
 10
48.24529306073007
 20
69.72201532735343
 30
0.0
 10
48.13654412832356
 20
69.70864647021659
 30
0.0
 11
49.93658215532356
 21
69.8480621713166
 31
0.0
 11
49.54209688112356
 21
69.8328615554166
 31
0.0
 11
49.16553577522356
 21
69.80984111151659
 31
0.0
 11
48.80593137222357
 21
69.7805353411166
 31
0.0
 11
48.46307300942356
 21
69.7463876887166
 31
0.0
 11
48.13654412832356
 21
69.70864647021659
 31
0.0
  0
SPLINE
  5
111B
330
1F
100
AcDbEntity
  8
0
  6
Continuous
 62
     7
100
AcDbSpline
210
0.0
220
0.0
230
1.0
 70
     8
 71
     3
 72
    30
 73
    26
 74
    24
 42
0.0000000001
 43
0.0000000001
 44
0.0000000001
 12
0.9989586833263832
 22
0.0456239959540918
 32
0.0
 13
0.9926378021243534
 23
0.1211205754351137
 33
0.0
 40
0.0
 40
0.0
 40
0.0
 40
0.0
 40
0.090864923199894
 40
0.1869186662810232
 40
0.2894608417943287
 40
0.4000931557841695
 40
0.5204564897599405
 40
0.6523053403683825
 40
0.7974065098129653
 40
0.9572050264838072
 40
1.132847640660552
 40
1.325552193097306
 40
1.537625313257043
 40
1.772113428073782
 40
2.031713162697353
 40
2.318872804680193
 40
2.639947063054028
 40
3.000760134439137
 40
3.391043160942611
 40
3.779439012191109
 40
4.147958802137311
 40
4.485463369031474
 40
4.788388318840011
 40
5.06203158342419
 40
5.308948342591908
 40
5.308948342591908
 40
5.308948342591908
 40
5.308948342591908
 10
42.88039110132356
 20
68.9869466912166
 30
0.0
 10
42.910647869337
 20
68.98832856484607
 30
0.0
 10
42.9728818199529
 20
68.99133573528934
 30
0.0
 10
43.06923011168632
 20
68.99651541057881
 30
0.0
 10
43.17212502790495
 20
69.00263379563956
 30
0.0
 10
43.28306761282132
 20
69.00989519711598
 30
0.0
 10
43.40370607324926
 20
69.01855700386642
 30
0.0
 10
43.53573820990935
 20
69.02892817238245
 30
0.0
 10
43.68079003008731
 20
69.04136684493007
 30
0.0
 10
43.84027730737755
 20
69.05627389980185
 30
0.0
 10
44.01542467154827
 20
69.07408460561075
 30
0.0
 10
44.20773277839306
 20
69.09531005059593
 30
0.0
 10
44.41932052859821
 20
69.12058105667007
 30
0.0
 10
44.65278233022351
 20
69.15065146183366
 30
0.0
 10
44.91074450006082
 20
69.18634358449366
 30
0.0
 10
45.19691331314294
 20
69.22866937630724
 30
0.0
 10
45.51601745698448
 20
69.27881216244846
 30
0.0
 10
45.86861110747431
 20
69.33718874287653
 30
0.0
 10
46.24293712457968
 20
69.40162886948295
 30
0.0
 10
46.61957912552902
 20
69.46773608146362
 30
0.0
 10
46.97893530493427
 20
69.53056405629863
 30
0.0
 10
47.31050025088128
 20
69.5869101842205
 30
0.0
 10
47.61131502223014
 20
69.63539436198411
 30
0.0
 10
47.88283529308292
 20
69.67574291232968
 30
0.0
 10
48.05484449194759
 20
69.69867757023161
 30
0.0
 10
48.13654412832356
 20
69.70864647021659
 30
0.0
 11
42.88039110132356
 21
68.9869466912166
 31
0.0
 11
42.97115013962356
 21
68.9913320344166
 31
0.0
 11
43.06706544552357
 21
68.9964871924166
 31
0.0
 11
43.16942694902356
 21
69.0025716283166
 31
0.0
 11
43.27982321942356
 21
69.0097946734166
 31
0.0
 11
43.39987775392356
 21
69.01841099001659
 31
0.0
 11
43.53132206782357
 21
69.02873144301659
 31
0.0
 11
43.67589308992356
 21
69.0411237367166
 31
0.0
 11
43.83499877042356
 21
69.0559880686166
 31
0.0
 11
44.00974123072356
 21
69.07374758671659
 31
0.0
 11
44.20128427962356
 21
69.0948735174166
 31
0.0
 11
44.41186336762356
 21
69.12000230551659
 31
0.0
 11
44.64443413242356
 21
69.1499274680166
 31
0.0
 11
44.90158995872356
 21
69.18546481761659
 31
0.0
 11
45.18566840582356
 21
69.22741831421659
 31
0.0
 11
45.50286550052356
 21
69.27716449501659
 31
0.0
 11
45.85885771822356
 21
69.33594896081659
 31
0.0
 11
46.24352028762356
 21
69.4019455401166
 31
0.0
 11
46.62611239452356
 21
69.4688381182166
 31
0.0
 11
46.98917136932356
 21
69.5320442603166
 31
0.0
 11
47.32194732722357
 21
69.58834252421659
 31
0.0
 11
47.62105139142356
 21
69.63630380021659
 31
0.0
 11
47.89174972482356
 21
69.67634188891659
 31
0.0
 11
48.13654412832356
 21
69.70864647021659
 31
0.0
  0
LINE
  5
111C
330
1F
100
AcDbEntity
  8
0
  6
Continuous
 62
     7
100
AcDbLine
 10
42.85474702452356
 20
68.9857948131166
 30
0.0
 11
42.88039110132356
 21
68.9869466912166
 31
0.0
  0
LINE
  5
111D
330
1F
100
AcDbEntity
  8
0
  6
Continuous
 62
     7
100
AcDbLine
 10
42.85279205642356
 20
68.9857084895166
 30
0.0
 11
42.85474702452356
 21
68.9857948131166
 31
0.0
  0
SPLINE
  5
111E
330
1F
100
AcDbEntity
  8
0
  6
Continuous
 62
     7
100
AcDbSpline
210
0.0
220
0.0
230
1.0
 70
     8
 71
     3
 72
     9
 73
     5
 74
     3
 42
0.0000000001
 43
0.0000000001
 44
0.0000000001
 12
-0.4022862690712582
 22
0.9155139309244438
 32
0.0
 13
-0.820763780548577
 23
0.5712677275495331
 33
0.0
 40
0.0
 40
0.0
 40
0.0
 40
0.0
 40
0.0110442599316914
 40
0.0225405038541169
 40
0.0225405038541169
 40
0.0225405038541169
 40
0.0225405038541169
 10
49.54828363502357
 20
71.84135582661659
 30
0.0
 10
49.54680265031604
 20
71.84472621789133
 30
0.0
 10
49.5426944141511
 20
71.85117490163317
 30
0.0
 10
49.53694024416485
 20
71.85614584983629
 30
0.0
 10
49.53379501062356
 20
71.85833499421659
 30
0.0
 11
49.54828363502357
 21
71.84135582661659
 31
0.0
 11
49.54238164612355
 21
71.8506908255166
 31
0.0
 11
49.53379501062356
 21
71.85833499421659
 31
0.0
  0
SPLINE
  5
111F
330
1F
100
AcDbEntity
  8
0
  6
Continuous
 62
     7
100
AcDbSpline
210
0.0
220
0.0
230
1.0
 70
     8
 71
     3
 72
     9
 73
     5
 74
     3
 42
0.0000000001
 43
0.0000000001
 44
0.0000000001
 12
-0.8207637804784035
 22
0.571267727650354
 32
0.0
 13
-0.9142595293188392
 23
0.4051290079094493
 33
0.0
 40
0.0
 40
0.0
 40
0.0
 40
0.0
 40
0.006291045357707
 40
0.0130151423700231
 40
0.0130151423700231
 40
0.0130151423700231
 40
0.0130151423700231
 10
49.53379501062356
 20
71.85833499421659
 30
0.0
 10
49.53207385656658
 20
71.85953295127861
 30
0.0
 10
49.52837099416057
 20
71.86180997406629
 30
0.0
 10
49.52447534934676
 20
71.86373291936603
 30
0.0
 10
49.52242615942356
 20
71.8646409616166
 30
0.0
 11
49.53379501062356
 21
71.85833499421659
 31
0.0
 11
49.52844915742357
 21
71.86165148411659
 31
0.0
 11
49.52242615942356
 21
71.8646409616166
 31
0.0
  0
SPLINE
  5
1120
330
1F
100
AcDbEntity
  8
0
  6
Continuous
 62
     7
100
AcDbSpline
210
0.0
220
0.0
230
1.0
 70
     8
 71
     3
 72
    20
 73
    16
 74
    14
 42
0.0000000001
 43
0.0000000001
 44
0.0000000001
 12
0.3460650457707483
 22
-0.9382105222686909
 32
0.0
 13
-0.3457358713206599
 23
-0.9383318748087715
 33
0.0
 40
0.0
 40
0.0
 40
0.0
 40
0.0
 40
0.1158629176408247
 40
0.5795135594972253
 40
1.036923558678108
 40
1.489066085174895
 40
1.936948646249376
 40
2.381607706589401
 40
2.824102382893658
 40
3.265507372227237
 40
4.149108905069116
 40
4.59373306778846
 40
5.041567123084773
 40
5.950735308422272
 40
6.708560361394444
 40
6.708560361394444
 40
6.708560361394444
 40
6.708560361394444
 10
49.98109125172356
 20
68.55582768351659
 30
0.0
 10
49.99445662035573
 20
68.5195930806928
 30
0.0
 10
50.06032335417012
 20
68.33799665004791
 30
0.0
 10
50.16925815595268
 20
68.00983231269817
 30
0.0
 10
50.29357112149774
 20
67.56913841659404
 30
0.0
 10
50.395976587844
 20
67.12822658626247
 30
0.0
 10
50.47646562276288
 20
66.68710795602672
 30
0.0
 10
50.53503551152996
 20
66.24579134947012
 30
0.0
 10
50.57167736157232
 20
65.80426504685455
 30
0.0
 10
50.59132206827102
 20
65.21524206946496
 30
0.0
 10
50.56693681774892
 20
64.62471894687566
 30
0.0
 10
50.49898980963458
 20
64.0364272585845
 30
0.0
 10
50.40121738269129
 20
63.44368300798894
 30
0.0
 10
50.23643514658798
 20
62.7571084781087
 30
0.0
 10
50.06244017215621
 20
62.22884655089408
 30
0.0
 10
49.97510440382356
 20
61.99181608331659
 30
0.0
 11
49.98109125172356
 21
68.55582768351659
 31
0.0
 11
50.02059498522356
 21
68.4469072046166
 31
0.0
 11
50.16652298452356
 21
68.00681978521659
 31
0.0
 11
50.29057744642356
 21
67.56655350461659
 31
0.0
 11
50.39275837092356
 21
67.12610836281659
 31
0.0
 11
50.47306575792356
 21
66.6854843597166
 31
0.0
 11
50.53149960742357
 21
66.2446814954166
 31
0.0
 11
50.56805991952356
 21
65.80369977001659
 31
0.0
 11
50.58274669422356
 21
65.36253918331659
 31
0.0
 11
50.54649963132356
 21
64.4796814262166
 31
0.0
 11
50.49556579362356
 21
64.03798425591659
 31
0.0
 11
50.42275841852356
 21
63.59610822441659
 31
0.0
 11
50.21152305602356
 21
62.71181957761659
 31
0.0
 11
49.97510440382356
 21
61.99181608331659
 31
0.0
  0
SPLINE
  5
1121
330
1F
100
AcDbEntity
  8
0
  6
Continuous
 62
     7
100
AcDbSpline
210
0.0
220
0.0
230
1.0
 70
     8
 71
     3
 72
    20
 73
    16
 74
    14
 42
0.0000000001
 43
0.0000000001
 44
0.0000000001
 12
-0.3460650457707483
 22
-0.9382105222686909
 32
0.0
 13
0.3457358713206599
 23
-0.9383318748087715
 33
0.0
 40
0.0
 40
0.0
 40
0.0
 40
0.0
 40
0.1158629176408241
 40
0.5795135594972248
 40
1.036923558678108
 40
1.489066085152295
 40
1.936948646226777
 40
2.381607706579942
 40
2.8241023828842
 40
3.265507372217779
 40
4.14910890506376
 40
4.593733067771649
 40
5.041567123067961
 40
5.950735308405461
 40
6.708560361377633
 40
6.708560361377633
 40
6.708560361377633
 40
6.708560361377633
 10
34.32449583582356
 20
68.55582768351659
 30
0.0
 10
34.3111304671914
 20
68.5195930806928
 30
0.0
 10
34.24526373337639
 20
68.33799665004805
 30
0.0
 10
34.13632893160376
 20
68.00983231269594
 30
0.0
 10
34.01201596601872
 20
67.56913841660915
 30
0.0
 10
33.90961049982605
 20
67.1282265862484
 30
0.0
 10
33.82912146491114
 20
66.68710795601973
 30
0.0
 10
33.77055157598274
 20
66.24579134947854
 30
0.0
 10
33.73390972598935
 20
65.80426504685387
 30
0.0
 10
33.7142650192399
 20
65.21524206946205
 30
0.0
 10
33.73865026999374
 20
64.62471894689028
 30
0.0
 10
33.80659727787676
 20
64.03642725857682
 30
0.0
 10
33.90436970487741
 20
63.44368300799125
 30
0.0
 10
34.06915194095264
 20
62.75710847810801
 30
0.0
 10
34.24314691539091
 20
62.22884655089408
 30
0.0
 10
34.33048268372357
 20
61.99181608331659
 30
0.0
 11
34.32449583582356
 21
68.55582768351659
 31
0.0
 11
34.28499210232356
 21
68.4469072046166
 31
0.0
 11
34.13906410302356
 21
68.00681978521659
 31
0.0
 11
34.01500964112357
 21
67.56655350461659
 31
0.0
 11
33.91282871672357
 21
67.12610836281659
 31
0.0
 11
33.83252132972356
 21
66.6854843597166
 31
0.0
 11
33.77408748012356
 21
66.2446814954166
 31
0.0
 11
33.73752716802356
 21
65.80369977001659
 31
0.0
 11
33.72284039332356
 21
65.36253918331659
 31
0.0
 11
33.75908745632357
 21
64.4796814262166
 31
0.0
 11
33.81002129392356
 21
64.03798425591659
 31
0.0
 11
33.88282866902357
 21
63.59610822441659
 31
0.0
 11
34.09406403152356
 21
62.71181957761659
 31
0.0
 11
34.33048268372357
 21
61.99181608331659
 31
0.0
  0
SPLINE
  5
1122
330
1F
100
AcDbEntity
  8
__SOLID_RIM
  6
Continuous
 62
     7
100
AcDbSpline
210
0.0
220
0.0
230
1.0
 70
     8
 71
     3
 72
    18
 73
    14
 74
    12
 42
0.0000000001
 43
0.0000000001
 44
0.0000000001
 12
0.9993864490111949
 22
-0.0350246417939492
 32
0.0
 13
-0.9999742118357414
 23
-0.0071816198373203
 33
0.0
 40
0.0
 40
0.0
 40
0.0
 40
0.0
 40
0.0978112319917523
 40
0.139158806465252
 40
0.1460239822696938
 40
0.180146125698907
 40
0.2359809940447388
 40
0.3184104783384977
 40
0.4265489598673197
 40
0.5571975856106157
 40
0.7084937560120151
 40
0.880106403550622
 40
1.070319649496626
 40
1.070319649496626
 40
1.070319649496626
 40
1.070319649496626
 10
50.28624222342356
 20
61.8145178546166
 30
0.0
 10
50.31882596336145
 20
61.81337592016195
 30
0.0
 10
50.34017416896325
 20
61.80585330968068
 30
0.0
 10
50.43716474390921
 20
61.81344636146692
 30
0.0
 10
50.41061013037055
 20
61.79584249068811
 30
0.0
 10
50.37808018540043
 20
61.80102941404708
 30
0.0
 10
50.32089314177645
 20
61.79353414973529
 30
0.0
 10
50.23869134823432
 20
61.79335816551415
 30
0.0
 10
50.13167999012136
 20
61.79033151703045
 30
0.0
 10
50.001651635879
 20
61.78873105163794
 30
0.0
 10
49.85048048741433
 20
61.78688564449548
 30
0.0
 10
49.6794455137704
 20
61.78532966888475
 30
0.0
 10
49.55884084325543
 20
61.78438883642339
 30
0.0
 10
49.49543806302356
 20
61.78393349001659
 30
0.0
 11
50.28624222342356
 21
61.8145178546166
 31
0.0
 11
50.38395328462357
 21
61.81009228991659
 31
0.0
 11
50.42507891312356
 21
61.8058139029166
 31
0.0
 11
50.41938556202357
 21
61.8019777079166
 31
0.0
 11
50.38543000562356
 21
61.79861008831659
 31
0.0
 11
50.32967340662356
 21
61.7956547218166
 31
0.0
 11
50.24728458092356
 21
61.79306603861659
 31
0.0
 11
50.13916975792357
 21
61.79080412901659
 31
0.0
 11
50.00853623222356
 21
61.78881783301659
 31
0.0
 11
49.85725048672356
 21
61.7870417737166
 31
0.0
 11
49.68564549062357
 21
61.78542124641659
 31
0.0
 11
49.49543806302356
 21
61.78393349001659
 31
0.0
  0
LINE
  5
1123
330
1F
100
AcDbEntity
  8
__SOLID_RIM
  6
Continuous
 62
     7
100
AcDbLine
 10
49.49543806302356
 20
61.78393349001659
 30
0.0
 11
49.49407443892356
 21
61.7839237028166
 31
0.0
  0
LINE
  5
1124
330
1F
100
AcDbEntity
  8
__SOLID_RIM
  6
Continuous
 62
     7
100
AcDbLine
 10
49.49407443892356
 20
61.7839237028166
 30
0.0
 11
49.49238309422356
 21
61.7839115802166
 31
0.0
  0
SPLINE
  5
1125
330
1F
100
AcDbEntity
  8
0
  6
Continuous
 62
     7
100
AcDbSpline
210
0.0
220
0.0
230
1.0
 70
     8
 71
     3
 72
     8
 73
     4
 74
     2
 42
0.0000000001
 43
0.0000000001
 44
0.0000000001
 12
-0.4025811428962271
 22
0.9153843036585058
 32
0.0
 13
-0.652755196913941
 23
0.757568909672145
 33
0.0
 40
0.0
 40
0.0
 40
0.0
 40
0.0
 40
0.0109188942205081
 40
0.0109188942205081
 40
0.0109188942205081
 40
0.0109188942205081
 10
49.54411601492356
 20
71.85094799631659
 30
0.0
 10
49.54265076795208
 20
71.85427965777751
 30
0.0
 10
49.54064037523923
 20
71.8574093494201
 30
0.0
 10
49.53826458692356
 20
71.86016662101659
 30
0.0
 11
49.54411601492356
 21
71.85094799631659
 31
0.0
 11
49.53826458692356
 21
71.86016662101659
 31
0.0
  0
LINE
  5
118B
330
1F
100
AcDbEntity
  8
0
  6
Continuous
 62
     7
100
AcDbLine
 10
38.77779354382355
 20
70.1084962684166
 30
0.0
 11
40.02779354382354
 21
70.1084962684166
 31
0.0
  0
LINE
  5
118C
330
1F
100
AcDbEntity
  8
0
  6
Continuous
 62
     7
100
AcDbLine
 10
38.70779354382356
 20
70.86306468961659
 30
0.0
 11
38.70779354382356
 21
71.5325132495166
 31
0.0
  0
LINE
  5
118D
330
1F
100
AcDbEntity
  8
0
  6
Continuous
 62
     7
100
AcDbLine
 10
38.74779354382355
 20
71.4684962684166
 30
0.0
 11
38.74779354382355
 21
71.08849626841659
 31
0.0
  0
LINE
  5
118E
330
1F
100
AcDbEntity
  8
0
  6
Continuous
 62
     7
100
AcDbLine
 10
38.77779354382355
 20
70.1084962684166
 30
0.0
 11
38.77779354382355
 21
71.0584962684166
 31
0.0
  0
LINE
  5
118F
330
1F
100
AcDbEntity
  8
0
  6
Continuous
 62
     7
100
AcDbLine
 10
38.77779354382355
 20
71.05849626841659
 30
0.0
 11
40.02779354382354
 21
71.05849626841659
 31
0.0
  0
LINE
  5
1190
330
1F
100
AcDbEntity
  8
0
  6
Continuous
 62
     7
100
AcDbLine
 10
38.77779354382355
 20
71.4984962684166
 30
0.0
 11
40.02779354382354
 21
71.4984962684166
 31
0.0
  0
LINE
  5
1191
330
1F
100
AcDbEntity
  8
0
  6
Continuous
 62
     7
100
AcDbLine
 10
40.02779354382354
 20
71.0584962684166
 30
0.0
 11
40.02779354382354
 21
70.1084962684166
 31
0.0
  0
LINE
  5
1192
330
1F
100
AcDbEntity
  8
0
  6
Continuous
 62
     7
100
AcDbLine
 10
40.05779354382354
 20
71.4684962684166
 30
0.0
 11
40.05779354382354
 21
71.08849626841659
 31
0.0
  0
ARC
  5
1193
330
1F
100
AcDbEntity
  8
0
  6
Continuous
 62
     7
100
AcDbCircle
 10
38.77779354382355
 20
71.08849626841659
 30
0.0
 40
0.03
100
AcDbArc
 50
180.0
 51
270.0
  0
ARC
  5
1194
330
1F
100
AcDbEntity
  8
0
  6
Continuous
 62
     7
100
AcDbCircle
 10
38.74193074612356
 20
71.89054375661659
 30
0.0
 40
1.028045993299999
100
AcDbArc
 50
266.7676456079
 51
268.0970917336997
  0
ARC
  5
1195
330
1F
100
AcDbEntity
  8
0
  6
Continuous
 62
     7
100
AcDbCircle
 10
38.77779354382355
 20
71.4684962684166
 30
0.0
 40
0.03
100
AcDbArc
 50
90.0
 51
180.0
  0
ARC
  5
1196
330
1F
100
AcDbEntity
  8
0
  6
Continuous
 62
     7
100
AcDbCircle
 10
40.02779354382354
 20
71.08849626841659
 30
0.0
 40
0.03
100
AcDbArc
 50
270.0
 51
0.0
  0
ARC
  5
1197
330
1F
100
AcDbEntity
  8
0
  6
Continuous
 62
     7
100
AcDbCircle
 10
40.02779354382354
 20
71.4684962684166
 30
0.0
 40
0.03
100
AcDbArc
 50
0.0
 51
90.0
  0
ARC
  5
1198
330
1F
100
AcDbEntity
  8
0
  6
Continuous
 62
     7
100
AcDbCircle
 10
47.34233759902355
 20
78.9191337628166
 30
0.0
 40
11.8717376196
100
AcDbArc
 50
151.0020950171002
 51
160.6922741642996
  0
SPLINE
  5
1199
330
1F
100
AcDbEntity
  8
0
  6
Continuous
 62
     7
100
AcDbSpline
210
0.0
220
0.0
230
1.0
 70
     8
 71
     3
 72
    12
 73
     8
 74
     6
 42
0.0000000001
 43
0.0000000001
 44
0.0000000001
 12
0.9999915125892906
 22
0.0041200424005749
 32
0.0
 13
0.9999995615528998
 23
0.0009364261895062
 33
0.0
 40
0.0
 40
0.0
 40
0.0
 40
0.0
 40
0.3310478745307511
 40
0.639874399414196
 40
0.9440572841523199
 40
1.259589137605428
 40
1.567134624721602
 40
1.567134624721602
 40
1.567134624721602
 40
1.567134624721602
 10
38.48966238862356
 20
71.5371307923166
 30
0.0
 10
38.60001074355404
 20
71.5375854360765
 30
0.0
 10
38.81330079102706
 20
71.53837114203712
 30
0.0
 10
39.12798527752975
 20
71.53928020561853
 30
0.0
 10
39.43749852347784
 20
71.53986974588424
 30
0.0
 10
39.74658510782941
 20
71.54019199621432
 30
0.0
 10
39.95427742409897
 20
71.54042402983373
 30
0.0
 10
40.05679254152354
 20
71.5405200277166
 30
0.0
 11
38.48966238862356
 21
71.5371307923166
 31
0.0
 11
38.82070800682355
 21
71.53835304511659
 31
0.0
 11
39.12953327622356
 21
71.53923364241659
 31
0.0
 11
39.43371559652355
 21
71.5398196326166
 31
0.0
 11
39.74924722222356
 21
71.54019874561659
 31
0.0
 11
40.05679254152354
 21
71.5405200277166
 31
0.0
  0
LINE
  5
119A
330
1F
100
AcDbEntity
  8
0
  6
Continuous
 62
     7
100
AcDbLine
 10
40.05679254152354
 20
71.5405200277166
 30
0.0
 11
40.08415982622355
 21
71.54054519921659
 31
0.0
  0
SPLINE
  5
119B
330
1F
100
AcDbEntity
  8
0
  6
Continuous
 62
     7
100
AcDbSpline
210
0.0
220
0.0
230
1.0
 70
     8
 71
     3
 72
    11
 73
     7
 74
     5
 42
0.0000000001
 43
0.0000000001
 44
0.0000000001
 12
0.9999998472917411
 22
0.0005526449985624
 32
0.0
 13
1.0
 23
-0.000000011062716
 33
0.0
 40
0.0
 40
0.0
 40
0.0
 40
0.0
 40
0.3583962883342656
 40
0.7373850966556868
 40
1.138607574200258
 40
1.563811311508555
 40
1.563811311508555
 40
1.563811311508555
 40
1.563811311508555
 10
40.58898232782356
 20
71.54088168521659
 30
0.0
 10
40.70844773902495
 20
71.54094770718868
 30
0.0
 10
40.95424273858233
 20
71.5410750273196
 30
0.0
 10
41.33377856489866
 20
71.54123254806146
 30
0.0
 10
41.73558355917259
 20
71.54134252392125
 30
0.0
 10
42.01105896482078
 20
71.54136911878456
 30
0.0
 10
42.15279354392355
 20
71.54136911721659
 30
0.0
 11
40.58898232782356
 21
71.54088168521659
 31
0.0
 11
40.94737856902355
 21
71.54106549351659
 31
0.0
 11
41.32636734552355
 21
71.54122079941659
 31
0.0
 11
41.72758980852356
 21
71.54132883281659
 31
0.0
 11
42.15279354392355
 21
71.54136911721659
 31
0.0
  0
SPLINE
  5
119C
330
1F
100
AcDbEntity
  8
0
  6
Continuous
 62
     7
100
AcDbSpline
210
0.0
220
0.0
230
1.0
 70
     8
 71
     3
 72
    13
 73
     9
 74
     7
 42
0.0000000001
 43
0.0000000001
 44
0.0000000001
 12
0.6147475520916024
 22
0.7887239359860855
 32
0.0
 13
0.9999999999891027
 23
0.0000046684577077
 33
0.0
 40
0.0
 40
0.0
 40
0.0
 40
0.0
 40
0.6691277766073709
 40
1.34707521083709
 40
2.020348341521073
 40
2.693406089063165
 40
3.366466142722923
 40
4.036729296678397
 40
4.036729296678397
 40
4.036729296678397
 40
4.036729296678397
 10
38.64645111832356
 20
87.22848403551658
 30
0.0
 10
38.78356600589219
 20
87.40440306673106
 30
0.0
 10
39.08737965504359
 20
87.73773822526473
 30
0.0
 10
39.61160889124744
 20
88.16435282058987
 30
0.0
 10
40.1957950749952
 20
88.50727647896063
 30
0.0
 10
40.82360264616403
 20
88.7572337545831
 30
0.0
 10
41.48086018852346
 20
88.90920677430436
 30
0.0
 10
41.9293724926075
 20
88.94312649248487
 30
0.0
 10
42.15279354392357
 20
88.94312753551659
 30
0.0
 11
38.64645111832356
 21
87.22848403551658
 31
0.0
 11
39.09667089642357
 21
87.72349326051658
 31
0.0
 11
39.62272517512357
 21
88.15113752791658
 31
0.0
 11
40.20336533172357
 21
88.49195084491659
 31
0.0
 11
40.82867322382356
 21
88.74094235401658
 31
0.0
 11
41.48444395542356
 21
88.8925160437166
 31
0.0
 11
42.15279354392357
 21
88.94312753551659
 31
0.0
  0
SPLINE
  5
119D
330
1F
100
AcDbEntity
  8
0
  6
Continuous
 62
     7
100
AcDbSpline
210
0.0
220
0.0
230
1.0
 70
     8
 71
     3
 72
    10
 73
     6
 74
     4
 42
0.0000000001
 43
0.0000000001
 44
0.0000000001
 12
0.4850056891387189
 22
0.8745109956444668
 32
0.0
 13
0.6147477357453348
 23
0.7887237928425796
 33
0.0
 40
0.0
 40
0.0
 40
0.0
 40
0.0
 40
1.1287720287332
 40
2.145262733192213
 40
3.064102843782551
 40
3.064102843782551
 40
3.064102843782551
 40
3.064102843782551
 10
36.95887274412355
 20
84.67428599951659
 30
0.0
 10
37.14135969601564
 20
85.00332718308431
 30
0.0
 10
37.50571021271696
 20
85.61917894639975
 30
0.0
 10
38.0735748773822
 20
86.4686307116672
 30
0.0
 10
38.45816615915776
 20
86.98691368316969
 30
0.0
 10
38.64645111832356
 20
87.22848403551658
 30
0.0
 11
36.95887274412355
 21
84.67428599951659
 31
0.0
 11
37.53397911352357
 21
85.64556297171661
 31
0.0
 11
38.09882267752357
 21
86.4906695333166
 31
0.0
 11
38.64645111832356
 21
87.22848403551658
 31
0.0
  0
SPLINE
  5
119E
330
1F
100
AcDbEntity
  8
0
  6
Continuous
 62
     7
100
AcDbSpline
210
0.0
220
0.0
230
1.0
 70
     8
 71
     3
 72
    12
 73
     8
 74
     6
 42
0.0000000001
 43
0.0000000001
 44
0.0000000001
 12
-0.1826406794257256
 22
0.9831797303743142
 32
0.0
 13
0.336481162828534
 23
0.9416901969658374
 33
0.0
 40
0.0
 40
0.0
 40
0.0
 40
0.0
 40
1.263631029154245
 40
2.529542692535316
 40
3.793512369025694
 40
5.060240868326726
 40
6.268395432531072
 40
6.268395432531072
 40
6.268395432531072
 40
6.268395432531072
 10
35.64498250422356
 20
76.6650475305166
 30
0.0
 10
35.5680523609875
 20
77.07917300202876
 30
0.0
 10
35.45770468633775
 20
77.91699511063649
 30
0.0
 10
35.42712436016549
 20
79.18341189353033
 30
0.0
 10
35.53101598187151
 20
80.44711272289113
 30
0.0
 10
35.76478179160775
 20
81.67357223705527
 30
0.0
 10
36.0028082303102
 20
82.46518691587301
 30
0.0
 10
36.13831531452356
 20
82.84442268571659
 30
0.0
 11
35.64498250422356
 21
76.6650475305166
 31
0.0
 11
35.48025276222355
 21
77.91789528261659
 31
0.0
 11
35.44954871362356
 21
79.1834345356166
 31
0.0
 11
35.55313627932356
 21
80.44315234501659
 31
0.0
 11
35.79026338372356
 21
81.68748824311659
 31
0.0
 11
36.13831531452356
 21
82.84442268571659
 31
0.0
  0
SPLINE
  5
119F
330
1F
100
AcDbEntity
  8
0
  6
Continuous
 62
     7
100
AcDbSpline
210
0.0
220
0.0
230
1.0
 70
     8
 71
     3
 72
    10
 73
     6
 74
     4
 42
0.0000000001
 43
0.0000000001
 44
0.0000000001
 12
-0.4796731548939797
 22
0.8774472431286433
 32
0.0
 13
-0.1826211525865438
 23
0.9831833575828886
 33
0.0
 40
0.0
 40
0.0
 40
0.0
 40
0.0
 40
1.041866255976135
 40
2.094436512889473
 40
3.135908080106382
 40
3.135908080106382
 40
3.135908080106382
 40
3.135908080106382
 10
36.69455811082356
 20
73.72241369071659
 30
0.0
 10
36.52797301949635
 20
74.02714124872161
 30
0.0
 10
36.22396643733145
 20
74.65731495500705
 30
0.0
 10
35.87253183361778
 20
75.64370714505116
 30
0.0
 10
35.70838087292064
 20
76.32372769925545
 30
0.0
 10
35.64498262692356
 20
76.66504687001659
 30
0.0
 11
36.69455811082356
 21
73.72241369071659
 31
0.0
 11
36.24266539282356
 21
74.66117791391659
 31
0.0
 11
35.88910638732354
 21
75.65259113521659
 31
0.0
 11
35.64498262692356
 21
76.66504687001659
 31
0.0
  0
SPLINE
  5
11A0
330
1F
100
AcDbEntity
  8
0
  6
Continuous
 62
     7
100
AcDbSpline
210
0.0
220
0.0
230
1.0
 70
     8
 71
     3
 72
    10
 73
     6
 74
     4
 42
0.0000000001
 43
0.0000000001
 44
0.0000000001
 12
-0.6600859085467795
 22
0.7511901179714581
 32
0.0
 13
-0.4862588663713219
 23
0.8738148058228796
 33
0.0
 40
0.0
 40
0.0
 40
0.0
 40
0.0
 40
0.620612938014129
 40
1.311495414276479
 40
2.083856626336526
 40
2.083856626336526
 40
2.083856626336526
 40
2.083856626336526
 10
37.89439760532356
 20
72.0230591194166
 30
0.0
 10
37.75784498697524
 20
72.17845855479041
 30
0.0
 10
37.4786499899785
 20
72.51528451275928
 30
0.0
 10
37.07313832956787
 20
73.07997104131414
 30
0.0
 10
36.81974727489205
 20
73.49744680400281
 30
0.0
 10
36.69455811242355
 20
73.72241369151659
 30
0.0
 11
37.89439760532356
 21
72.0230591194166
 31
0.0
 11
37.49897947902356
 21
72.50139469641659
 31
0.0
 11
37.09598308882356
 21
73.06256535271659
 31
0.0
 11
36.69455811242355
 21
73.72241369151659
 31
0.0
  0
SPLINE
  5
11A1
330
1F
100
AcDbEntity
  8
0
  6
Continuous
 62
     7
100
AcDbSpline
210
0.0
220
0.0
230
1.0
 70
     8
 71
     3
 72
    10
 73
     6
 74
     4
 42
0.0000000001
 43
0.0000000001
 44
0.0000000001
 12
-0.8781109234187541
 22
0.4784571100659524
 32
0.0
 13
-0.6600954286774822
 23
0.7511817523336754
 33
0.0
 40
0.0
 40
0.0
 40
0.0
 40
0.0
 40
0.2568914214745672
 40
0.5097410478671022
 40
0.740149797449329
 40
0.740149797449329
 40
0.740149797449329
 40
0.740149797449329
 10
38.46893928582355
 20
71.5617456903166
 30
0.0
 10
38.39374623138043
 20
71.60271619935641
 30
0.0
 10
38.24956989697522
 20
71.69364648384402
 30
0.0
 10
38.0581574335062
 20
71.85012369987052
 30
0.0
 10
37.94509479053239
 20
71.96536595679519
 30
0.0
 10
37.89439753642355
 20
72.02305890621659
 30
0.0
 11
38.46893928582355
 21
71.5617456903166
 31
0.0
 11
38.25156351542356
 21
71.69864337791659
 31
0.0
 11
38.05561556192356
 21
71.8584474238166
 31
0.0
 11
37.89439753642355
 21
72.02305890621659
 31
0.0
  0
SPLINE
  5
11A2
330
1F
100
AcDbEntity
  8
0
  6
Continuous
 62
     7
100
AcDbSpline
210
0.0
220
0.0
230
1.0
 70
     8
 71
     3
 72
   134
 73
   130
 74
   128
 42
0.0000000001
 43
0.0000000001
 44
0.0000000001
 12
-0.9999999985761863
 22
0.0000533631658917
 32
0.0
 13
0.9999950234540458
 23
0.0031548481964661
 33
0.0
 40
0.0
 40
0.0
 40
0.0
 40
0.0
 40
0.0286826564832776
 40
0.0601652541471204
 40
0.0946407037205975
 40
0.1324592029982394
 40
0.1739959617952609
 40
0.2198783194784568
 40
0.2706984199375189
 40
0.3269906096944388
 40
0.3892715576027179
 40
0.4580068448447831
 40
0.5336310467935697
 40
0.6167194499987997
 40
0.7079820115222284
 40
0.8080782151389428
 40
0.9177187741688605
 40
1.037797870845132
 40
1.169278683728672
 40
1.313033603411862
 40
1.469396277278008
 40
1.637848950286197
 40
1.811279819947221
 40
1.989915573948076
 40
2.173947291711439
 40
2.365345590259845
 40
2.572874024140102
 40
2.773678823491362
 40
2.956608302837305
 40
3.116754288343941
 40
3.256192367795867
 40
3.381161648266672
 40
3.498407006373219
 40
3.613821201893488
 40
3.731266372961257
 40
3.854262210762392
 40
3.986220983454936
 40
4.129231966821127
 40
4.284354883427451
 40
4.451601675345402
 40
4.618413652374034
 40
4.768025048045572
 40
4.901604601171449
 40
5.026289244576127
 40
5.148628879130556
 40
5.270221113925998
 40
5.390709834270577
 40
5.509724536238432
 40
5.626411683770274
 40
5.742469644954931
 40
5.86981425849631
 40
6.015236401999563
 40
6.179713824733301
 40
6.36412415327847
 40
6.570812723097023
 40
6.801860490499931
 40
7.058021284137103
 40
7.340151419270044
 40
7.649626222234703
 40
7.988660053328729
 40
8.361076806074677
 40
8.770343412594296
 40
9.221417100590262
 40
9.720508563579855
 40
10.27256614421175
 40
10.88677259024302
 40
11.57437283244359
 40
12.32470252878174
 40
13.08770361280507
 40
13.78007548428996
 40
14.39327361017849
 40
14.94073827368691
 40
15.43348384777616
 40
15.87761261296126
 40
16.27942478651898
 40
16.63893329729635
 40
16.95688545168974
 40
17.23696939453062
 40
17.49559432414471
 40
17.7560900499785
 40
18.0310043330827
 40
18.32693390816398
 40
18.62960834586839
 40
18.90671680312188
 40
19.1509443627749
 40
19.3689263010405
 40
19.56360243634168
 40
19.73590906595632
 40
19.88836597501712
 40
20.03068438396004
 40
20.17270814400177
 40
20.3170449903135
 40
20.46330792958423
 40
20.61191597251218
 40
20.75695390124311
 40
20.88874060578405
 40
21.00624004820107
 40
21.11239021161783
 40
21.20837418037401
 40
21.29535414238822
 40
21.37437649700267
 40
21.44630557401201
 40
21.51182676085308
 40
21.57155587174349
 40
21.62608872040234
 40
21.67595532512936
 40
21.7216398761825
 40
21.76362065909719
 40
21.8023510625446
 40
21.83815163324448
 40
21.87120543772948
 40
21.9016770107527
 40
21.92970446243205
 40
21.95537202350836
 40
21.97874800761723
 40
21.99998149263677
 40
22.01931783868238
 40
22.03700800569728
 40
22.05332029191831
 40
22.06855855667328
 40
22.08302014899041
 40
22.09696832940288
 40
22.11058832956585
 40
22.12394928819026
 40
22.13718056033342
 40
22.15056256193918
 40
22.16420055736929
 40
22.17785229019998
 40
22.19153193442904
 40
22.19153193442904
 40
22.19153193442904
 40
22.19153193442904
 10
42.15279355342355
 20
71.8321980365166
 30
0.0
 10
42.14323266794274
 20
71.83219854671571
 30
0.0
 10
42.12317762731739
 20
71.83229564611744
 30
0.0
 10
42.09163200271472
 20
71.83257537498004
 30
0.0
 10
42.05704044057254
 20
71.83279677196122
 30
0.0
 10
42.01909697071402
 20
71.83289686541527
 30
0.0
 10
41.97735156954567
 20
71.83310065476679
 30
0.0
 10
41.93127283104416
 20
71.83340958086912
 30
0.0
 10
41.88027678043475
 20
71.83388744074891
 30
0.0
 10
41.82381662666809
 20
71.8345885188403
 30
0.0
 10
41.76138804076909
 20
71.83556732092305
 30
0.0
 10
41.69252034417851
 20
71.83688440473004
 30
0.0
 10
41.61672388133164
 20
71.83861187502668
 30
0.0
 10
41.53342833406484
 20
71.84083785592537
 30
0.0
 10
41.44198945806106
 20
71.84366869448263
 30
0.0
 10
41.34171934265001
 20
71.8472342352145
 30
0.0
 10
41.2318706768256
 20
71.85169353024827
 30
0.0
 10
41.11159754057915
 20
71.85723508494736
 30
0.0
 10
40.98000264146878
 20
71.86407917514479
 30
0.0
 10
40.83639039202107
 20
71.87263696481176
 30
0.0
 10
40.68052762108588
 20
71.88276862235932
 30
0.0
 10
40.51484885071751
 20
71.89427737187081
 30
0.0
 10
40.34189873674168
 20
71.90853656809844
 30
0.0
 10
40.16461206385026
 20
71.93151676600831
 30
0.0
 10
39.98262661109618
 20
71.9633408417417
 30
0.0
 10
39.79288417650464
 20
72.00560017584045
 30
0.0
 10
39.6000842843658
 20
72.05881710616472
 30
0.0
 10
39.41316678173404
 20
72.12161184622008
 30
0.0
 10
39.24439566690618
 20
72.18801189643233
 30
0.0
 10
39.09748994854119
 20
72.25360730112786
 30
0.0
 10
38.97059848333122
 20
72.31633346716876
 30
0.0
 10
38.85853541999746
 20
72.3765983962097
 30
0.0
 10
38.75536680656516
 20
72.43636118747875
 30
0.0
 10
38.65619022332463
 20
72.49790282580589
 30
0.0
 10
38.55732816625599
 20
72.56348440281013
 30
0.0
 10
38.45605371096347
 20
72.63530267210336
 30
0.0
 10
38.35044875390868
 20
72.71562550362685
 30
0.0
 10
38.23938085477109
 20
72.80632206708076
 30
0.0
 10
38.12291632072059
 20
72.90885175503309
 30
0.0
 10
38.00492430593593
 20
73.02146703068595
 30
0.0
 10
37.89299869701785
 20
73.13757359960121
 30
0.0
 10
37.79318931107189
 20
73.24959423749487
 30
0.0
 10
37.70633079835609
 20
73.35422188380153
 30
0.0
 10
37.62841696574361
 20
73.45437132853539
 30
0.0
 10
37.5559383612177
 20
73.55361342103449
 30
0.0
 10
37.48730395961548
 20
73.65386259123451
 30
0.0
 10
37.42245322860977
 20
73.75528684745688
 30
0.0
 10
37.3615210589212
 20
73.85720815416672
 30
0.0
 10
37.30407182412963
 20
73.95943768528505
 30
0.0
 10
37.24761661423257
 20
74.06536744698574
 30
0.0
 10
37.18782543508531
 20
74.18036302780122
 30
0.0
 10
37.12255295688434
 20
74.3106848187235
 30
0.0
 10
37.0509690247912
 20
74.45910019556248
 30
0.0
 10
36.97349148411101
 20
74.62731905510849
 30
0.0
 10
36.89053702381004
 20
74.81740349784607
 30
0.0
 10
36.80262008661073
 20
75.03136450532041
 30
0.0
 10
36.71101370257298
 20
75.27092166745993
 30
0.0
 10
36.61722986692411
 20
75.53753396218929
 30
0.0
 10
36.52300724112888
 20
75.83314391677993
 30
0.0
 10
36.43029872542399
 20
76.16064995770642
 30
0.0
 10
36.34150347002041
 20
76.52360640344269
 30
0.0
 10
36.25960347745926
 20
76.92639887808437
 30
0.0
 10
36.18853727022812
 20
77.37409261365562
 30
0.0
 10
36.13375163255319
 20
77.87203904694144
 30
0.0
 10
36.10224464306038
 20
78.42654847341224
 30
0.0
 10
36.10352899939288
 20
79.04489770896379
 30
0.0
 10
36.14984748822865
 20
79.7279191206793
 30
0.0
 10
36.25226999427424
 20
80.4550907000198
 30
0.0
 10
36.41039967257829
 20
81.17387066515979
 30
0.0
 10
36.60639593371437
 20
81.83545351212085
 30
0.0
 10
36.81639854909087
 20
82.41666179614382
 30
0.0
 10
37.03072873672277
 20
82.92466447729916
 30
0.0
 10
37.24456438042187
 20
83.37103442181627
 30
0.0
 10
37.45442090017896
 20
83.76497507339271
 30
0.0
 10
37.65692422382169
 20
84.11213643110555
 30
0.0
 10
37.84886465804773
 20
84.41648882431834
 30
0.0
 10
38.02737946400053
 20
84.68113520390355
 30
0.0
 10
38.19346263557017
 20
84.9134600818318
 30
0.0
 10
38.35367346952319
 20
85.12633402846224
 30
0.0
 10
38.5178141797842
 20
85.3340009826668
 30
0.0
 10
38.69492620124853
 20
85.54716583845607
 30
0.0
 10
38.88680880815492
 20
85.76621586259678
 30
0.0
 10
39.08505589109776
 20
85.98052604774625
 30
0.0
 10
39.27705326721387
 20
86.17698876926523
 30
0.0
 10
39.45345816902097
 20
86.34910386222324
 30
0.0
 10
39.61352776150611
 20
86.49853642671926
 30
0.0
 10
39.75873240474456
 20
86.62868394628514
 30
0.0
 10
39.88914048610491
 20
86.74260356537656
 30
0.0
 10
40.00978815536391
 20
86.84108729737999
 30
0.0
 10
40.12668823317471
 20
86.92795988221062
 30
0.0
 10
40.24471661172461
 20
87.00857059782805
 30
0.0
 10
40.36705925000195
 20
87.08499357411779
 30
0.0
 10
40.49443994413247
 20
87.1572477545642
 30
0.0
 10
40.62496454594545
 20
87.22416889992517
 30
0.0
 10
40.75379593283501
 20
87.28353636516516
 30
0.0
 10
40.87529689098365
 20
87.33376234105676
 30
0.0
 10
40.98636294785271
 20
87.37507652682266
 30
0.0
 10
41.08737629156554
 20
87.40901055836081
 30
0.0
 10
41.17958884026413
 20
87.43705700562326
 30
0.0
 10
41.26378286962967
 20
87.46027888620476
 30
0.0
 10
41.34072630051277
 20
87.47953877204039
 30
0.0
 10
41.41109367466277
 20
87.49553524078526
 30
0.0
 10
41.47546409032897
 20
87.50883659775897
 30
0.0
 10
41.53436312411907
 20
87.51990840532267
 30
0.0
 10
41.5882911554394
 20
87.529135635693
 30
0.0
 10
41.63772454343678
 20
87.53683688754014
 30
0.0
 10
41.68311512493248
 20
87.54327772102291
 30
0.0
 10
41.72490113084061
 20
87.54867339001661
 30
0.0
 10
41.76347423255969
 20
87.55320213291012
 30
0.0
 10
41.79913426103408
 20
87.55700487008544
 30
0.0
 10
41.83208952900366
 20
87.56019314713361
 30
0.0
 10
41.8624908807901
 20
87.56285871540582
 30
0.0
 10
41.8904586804042
 20
87.56507930359267
 30
0.0
 10
41.91608311325036
 20
87.56692122971744
 30
0.0
 10
41.93945943419106
 20
87.56844351181413
 30
0.0
 10
41.96073771035948
 20
87.56970073871352
 30
0.0
 10
41.98012982634528
 20
87.57074255474758
 30
0.0
 10
41.9978882008334
 20
87.57161225720336
 30
0.0
 10
42.0142853869537
 20
87.5723464487387
 30
0.0
 10
42.02960988279381
 20
87.57297575757116
 30
0.0
 10
42.04414887237418
 20
87.57352521204612
 30
0.0
 10
42.05815028293616
 20
87.57401405293107
 30
0.0
 10
42.07178616745302
 20
87.5744563439567
 30
0.0
 10
42.08518410705216
 20
87.57486251272188
 30
0.0
 10
42.09850337618637
 20
87.57524337685882
 30
0.0
 10
42.11191587844701
 20
87.57560002501961
 30
0.0
 10
42.12546907777892
 20
87.575910864016
 30
0.0
 10
42.1391285579586
 20
87.57600983537853
 30
0.0
 10
42.14823366050633
 20
87.57555412968295
 30
0.0
 10
42.15279351922356
 20
87.57556851541659
 30
0.0
 11
42.15279355342355
 21
71.8321980365166
 31
0.0
 11
42.12411111342355
 21
71.83230947521659
 31
0.0
 11
42.09262946672355
 21
71.83255417241659
 31
0.0
 11
42.05815468662355
 21
71.83276902201659
 31
0.0
 11
42.02033643932355
 21
71.8329070755166
 31
0.0
 11
41.97880015482356
 21
71.8331055731166
 31
0.0
 11
41.93291886012355
 21
71.8334178922166
 31
0.0
 11
41.88210099772355
 21
71.8338948322166
 31
0.0
 11
41.82581313492355
 21
71.83459277851659
 31
0.0
 11
41.76353981622355
 21
71.8355675864166
 31
0.0
 11
41.69481706842356
 21
71.8368804638166
 31
0.0
 11
41.61921247252355
 21
71.8386023811166
 31
0.0
 11
41.53615369242355
 21
71.8408208931166
 31
0.0
 11
41.44493481282355
 21
71.84364421391659
 31
0.0
 11
41.34490182862355
 21
71.84720118601659
 31
0.0
 11
41.23535147222355
 21
71.85164771241659
 31
0.0
 11
41.11539956852356
 21
71.85717313161659
 31
0.0
 11
40.98409739442355
 21
71.86402464481659
 31
0.0
 11
40.84059315532356
 21
71.87251053271658
 31
0.0
 11
40.68455752272355
 21
71.88261830881661
 31
0.0
 11
40.51652574462354
 21
71.8945189219166
 31
0.0
 11
40.34376196802355
 21
71.90971576521659
 31
0.0
 11
40.16659389652355
 21
71.93256761521659
 31
0.0
 11
39.98531436542356
 21
71.9642757332166
 31
0.0
 11
39.79850201442355
 21
72.0059225122166
 31
0.0
 11
39.59848646412356
 21
72.0612563220166
 31
0.0
 11
39.40812772952356
 21
72.12517908481659
 31
0.0
 11
39.23789634432356
 21
72.1921452696166
 31
0.0
 11
39.09166266942356
 21
72.25743270331659
 31
0.0
 11
38.96666054982356
 21
72.31921820401659
 31
0.0
 11
38.85659928822355
 21
72.37841144481659
 31
0.0
 11
38.75514594832356
 21
72.43717958091659
 31
0.0
 11
38.65707797042356
 21
72.4980327504166
 31
0.0
 11
38.55920665572356
 21
72.5629525006166
 31
0.0
 11
38.45888214612356
 21
72.6341070429166
 31
0.0
 11
38.35383249742355
 21
72.7139674774166
 31
0.0
 11
38.24305645802356
 21
72.8044153102166
 31
0.0
 11
38.12662620292356
 21
72.9069195294166
 31
0.0
 11
38.00563949152355
 21
73.0223911929166
 31
0.0
 11
37.88986358592355
 21
73.14248355471659
 31
0.0
 11
37.79033250812356
 21
73.25418464811659
 31
0.0
 11
37.70500606042356
 21
73.3569605905166
 31
0.0
 11
37.62844591412356
 21
73.45537199381659
 31
0.0
 11
37.55629974332356
 21
73.55417440381661
 31
0.0
 11
37.48763015632356
 21
73.6545196049166
 31
0.0
 11
37.42270543632356
 21
73.75601991261659
 31
0.0
 11
37.36158843152356
 21
73.85814342121659
 31
0.0
 11
37.30435157892356
 21
73.9598283911166
 31
0.0
 11
37.24955253892356
 21
74.06213438101659
 31
0.0
 11
37.19087238712355
 21
74.1751533634166
 31
0.0
 11
37.12570229312355
 21
74.3051551275166
 31
0.0
 11
37.05427136122356
 21
74.4533119517166
 31
0.0
 11
36.97713030322356
 21
74.62081247841659
 31
0.0
 11
36.89443257022356
 21
74.81023594541659
 31
0.0
 11
36.80663777892356
 21
75.0239533884166
 31
0.0
 11
36.71513559962355
 21
75.26321413191659
 31
0.0
 11
36.62151683932356
 21
75.5293587183166
 31
0.0
 11
36.52754130072356
 21
75.82422012951659
 31
0.0
 11
36.43520067742355
 21
76.15043654221659
 31
0.0
 11
36.34669320662356
 21
76.5121832289166
 31
0.0
 11
36.26513780042356
 21
76.9132416672166
 31
0.0
 11
36.19443229662356
 21
77.35873937061659
 31
0.0
 11
36.13984229192356
 21
77.85483635691659
 31
0.0
 11
36.10854540882356
 21
78.40600609251659
 31
0.0
 11
36.10981817932355
 21
79.0202112198166
 31
0.0
 11
36.15631140992356
 21
79.7062378028166
 31
0.0
 11
36.26103868342356
 21
80.44922289781659
 31
0.0
 11
36.42468683052356
 21
81.1944677825166
 31
0.0
 11
36.62071960602356
 21
81.8585084133166
 31
0.0
 11
36.82912874942356
 21
82.43520380131661
 31
0.0
 11
37.04198021662356
 21
82.93959631781659
 31
0.0
 11
37.25485994872356
 21
83.3839840094166
 31
0.0
 11
37.46367238042356
 21
83.77596325431658
 31
0.0
 11
37.66612022212355
 21
84.1230481059166
 31
0.0
 11
37.85789344622356
 21
84.4271359219166
 31
0.0
 11
38.03569739732356
 21
84.6907252378166
 31
0.0
 11
38.19858261542356
 21
84.9185747951166
 31
0.0
 11
38.35410429982355
 21
85.12521423931659
 31
0.0
 11
38.51563548792356
 21
85.3295808179166
 31
0.0
 11
38.69132578112356
 21
85.54103006461659
 31
0.0
 11
38.88630992432356
 21
85.76364070521661
 31
0.0
 11
39.09188961322357
 21
85.9857866184166
 31
0.0
 11
39.28553967312357
 21
86.1840005215166
 31
0.0
 11
39.46037537242356
 21
86.35452787751658
 31
0.0
 11
39.61973065242356
 21
86.5032626083166
 31
0.0
 11
39.76457711762357
 21
86.63333297071659
 31
0.0
 11
39.89478624622357
 21
86.74618312551659
 31
0.0
 11
40.01314246072356
 21
86.84228159381659
 31
0.0
 11
40.12731568912356
 21
86.92724631261659
 31
0.0
 11
40.24460535482356
 21
87.00733303271659
 31
0.0
 11
40.36703298262356
 21
87.08378302391659
 31
0.0
 11
40.49424476892356
 21
87.15596341481658
 31
0.0
 11
40.62648380682357
 21
87.22376597581659
 31
0.0
 11
40.75821149402356
 21
87.28446043351658
 31
0.0
 11
40.88000245312357
 21
87.33480621561659
 31
0.0
 11
40.99012852442355
 21
87.37577409801659
 31
0.0
 11
41.09075187722356
 21
87.4095793944166
 31
0.0
 11
41.18258248362356
 21
87.43750898421659
 31
0.0
 11
41.26643210882356
 21
87.46063373601659
 31
0.0
 11
41.34308960302356
 21
87.4798212609166
 31
0.0
 11
41.41322906222356
 21
87.49576642891659
 31
0.0
 11
41.47739455142356
 21
87.50902598851659
 31
0.0
 11
41.53609546402356
 21
87.5200609125166
 31
0.0
 11
41.58984712812356
 21
87.52925820501658
 31
0.0
 11
41.63911930402355
 21
87.53693485461658
 31
0.0
 11
41.68435083582356
 21
87.5433525439166
 31
0.0
 11
41.72598594802356
 21
87.54872874761659
 31
0.0
 11
41.76445212322356
 21
87.5532451086166
 31
0.0
 11
41.80005083362356
 21
87.5570415122166
 31
0.0
 11
41.83295100422356
 21
87.56022471271659
 31
0.0
 11
41.86330609552356
 21
87.56288651561659
 31
0.0
 11
41.89124559062356
 21
87.56510522271659
 31
0.0
 11
41.91684706472356
 21
87.56694593331658
 31
0.0
 11
41.94017361182356
 21
87.56846541791658
 31
0.0
 11
41.96137010312356
 21
87.56971827171659
 31
0.0
 11
41.98067857942356
 21
87.57075606811659
 31
0.0
 11
41.99834754572356
 21
87.57162188501659
 31
0.0
 11
42.01464348152356
 21
87.57235206181659
 31
0.0
 11
42.02986889052357
 21
87.5729778681166
 31
0.0
 11
42.04432014332357
 21
87.57352462661659
 31
0.0
 11
42.05825980452356
 21
87.57401205091658
 31
0.0
 11
42.07187262302356
 21
87.57445429171658
 31
0.0
 11
42.08522742122357
 21
87.5748599768166
 31
0.0
 11
42.09845330492356
 21
87.57523755181658
 31
0.0
 11
42.11183067272356
 21
87.57558968491659
 31
0.0
 11
42.12546568052356
 21
87.57587513481658
 31
0.0
 11
42.13911741262356
 21
87.57587960141659
 31
0.0
 11
42.15279351922356
 21
87.57556851541659
 31
0.0
  0
SPLINE
  5
11A3
330
1F
100
AcDbEntity
  8
0
  6
Continuous
 62
     7
100
AcDbSpline
210
0.0
220
0.0
230
1.0
 70
     8
 71
     3
 72
    10
 73
     6
 74
     4
 42
0.0000000001
 43
0.0000000001
 44
0.0000000001
 12
0.3083290573468505
 22
-0.9512797655766693
 32
0.0
 13
0.9998094793445581
 23
-0.0195193497013559
 33
0.0
 40
0.0
 40
0.0
 40
0.0
 40
0.0
 40
0.0143456895479369
 40
0.025401167672914
 40
0.0338054858665777
 40
0.0338054858665777
 40
0.0338054858665777
 40
0.0338054858665777
 10
38.46893928602355
 20
71.5617456908166
 30
0.0
 10
38.47041368366865
 20
71.55719676941986
 30
0.0
 10
38.47369462860731
 20
71.54933286618626
 30
0.0
 10
38.48049265057286
 20
71.54009482231258
 30
0.0
 10
38.48686167145773
 20
71.53718547469186
 30
0.0
 10
38.48966257712355
 20
71.53713079241659
 30
0.0
 11
38.46893928602355
 21
71.5617456908166
 31
0.0
 11
38.47470235882355
 21
71.5486084993166
 31
0.0
 11
38.48181841212356
 21
71.5401476848166
 31
0.0
 11
38.48966257712355
 21
71.53713079241659
 31
0.0
  0
SPLINE
  5
11A4
330
1F
100
AcDbEntity
  8
0
  6
Continuous
 62
     7
100
AcDbSpline
210
0.0
220
0.0
230
1.0
 70
     8
 71
     3
 72
    12
 73
     8
 74
     6
 42
0.0000000001
 43
0.0000000001
 44
0.0000000001
 12
0.9999503620626683
 22
0.0099636043046032
 32
0.0
 13
0.9996878977745829
 23
-0.0249821344771695
 33
0.0
 40
0.0
 40
0.0
 40
0.0
 40
0.0
 40
0.007710266919639
 40
0.0150676296536036
 40
0.0220831594322748
 40
0.0288797449629279
 40
0.0360758405572285
 40
0.0360758405572285
 40
0.0360758405572285
 40
0.0360758405572285
 10
40.08416008472354
 20
71.54054501181659
 30
0.0
 10
40.08673004612285
 20
71.54057061916614
 30
0.0
 10
40.09175425230233
 20
71.54085392921219
 30
0.0
 10
40.09904267501219
 20
71.54189339596029
 30
0.0
 10
40.106005596291
 20
71.54309081996164
 30
0.0
 10
40.1127624258159
 20
71.54491412440823
 30
0.0
 10
40.11743636013128
 20
71.54552150882588
 30
0.0
 10
40.11983431002356
 20
71.54546158421659
 30
0.0
 11
40.08416008472354
 21
71.54054501181659
 31
0.0
 11
40.09185851422356
 21
71.54097209401659
 31
0.0
 11
40.09915123492355
 21
71.5419452390166
 31
0.0
 11
40.10605165012356
 21
71.54321091201659
 31
0.0
 11
40.11267486472355
 21
71.5447362327166
 31
0.0
 11
40.11983431002356
 21
71.54546158421659
 31
0.0
  0
SPLINE
  5
11A5
330
1F
100
AcDbEntity
  8
0
  6
Continuous
 62
     7
100
AcDbSpline
210
0.0
220
0.0
230
1.0
 70
     8
 71
     3
 72
    10
 73
     6
 74
     4
 42
0.0000000001
 43
0.0000000001
 44
0.0000000001
 12
-0.9997919559984925
 22
-0.0203971743314678
 32
0.0
 13
-0.9995355998610293
 23
0.0304726863018791
 33
0.0
 40
0.0
 40
0.0
 40
0.0
 40
0.0
 40
0.1559051444390985
 40
0.3007288505905032
 40
0.4358026780641518
 40
0.4358026780641518
 40
0.4358026780641518
 40
0.4358026780641518
 10
40.55562218392355
 20
71.54552518051659
 30
0.0
 10
40.50366461415388
 20
71.54446517237983
 30
0.0
 10
40.40341214090973
 20
71.54424873441588
 30
0.0
 10
40.25815587892458
 20
71.54374049157595
 30
0.0
 10
40.16483801004668
 20
71.54408956342587
 30
0.0
 10
40.11983431032355
 20
71.54546158421659
 30
0.0
 11
40.55562218392355
 21
71.54552518051659
 31
0.0
 11
40.39972263192355
 21
71.54420466971659
 31
0.0
 11
40.25489922562356
 21
71.5439099646166
 31
0.0
 11
40.11983431032355
 21
71.54546158421659
 31
0.0
  0
SPLINE
  5
11A6
330
1F
100
AcDbEntity
  8
0
  6
Continuous
 62
     7
100
AcDbSpline
210
0.0
220
0.0
230
1.0
 70
     8
 71
     3
 72
    11
 73
     7
 74
     5
 42
0.0000000001
 43
0.0000000001
 44
0.0000000001
 12
-0.9998080993401259
 22
0.0195899079600865
 32
0.0
 13
-0.9469295875528283
 23
-0.3214410618092076
 33
0.0
 40
0.0
 40
0.0
 40
0.0
 40
0.0
 40
0.0075802226288428
 40
0.0157882283385016
 40
0.0241702359619954
 40
0.0337308015754508
 40
0.0337308015754508
 40
0.0337308015754508
 40
0.0337308015754508
 10
40.58898240982355
 20
71.5408817409166
 30
0.0
 10
40.58645615383051
 20
71.5409312395378
 30
0.0
 10
40.5812004047872
 20
71.54118613289573
 30
0.0
 10
40.57318804069002
 20
71.54248544220266
 30
0.0
 10
40.56481724540677
 20
71.54401224346026
 30
0.0
 10
40.55863991140792
 20
71.54654956663735
 30
0.0
 10
40.55562218392355
 20
71.54552518051659
 30
0.0
 11
40.58898240982355
 21
71.5408817409166
 31
0.0
 11
40.58141445822355
 21
71.54131288321659
 31
0.0
 11
40.57329200592355
 21
71.54249488421659
 31
0.0
 11
40.56509980462355
 21
71.54426854981659
 31
0.0
 11
40.55562218392355
 21
71.54552518051659
 31
0.0
  0
SPLINE
  5
11A7
330
1F
100
AcDbEntity
  8
0
  6
Continuous
 62
     7
100
AcDbSpline
210
0.0
220
0.0
230
1.0
 70
     8
 71
     3
 72
    11
 73
     7
 74
     5
 42
0.0000000001
 43
0.0000000001
 44
0.0000000001
 12
0.6737568977168169
 22
-0.7389530721087848
 32
0.0
 13
0.7970993740998461
 23
-0.6038481496283925
 33
0.0
 40
0.0
 40
0.0
 40
0.0
 40
0.0
 40
0.1297238117446354
 40
0.2520327230222463
 40
0.3651202372240261
 40
0.4674045246047517
 40
0.4674045246047517
 40
0.4674045246047517
 40
0.4674045246047517
 10
37.87093852762355
 20
71.33843762321659
 30
0.0
 10
37.90007263194391
 20
71.30648435347848
 30
0.0
 10
37.95826696598404
 20
71.2458352420046
 30
0.0
 10
38.04666845016162
 20
71.16212390578482
 30
0.0
 10
38.13175888150841
 20
71.0883880523415
 30
0.0
 10
38.18798938920642
 20
71.04371398354023
 30
0.0
 10
38.21516630302355
 20
71.0231259243166
 30
0.0
 11
37.87093852762355
 21
71.33843762321659
 31
0.0
 11
37.96072797182356
 21
71.24481004691659
 31
0.0
 11
38.04952826102356
 21
71.1607031006166
 31
0.0
 11
38.13502154152356
 21
71.08667820711659
 31
0.0
 11
38.21516630302355
 21
71.0231259243166
 31
0.0
  0
SPLINE
  5
11A8
330
1F
100
AcDbEntity
  8
0
  6
Continuous
 62
     7
100
AcDbSpline
210
0.0
220
0.0
230
1.0
 70
     8
 71
     3
 72
    17
 73
    13
 74
    11
 42
0.0000000001
 43
0.0000000001
 44
0.0000000001
 12
0.0026192191734771
 22
-0.9999965698395776
 32
0.0
 13
0.6737560399268467
 23
-0.7389538542169556
 33
0.0
 40
0.0
 40
0.0
 40
0.0
 40
0.0
 40
0.3971578503060015
 40
0.9413648975512426
 40
2.029445938972828
 40
3.117526980273217
 40
4.205608021684692
 40
5.293689063039839
 40
6.381770104438054
 40
7.469851145852127
 40
8.01405819306731
 40
8.106016449531729
 40
8.106016449531729
 40
8.106016449531729
 40
8.106016449531729
 10
34.99807841632355
 20
78.7259186649166
 30
0.0
 10
34.99842516414235
 20
78.59353316891965
 30
0.0
 10
35.00456861856884
 20
78.27972525768479
 30
0.0
 10
35.04743708995254
 20
77.60436616326209
 30
0.0
 10
35.17174643997429
 20
76.70451825078197
 30
0.0
 10
35.42695821858425
 20
75.64499909813338
 30
0.0
 10
35.78556771008744
 20
74.61582327599242
 30
0.0
 10
36.2441131063762
 20
73.62711341187028
 30
0.0
 10
36.79807467539063
 20
72.68858847554951
 30
0.0
 10
37.33481000700126
 20
71.9557189268788
 30
0.0
 10
37.70807978848026
 20
71.51839535562806
 30
0.0
 10
37.85028609571887
 20
71.36108863366374
 30
0.0
 10
37.87093857262356
 20
71.3384376643166
 30
0.0
 11
34.99807841632355
 21
78.7259186649166
 31
0.0
 11
35.00605484152356
 21
78.32884092101659
 31
0.0
 11
35.04040713322355
 21
77.7857191756166
 31
0.0
 11
35.18942138832356
 21
76.70789029101661
 31
0.0
 11
35.44419117072355
 21
75.6500563199166
 31
0.0
 11
35.80222369422355
 21
74.62256760231659
 31
0.0
 11
36.26001580182356
 21
73.6354775665166
 31
0.0
 11
36.81308824232356
 21
72.6984443610166
 31
0.0
 11
37.45602949752356
 21
71.82063635521659
 31
0.0
 11
37.80926776562356
 21
71.4066508045166
 31
0.0
 11
37.87093857262356
 21
71.3384376643166
 31
0.0
  0
SPLINE
  5
11A9
330
1F
100
AcDbEntity
  8
0
  6
Continuous
 62
     7
100
AcDbSpline
210
0.0
220
0.0
230
1.0
 70
     8
 71
     3
 72
    30
 73
    26
 74
    24
 42
0.0000000001
 43
0.0000000001
 44
0.0000000001
 12
-1.0
 22
0.0000000000000002
 32
0.0
 13
0.0026192191772359
 23
-0.9999965698395678
 33
0.0
 40
0.0
 40
0.0
 40
0.0
 40
0.0
 40
0.9950554096979431
 40
1.493233842124221
 40
1.991412274694709
 40
2.489590707186061
 40
2.987769139686533
 40
3.236939736753613
 40
3.486110333814677
 40
3.73528093092207
 40
3.859876403289768
 40
3.984471875712332
 40
4.293034251397806
 40
4.601596627036627
 40
5.218679918510624
 40
5.835763210054777
 40
6.452846501576622
 40
7.686681439418823
 40
8.92051637736929
 40
10.15435131525294
 40
11.3881862531535
 40
12.62202119102433
 40
13.23910448257618
 40
13.85618777407406
 40
14.0032670506608
 40
14.0032670506608
 40
14.0032670506608
 40
14.0032670506608
 10
42.15279354382356
 20
89.36849626841659
 30
0.0
 10
41.82110840725758
 20
89.36849626841659
 30
0.0
 10
41.32140345011015
 20
89.31721131496674
 30
0.0
 10
40.67843536941667
 20
89.14910129597476
 30
0.0
 10
40.21091399481892
 20
88.97431396130661
 30
0.0
 10
39.76379268757069
 20
88.75274996735356
 30
0.0
 10
39.41186846828801
 20
88.53098338966107
 30
0.0
 10
39.14514033378782
 20
88.33280827751394
 30
0.0
 10
38.95288409918036
 20
88.1741262366504
 30
0.0
 10
38.7996770898121
 20
88.03382936304084
 30
0.0
 10
38.68144346677976
 20
87.9171114301449
 30
0.0
 10
38.55290977486003
 20
87.78275953952499
 30
0.0
 10
38.38638000516186
 20
87.59997477557702
 30
0.0
 10
38.11548308370802
 20
87.29032101103959
 30
0.0
 10
37.79074764345486
 20
86.8913155242647
 30
0.0
 10
37.42355382229828
 20
86.39509501192909
 30
0.0
 10
36.96528875854129
 20
85.71159149634322
 30
0.0
 10
36.4525871278212
 20
84.81842514535513
 30
0.0
 10
35.93938140313785
 20
83.69449192231739
 30
0.0
 10
35.53241597621002
 20
82.52780438538138
 30
0.0
 10
35.23528323016191
 20
81.32851412004955
 30
0.0
 10
35.08114607454505
 20
80.31023474081967
 30
0.0
 10
35.01509118942009
 20
79.49000639433234
 30
0.0
 10
34.99888194038268
 20
79.02966807134973
 30
0.0
 10
34.99795000536962
 20
78.774944922277
 30
0.0
 10
34.99807841632355
 20
78.7259186649166
 30
0.0
 11
42.15279354382356
 21
89.36849626841659
 31
0.0
 11
41.16293376002357
 21
89.26694393321659
 31
0.0
 11
40.68093867562356
 21
89.1409975591166
 31
0.0
 11
40.21431400602356
 21
88.9665178514166
 31
0.0
 11
39.76793266042357
 21
88.74532688211658
 31
0.0
 11
39.34645614902356
 21
88.47973452351659
 31
0.0
 11
39.14644409042356
 21
88.33113720571658
 31
0.0
 11
38.95428590352356
 21
88.1725143270166
 31
0.0
 11
38.77048358792357
 21
88.00428027801659
 31
0.0
 11
38.68186682242356
 21
87.91669545851659
 31
0.0
 11
38.59551731382357
 21
87.82687455831659
 31
0.0
 11
38.38715570372356
 21
87.59928681891659
 31
0.0
 11
38.18412583932357
 21
87.3669301667166
 31
0.0
 11
37.79449488862357
 21
86.8884121306166
 31
0.0
 11
37.42746196192356
 21
86.39234901021659
 31
0.0
 11
37.08381598562357
 21
85.87980707861659
 31
0.0
 11
36.46958765442356
 21
84.8097266092166
 31
0.0
 11
35.95708811942356
 21
83.68736620331659
 31
0.0
 11
35.55072142302356
 21
82.5223705973166
 31
0.0
 11
35.25397958052356
 21
81.32475090271659
 31
0.0
 11
35.06941257212356
 21
80.10479857851661
 31
0.0
 11
35.01972834992356
 21
79.4897186920166
 31
0.0
 11
34.99860643022356
 21
78.87299699371661
 31
0.0
 11
34.99807841632355
 21
78.7259186649166
 31
0.0
  0
SPLINE
  5
11AA
330
1F
100
AcDbEntity
  8
0
  6
Continuous
 62
     7
100
AcDbSpline
210
0.0
220
0.0
230
1.0
 70
     8
 71
     3
 72
    34
 73
    30
 74
    28
 42
0.0000000001
 43
0.0000000001
 44
0.0000000001
 12
-0.998408691194365
 22
0.0563922454558684
 32
0.0
 13
-0.7970994895711855
 23
0.6038479972024052
 33
0.0
 40
0.0
 40
0.0
 40
0.0
 40
0.0
 40
0.0037140904149875
 40
0.0097084525364419
 40
0.0162627474744306
 40
0.023436842790329
 40
0.031294421850842
 40
0.0398966196861195
 40
0.0491918240992631
 40
0.0590306269452507
 40
0.0694250007618674
 40
0.0805274878941878
 40
0.0925058586455765
 40
0.1055297158184093
 40
0.1197530614563299
 40
0.1351711940207519
 40
0.151658676458037
 40
0.1693387750531286
 40
0.188524448590073
 40
0.2094270991878994
 40
0.2320151747746651
 40
0.2563808318596616
 40
0.2829285854775134
 40
0.311816621132099
 40
0.3432088277880997
 40
0.3775496976961108
 40
0.4151371079373143
 40
0.4565106941944864
 40
0.5026302762793895
 40
0.5026302762793895
 40
0.5026302762793895
 40
0.5026302762793895
 10
38.68396405832355
 20
70.86413330551661
 30
0.0
 10
38.68272799827349
 20
70.86420312081604
 30
0.0
 10
38.67949732533313
 20
70.8643914611925
 30
0.0
 10
38.67408711982916
 20
70.86473256486343
 30
0.0
 10
38.66752850903369
 20
70.86518641821979
 30
0.0
 10
38.66035378748169
 20
70.8657313001159
 30
0.0
 10
38.65250297591037
 20
70.86638566656084
 30
0.0
 10
38.64395358322349
 20
70.86716781558621
 30
0.0
 10
38.63475427111493
 20
70.86809112540771
 30
0.0
 10
38.62497023844749
 20
70.86916645879357
 30
0.0
 10
38.61459929851748
 20
70.87041149210668
 30
0.0
 10
38.60353504407039
 20
70.871859754109
 30
0.0
 10
38.59162042740521
 20
70.87355909856376
 30
0.0
 10
38.57870003234373
 20
70.87556752760436
 30
0.0
 10
38.56467791262962
 20
70.87794515973182
 30
0.0
 10
38.54955782848334
 20
70.8807440597043
 30
0.0
 10
38.5333560121892
 20
70.88401837040007
 30
0.0
 10
38.51598816411826
 20
70.8878497068208
 30
0.0
 10
38.49726660050108
 20
70.89236110443227
 30
0.0
 10
38.4770631970937
 20
70.89768810075518
 30
0.0
 10
38.4553314884679
 20
70.90396874926828
 30
0.0
 10
38.43197565546541
 20
70.91138002615635
 30
0.0
 10
38.40685922239272
 20
70.92015318087345
 30
0.0
 10
38.3798518922365
 20
70.93057460757089
 30
0.0
 10
38.3508495275842
 20
70.94299018024468
 30
0.0
 10
38.31976164050793
 20
70.95783679898518
 30
0.0
 10
38.28647131721405
 20
70.97570732737897
 30
0.0
 10
38.25084655254287
 20
70.99741225474045
 30
0.0
 10
38.22695761503659
 20
71.014192931592
 30
0.0
 10
38.21470364992355
 20
71.0234760040166
 30
0.0
 11
38.68396405832355
 21
70.86413330551661
 31
0.0
 11
38.68025626332356
 21
70.8643494625166
 31
0.0
 11
38.67427378022356
 21
70.8647266537166
 31
0.0
 11
38.66773512272356
 21
70.86517913601659
 31
0.0
 11
38.66058162802355
 21
70.86572241971659
 31
0.0
 11
38.65275120352356
 21
70.8663751071166
 31
0.0
 11
38.64418478272355
 21
70.8671588432166
 31
0.0
 11
38.63493604962355
 21
70.8680871541166
 31
0.0
 11
38.62515614372356
 21
70.8691620876166
 31
0.0
 11
38.61483588022355
 21
70.8704011067166
 31
0.0
 11
38.60382731312356
 21
70.87184217261659
 31
0.0
 11
38.59196896702356
 21
70.87353361981659
 31
0.0
 11
38.57909969352356
 21
70.8755342835166
 31
0.0
 11
38.56507655652355
 21
70.87791234781659
 31
0.0
 11
38.54991604932356
 21
70.8807190956166
 31
0.0
 11
38.53375538292356
 21
70.88398558281659
 31
0.0
 11
38.51649052812355
 21
70.88779487081659
 31
0.0
 11
38.49783896712356
 21
70.89229035091659
 31
0.0
 11
38.47762742462355
 21
70.8976208623166
 31
0.0
 11
38.45592794712356
 21
70.90389412581659
 31
0.0
 11
38.43270429392357
 21
70.9112661796166
 31
0.0
 11
38.40764273972356
 21
70.9200241316166
 31
0.0
 11
38.38069356182356
 21
70.9304289581166
 31
0.0
 11
38.35183761752356
 21
70.94279039481659
 31
0.0
 11
38.32085437152355
 21
70.9576003176166
 31
0.0
 11
38.28774489652355
 21
70.9753929024166
 31
0.0
 11
38.25242868952356
 21
70.9969460730166
 31
0.0
 11
38.21470364992355
 21
71.0234760040166
 31
0.0
  0
LINE
  5
11AB
330
1F
100
AcDbEntity
  8
0
  6
Continuous
 62
     7
100
AcDbLine
 10
45.52779354382356
 20
70.1084962684166
 30
0.0
 11
44.27779354382356
 21
70.1084962684166
 31
0.0
  0
LINE
  5
11AC
330
1F
100
AcDbEntity
  8
0
  6
Continuous
 62
     7
100
AcDbLine
 10
45.59779354382357
 20
70.86306468961659
 30
0.0
 11
45.59779354382357
 21
71.5325132495166
 31
0.0
  0
LINE
  5
11AD
330
1F
100
AcDbEntity
  8
0
  6
Continuous
 62
     7
100
AcDbLine
 10
45.55779354382356
 20
71.4684962684166
 30
0.0
 11
45.55779354382356
 21
71.08849626841659
 31
0.0
  0
LINE
  5
11AE
330
1F
100
AcDbEntity
  8
0
  6
Continuous
 62
     7
100
AcDbLine
 10
45.52779354382356
 20
70.1084962684166
 30
0.0
 11
45.52779354382356
 21
71.0584962684166
 31
0.0
  0
LINE
  5
11AF
330
1F
100
AcDbEntity
  8
0
  6
Continuous
 62
     7
100
AcDbLine
 10
45.52779354382356
 20
71.05849626841659
 30
0.0
 11
44.27779354382356
 21
71.05849626841659
 31
0.0
  0
LINE
  5
11B0
330
1F
100
AcDbEntity
  8
0
  6
Continuous
 62
     7
100
AcDbLine
 10
45.52779354382356
 20
71.4984962684166
 30
0.0
 11
44.27779354382356
 21
71.4984962684166
 31
0.0
  0
LINE
  5
11B1
330
1F
100
AcDbEntity
  8
0
  6
Continuous
 62
     7
100
AcDbLine
 10
44.27779354382356
 20
71.0584962684166
 30
0.0
 11
44.27779354382356
 21
70.1084962684166
 31
0.0
  0
LINE
  5
11B2
330
1F
100
AcDbEntity
  8
0
  6
Continuous
 62
     7
100
AcDbLine
 10
44.24779354382356
 20
71.4684962684166
 30
0.0
 11
44.24779354382356
 21
71.08849626841659
 31
0.0
  0
ARC
  5
11B3
330
1F
100
AcDbEntity
  8
0
  6
Continuous
 62
     7
100
AcDbCircle
 10
45.52779354382356
 20
71.08849626841659
 30
0.0
 40
0.03
100
AcDbArc
 50
270.0
 51
0.0
  0
ARC
  5
11B4
330
1F
100
AcDbEntity
  8
0
  6
Continuous
 62
     7
100
AcDbCircle
 10
45.56365634152356
 20
71.89054375661659
 30
0.0
 40
1.028045993299999
100
AcDbArc
 50
271.9029082662999
 51
273.2323543921
  0
ARC
  5
11B5
330
1F
100
AcDbEntity
  8
0
  6
Continuous
 62
     7
100
AcDbCircle
 10
45.52779354382356
 20
71.4684962684166
 30
0.0
 40
0.03
100
AcDbArc
 50
0.0
 51
90.0
  0
ARC
  5
11B6
330
1F
100
AcDbEntity
  8
0
  6
Continuous
 62
     7
100
AcDbCircle
 10
44.27779354382356
 20
71.08849626841659
 30
0.0
 40
0.03
100
AcDbArc
 50
180.0
 51
270.0
  0
ARC
  5
11B7
330
1F
100
AcDbEntity
  8
0
  6
Continuous
 62
     7
100
AcDbCircle
 10
44.27779354382356
 20
71.4684962684166
 30
0.0
 40
0.03
100
AcDbArc
 50
90.0
 51
180.0
  0
ARC
  5
11B8
330
1F
100
AcDbEntity
  8
0
  6
Continuous
 62
     7
100
AcDbCircle
 10
36.96324948862357
 20
78.9191337628166
 30
0.0
 40
11.8717376196
100
AcDbArc
 50
19.30772583570036
 51
28.99790498289983
  0
SPLINE
  5
11B9
330
1F
100
AcDbEntity
  8
0
  6
Continuous
 62
     7
100
AcDbSpline
210
0.0
220
0.0
230
1.0
 70
     8
 71
     3
 72
    12
 73
     8
 74
     6
 42
0.0000000001
 43
0.0000000001
 44
0.0000000001
 12
-0.9999915125892906
 22
0.004120042400575
 32
0.0
 13
-0.9999995615528998
 23
0.0009364261895063
 33
0.0
 40
0.0
 40
0.0
 40
0.0
 40
0.0
 40
0.3310478745307511
 40
0.639874399414196
 40
0.9440572841523199
 40
1.259589137605428
 40
1.567134624721602
 40
1.567134624721602
 40
1.567134624721602
 40
1.567134624721602
 10
45.81592469902356
 20
71.5371307923166
 30
0.0
 10
45.70557634409307
 20
71.5375854360765
 30
0.0
 10
45.49228629662006
 20
71.53837114203712
 30
0.0
 10
45.17760181011737
 20
71.53928020561853
 30
0.0
 10
44.86808856416927
 20
71.53986974588424
 30
0.0
 10
44.55900197981772
 20
71.54019199621432
 30
0.0
 10
44.35130966354814
 20
71.54042402983373
 30
0.0
 10
44.24879454612356
 20
71.5405200277166
 30
0.0
 11
45.81592469902356
 21
71.5371307923166
 31
0.0
 11
45.48487908082356
 21
71.53835304511659
 31
0.0
 11
45.17605381142357
 21
71.53923364241659
 31
0.0
 11
44.87187149112357
 21
71.5398196326166
 31
0.0
 11
44.55633986542356
 21
71.54019874561659
 31
0.0
 11
44.24879454612356
 21
71.5405200277166
 31
0.0
  0
LINE
  5
11BA
330
1F
100
AcDbEntity
  8
0
  6
Continuous
 62
     7
100
AcDbLine
 10
44.24879454612356
 20
71.5405200277166
 30
0.0
 11
44.22142726142356
 21
71.54054519921659
 31
0.0
  0
SPLINE
  5
11BB
330
1F
100
AcDbEntity
  8
0
  6
Continuous
 62
     7
100
AcDbSpline
210
0.0
220
0.0
230
1.0
 70
     8
 71
     3
 72
    11
 73
     7
 74
     5
 42
0.0000000001
 43
0.0000000001
 44
0.0000000001
 12
-0.9999998472917411
 22
0.0005526449985625
 32
0.0
 13
-1.0
 23
-0.0000000110627159
 33
0.0
 40
0.0
 40
0.0
 40
0.0
 40
0.0
 40
0.3583962883342656
 40
0.7373850966556868
 40
1.138607574200258
 40
1.563811311508555
 40
1.563811311508555
 40
1.563811311508555
 40
1.563811311508555
 10
43.71660475982356
 20
71.54088168521659
 30
0.0
 10
43.59713934862216
 20
71.54094770718868
 30
0.0
 10
43.35134434906478
 20
71.5410750273196
 30
0.0
 10
42.97180852274845
 20
71.54123254806146
 30
0.0
 10
42.57000352847452
 20
71.54134252392125
 30
0.0
 10
42.29452812282633
 20
71.54136911878456
 30
0.0
 10
42.15279354372356
 20
71.54136911721659
 30
0.0
 11
43.71660475982356
 21
71.54088168521659
 31
0.0
 11
43.35820851862357
 21
71.54106549351659
 31
0.0
 11
42.97921974212356
 21
71.54122079941659
 31
0.0
 11
42.57799727912356
 21
71.54132883281659
 31
0.0
 11
42.15279354372356
 21
71.54136911721659
 31
0.0
  0
SPLINE
  5
11BC
330
1F
100
AcDbEntity
  8
0
  6
Continuous
 62
     7
100
AcDbSpline
210
0.0
220
0.0
230
1.0
 70
     8
 71
     3
 72
    13
 73
     9
 74
     7
 42
0.0000000001
 43
0.0000000001
 44
0.0000000001
 12
-0.6147475520916024
 22
0.7887239359860855
 32
0.0
 13
-0.9999999999891027
 23
0.0000046684577079
 33
0.0
 40
0.0
 40
0.0
 40
0.0
 40
0.0
 40
0.6691277766073709
 40
1.34707521083709
 40
2.020348341521073
 40
2.693406089063165
 40
3.366466142722923
 40
4.036729296678397
 40
4.036729296678397
 40
4.036729296678397
 40
4.036729296678397
 10
45.65913596932356
 20
87.22848403551658
 30
0.0
 10
45.52202108175494
 20
87.40440306673106
 30
0.0
 10
45.21820743260353
 20
87.73773822526473
 30
0.0
 10
44.69397819639969
 20
88.16435282058987
 30
0.0
 10
44.10979201265192
 20
88.50727647896063
 30
0.0
 10
43.48198444148309
 20
88.7572337545831
 30
0.0
 10
42.82472689912366
 20
88.90920677430436
 30
0.0
 10
42.37621459503961
 20
88.94312649248487
 30
0.0
 10
42.15279354372356
 20
88.94312753551659
 30
0.0
 11
45.65913596932356
 21
87.22848403551658
 31
0.0
 11
45.20891619122355
 21
87.72349326051658
 31
0.0
 11
44.68286191252356
 21
88.15113752791658
 31
0.0
 11
44.10222175592355
 21
88.49195084491659
 31
0.0
 11
43.47691386382356
 21
88.74094235401658
 31
0.0
 11
42.82114313222356
 21
88.8925160437166
 31
0.0
 11
42.15279354372356
 21
88.94312753551659
 31
0.0
  0
SPLINE
  5
11BD
330
1F
100
AcDbEntity
  8
0
  6
Continuous
 62
     7
100
AcDbSpline
210
0.0
220
0.0
230
1.0
 70
     8
 71
     3
 72
    10
 73
     6
 74
     4
 42
0.0000000001
 43
0.0000000001
 44
0.0000000001
 12
-0.4850056891387188
 22
0.8745109956444668
 32
0.0
 13
-0.6147477357453348
 23
0.7887237928425796
 33
0.0
 40
0.0
 40
0.0
 40
0.0
 40
0.0
 40
1.1287720287332
 40
2.145262733192213
 40
3.064102843782551
 40
3.064102843782551
 40
3.064102843782551
 40
3.064102843782551
 10
47.34671434352357
 20
84.67428599951659
 30
0.0
 10
47.16422739163149
 20
85.00332718308431
 30
0.0
 10
46.79987687493016
 20
85.61917894639975
 30
0.0
 10
46.23201221026493
 20
86.4686307116672
 30
0.0
 10
45.84742092848936
 20
86.98691368316969
 30
0.0
 10
45.65913596932356
 20
87.22848403551658
 30
0.0
 11
47.34671434352357
 21
84.67428599951659
 31
0.0
 11
46.77160797412356
 21
85.64556297171661
 31
0.0
 11
46.20676441012355
 21
86.4906695333166
 31
0.0
 11
45.65913596932356
 21
87.22848403551658
 31
0.0
  0
SPLINE
  5
11BE
330
1F
100
AcDbEntity
  8
0
  6
Continuous
 62
     7
100
AcDbSpline
210
0.0
220
0.0
230
1.0
 70
     8
 71
     3
 72
    12
 73
     8
 74
     6
 42
0.0000000001
 43
0.0000000001
 44
0.0000000001
 12
0.1826406794257257
 22
0.9831797303743142
 32
0.0
 13
-0.3364811628285339
 23
0.9416901969658374
 33
0.0
 40
0.0
 40
0.0
 40
0.0
 40
0.0
 40
1.263631029154245
 40
2.529542692535316
 40
3.793512369025694
 40
5.060240868326729
 40
6.268395432531075
 40
6.268395432531075
 40
6.268395432531075
 40
6.268395432531075
 10
48.66060458342357
 20
76.66504753051659
 30
0.0
 10
48.73753472665962
 20
77.07917300202876
 30
0.0
 10
48.84788240130936
 20
77.91699511063649
 30
0.0
 10
48.87846272748163
 20
79.18341189353033
 30
0.0
 10
48.77457110577561
 20
80.44711272289113
 30
0.0
 10
48.54080529603938
 20
81.67357223705527
 30
0.0
 10
48.30277885733693
 20
82.46518691587301
 30
0.0
 10
48.16727177312357
 20
82.84442268571659
 30
0.0
 11
48.66060458342357
 21
76.66504753051659
 31
0.0
 11
48.82533432542357
 21
77.91789528261659
 31
0.0
 11
48.85603837402356
 21
79.1834345356166
 31
0.0
 11
48.75245080832357
 21
80.44315234501659
 31
0.0
 11
48.51532370392357
 21
81.68748824311659
 31
0.0
 11
48.16727177312357
 21
82.84442268571659
 31
0.0
  0
SPLINE
  5
11BF
330
1F
100
AcDbEntity
  8
0
  6
Continuous
 62
     7
100
AcDbSpline
210
0.0
220
0.0
230
1.0
 70
     8
 71
     3
 72
    10
 73
     6
 74
     4
 42
0.0000000001
 43
0.0000000001
 44
0.0000000001
 12
0.4796731548939797
 22
0.8774472431286429
 32
0.0
 13
0.1826211525865439
 23
0.9831833575828886
 33
0.0
 40
0.0
 40
0.0
 40
0.0
 40
0.0
 40
1.041866255976135
 40
2.094436512889472
 40
3.135908080106379
 40
3.135908080106379
 40
3.135908080106379
 40
3.135908080106379
 10
47.61102897682356
 20
73.72241369071659
 30
0.0
 10
47.77761406815077
 20
74.02714124872161
 30
0.0
 10
48.08162065031567
 20
74.65731495500705
 30
0.0
 10
48.43305525402933
 20
75.64370714505116
 30
0.0
 10
48.59720621472647
 20
76.32372769925545
 30
0.0
 10
48.66060446072356
 20
76.66504687001659
 30
0.0
 11
47.61102897682356
 21
73.72241369071659
 31
0.0
 11
48.06292169482357
 21
74.66117791391659
 31
0.0
 11
48.41648070032357
 21
75.65259113521659
 31
0.0
 11
48.66060446072356
 21
76.66504687001659
 31
0.0
  0
SPLINE
  5
11C0
330
1F
100
AcDbEntity
  8
0
  6
Continuous
 62
     7
100
AcDbSpline
210
0.0
220
0.0
230
1.0
 70
     8
 71
     3
 72
    10
 73
     6
 74
     4
 42
0.0000000001
 43
0.0000000001
 44
0.0000000001
 12
0.6600859085467795
 22
0.7511901179714581
 32
0.0
 13
0.486258866371322
 23
0.8738148058228796
 33
0.0
 40
0.0
 40
0.0
 40
0.0
 40
0.0
 40
0.620612938014129
 40
1.311495414276479
 40
2.083856626336526
 40
2.083856626336526
 40
2.083856626336526
 40
2.083856626336526
 10
46.41118948232356
 20
72.0230591194166
 30
0.0
 10
46.54774210067187
 20
72.17845855479041
 30
0.0
 10
46.82693709766862
 20
72.51528451275928
 30
0.0
 10
47.23244875807925
 20
73.07997104131414
 30
0.0
 10
47.48583981275507
 20
73.49744680400281
 30
0.0
 10
47.61102897522356
 20
73.72241369151659
 30
0.0
 11
46.41118948232356
 21
72.0230591194166
 31
0.0
 11
46.80660760862356
 21
72.50139469641659
 31
0.0
 11
47.20960399882357
 21
73.06256535271659
 31
0.0
 11
47.61102897522356
 21
73.72241369151659
 31
0.0
  0
SPLINE
  5
11C1
330
1F
100
AcDbEntity
  8
0
  6
Continuous
 62
     7
100
AcDbSpline
210
0.0
220
0.0
230
1.0
 70
     8
 71
     3
 72
    10
 73
     6
 74
     4
 42
0.0000000001
 43
0.0000000001
 44
0.0000000001
 12
0.8781109234187542
 22
0.4784571100659524
 32
0.0
 13
0.6600954286774822
 23
0.7511817523336754
 33
0.0
 40
0.0
 40
0.0
 40
0.0
 40
0.0
 40
0.2568914214745672
 40
0.5097410478671022
 40
0.740149797449329
 40
0.740149797449329
 40
0.740149797449329
 40
0.740149797449329
 10
45.83664780182355
 20
71.5617456903166
 30
0.0
 10
45.91184085626669
 20
71.60271619935641
 30
0.0
 10
46.05601719067189
 20
71.69364648384402
 30
0.0
 10
46.24742965414092
 20
71.85012369987052
 30
0.0
 10
46.36049229711473
 20
71.96536595679519
 30
0.0
 10
46.41118955122357
 20
72.02305890621659
 30
0.0
 11
45.83664780182355
 21
71.5617456903166
 31
0.0
 11
46.05402357222357
 21
71.69864337791659
 31
0.0
 11
46.24997152572356
 21
71.8584474238166
 31
0.0
 11
46.41118955122357
 21
72.02305890621659
 31
0.0
  0
SPLINE
  5
11C2
330
1F
100
AcDbEntity
  8
0
  6
Continuous
 62
     7
100
AcDbSpline
210
0.0
220
0.0
230
1.0
 70
     8
 71
     3
 72
   134
 73
   130
 74
   128
 42
0.0000000001
 43
0.0000000001
 44
0.0000000001
 12
0.9999999985761863
 22
0.0000533631658915
 32
0.0
 13
-0.9999950234540458
 23
0.0031548481964663
 33
0.0
 40
0.0
 40
0.0
 40
0.0
 40
0.0
 40
0.0286826564832776
 40
0.0601652541471204
 40
0.0946407037205975
 40
0.1324592029982394
 40
0.1739959617952609
 40
0.2198783194784568
 40
0.2706984199375189
 40
0.3269906096944388
 40
0.3892715576027179
 40
0.4580068448447831
 40
0.5336310467935697
 40
0.6167194499987997
 40
0.7079820115222284
 40
0.8080782151389428
 40
0.9177187741688605
 40
1.037797870845132
 40
1.169278683728672
 40
1.313033603411862
 40
1.469396277278008
 40
1.637848950286197
 40
1.811279819947221
 40
1.989915573948076
 40
2.173947291711439
 40
2.365345590259845
 40
2.572874024140102
 40
2.773678823491362
 40
2.956608302837305
 40
3.116754288343941
 40
3.256192367795867
 40
3.381161648266672
 40
3.498407006373219
 40
3.613821201893488
 40
3.731266372961257
 40
3.854262210762392
 40
3.986220983454936
 40
4.129231966821127
 40
4.284354883427451
 40
4.451601675345402
 40
4.618413652374034
 40
4.768025048045572
 40
4.901604601171449
 40
5.026289244576127
 40
5.148628879130556
 40
5.270221113925998
 40
5.390709834270577
 40
5.509724536238432
 40
5.626411683770274
 40
5.742469644954931
 40
5.86981425849631
 40
6.015236401999563
 40
6.179713824733301
 40
6.36412415327847
 40
6.570812723097023
 40
6.801860490499931
 40
7.058021284137103
 40
7.340151419270044
 40
7.649626222234703
 40
7.988660053328729
 40
8.361076806074677
 40
8.770343412594296
 40
9.221417100590262
 40
9.720508563579855
 40
10.27256614421175
 40
10.88677259024302
 40
11.57437283244359
 40
12.32470252878174
 40
13.08770361280507
 40
13.78007548428996
 40
14.39327361017849
 40
14.94073827368691
 40
15.43348384777616
 40
15.87761261296126
 40
16.27942478651899
 40
16.63893329729635
 40
16.95688545168975
 40
17.23696939453063
 40
17.49559432414472
 40
17.7560900499785
 40
18.03100433308271
 40
18.32693390816398
 40
18.62960834586839
 40
18.90671680312189
 40
19.1509443627749
 40
19.3689263010405
 40
19.56360243634168
 40
19.73590906595632
 40
19.88836597501713
 40
20.03068438396004
 40
20.17270814400177
 40
20.3170449903135
 40
20.46330792958423
 40
20.61191597251219
 40
20.75695390124311
 40
20.88874060578405
 40
21.00624004820108
 40
21.11239021161784
 40
21.20837418037402
 40
21.29535414238822
 40
21.37437649700267
 40
21.44630557401201
 40
21.51182676085308
 40
21.57155587174349
 40
21.62608872040234
 40
21.67595532512937
 40
21.7216398761825
 40
21.76362065909719
 40
21.8023510625446
 40
21.83815163324449
 40
21.87120543772948
 40
21.9016770107527
 40
21.92970446243206
 40
21.95537202350836
 40
21.97874800761723
 40
21.99998149263678
 40
22.01931783868238
 40
22.03700800569729
 40
22.05332029191831
 40
22.06855855667328
 40
22.08302014899041
 40
22.09696832940289
 40
22.11058832956585
 40
22.12394928819026
 40
22.13718056033342
 40
22.15056256193918
 40
22.16420055736929
 40
22.17785229019998
 40
22.19153193442905
 40
22.19153193442905
 40
22.19153193442905
 40
22.19153193442905
 10
42.15279353422356
 20
71.8321980365166
 30
0.0
 10
42.16235441970438
 20
71.83219854671571
 30
0.0
 10
42.18240946032972
 20
71.83229564611744
 30
0.0
 10
42.21395508493239
 20
71.83257537498004
 30
0.0
 10
42.24854664707457
 20
71.83279677196122
 30
0.0
 10
42.28649011693309
 20
71.83289686541527
 30
0.0
 10
42.32823551810144
 20
71.83310065476679
 30
0.0
 10
42.37431425660296
 20
71.83340958086912
 30
0.0
 10
42.42531030721236
 20
71.83388744074891
 30
0.0
 10
42.48177046097902
 20
71.8345885188403
 30
0.0
 10
42.54419904687802
 20
71.83556732092305
 30
0.0
 10
42.61306674346861
 20
71.83688440473004
 30
0.0
 10
42.68886320631547
 20
71.83861187502668
 30
0.0
 10
42.77215875358227
 20
71.84083785592537
 30
0.0
 10
42.86359762958604
 20
71.84366869448263
 30
0.0
 10
42.9638677449971
 20
71.8472342352145
 30
0.0
 10
43.0737164108215
 20
71.85169353024827
 30
0.0
 10
43.19398954706797
 20
71.85723508494736
 30
0.0
 10
43.32558444617833
 20
71.86407917514479
 30
0.0
 10
43.46919669562605
 20
71.87263696481176
 30
0.0
 10
43.62505946656122
 20
71.88276862235932
 30
0.0
 10
43.7907382369296
 20
71.89427737187081
 30
0.0
 10
43.96368835090544
 20
71.90853656809844
 30
0.0
 10
44.14097502379685
 20
71.93151676600831
 30
0.0
 10
44.32296047655093
 20
71.9633408417417
 30
0.0
 10
44.51270291114247
 20
72.00560017584045
 30
0.0
 10
44.70550280328132
 20
72.05881710616472
 30
0.0
 10
44.89242030591308
 20
72.12161184622008
 30
0.0
 10
45.06119142074093
 20
72.18801189643233
 30
0.0
 10
45.20809713910592
 20
72.25360730112786
 30
0.0
 10
45.33498860431589
 20
72.31633346716876
 30
0.0
 10
45.44705166764965
 20
72.3765983962097
 30
0.0
 10
45.55022028108196
 20
72.43636118747875
 30
0.0
 10
45.64939686432249
 20
72.49790282580589
 30
0.0
 10
45.74825892139112
 20
72.56348440281013
 30
0.0
 10
45.84953337668363
 20
72.63530267210336
 30
0.0
 10
45.95513833373844
 20
72.71562550362685
 30
0.0
 10
46.06620623287603
 20
72.80632206708076
 30
0.0
 10
46.18267076692653
 20
72.90885175503309
 30
0.0
 10
46.30066278171118
 20
73.02146703068595
 30
0.0
 10
46.41258839062927
 20
73.13757359960121
 30
0.0
 10
46.51239777657522
 20
73.24959423749487
 30
0.0
 10
46.59925628929103
 20
73.35422188380153
 30
0.0
 10
46.6771701219035
 20
73.45437132853539
 30
0.0
 10
46.74964872642942
 20
73.55361342103449
 30
0.0
 10
46.81828312803165
 20
73.65386259123451
 30
0.0
 10
46.88313385903735
 20
73.75528684745688
 30
0.0
 10
46.94406602872591
 20
73.85720815416672
 30
0.0
 10
47.00151526351748
 20
73.95943768528505
 30
0.0
 10
47.05797047341455
 20
74.06536744698574
 30
0.0
 10
47.1177616525618
 20
74.18036302780122
 30
0.0
 10
47.18303413076277
 20
74.3106848187235
 30
0.0
 10
47.25461806285593
 20
74.45910019556248
 30
0.0
 10
47.3320956035361
 20
74.62731905510849
 30
0.0
 10
47.41505006383707
 20
74.81740349784607
 30
0.0
 10
47.50296700103639
 20
75.03136450532041
 30
0.0
 10
47.59457338507414
 20
75.27092166745993
 30
0.0
 10
47.68835722072301
 20
75.53753396218929
 30
0.0
 10
47.78257984651823
 20
75.83314391677993
 30
0.0
 10
47.87528836222313
 20
76.16064995770642
 30
0.0
 10
47.9640836176267
 20
76.52360640344269
 30
0.0
 10
48.04598361018786
 20
76.92639887808437
 30
0.0
 10
48.117049817419
 20
77.37409261365562
 30
0.0
 10
48.17183545509393
 20
77.87203904694144
 30
0.0
 10
48.20334244458674
 20
78.42654847341224
 30
0.0
 10
48.20205808825424
 20
79.04489770896379
 30
0.0
 10
48.15573959941847
 20
79.7279191206793
 30
0.0
 10
48.05331709337289
 20
80.4550907000198
 30
0.0
 10
47.89518741506882
 20
81.17387066515979
 30
0.0
 10
47.69919115393276
 20
81.83545351212085
 30
0.0
 10
47.48918853855625
 20
82.41666179614382
 30
0.0
 10
47.27485835092436
 20
82.92466447729916
 30
0.0
 10
47.06102270722526
 20
83.37103442181627
 30
0.0
 10
46.85116618746817
 20
83.76497507339271
 30
0.0
 10
46.64866286382543
 20
84.11213643110555
 30
0.0
 10
46.45672242959939
 20
84.41648882431834
 30
0.0
 10
46.27820762364659
 20
84.68113520390355
 30
0.0
 10
46.11212445207697
 20
84.9134600818318
 30
0.0
 10
45.95191361812392
 20
85.12633402846224
 30
0.0
 10
45.78777290786293
 20
85.3340009826668
 30
0.0
 10
45.6106608863986
 20
85.54716583845607
 30
0.0
 10
45.41877827949221
 20
85.76621586259678
 30
0.0
 10
45.22053119654937
 20
85.98052604774625
 30
0.0
 10
45.02853382043325
 20
86.17698876926523
 30
0.0
 10
44.85212891862615
 20
86.34910386222324
 30
0.0
 10
44.69205932614102
 20
86.49853642671926
 30
0.0
 10
44.54685468290257
 20
86.62868394628514
 30
0.0
 10
44.41644660154221
 20
86.74260356537656
 30
0.0
 10
44.29579893228321
 20
86.84108729737999
 30
0.0
 10
44.1788988544724
 20
86.92795988221062
 30
0.0
 10
44.06087047592251
 20
87.00857059782805
 30
0.0
 10
43.93852783764518
 20
87.08499357411779
 30
0.0
 10
43.81114714351464
 20
87.1572477545642
 30
0.0
 10
43.68062254170167
 20
87.22416889992517
 30
0.0
 10
43.55179115481211
 20
87.28353636516516
 30
0.0
 10
43.43029019666348
 20
87.33376234105676
 30
0.0
 10
43.31922413979441
 20
87.37507652682266
 30
0.0
 10
43.21821079608157
 20
87.40901055836081
 30
0.0
 10
43.12599824738299
 20
87.43705700562326
 30
0.0
 10
43.04180421801745
 20
87.46027888620476
 30
0.0
 10
42.96486078713436
 20
87.47953877204039
 30
0.0
 10
42.89449341298435
 20
87.49553524078526
 30
0.0
 10
42.83012299731816
 20
87.50883659775897
 30
0.0
 10
42.77122396352805
 20
87.51990840532267
 30
0.0
 10
42.71729593220772
 20
87.529135635693
 30
0.0
 10
42.66786254421034
 20
87.53683688754014
 30
0.0
 10
42.62247196271464
 20
87.54327772102291
 30
0.0
 10
42.58068595680652
 20
87.54867339001661
 30
0.0
 10
42.54211285508742
 20
87.55320213291012
 30
0.0
 10
42.50645282661304
 20
87.55700487008544
 30
0.0
 10
42.47349755864346
 20
87.56019314713361
 30
0.0
 10
42.44309620685702
 20
87.56285871540582
 30
0.0
 10
42.41512840724293
 20
87.56507930359267
 30
0.0
 10
42.38950397439676
 20
87.56692122971744
 30
0.0
 10
42.36612765345606
 20
87.56844351181413
 30
0.0
 10
42.34484937728764
 20
87.56970073871352
 30
0.0
 10
42.32545726130184
 20
87.57074255474758
 30
0.0
 10
42.30769888681372
 20
87.57161225720336
 30
0.0
 10
42.29130170069342
 20
87.5723464487387
 30
0.0
 10
42.27597720485332
 20
87.57297575757116
 30
0.0
 10
42.26143821527293
 20
87.57352521204612
 30
0.0
 10
42.24743680471095
 20
87.57401405293107
 30
0.0
 10
42.2338009201941
 20
87.5744563439567
 30
0.0
 10
42.22040298059495
 20
87.57486251272188
 30
0.0
 10
42.20708371146075
 20
87.57524337685882
 30
0.0
 10
42.1936712092001
 20
87.57560002501961
 30
0.0
 10
42.1801180098682
 20
87.575910864016
 30
0.0
 10
42.16645852968852
 20
87.57600983537853
 30
0.0
 10
42.15735342714078
 20
87.57555412968295
 30
0.0
 10
42.15279356842356
 20
87.57556851541659
 30
0.0
 11
42.15279353422356
 21
71.8321980365166
 31
0.0
 11
42.18147597422357
 21
71.83230947521659
 31
0.0
 11
42.21295762092357
 21
71.83255417241659
 31
0.0
 11
42.24743240102355
 21
71.83276902201659
 31
0.0
 11
42.28525064832356
 21
71.8329070755166
 31
0.0
 11
42.32678693282356
 21
71.8331055731166
 31
0.0
 11
42.37266822752355
 21
71.8334178922166
 31
0.0
 11
42.42348608992357
 21
71.8338948322166
 31
0.0
 11
42.47977395272356
 21
71.83459277851659
 31
0.0
 11
42.54204727142357
 21
71.8355675864166
 31
0.0
 11
42.61077001922356
 21
71.8368804638166
 31
0.0
 11
42.68637461512357
 21
71.8386023811166
 31
0.0
 11
42.76943339522357
 21
71.8408208931166
 31
0.0
 11
42.86065227482356
 21
71.84364421391659
 31
0.0
 11
42.96068525902356
 21
71.84720118601659
 31
0.0
 11
43.07023561542357
 21
71.85164771241659
 31
0.0
 11
43.19018751912357
 21
71.85717313161659
 31
0.0
 11
43.32148969322356
 21
71.86402464481659
 31
0.0
 11
43.46499393232356
 21
71.87251053271658
 31
0.0
 11
43.62102956492356
 21
71.88261830881661
 31
0.0
 11
43.78906134302356
 21
71.8945189219166
 31
0.0
 11
43.96182511962357
 21
71.90971576521659
 31
0.0
 11
44.13899319112357
 21
71.93256761521659
 31
0.0
 11
44.32027272222356
 21
71.9642757332166
 31
0.0
 11
44.50708507322356
 21
72.0059225122166
 31
0.0
 11
44.70710062352355
 21
72.0612563220166
 31
0.0
 11
44.89745935812357
 21
72.12517908481659
 31
0.0
 11
45.06769074332356
 21
72.1921452696166
 31
0.0
 11
45.21392441822357
 21
72.25743270331659
 31
0.0
 11
45.33892653782356
 21
72.31921820401659
 31
0.0
 11
45.44898779942356
 21
72.37841144481659
 31
0.0
 11
45.55044113932356
 21
72.43717958091659
 31
0.0
 11
45.64850911722357
 21
72.4980327504166
 31
0.0
 11
45.74638043192357
 21
72.5629525006166
 31
0.0
 11
45.84670494152357
 21
72.6341070429166
 31
0.0
 11
45.95175459022357
 21
72.7139674774166
 31
0.0
 11
46.06253062962356
 21
72.8044153102166
 31
0.0
 11
46.17896088472356
 21
72.9069195294166
 31
0.0
 11
46.29994759612357
 21
73.0223911929166
 31
0.0
 11
46.41572350172356
 21
73.14248355471659
 31
0.0
 11
46.51525457952357
 21
73.25418464811659
 31
0.0
 11
46.60058102722357
 21
73.3569605905166
 31
0.0
 11
46.67714117352356
 21
73.45537199381659
 31
0.0
 11
46.74928734432356
 21
73.55417440381661
 31
0.0
 11
46.81795693132356
 21
73.6545196049166
 31
0.0
 11
46.88288165132357
 21
73.75601991261659
 31
0.0
 11
46.94399865612356
 21
73.85814342121659
 31
0.0
 11
47.00123550872357
 21
73.9598283911166
 31
0.0
 11
47.05603454872355
 21
74.06213438101659
 31
0.0
 11
47.11471470052356
 21
74.1751533634166
 31
0.0
 11
47.17988479452356
 21
74.3051551275166
 31
0.0
 11
47.25131572642356
 21
74.4533119517166
 31
0.0
 11
47.32845678442356
 21
74.62081247841659
 31
0.0
 11
47.41115451742357
 21
74.81023594541659
 31
0.0
 11
47.49894930872357
 21
75.0239533884166
 31
0.0
 11
47.59045148802357
 21
75.26321413191659
 31
0.0
 11
47.68407024832356
 21
75.5293587183166
 31
0.0
 11
47.77804578692356
 21
75.82422012951659
 31
0.0
 11
47.87038641022355
 21
76.15043654221659
 31
0.0
 11
47.95889388102357
 21
76.5121832289166
 31
0.0
 11
48.04044928722356
 21
76.9132416672166
 31
0.0
 11
48.11115479102356
 21
77.35873937061659
 31
0.0
 11
48.16574479572357
 21
77.85483635691659
 31
0.0
 11
48.19704167882356
 21
78.40600609251659
 31
0.0
 11
48.19576890832357
 21
79.0202112198166
 31
0.0
 11
48.14927567772357
 21
79.7062378028166
 31
0.0
 11
48.04454840422357
 21
80.44922289781659
 31
0.0
 11
47.88090025712357
 21
81.1944677825166
 31
0.0
 11
47.68486748162357
 21
81.8585084133166
 31
0.0
 11
47.47645833822356
 21
82.43520380131661
 31
0.0
 11
47.26360687102356
 21
82.93959631781659
 31
0.0
 11
47.05072713892356
 21
83.3839840094166
 31
0.0
 11
46.84191470722356
 21
83.77596325431658
 31
0.0
 11
46.63946686552357
 21
84.1230481059166
 31
0.0
 11
46.44769364142357
 21
84.4271359219166
 31
0.0
 11
46.26988969032356
 21
84.6907252378166
 31
0.0
 11
46.10700447222356
 21
84.9185747951166
 31
0.0
 11
45.95148278782357
 21
85.12521423931659
 31
0.0
 11
45.78995159972357
 21
85.3295808179166
 31
0.0
 11
45.61426130652356
 21
85.54103006461659
 31
0.0
 11
45.41927716332356
 21
85.76364070521661
 31
0.0
 11
45.21369747442355
 21
85.9857866184166
 31
0.0
 11
45.02004741452355
 21
86.1840005215166
 31
0.0
 11
44.84521171522356
 21
86.35452787751658
 31
0.0
 11
44.68585643522356
 21
86.5032626083166
 31
0.0
 11
44.54100997002355
 21
86.63333297071659
 31
0.0
 11
44.41080084142355
 21
86.74618312551659
 31
0.0
 11
44.29244462692356
 21
86.84228159381659
 31
0.0
 11
44.17827139852355
 21
86.92724631261659
 31
0.0
 11
44.06098173282356
 21
87.00733303271659
 31
0.0
 11
43.93855410502356
 21
87.08378302391659
 31
0.0
 11
43.81134231872356
 21
87.15596341481658
 31
0.0
 11
43.67910328082356
 21
87.22376597581659
 31
0.0
 11
43.54737559362356
 21
87.28446043351658
 31
0.0
 11
43.42558463452355
 21
87.33480621561659
 31
0.0
 11
43.31545856322356
 21
87.37577409801659
 31
0.0
 11
43.21483521042356
 21
87.4095793944166
 31
0.0
 11
43.12300460402356
 21
87.43750898421659
 31
0.0
 11
43.03915497882356
 21
87.46063373601659
 31
0.0
 11
42.96249748462356
 21
87.4798212609166
 31
0.0
 11
42.89235802542356
 21
87.49576642891659
 31
0.0
 11
42.82819253622355
 21
87.50902598851659
 31
0.0
 11
42.76949162362355
 21
87.5200609125166
 31
0.0
 11
42.71573995952356
 21
87.52925820501658
 31
0.0
 11
42.66646778362356
 21
87.53693485461658
 31
0.0
 11
42.62123625182356
 21
87.5433525439166
 31
0.0
 11
42.57960113962356
 21
87.54872874761659
 31
0.0
 11
42.54113496442356
 21
87.5532451086166
 31
0.0
 11
42.50553625402356
 21
87.5570415122166
 31
0.0
 11
42.47263608342356
 21
87.56022471271659
 31
0.0
 11
42.44228099212356
 21
87.56288651561659
 31
0.0
 11
42.41434149702356
 21
87.56510522271659
 31
0.0
 11
42.38874002292356
 21
87.56694593331658
 31
0.0
 11
42.36541347582356
 21
87.56846541791658
 31
0.0
 11
42.34421698452356
 21
87.56971827171659
 31
0.0
 11
42.32490850822356
 21
87.57075606811659
 31
0.0
 11
42.30723954192355
 21
87.57162188501659
 31
0.0
 11
42.29094360612356
 21
87.57235206181659
 31
0.0
 11
42.27571819712355
 21
87.5729778681166
 31
0.0
 11
42.26126694432355
 21
87.57352462661659
 31
0.0
 11
42.24732728312356
 21
87.57401205091658
 31
0.0
 11
42.23371446462356
 21
87.57445429171658
 31
0.0
 11
42.22035966642355
 21
87.5748599768166
 31
0.0
 11
42.20713378272356
 21
87.57523755181658
 31
0.0
 11
42.19375641492356
 21
87.57558968491659
 31
0.0
 11
42.18012140712356
 21
87.57587513481658
 31
0.0
 11
42.16646967502355
 21
87.57587960141659
 31
0.0
 11
42.15279356842356
 21
87.57556851541659
 31
0.0
  0
SPLINE
  5
11C3
330
1F
100
AcDbEntity
  8
0
  6
Continuous
 62
     7
100
AcDbSpline
210
0.0
220
0.0
230
1.0
 70
     8
 71
     3
 72
    10
 73
     6
 74
     4
 42
0.0000000001
 43
0.0000000001
 44
0.0000000001
 12
-0.3083290573468505
 22
-0.9512797655766689
 32
0.0
 13
-0.9998094793445581
 23
-0.0195193497013558
 33
0.0
 40
0.0
 40
0.0
 40
0.0
 40
0.0
 40
0.0143456895479369
 40
0.025401167672914
 40
0.0338054858665777
 40
0.0338054858665777
 40
0.0338054858665777
 40
0.0338054858665777
 10
45.83664780162357
 20
71.5617456908166
 30
0.0
 10
45.83517340397846
 20
71.55719676941986
 30
0.0
 10
45.83189245903982
 20
71.54933286618626
 30
0.0
 10
45.82509443707426
 20
71.54009482231258
 30
0.0
 10
45.81872541618938
 20
71.53718547469186
 30
0.0
 10
45.81592451052357
 20
71.53713079241659
 30
0.0
 11
45.83664780162357
 21
71.5617456908166
 31
0.0
 11
45.83088472882356
 21
71.5486084993166
 31
0.0
 11
45.82376867552357
 21
71.5401476848166
 31
0.0
 11
45.81592451052357
 21
71.53713079241659
 31
0.0
  0
SPLINE
  5
11C4
330
1F
100
AcDbEntity
  8
0
  6
Continuous
 62
     7
100
AcDbSpline
210
0.0
220
0.0
230
1.0
 70
     8
 71
     3
 72
    12
 73
     8
 74
     6
 42
0.0000000001
 43
0.0000000001
 44
0.0000000001
 12
-0.9999503620626683
 22
0.0099636043046034
 32
0.0
 13
-0.9996878977745829
 23
-0.0249821344771694
 33
0.0
 40
0.0
 40
0.0
 40
0.0
 40
0.0
 40
0.007710266919639
 40
0.0150676296536036
 40
0.0220831594322748
 40
0.0288797449629279
 40
0.0360758405572285
 40
0.0360758405572285
 40
0.0360758405572285
 40
0.0360758405572285
 10
44.22142700292356
 20
71.54054501181659
 30
0.0
 10
44.21885704152426
 20
71.54057061916614
 30
0.0
 10
44.21383283534479
 20
71.54085392921219
 30
0.0
 10
44.20654441263493
 20
71.54189339596029
 30
0.0
 10
44.19958149135611
 20
71.54309081996164
 30
0.0
 10
44.19282466183122
 20
71.54491412440823
 30
0.0
 10
44.18815072751584
 20
71.54552150882588
 30
0.0
 10
44.18575277762356
 20
71.54546158421659
 30
0.0
 11
44.22142700292356
 21
71.54054501181659
 31
0.0
 11
44.21372857342356
 21
71.54097209401659
 31
0.0
 11
44.20643585272357
 21
71.5419452390166
 31
0.0
 11
44.19953543752356
 21
71.54321091201659
 31
0.0
 11
44.19291222292357
 21
71.5447362327166
 31
0.0
 11
44.18575277762356
 21
71.54546158421659
 31
0.0
  0
SPLINE
  5
11C5
330
1F
100
AcDbEntity
  8
0
  6
Continuous
 62
     7
100
AcDbSpline
210
0.0
220
0.0
230
1.0
 70
     8
 71
     3
 72
    10
 73
     6
 74
     4
 42
0.0000000001
 43
0.0000000001
 44
0.0000000001
 12
0.9997919559984925
 22
-0.0203971743314679
 32
0.0
 13
0.9995355998610293
 23
0.030472686301879
 33
0.0
 40
0.0
 40
0.0
 40
0.0
 40
0.0
 40
0.1559051444390985
 40
0.3007288505905032
 40
0.4358026780641518
 40
0.4358026780641518
 40
0.4358026780641518
 40
0.4358026780641518
 10
43.74996490372356
 20
71.54552518051659
 30
0.0
 10
43.80192247349323
 20
71.54446517237983
 30
0.0
 10
43.9021749467374
 20
71.54424873441588
 30
0.0
 10
44.04743120872252
 20
71.54374049157595
 30
0.0
 10
44.14074907760043
 20
71.54408956342587
 30
0.0
 10
44.18575277732357
 20
71.54546158421659
 30
0.0
 11
43.74996490372356
 21
71.54552518051659
 31
0.0
 11
43.90586445572357
 21
71.54420466971659
 31
0.0
 11
44.05068786202356
 21
71.5439099646166
 31
0.0
 11
44.18575277732357
 21
71.54546158421659
 31
0.0
  0
SPLINE
  5
11C6
330
1F
100
AcDbEntity
  8
0
  6
Continuous
 62
     7
100
AcDbSpline
210
0.0
220
0.0
230
1.0
 70
     8
 71
     3
 72
    11
 73
     7
 74
     5
 42
0.0000000001
 43
0.0000000001
 44
0.0000000001
 12
0.9998080993401259
 22
0.0195899079600864
 32
0.0
 13
0.9469295875528281
 23
-0.3214410618092076
 33
0.0
 40
0.0
 40
0.0
 40
0.0
 40
0.0
 40
0.0075802226288428
 40
0.0157882283385016
 40
0.0241702359619954
 40
0.0337308015754508
 40
0.0337308015754508
 40
0.0337308015754508
 40
0.0337308015754508
 10
43.71660467782357
 20
71.5408817409166
 30
0.0
 10
43.71913093381659
 20
71.5409312395378
 30
0.0
 10
43.7243866828599
 20
71.54118613289573
 30
0.0
 10
43.73239904695709
 20
71.54248544220266
 30
0.0
 10
43.74076984224035
 20
71.54401224346026
 30
0.0
 10
43.74694717623919
 20
71.54654956663735
 30
0.0
 10
43.74996490372356
 20
71.54552518051659
 30
0.0
 11
43.71660467782357
 21
71.5408817409166
 31
0.0
 11
43.72417262942356
 21
71.54131288321659
 31
0.0
 11
43.73229508172356
 21
71.54249488421659
 31
0.0
 11
43.74048728302357
 21
71.54426854981659
 31
0.0
 11
43.74996490372356
 21
71.54552518051659
 31
0.0
  0
SPLINE
  5
11C7
330
1F
100
AcDbEntity
  8
0
  6
Continuous
 62
     7
100
AcDbSpline
210
0.0
220
0.0
230
1.0
 70
     8
 71
     3
 72
    11
 73
     7
 74
     5
 42
0.0000000001
 43
0.0000000001
 44
0.0000000001
 12
-0.6737568977168169
 22
-0.7389530721087848
 32
0.0
 13
-0.7970993740998464
 23
-0.6038481496283926
 33
0.0
 40
0.0
 40
0.0
 40
0.0
 40
0.0
 40
0.1297238117446354
 40
0.2520327230222463
 40
0.3651202372240261
 40
0.4674045246047517
 40
0.4674045246047517
 40
0.4674045246047517
 40
0.4674045246047517
 10
46.43464856002355
 20
71.33843762321659
 30
0.0
 10
46.40551445570321
 20
71.30648435347848
 30
0.0
 10
46.34732012166308
 20
71.2458352420046
 30
0.0
 10
46.2589186374855
 20
71.16212390578482
 30
0.0
 10
46.17382820613872
 20
71.0883880523415
 30
0.0
 10
46.1175976984407
 20
71.04371398354023
 30
0.0
 10
46.09042078462356
 20
71.0231259243166
 30
0.0
 11
46.43464856002355
 21
71.33843762321659
 31
0.0
 11
46.34485911582356
 21
71.24481004691659
 31
0.0
 11
46.25605882662355
 21
71.1607031006166
 31
0.0
 11
46.17056554612356
 21
71.08667820711659
 31
0.0
 11
46.09042078462356
 21
71.0231259243166
 31
0.0
  0
SPLINE
  5
11C8
330
1F
100
AcDbEntity
  8
0
  6
Continuous
 62
     7
100
AcDbSpline
210
0.0
220
0.0
230
1.0
 70
     8
 71
     3
 72
    17
 73
    13
 74
    11
 42
0.0000000001
 43
0.0000000001
 44
0.0000000001
 12
-0.0026192191734773
 22
-0.9999965698395776
 32
0.0
 13
-0.6737560399268467
 23
-0.7389538542169556
 33
0.0
 40
0.0
 40
0.0
 40
0.0
 40
0.0
 40
0.3971578503060015
 40
0.9413648975512431
 40
2.029445938972827
 40
3.117526980273218
 40
4.205608021684691
 40
5.293689063039836
 40
6.38177010443805
 40
7.469851145852124
 40
8.014058193067306
 40
8.106016449531725
 40
8.106016449531725
 40
8.106016449531725
 40
8.106016449531725
 10
49.30750867132357
 20
78.72591866491659
 30
0.0
 10
49.30716192350477
 20
78.59353316891963
 30
0.0
 10
49.30101846907828
 20
78.27972525768479
 30
0.0
 10
49.25814999769457
 20
77.60436616326209
 30
0.0
 10
49.13384064767284
 20
76.70451825078197
 30
0.0
 10
48.87862886906286
 20
75.64499909813337
 30
0.0
 10
48.52001937755968
 20
74.61582327599244
 30
0.0
 10
48.06147398127092
 20
73.62711341187028
 30
0.0
 10
47.50751241225649
 20
72.68858847554951
 30
0.0
 10
46.97077708064587
 20
71.9557189268788
 30
0.0
 10
46.59750729916686
 20
71.51839535562806
 30
0.0
 10
46.45530099192824
 20
71.36108863366374
 30
0.0
 10
46.43464851502357
 20
71.3384376643166
 30
0.0
 11
49.30750867132357
 21
78.72591866491659
 31
0.0
 11
49.29953224612357
 21
78.32884092101659
 31
0.0
 11
49.26517995442357
 21
77.78571917561659
 31
0.0
 11
49.11616569932356
 21
76.70789029101659
 31
0.0
 11
48.86139591692357
 21
75.6500563199166
 31
0.0
 11
48.50336339342357
 21
74.62256760231659
 31
0.0
 11
48.04557128582357
 21
73.6354775665166
 31
0.0
 11
47.49249884532356
 21
72.6984443610166
 31
0.0
 11
46.84955759012356
 21
71.82063635521659
 31
0.0
 11
46.49631932202356
 21
71.4066508045166
 31
0.0
 11
46.43464851502357
 21
71.3384376643166
 31
0.0
  0
SPLINE
  5
11C9
330
1F
100
AcDbEntity
  8
0
  6
Continuous
 62
     7
100
AcDbSpline
210
0.0
220
0.0
230
1.0
 70
     8
 71
     3
 72
    30
 73
    26
 74
    24
 42
0.0000000001
 43
0.0000000001
 44
0.0000000001
 12
1.0
 22
0.0000000000000001
 32
0.0
 13
-0.002619219177236
 23
-0.9999965698395678
 33
0.0
 40
0.0
 40
0.0
 40
0.0
 40
0.0
 40
0.9950554096979431
 40
1.493233842124221
 40
1.991412274694709
 40
2.489590707186061
 40
2.987769139686533
 40
3.236939736753613
 40
3.486110333814677
 40
3.73528093092207
 40
3.859876403289768
 40
3.984471875712332
 40
4.293034251397806
 40
4.601596627036627
 40
5.218679918510624
 40
5.835763210054777
 40
6.452846501576622
 40
7.686681439418823
 40
8.92051637736929
 40
10.15435131525294
 40
11.3881862531535
 40
12.62202119102433
 40
13.23910448257619
 40
13.85618777407406
 40
14.0032670506608
 40
14.0032670506608
 40
14.0032670506608
 40
14.0032670506608
 10
42.15279354382356
 20
89.36849626841659
 30
0.0
 10
42.48447868038954
 20
89.36849626841659
 30
0.0
 10
42.98418363753699
 20
89.31721131496674
 30
0.0
 10
43.62715171823044
 20
89.14910129597476
 30
0.0
 10
44.0946730928282
 20
88.97431396130661
 30
0.0
 10
44.54179440007642
 20
88.75274996735356
 30
0.0
 10
44.89371861935912
 20
88.53098338966107
 30
0.0
 10
45.1604467538593
 20
88.33280827751394
 30
0.0
 10
45.35270298846675
 20
88.1741262366504
 30
0.0
 10
45.50590999783502
 20
88.03382936304084
 30
0.0
 10
45.62414362086737
 20
87.9171114301449
 30
0.0
 10
45.75267731278709
 20
87.78275953952499
 30
0.0
 10
45.91920708248525
 20
87.59997477557702
 30
0.0
 10
46.1901040039391
 20
87.29032101103959
 30
0.0
 10
46.51483944419226
 20
86.8913155242647
 30
0.0
 10
46.88203326534885
 20
86.39509501192909
 30
0.0
 10
47.34029832910583
 20
85.71159149634322
 30
0.0
 10
47.85299995982592
 20
84.81842514535513
 30
0.0
 10
48.36620568450928
 20
83.69449192231739
 30
0.0
 10
48.7731711114371
 20
82.52780438538136
 30
0.0
 10
49.07030385748521
 20
81.32851412004955
 30
0.0
 10
49.22444101310207
 20
80.31023474081967
 30
0.0
 10
49.29049589822703
 20
79.49000639433234
 30
0.0
 10
49.30670514726445
 20
79.02966807134972
 30
0.0
 10
49.3076370822775
 20
78.774944922277
 30
0.0
 10
49.30750867132357
 20
78.72591866491659
 30
0.0
 11
42.15279354382356
 21
89.36849626841659
 31
0.0
 11
43.14265332762356
 21
89.26694393321659
 31
0.0
 11
43.62464841202355
 21
89.1409975591166
 31
0.0
 11
44.09127308162356
 21
88.9665178514166
 31
0.0
 11
44.53765442722356
 21
88.74532688211658
 31
0.0
 11
44.95913093862356
 21
88.47973452351659
 31
0.0
 11
45.15914299722356
 21
88.33113720571658
 31
0.0
 11
45.35130118412356
 21
88.1725143270166
 31
0.0
 11
45.53510349972355
 21
88.00428027801659
 31
0.0
 11
45.62372026522356
 21
87.91669545851659
 31
0.0
 11
45.71006977382356
 21
87.82687455831659
 31
0.0
 11
45.91843138392356
 21
87.59928681891659
 31
0.0
 11
46.12146124832356
 21
87.3669301667166
 31
0.0
 11
46.51109219902355
 21
86.8884121306166
 31
0.0
 11
46.87812512572356
 21
86.39234901021659
 31
0.0
 11
47.22177110202355
 21
85.87980707861659
 31
0.0
 11
47.83599943322356
 21
84.8097266092166
 31
0.0
 11
48.34849896822356
 21
83.68736620331659
 31
0.0
 11
48.75486566462356
 21
82.5223705973166
 31
0.0
 11
49.05160750712357
 21
81.32475090271659
 31
0.0
 11
49.23617451552357
 21
80.1047985785166
 31
0.0
 11
49.28585873772357
 21
79.4897186920166
 31
0.0
 11
49.30698065742356
 21
78.87299699371659
 31
0.0
 11
49.30750867132357
 21
78.72591866491659
 31
0.0
  0
SPLINE
  5
11CA
330
1F
100
AcDbEntity
  8
0
  6
Continuous
 62
     7
100
AcDbSpline
210
0.0
220
0.0
230
1.0
 70
     8
 71
     3
 72
    34
 73
    30
 74
    28
 42
0.0000000001
 43
0.0000000001
 44
0.0000000001
 12
0.998408691194365
 22
0.0563922454558683
 32
0.0
 13
0.7970994895711853
 23
0.6038479972024051
 33
0.0
 40
0.0
 40
0.0
 40
0.0
 40
0.0
 40
0.0037140904149875
 40
0.0097084525364419
 40
0.0162627474744306
 40
0.023436842790329
 40
0.031294421850842
 40
0.0398966196861195
 40
0.0491918240992631
 40
0.0590306269452507
 40
0.0694250007618674
 40
0.0805274878941878
 40
0.0925058586455765
 40
0.1055297158184093
 40
0.1197530614563299
 40
0.1351711940207519
 40
0.151658676458037
 40
0.1693387750531286
 40
0.188524448590073
 40
0.2094270991878994
 40
0.2320151747746651
 40
0.2563808318596616
 40
0.2829285854775134
 40
0.311816621132099
 40
0.3432088277880997
 40
0.3775496976961108
 40
0.4151371079373143
 40
0.4565106941944864
 40
0.5026302762793895
 40
0.5026302762793895
 40
0.5026302762793895
 40
0.5026302762793895
 10
45.62162302932356
 20
70.86413330551661
 30
0.0
 10
45.62285908937363
 20
70.86420312081604
 30
0.0
 10
45.62608976231399
 20
70.8643914611925
 30
0.0
 10
45.63149996781795
 20
70.86473256486343
 30
0.0
 10
45.63805857861343
 20
70.86518641821979
 30
0.0
 10
45.64523330016543
 20
70.8657313001159
 30
0.0
 10
45.65308411173676
 20
70.86638566656084
 30
0.0
 10
45.66163350442361
 20
70.86716781558621
 30
0.0
 10
45.6708328165322
 20
70.86809112540771
 30
0.0
 10
45.68061684919962
 20
70.86916645879357
 30
0.0
 10
45.69098778912963
 20
70.87041149210668
 30
0.0
 10
45.70205204357673
 20
70.871859754109
 30
0.0
 10
45.71396666024191
 20
70.87355909856376
 30
0.0
 10
45.72688705530339
 20
70.87556752760436
 30
0.0
 10
45.74090917501749
 20
70.87794515973182
 30
0.0
 10
45.75602925916378
 20
70.8807440597043
 30
0.0
 10
45.77223107545792
 20
70.88401837040007
 30
0.0
 10
45.78959892352885
 20
70.8878497068208
 30
0.0
 10
45.80832048714604
 20
70.89236110443227
 30
0.0
 10
45.82852389055342
 20
70.89768810075518
 30
0.0
 10
45.8502555991792
 20
70.90396874926828
 30
0.0
 10
45.87361143218171
 20
70.91138002615635
 30
0.0
 10
45.8987278652544
 20
70.92015318087345
 30
0.0
 10
45.92573519541062
 20
70.93057460757089
 30
0.0
 10
45.95473756006292
 20
70.94299018024468
 30
0.0
 10
45.98582544713918
 20
70.95783679898518
 30
0.0
 10
46.01911577043307
 20
70.97570732737897
 30
0.0
 10
46.05474053510425
 20
70.99741225474045
 30
0.0
 10
46.07862947261053
 20
71.014192931592
 30
0.0
 10
46.09088343772356
 20
71.0234760040166
 30
0.0
 11
45.62162302932356
 21
70.86413330551661
 31
0.0
 11
45.62533082432357
 21
70.8643494625166
 31
0.0
 11
45.63131330742357
 21
70.8647266537166
 31
0.0
 11
45.63785196492356
 21
70.86517913601659
 31
0.0
 11
45.64500545962355
 21
70.86572241971659
 31
0.0
 11
45.65283588412356
 21
70.8663751071166
 31
0.0
 11
45.66140230492357
 21
70.8671588432166
 31
0.0
 11
45.67065103802356
 21
70.8680871541166
 31
0.0
 11
45.68043094392357
 21
70.8691620876166
 31
0.0
 11
45.69075120742356
 21
70.8704011067166
 31
0.0
 11
45.70175977452357
 21
70.87184217261659
 31
0.0
 11
45.71361812062356
 21
70.87353361981659
 31
0.0
 11
45.72648739412357
 21
70.8755342835166
 31
0.0
 11
45.74051053112356
 21
70.87791234781659
 31
0.0
 11
45.75567103832357
 21
70.8807190956166
 31
0.0
 11
45.77183170472356
 21
70.88398558281659
 31
0.0
 11
45.78909655952357
 21
70.88779487081659
 31
0.0
 11
45.80774812052356
 21
70.89229035091659
 31
0.0
 11
45.82795966302356
 21
70.8976208623166
 31
0.0
 11
45.84965914052356
 21
70.90389412581659
 31
0.0
 11
45.87288279372356
 21
70.9112661796166
 31
0.0
 11
45.89794434792357
 21
70.9200241316166
 31
0.0
 11
45.92489352582356
 21
70.9304289581166
 31
0.0
 11
45.95374947012357
 21
70.94279039481659
 31
0.0
 11
45.98473271612357
 21
70.9576003176166
 31
0.0
 11
46.01784219112356
 21
70.9753929024166
 31
0.0
 11
46.05315839812357
 21
70.9969460730166
 31
0.0
 11
46.09088343772356
 21
71.0234760040166
 31
0.0
  0
LINE
  5
11CB
330
1F
100
AcDbEntity
  8
0
100
AcDbLine
 10
42.15279353542356
 20
68.28699959821659
 30
0.0
 11
42.90154013632355
 21
68.29252283501659
 31
0.0
  0
ARC
  5
11CC
330
1F
100
AcDbEntity
  8
0
100
AcDbCircle
 10
49.35122490801345
 20
76.61954075298322
 30
0.0
 40
0.2359278355849438
100
AcDbArc
 50
134.2859291197294
 51
156.0631595369372
  0
ENDSEC
  0
SECTION
  2
OBJECTS
  0
DICTIONARY
  5
C
330
0
100
AcDbDictionary
281
     1
  3
ACAD_2007HEADERVARS_RT
350
136F
  3
ACAD_COLOR
350
C9
  3
ACAD_GROUP
350
D
  3
ACAD_LAYOUT
350
1A
  3
ACAD_MATERIAL
350
C8
  3
ACAD_MLEADERSTYLE
350
2EC
  3
ACAD_MLINESTYLE
350
17
  3
ACAD_PLOTSETTINGS
350
19
  3
ACAD_PLOTSTYLENAME
350
E
  3
ACAD_SCALELIST
350
2CA
  3
ACAD_TABLESTYLE
350
123
  3
ACAD_VISUALSTYLE
350
296
  3
ACDB_RECOMPOSE_DATA
350
30D
  3
AcDbVariableDictionary
350
9E
  3
AcmDictionary
350
63
  3
AcmSystemVariableManager
350
137D
  3
AMG
350
49
  3
AMGSNAPSETTINGS
350
77C
  3
DWGPROPS
350
136E
  0
DICTIONARY
  5
B67
330
10
100
AcDbDictionary
280
     1
281
     1
  3
ADSK_XREC_LAYER_RECONCILED
360
B68
  0
DICTIONARY
  5
38D
330
38C
100
AcDbDictionary
280
     1
281
     1
  3
ADSK_XREC_LAYER_RECONCILED
360
B69
  0
DICTIONARY
  5
38F
330
38E
100
AcDbDictionary
280
     1
281
     1
  3
ADSK_XREC_LAYER_RECONCILED
360
B6A
  0
DICTIONARY
  5
391
330
390
100
AcDbDictionary
280
     1
281
     1
  3
ADSK_XREC_LAYER_RECONCILED
360
B6B
  0
DICTIONARY
  5
393
330
392
100
AcDbDictionary
280
     1
281
     1
  3
ADSK_XREC_LAYER_RECONCILED
360
B6C
  0
DICTIONARY
  5
99
330
1F
100
AcDbDictionary
280
     1
281
     1
  0
DICTIONARY
  5
136F
102
{ACAD_REACTORS
330
C
102
}
330
C
100
AcDbDictionary
281
     1
  3
DIMARCSYM
350
1370
  3
DIMLTEX1
350
1372
  3
DIMLTEX2
350
1373
  3
DIMLTYPE
350
1371
  0
DICTIONARY
  5
C9
102
{ACAD_REACTORS
330
C
102
}
330
C
100
AcDbDictionary
281
     1
  0
DICTIONARY
  5
D
102
{ACAD_REACTORS
330
C
102
}
330
C
100
AcDbDictionary
281
     1
  0
DICTIONARY
  5
1A
102
{ACAD_REACTORS
330
C
102
}
330
C
100
AcDbDictionary
281
     1
  3
Layout1
350
1E
  3
Layout2
350
26
  3
Model
350
22
  0
DICTIONARY
  5
C8
102
{ACAD_REACTORS
330
C
102
}
330
C
100
AcDbDictionary
281
     1
  3
ByBlock
350
294
  3
ByLayer
350
293
  3
Global
350
295
  0
DICTIONARY
  5
2EC
102
{ACAD_REACTORS
330
C
102
}
330
C
100
AcDbDictionary
281
     1
  3
Standard
350
2ED
  0
DICTIONARY
  5
17
102
{ACAD_REACTORS
330
C
102
}
330
C
100
AcDbDictionary
281
     1
  3
Standard
350
18
  0
DICTIONARY
  5
19
102
{ACAD_REACTORS
330
C
102
}
330
C
100
AcDbDictionary
281
     1
  0
ACDBDICTIONARYWDFLT
  5
E
102
{ACAD_REACTORS
330
C
102
}
330
C
100
AcDbDictionary
281
     1
  3
Normal
350
F
100
AcDbDictionaryWithDefault
340
F
  0
DICTIONARY
  5
2CA
102
{ACAD_REACTORS
330
C
102
}
330
C
100
AcDbDictionary
281
     1
  3
A0
350
2CB
  3
A1
350
2CC
  3
A2
350
2CD
  3
A3
350
2CE
  3
A4
350
2CF
  3
A5
350
2D0
  3
A6
350
2D1
  3
A7
350
2D2
  3
A8
350
2D3
  3
A9
350
2D4
  3
B0
350
2D5
  3
B1
350
2D6
  3
B2
350
2D7
  3
B3
350
2D8
  3
B4
350
2D9
  3
B5
350
2DA
  3
B6
350
2DB
  3
B7
350
2DC
  3
B8
350
2DD
  3
B9
350
2DE
  3
C0
350
2DF
  3
C1
350
2E0
  3
C2
350
2E1
  3
C3
350
2E2
  3
C4
350
2E3
  3
C5
350
2E4
  3
C6
350
2E5
  3
C7
350
2E6
  3
C8
350
2E7
  3
C9
350
2E8
  3
D0
350
2E9
  3
D1
350
2EA
  3
D2
350
2EB
  0
DICTIONARY
  5
123
102
{ACAD_REACTORS
330
C
102
}
330
C
100
AcDbDictionary
281
     1
  3
Standard
350
124
  0
DICTIONARY
  5
296
102
{ACAD_REACTORS
330
C
102
}
330
C
100
AcDbDictionary
281
     1
  3
2dWireframe
350
29C
  3
3D Hidden
350
29E
  3
3dWireframe
350
29D
  3
Basic
350
29B
  3
Brighten
350
2A2
  3
ColorChange
350
2A6
  3
Conceptual
350
29F
  3
Dim
350
2A1
  3
Facepattern
350
2A5
  3
Flat
350
297
  3
FlatWithEdges
350
298
  3
Gouraud
350
299
  3
GouraudWithEdges
350
29A
  3
Linepattern
350
2A4
  3
Realistic
350
2A0
  3
Thicken
350
2A3
  0
XRECORD
  5
30D
102
{ACAD_REACTORS
330
C
102
}
330
C
100
AcDbXrecord
280
     1
 90
        1
330
124
  0
DICTIONARY
  5
9E
102
{ACAD_REACTORS
330
C
102
}
330
C
100
AcDbDictionary
281
     1
  3
CANNOSCALE
350
310
  3
CMLEADERSTYLE
350
30E
  3
CTABLESTYLE
350
144
  3
DIMASSOC
350
A0
  3
INDEXCTL
350
9F
  3
LAYEREVAL
350
36B
  3
LAYERNOTIFY
350
36C
  3
LIGHTINGUNITS
350
311
  3
MSLTSCALE
350
30F
  3
SORTENTS
350
136C
  0
DICTIONARY
  5
63
102
{ACAD_REACTORS
330
C
102
}
330
C
100
AcDbDictionary
281
     1
  3
AcmStdDictionary
350
69
  3
AMDTSECTSYM_ARROWCOLOR
350
12C
  0
DICTIONARY
  5
49
102
{ACAD_REACTORS
330
C
102
}
330
C
100
AcDbDictionary
281
     1
  0
DICTIONARY
  5
77C
102
{ACAD_REACTORS
330
C
102
}
330
C
100
AcDbDictionary
281
     1
  0
XRECORD
  5
136E
102
{ACAD_REACTORS
330
C
102
}
330
C
100
AcDbXrecord
280
     1
  1
DWGPROPS COOKIE
  2

  3

  4

  6

  7

  8
ko59342
  9

300
AmdtFileType=84
301
=
302
=
303
=
304
=
305
=
306
=
307
=
308
=
309
=
 40
0.0069343287037037
 41
2455303.663696042
 42
2455303.670630012
  1

 90
        1
  0
XRECORD
  5
B68
102
{ACAD_REACTORS
330
B67
102
}
330
B67
100
AcDbXrecord
280
     1
290
     1
  0
XRECORD
  5
B69
102
{ACAD_REACTORS
330
38D
102
}
330
38D
100
AcDbXrecord
280
     1
290
     1
  0
XRECORD
  5
B6A
102
{ACAD_REACTORS
330
38F
102
}
330
38F
100
AcDbXrecord
280
     1
290
     1
  0
XRECORD
  5
B6B
102
{ACAD_REACTORS
330
391
102
}
330
391
100
AcDbXrecord
280
     1
290
     1
  0
XRECORD
  5
B6C
102
{ACAD_REACTORS
330
393
102
}
330
393
100
AcDbXrecord
280
     1
290
     1
  0
XRECORD
  5
1370
102
{ACAD_REACTORS
330
136F
102
}
330
136F
100
AcDbXrecord
280
     1
 70
     1
  0
XRECORD
  5
1372
102
{ACAD_REACTORS
330
136F
102
}
330
136F
100
AcDbXrecord
280
     1
340
14
  0
XRECORD
  5
1373
102
{ACAD_REACTORS
330
136F
102
}
330
136F
100
AcDbXrecord
280
     1
340
14
  0
XRECORD
  5
1371
102
{ACAD_REACTORS
330
136F
102
}
330
136F
100
AcDbXrecord
280
     1
340
14
  0
LAYOUT
  5
1E
102
{ACAD_XDICTIONARY
360
1374
102
}
102
{ACAD_REACTORS
330
1A
102
}
330
1A
100
AcDbPlotSettings
  1

  2

  4

  6

 40
0.0
 41
0.0
 42
0.0
 43
0.0
 44
0.0
 45
0.0
 46
0.0
 47
0.0
 48
0.0
 49
0.0
140
0.0
141
0.0
142
1.0
143
1.0
 70
   688
 72
     0
 73
     0
 74
     5
  7

 75
    16
147
1.0
148
0.0
149
0.0
100
AcDbLayout
  1
Layout1
 70
     1
 71
     1
 10
0.0
 20
0.0
 11
12.0
 21
9.0
 12
0.0
 22
0.0
 32
0.0
 14
1.000000000000000E+20
 24
1.000000000000000E+20
 34
1.000000000000000E+20
 15
-1.000000000000000E+20
 25
-1.000000000000000E+20
 35
-1.000000000000000E+20
146
0.0
 13
0.0
 23
0.0
 33
0.0
 16
1.0
 26
0.0
 36
0.0
 17
0.0
 27
1.0
 37
0.0
 76
     0
330
1B
  0
LAYOUT
  5
26
102
{ACAD_XDICTIONARY
360
1378
102
}
102
{ACAD_REACTORS
330
1A
102
}
330
1A
100
AcDbPlotSettings
  1

  2

  4

  6

 40
0.0
 41
0.0
 42
0.0
 43
0.0
 44
0.0
 45
0.0
 46
0.0
 47
0.0
 48
0.0
 49
0.0
140
0.0
141
0.0
142
1.0
143
1.0
 70
   688
 72
     0
 73
     0
 74
     5
  7

 75
    16
147
1.0
148
0.0
149
0.0
100
AcDbLayout
  1
Layout2
 70
     1
 71
     2
 10
0.0
 20
0.0
 11
12.0
 21
9.0
 12
0.0
 22
0.0
 32
0.0
 14
0.0
 24
0.0
 34
0.0
 15
0.0
 25
0.0
 35
0.0
146
0.0
 13
0.0
 23
0.0
 33
0.0
 16
1.0
 26
0.0
 36
0.0
 17
0.0
 27
1.0
 37
0.0
 76
     0
330
23
  0
LAYOUT
  5
22
102
{ACAD_XDICTIONARY
360
1376
102
}
102
{ACAD_REACTORS
330
1A
102
}
330
1A
100
AcDbPlotSettings
  1

  2

  4

  6

 40
0.0
 41
0.0
 42
0.0
 43
0.0
 44
0.0
 45
0.0
 46
0.0
 47
0.0
 48
0.0
 49
0.0
140
0.0
141
0.0
142
1.0
143
1.0
 70
  1712
 72
     0
 73
     0
 74
     0
  7

 75
     0
147
1.0
148
0.0
149
0.0
100
AcDbLayout
  1
Model
 70
     1
 71
     0
 10
0.0
 20
0.0
 11
12.0
 21
9.0
 12
0.0
 22
0.0
 32
0.0
 14
0.0
 24
0.0
 34
0.0
 15
0.0
 25
0.0
 35
0.0
146
0.0
 13
0.0
 23
0.0
 33
0.0
 16
1.0
 26
0.0
 36
0.0
 17
0.0
 27
1.0
 37
0.0
 76
     0
330
1F
331
291
  0
MATERIAL
  5
294
102
{ACAD_XDICTIONARY
360
1382
102
}
102
{ACAD_REACTORS
330
C8
102
}
330
C8
100
AcDbMaterial
  1
ByBlock
 73
     1
 78
     1
172
     1
176
     1
270
     1
274
     1
  0
MATERIAL
  5
293
102
{ACAD_XDICTIONARY
360
1380
102
}
102
{ACAD_REACTORS
330
C8
102
}
330
C8
100
AcDbMaterial
  1
ByLayer
 73
     1
 78
     1
172
     1
176
     1
270
     1
274
     1
  0
MATERIAL
  5
295
102
{ACAD_XDICTIONARY
360
1384
102
}
102
{ACAD_REACTORS
330
C8
102
}
330
C8
100
AcDbMaterial
  1
Global
 73
     1
 78
     1
172
     1
176
     1
270
     1
274
     1
  0
MLEADERSTYLE
  5
2ED
102
{ACAD_REACTORS
330
2EC
102
}
330
2EC
100
AcDbMLeaderStyle
170
     2
171
     1
172
     0
 90
        2
 40
0.0
 41
0.0
173
     1
 91
-1056964608
340
14
 92
       -2
290
     1
 42
0.09
291
     1
 43
0.36
  3
Standard
 44
0.18
300

342
11
174
     1
178
     6
175
     1
176
     0
 93
-1056964608
 45
0.18
292
     0
297
     0
 46
0.18
 94
-1056964608
 47
1.0
 49
1.0
140
1.0
293
     1
141
0.0
294
     1
177
     0
142
1.0
295
     0
296
     0
143
0.125
1001
ACAD_MLEADERVER
1070
     2
  0
MLINESTYLE
  5
18
102
{ACAD_REACTORS
330
17
102
}
330
17
100
AcDbMlineStyle
  2
STANDARD
 70
     0
  3

 62
   256
 51
90.0
 52
90.0
 71
     2
 49
0.5
 62
   256
  6
BYLAYER
 49
-0.5
 62
   256
  6
BYLAYER
  0
ACDBPLACEHOLDER
  5
F
102
{ACAD_REACTORS
330
E
102
}
330
E
  0
SCALE
  5
2CB
102
{ACAD_REACTORS
330
2CA
102
}
330
2CA
100
AcDbScale
 70
     0
300
1:1
140
1.0
141
1.0
290
     1
  0
SCALE
  5
2CC
102
{ACAD_REACTORS
330
2CA
102
}
330
2CA
100
AcDbScale
 70
     0
300
1:2
140
1.0
141
2.0
290
     0
  0
SCALE
  5
2CD
102
{ACAD_REACTORS
330
2CA
102
}
330
2CA
100
AcDbScale
 70
     0
300
1:4
140
1.0
141
4.0
290
     0
  0
SCALE
  5
2CE
102
{ACAD_REACTORS
330
2CA
102
}
330
2CA
100
AcDbScale
 70
     0
300
1:5
140
1.0
141
5.0
290
     0
  0
SCALE
  5
2CF
102
{ACAD_REACTORS
330
2CA
102
}
330
2CA
100
AcDbScale
 70
     0
300
1:8
140
1.0
141
8.0
290
     0
  0
SCALE
  5
2D0
102
{ACAD_REACTORS
330
2CA
102
}
330
2CA
100
AcDbScale
 70
     0
300
1:10
140
1.0
141
10.0
290
     0
  0
SCALE
  5
2D1
102
{ACAD_REACTORS
330
2CA
102
}
330
2CA
100
AcDbScale
 70
     0
300
1:16
140
1.0
141
16.0
290
     0
  0
SCALE
  5
2D2
102
{ACAD_REACTORS
330
2CA
102
}
330
2CA
100
AcDbScale
 70
     0
300
1:20
140
1.0
141
20.0
290
     0
  0
SCALE
  5
2D3
102
{ACAD_REACTORS
330
2CA
102
}
330
2CA
100
AcDbScale
 70
     0
300
1:30
140
1.0
141
30.0
290
     0
  0
SCALE
  5
2D4
102
{ACAD_REACTORS
330
2CA
102
}
330
2CA
100
AcDbScale
 70
     0
300
1:40
140
1.0
141
40.0
290
     0
  0
SCALE
  5
2D5
102
{ACAD_REACTORS
330
2CA
102
}
330
2CA
100
AcDbScale
 70
     0
300
1:50
140
1.0
141
50.0
290
     0
  0
SCALE
  5
2D6
102
{ACAD_REACTORS
330
2CA
102
}
330
2CA
100
AcDbScale
 70
     0
300
1:100
140
1.0
141
100.0
290
     0
  0
SCALE
  5
2D7
102
{ACAD_REACTORS
330
2CA
102
}
330
2CA
100
AcDbScale
 70
     0
300
2:1
140
2.0
141
1.0
290
     0
  0
SCALE
  5
2D8
102
{ACAD_REACTORS
330
2CA
102
}
330
2CA
100
AcDbScale
 70
     0
300
4:1
140
4.0
141
1.0
290
     0
  0
SCALE
  5
2D9
102
{ACAD_REACTORS
330
2CA
102
}
330
2CA
100
AcDbScale
 70
     0
300
8:1
140
8.0
141
1.0
290
     0
  0
SCALE
  5
2DA
102
{ACAD_REACTORS
330
2CA
102
}
330
2CA
100
AcDbScale
 70
     0
300
10:1
140
10.0
141
1.0
290
     0
  0
SCALE
  5
2DB
102
{ACAD_REACTORS
330
2CA
102
}
330
2CA
100
AcDbScale
 70
     0
300
100:1
140
100.0
141
1.0
290
     0
  0
SCALE
  5
2DC
102
{ACAD_REACTORS
330
2CA
102
}
330
2CA
100
AcDbScale
 70
     0
300
1/128" = 1'-0"
140
0.0078125
141
12.0
290
     0
  0
SCALE
  5
2DD
102
{ACAD_REACTORS
330
2CA
102
}
330
2CA
100
AcDbScale
 70
     0
300
1/64" = 1'-0"
140
0.015625
141
12.0
290
     0
  0
SCALE
  5
2DE
102
{ACAD_REACTORS
330
2CA
102
}
330
2CA
100
AcDbScale
 70
     0
300
1/32" = 1'-0"
140
0.03125
141
12.0
290
     0
  0
SCALE
  5
2DF
102
{ACAD_REACTORS
330
2CA
102
}
330
2CA
100
AcDbScale
 70
     0
300
1/16" = 1'-0"
140
0.0625
141
12.0
290
     0
  0
SCALE
  5
2E0
102
{ACAD_REACTORS
330
2CA
102
}
330
2CA
100
AcDbScale
 70
     0
300
3/32" = 1'-0"
140
0.09375
141
12.0
290
     0
  0
SCALE
  5
2E1
102
{ACAD_REACTORS
330
2CA
102
}
330
2CA
100
AcDbScale
 70
     0
300
1/8" = 1'-0"
140
0.125
141
12.0
290
     0
  0
SCALE
  5
2E2
102
{ACAD_REACTORS
330
2CA
102
}
330
2CA
100
AcDbScale
 70
     0
300
3/16" = 1'-0"
140
0.1875
141
12.0
290
     0
  0
SCALE
  5
2E3
102
{ACAD_REACTORS
330
2CA
102
}
330
2CA
100
AcDbScale
 70
     0
300
1/4" = 1'-0"
140
0.25
141
12.0
290
     0
  0
SCALE
  5
2E4
102
{ACAD_REACTORS
330
2CA
102
}
330
2CA
100
AcDbScale
 70
     0
300
3/8" = 1'-0"
140
0.375
141
12.0
290
     0
  0
SCALE
  5
2E5
102
{ACAD_REACTORS
330
2CA
102
}
330
2CA
100
AcDbScale
 70
     0
300
1/2" = 1'-0"
140
0.5
141
12.0
290
     0
  0
SCALE
  5
2E6
102
{ACAD_REACTORS
330
2CA
102
}
330
2CA
100
AcDbScale
 70
     0
300
3/4" = 1'-0"
140
0.75
141
12.0
290
     0
  0
SCALE
  5
2E7
102
{ACAD_REACTORS
330
2CA
102
}
330
2CA
100
AcDbScale
 70
     0
300
1" = 1'-0"
140
1.0
141
12.0
290
     0
  0
SCALE
  5
2E8
102
{ACAD_REACTORS
330
2CA
102
}
330
2CA
100
AcDbScale
 70
     0
300
1-1/2" = 1'-0"
140
1.5
141
12.0
290
     0
  0
SCALE
  5
2E9
102
{ACAD_REACTORS
330
2CA
102
}
330
2CA
100
AcDbScale
 70
     0
300
3" = 1'-0"
140
3.0
141
12.0
290
     0
  0
SCALE
  5
2EA
102
{ACAD_REACTORS
330
2CA
102
}
330
2CA
100
AcDbScale
 70
     0
300
6" = 1'-0"
140
6.0
141
12.0
290
     0
  0
SCALE
  5
2EB
102
{ACAD_REACTORS
330
2CA
102
}
330
2CA
100
AcDbScale
 70
     0
300
1'-0" = 1'-0"
140
12.0
141
12.0
290
     0
  0
TABLESTYLE
  5
124
102
{ACAD_XDICTIONARY
360
30B
102
}
102
{ACAD_REACTORS
330
123
102
}
330
123
100
AcDbTableStyle
  3
Standard
 70
     0
 71
     0
 40
0.06
 41
0.06
280
     0
281
     0
  7
STANDARD
140
0.18
170
     2
 62
     0
 63
     7
283
     0
274
    -2
284
     1
 64
     0
275
    -2
285
     1
 65
     0
276
    -2
286
     1
 66
     0
277
    -2
287
     1
 67
     0
278
    -2
288
     1
 68
     0
279
    -2
289
     1
 69
     0
  7
STANDARD
140
0.25
170
     5
 62
     0
 63
     7
283
     0
274
    -2
284
     1
 64
     0
275
    -2
285
     1
 65
     0
276
    -2
286
     1
 66
     0
277
    -2
287
     1
 67
     0
278
    -2
288
     1
 68
     0
279
    -2
289
     1
 69
     0
  7
STANDARD
140
0.18
170
     5
 62
     0
 63
     7
283
     0
274
    -2
284
     1
 64
     0
275
    -2
285
     1
 65
     0
276
    -2
286
     1
 66
     0
277
    -2
287
     1
 67
     0
278
    -2
288
     1
 68
     0
279
    -2
289
     1
 69
     0
  0
VISUALSTYLE
  5
29C
102
{ACAD_REACTORS
330
296
102
}
330
296
100
AcDbVisualStyle
  2
2dWireframe
 70
     4
 71
     0
 72
     2
 73
     0
 90
        0
 40
-0.6
 41
-30.0
 62
     5
 63
     7
 74
     1
 91
        4
 64
     7
 65
   257
 75
     1
175
     1
 42
1.0
 92
        0
 66
   257
 43
1.0
 76
     1
 77
     6
 78
     2
 67
     7
 79
     5
170
     0
171
     0
290
     0
174
     0
 93
        1
 44
0.0
173
     0
291
     0
 45
0.0
1001
ACAD
1000
AcDbSavedByObjectVersion
1070
     0
  0
VISUALSTYLE
  5
29E
102
{ACAD_REACTORS
330
296
102
}
330
296
100
AcDbVisualStyle
  2
3D Hidden
 70
     6
 71
     1
 72
     2
 73
     2
 90
        0
 40
-0.6
 41
-30.0
 62
     5
 63
     7
 74
     2
 91
        2
 64
     7
 65
   257
 75
     2
175
     1
 42
40.0
 92
        0
 66
   257
 43
1.0
 76
     1
 77
     6
 78
     2
 67
     7
 79
     3
170
     0
171
     0
290
     0
174
     0
 93
        1
 44
0.0
173
     0
291
     0
 45
0.0
1001
ACAD
1000
AcDbSavedByObjectVersion
1070
     0
  0
VISUALSTYLE
  5
29D
102
{ACAD_REACTORS
330
296
102
}
330
296
100
AcDbVisualStyle
  2
3dWireframe
 70
     5
 71
     0
 72
     2
 73
     0
 90
        0
 40
-0.6
 41
-30.0
 62
     5
 63
     7
 74
     1
 91
        4
 64
     7
 65
   257
 75
     1
175
     1
 42
1.0
 92
        0
 66
   257
 43
1.0
 76
     1
 77
     6
 78
     2
 67
     7
 79
     5
170
     0
171
     0
290
     0
174
     0
 93
        1
 44
0.0
173
     0
291
     0
 45
0.0
1001
ACAD
1000
AcDbSavedByObjectVersion
1070
     0
  0
VISUALSTYLE
  5
29B
102
{ACAD_REACTORS
330
296
102
}
330
296
100
AcDbVisualStyle
  2
Basic
 70
     7
 71
     1
 72
     0
 73
     1
 90
        0
 40
-0.6
 41
-30.0
 62
     5
 63
     7
 74
     0
 91
        4
 64
     7
 65
   257
 75
     1
175
     1
 42
1.0
 92
        8
 66
     7
 43
1.0
 76
     1
 77
     6
 78
     2
 67
     7
 79
     5
170
     0
171
     0
290
     0
174
     0
 93
        1
 44
0.0
173
     0
291
     1
 45
0.0
1001
ACAD
1000
AcDbSavedByObjectVersion
1070
     0
  0
VISUALSTYLE
  5
2A2
102
{ACAD_REACTORS
330
296
102
}
330
296
100
AcDbVisualStyle
  2
Brighten
 70
    12
 71
     2
 72
     2
 73
     0
 90
        0
 40
-0.6
 41
-30.0
 62
     5
 63
     7
 74
     1
 91
        4
 64
     7
 65
   257
 75
     1
175
     1
 42
1.0
 92
        8
 66
     7
 43
1.0
 76
     1
 77
     6
 78
     2
 67
     7
 79
     5
170
     0
171
     0
290
     0
174
     0
 93
        1
 44
50.0
173
     0
291
     1
 45
0.0
1001
ACAD
1000
AcDbSavedByObjectVersion
1070
     0
  0
VISUALSTYLE
  5
2A6
102
{ACAD_REACTORS
330
296
102
}
330
296
100
AcDbVisualStyle
  2
ColorChange
 70
    16
 71
     2
 72
     2
 73
     3
 90
        0
 40
-0.6
 41
-30.0
 62
     5
 63
     8
 74
     1
 91
        4
 64
     7
 65
   257
 75
     1
175
     1
 42
1.0
 92
        8
 66
     8
 43
1.0
 76
     1
 77
     6
 78
     2
 67
     7
 79
     5
170
     0
171
     0
290
     0
174
     0
 93
        1
 44
0.0
173
     0
291
     1
 45
0.0
1001
ACAD
1000
AcDbSavedByObjectVersion
1070
     0
  0
VISUALSTYLE
  5
29F
102
{ACAD_REACTORS
330
296
102
}
330
296
100
AcDbVisualStyle
  2
Conceptual
 70
     9
 71
     3
 72
     2
 73
     0
 90
        0
 40
-0.6
 41
-30.0
 62
     5
 63
     7
 74
     2
 91
        2
 64
     7
 65
   257
 75
     1
175
     1
 42
40.0
 92
        8
 66
     7
 43
1.0
 76
     1
 77
     6
 78
     2
 67
     7
 79
     3
170
     0
171
     0
290
     0
174
     0
 93
        1
 44
0.0
173
     0
291
     0
 45
0.0
1001
ACAD
1000
AcDbSavedByObjectVersion
1070
     0
  0
VISUALSTYLE
  5
2A1
102
{ACAD_REACTORS
330
296
102
}
330
296
100
AcDbVisualStyle
  2
Dim
 70
    11
 71
     2
 72
     2
 73
     0
 90
        0
 40
-0.6
 41
-30.0
 62
     5
 63
     7
 74
     1
 91
        4
 64
     7
 65
   257
 75
     1
175
     1
 42
1.0
 92
        8
 66
     7
 43
1.0
 76
     1
 77
     6
 78
     2
 67
     7
 79
     5
170
     0
171
     0
290
     0
174
     0
 93
        1
 44
-50.0
173
     0
291
     1
 45
0.0
1001
ACAD
1000
AcDbSavedByObjectVersion
1070
     0
  0
VISUALSTYLE
  5
2A5
102
{ACAD_REACTORS
330
296
102
}
330
296
100
AcDbVisualStyle
  2
Facepattern
 70
    15
 71
     2
 72
     2
 73
     0
 90
        0
 40
-0.6
 41
-30.0
 62
     5
 63
     7
 74
     1
 91
        4
 64
     7
 65
   257
 75
     1
175
     1
 42
1.0
 92
        8
 66
     7
 43
1.0
 76
     1
 77
     6
 78
     2
 67
     7
 79
     5
170
     0
171
     0
290
     0
174
     0
 93
        1
 44
0.0
173
     0
291
     1
 45
0.0
1001
ACAD
1000
AcDbSavedByObjectVersion
1070
     0
  0
VISUALSTYLE
  5
297
102
{ACAD_REACTORS
330
296
102
}
330
296
100
AcDbVisualStyle
  2
Flat
 70
     0
 71
     2
 72
     1
 73
     1
 90
        2
 40
-0.6
 41
30.0
 62
     5
 63
     7
 74
     0
 91
        4
 64
     7
 65
   257
 75
     1
175
     1
 42
1.0
 92
        8
 66
     7
 43
1.0
 76
     1
 77
     6
 78
     2
 67
     7
 79
     5
170
     0
171
     0
290
     0
174
     0
 93
       13
 44
0.0
173
     0
291
     1
 45
0.0
1001
ACAD
1000
AcDbSavedByObjectVersion
1070
     0
  0
VISUALSTYLE
  5
298
102
{ACAD_REACTORS
330
296
102
}
330
296
100
AcDbVisualStyle
  2
FlatWithEdges
 70
     1
 71
     2
 72
     1
 73
     1
 90
        2
 40
-0.6
 41
30.0
 62
     5
 63
     7
 74
     1
 91
        4
 64
     7
 65
   257
 75
     1
175
     1
 42
1.0
 92
        0
 66
   257
 43
1.0
 76
     1
 77
     6
 78
     2
 67
     7
 79
     5
170
     0
171
     0
290
     0
174
     0
 93
       13
 44
0.0
173
     0
291
     1
 45
0.0
1001
ACAD
1000
AcDbSavedByObjectVersion
1070
     0
  0
VISUALSTYLE
  5
299
102
{ACAD_REACTORS
330
296
102
}
330
296
100
AcDbVisualStyle
  2
Gouraud
 70
     2
 71
     2
 72
     2
 73
     1
 90
        2
 40
-0.6
 41
30.0
 62
     5
 63
     7
 74
     0
 91
        4
 64
     7
 65
   257
 75
     1
175
     1
 42
1.0
 92
        0
 66
     7
 43
1.0
 76
     1
 77
     6
 78
     2
 67
     7
 79
     5
170
     0
171
     0
290
     0
174
     0
 93
       13
 44
0.0
173
     0
291
     1
 45
0.0
1001
ACAD
1000
AcDbSavedByObjectVersion
1070
     0
  0
VISUALSTYLE
  5
29A
102
{ACAD_REACTORS
330
296
102
}
330
296
100
AcDbVisualStyle
  2
GouraudWithEdges
 70
     3
 71
     2
 72
     2
 73
     1
 90
        2
 40
-0.6
 41
30.0
 62
     5
 63
     7
 74
     1
 91
        4
 64
     7
 65
   257
 75
     1
175
     1
 42
1.0
 92
        0
 66
   257
 43
1.0
 76
     1
 77
     6
 78
     2
 67
     7
 79
     5
170
     0
171
     0
290
     0
174
     0
 93
       13
 44
0.0
173
     0
291
     1
 45
0.0
1001
ACAD
1000
AcDbSavedByObjectVersion
1070
     0
  0
VISUALSTYLE
  5
2A4
102
{ACAD_REACTORS
330
296
102
}
330
296
100
AcDbVisualStyle
  2
Linepattern
 70
    14
 71
     2
 72
     2
 73
     0
 90
        0
 40
-0.6
 41
-30.0
 62
     5
 63
     7
 74
     1
 91
        4
 64
     7
 65
   257
 75
     7
175
     7
 42
1.0
 92
        8
 66
     7
 43
1.0
 76
     1
 77
     6
 78
     2
 67
     7
 79
     5
170
     0
171
     0
290
     0
174
     0
 93
        1
 44
0.0
173
     0
291
     1
 45
0.0
1001
ACAD
1000
AcDbSavedByObjectVersion
1070
     0
  0
VISUALSTYLE
  5
2A0
102
{ACAD_REACTORS
330
296
102
}
330
296
100
AcDbVisualStyle
  2
Realistic
 70
     8
 71
     2
 72
     2
 73
     0
 90
        0
 40
-0.6
 41
-30.0
 62
     5
 63
     7
 74
     1
 91
        0
 64
     7
 65
   257
 75
     1
175
     1
 42
1.0
 92
        8
 66
     8
 43
1.0
 76
     1
 77
     6
 78
     2
 67
     7
 79
     5
170
     0
171
     0
290
     0
174
     0
 93
       13
 44
0.0
173
     0
291
     0
 45
0.0
1001
ACAD
1000
AcDbSavedByObjectVersion
1070
     0
  0
VISUALSTYLE
  5
2A3
102
{ACAD_REACTORS
330
296
102
}
330
296
100
AcDbVisualStyle
  2
Thicken
 70
    13
 71
     2
 72
     2
 73
     0
 90
        0
 40
-0.6
 41
-30.0
 62
     5
 63
     7
 74
     1
 91
        4
 64
     7
 65
   257
 75
     1
175
     1
 42
1.0
 92
       12
 66
     7
 43
1.0
 76
     1
 77
     6
 78
     2
 67
     7
 79
     5
170
     0
171
     0
290
     0
174
     0
 93
        1
 44
0.0
173
     0
291
     1
 45
0.0
1001
ACAD
1000
AcDbSavedByObjectVersion
1070
     0
  0
DICTIONARYVAR
  5
310
102
{ACAD_REACTORS
330
9E
102
}
330
9E
100
DictionaryVariables
280
     0
  1
1:1
  0
DICTIONARYVAR
  5
30E
102
{ACAD_REACTORS
330
9E
102
}
330
9E
100
DictionaryVariables
280
     0
  1
STANDARD
  0
DICTIONARYVAR
  5
144
102
{ACAD_REACTORS
330
9E
102
}
330
9E
100
DictionaryVariables
280
     0
  1
STANDARD
  0
DICTIONARYVAR
  5
A0
102
{ACAD_REACTORS
330
9E
102
}
330
9E
100
DictionaryVariables
280
     0
  1
2
  0
DICTIONARYVAR
  5
9F
102
{ACAD_REACTORS
330
9E
102
}
330
9E
100
DictionaryVariables
280
     0
  1
0
  0
DICTIONARYVAR
  5
36B
102
{ACAD_REACTORS
330
9E
102
}
330
9E
100
DictionaryVariables
280
     0
  1
1
  0
DICTIONARYVAR
  5
36C
102
{ACAD_REACTORS
330
9E
102
}
330
9E
100
DictionaryVariables
280
     0
  1
15
  0
DICTIONARYVAR
  5
311
102
{ACAD_REACTORS
330
9E
102
}
330
9E
100
DictionaryVariables
280
     0
  1
0
  0
DICTIONARYVAR
  5
30F
102
{ACAD_REACTORS
330
9E
102
}
330
9E
100
DictionaryVariables
280
     0
  1
0
  0
DICTIONARYVAR
  5
136C
102
{ACAD_REACTORS
330
9E
102
}
330
9E
100
DictionaryVariables
280
     0
  1
127
  0
DICTIONARY
  5
69
102
{ACAD_REACTORS
330
63
102
}
330
63
100
AcDbDictionary
281
     1
  0
XRECORD
  5
12C
102
{ACAD_REACTORS
330
63
102
}
330
63
100
AcDbXrecord
280
     1
 90
-1023410169
  0
DICTIONARY
  5
1374
330
1E
100
AcDbDictionary
280
     1
281
     1
  3
ACAD_XREC_ROUNDTRIP
360
1375
  0
DICTIONARY
  5
1378
330
26
100
AcDbDictionary
280
     1
281
     1
  3
ACAD_XREC_ROUNDTRIP
360
1379
  0
DICTIONARY
  5
1376
330
22
100
AcDbDictionary
280
     1
281
     1
  3
ACAD_XREC_ROUNDTRIP
360
1377
  0
DICTIONARY
  5
1382
330
294
100
AcDbDictionary
280
     1
281
     1
  3
ACAD_XREC_ROUNDTRIP
360
1383
  0
DICTIONARY
  5
1380
330
293
100
AcDbDictionary
280
     1
281
     1
  3
ACAD_XREC_ROUNDTRIP
360
1381
  0
DICTIONARY
  5
1384
330
295
100
AcDbDictionary
280
     1
281
     1
  3
ACAD_XREC_ROUNDTRIP
360
1385
  0
DICTIONARY
  5
30B
330
124
100
AcDbDictionary
280
     1
281
     1
  3
ACAD_ROUNDTRIP_2008_TABLESTYLE_CELLSTYLEMAP
360
136D
  3
ACAD_XREC_ROUNDTRIP
360
137F
  0
XRECORD
  5
1375
102
{ACAD_REACTORS
330
1374
102
}
330
1374
100
AcDbXrecord
280
     1
102
SHADEPLOT
 70
     0
102
SHADEPLOTRESLEVEL
 70
     2
102
SHADEPLOTCUSTOMDPI
 70
   300
  0
XRECORD
  5
1379
102
{ACAD_REACTORS
330
1378
102
}
330
1378
100
AcDbXrecord
280
     1
102
SHADEPLOT
 70
     0
102
SHADEPLOTRESLEVEL
 70
     2
102
SHADEPLOTCUSTOMDPI
 70
   300
  0
XRECORD
  5
1377
102
{ACAD_REACTORS
330
1376
102
}
330
1376
100
AcDbXrecord
280
     1
102
SHADEPLOT
 70
     0
102
SHADEPLOTRESLEVEL
 70
     2
102
SHADEPLOTCUSTOMDPI
 70
   300
  0
XRECORD
  5
1383
102
{ACAD_REACTORS
330
1382
102
}
330
1382
100
AcDbXrecord
280
     1
102
MATERIAL
148
0.0
149
0.0
149
0.0
 93
        0
 94
       63
282
     0
 72
     1
 77
     1
171
     1
175
     1
179
     1
273
     0
  0
XRECORD
  5
1381
102
{ACAD_REACTORS
330
1380
102
}
330
1380
100
AcDbXrecord
280
     1
102
MATERIAL
148
0.0
149
0.0
149
0.0
 93
        0
 94
       63
282
     0
 72
     1
 77
     1
171
     1
175
     1
179
     1
273
     0
  0
XRECORD
  5
1385
102
{ACAD_REACTORS
330
1384
102
}
330
1384
100
AcDbXrecord
280
     1
102
MATERIAL
148
0.0
149
0.0
149
0.0
 93
        0
 94
       63
282
     0
 72
     1
 77
     1
171
     1
175
     1
179
     1
273
     0
  0
CELLSTYLEMAP
  5
136D
102
{ACAD_REACTORS
330
30B
102
}
330
30B
100
AcDbCellStyleMap
 90
        3
300
CELLSTYLE
  1
TABLEFORMAT_BEGIN
 90
        5
170
     1
 91
        0
 92
    32768
 62
   257
 93
        1
300
CONTENTFORMAT
  1
CONTENTFORMAT_BEGIN
 90
        0
 91
        0
 92
      512
 93
        0
300

 40
0.0
140
1.0
 94
        5
 62
     0
340
11
144
0.25
309
CONTENTFORMAT_END
171
     0
 94
        6
 95
        1
302
GRIDFORMAT
  1
GRIDFORMAT_BEGIN
 90
        0
 91
        1
 62
     0
 92
       -2
340
0
 93
        0
 40
0.045
309
GRIDFORMAT_END
 95
        2
302
GRIDFORMAT
  1
GRIDFORMAT_BEGIN
 90
        0
 91
        1
 62
     0
 92
       -2
340
0
 93
        0
 40
0.045
309
GRIDFORMAT_END
 95
        4
302
GRIDFORMAT
  1
GRIDFORMAT_BEGIN
 90
        0
 91
        1
 62
     0
 92
       -2
340
0
 93
        0
 40
0.045
309
GRIDFORMAT_END
 95
        8
302
GRIDFORMAT
  1
GRIDFORMAT_BEGIN
 90
        0
 91
        1
 62
     0
 92
       -2
340
0
 93
        0
 40
0.045
309
GRIDFORMAT_END
 95
       16
302
GRIDFORMAT
  1
GRIDFORMAT_BEGIN
 90
        0
 91
        1
 62
     0
 92
       -2
340
0
 93
        0
 40
0.045
309
GRIDFORMAT_END
 95
       32
302
GRIDFORMAT
  1
GRIDFORMAT_BEGIN
 90
        0
 91
        1
 62
     0
 92
       -2
340
0
 93
        0
 40
0.045
309
GRIDFORMAT_END
309
TABLEFORMAT_END
  1
CELLSTYLE_BEGIN
 90
        1
 91
        1
300
_TITLE
309
CELLSTYLE_END
300
CELLSTYLE
  1
TABLEFORMAT_BEGIN
 90
        5
170
     1
 91
        0
 92
        0
 62
   257
 93
        1
300
CONTENTFORMAT
  1
CONTENTFORMAT_BEGIN
 90
        0
 91
        0
 92
      512
 93
        0
300

 40
0.0
140
1.0
 94
        5
 62
     0
340
11
144
0.18
309
CONTENTFORMAT_END
171
     0
 94
        6
 95
        1
302
GRIDFORMAT
  1
GRIDFORMAT_BEGIN
 90
        0
 91
        1
 62
     0
 92
       -2
340
0
 93
        0
 40
0.045
309
GRIDFORMAT_END
 95
        2
302
GRIDFORMAT
  1
GRIDFORMAT_BEGIN
 90
        0
 91
        1
 62
     0
 92
       -2
340
0
 93
        0
 40
0.045
309
GRIDFORMAT_END
 95
        4
302
GRIDFORMAT
  1
GRIDFORMAT_BEGIN
 90
        0
 91
        1
 62
     0
 92
       -2
340
0
 93
        0
 40
0.045
309
GRIDFORMAT_END
 95
        8
302
GRIDFORMAT
  1
GRIDFORMAT_BEGIN
 90
        0
 91
        1
 62
     0
 92
       -2
340
0
 93
        0
 40
0.045
309
GRIDFORMAT_END
 95
       16
302
GRIDFORMAT
  1
GRIDFORMAT_BEGIN
 90
        0
 91
        1
 62
     0
 92
       -2
340
0
 93
        0
 40
0.045
309
GRIDFORMAT_END
 95
       32
302
GRIDFORMAT
  1
GRIDFORMAT_BEGIN
 90
        0
 91
        1
 62
     0
 92
       -2
340
0
 93
        0
 40
0.045
309
GRIDFORMAT_END
309
TABLEFORMAT_END
  1
CELLSTYLE_BEGIN
 90
        2
 91
        1
300
_HEADER
309
CELLSTYLE_END
300
CELLSTYLE
  1
TABLEFORMAT_BEGIN
 90
        5
170
     1
 91
        0
 92
        0
 62
   257
 93
        1
300
CONTENTFORMAT
  1
CONTENTFORMAT_BEGIN
 90
        0
 91
        0
 92
      512
 93
        0
300

 40
0.0
140
1.0
 94
        2
 62
     0
340
11
144
0.18
309
CONTENTFORMAT_END
171
     0
 94
        6
 95
        1
302
GRIDFORMAT
  1
GRIDFORMAT_BEGIN
 90
        0
 91
        1
 62
     0
 92
       -2
340
0
 93
        0
 40
0.045
309
GRIDFORMAT_END
 95
        2
302
GRIDFORMAT
  1
GRIDFORMAT_BEGIN
 90
        0
 91
        1
 62
     0
 92
       -2
340
0
 93
        0
 40
0.045
309
GRIDFORMAT_END
 95
        4
302
GRIDFORMAT
  1
GRIDFORMAT_BEGIN
 90
        0
 91
        1
 62
     0
 92
       -2
340
0
 93
        0
 40
0.045
309
GRIDFORMAT_END
 95
        8
302
GRIDFORMAT
  1
GRIDFORMAT_BEGIN
 90
        0
 91
        1
 62
     0
 92
       -2
340
0
 93
        0
 40
0.045
309
GRIDFORMAT_END
 95
       16
302
GRIDFORMAT
  1
GRIDFORMAT_BEGIN
 90
        0
 91
        1
 62
     0
 92
       -2
340
0
 93
        0
 40
0.045
309
GRIDFORMAT_END
 95
       32
302
GRIDFORMAT
  1
GRIDFORMAT_BEGIN
 90
        0
 91
        1
 62
     0
 92
       -2
340
0
 93
        0
 40
0.045
309
GRIDFORMAT_END
309
TABLEFORMAT_END
  1
CELLSTYLE_BEGIN
 90
        3
 91
        2
300
_DATA
309
CELLSTYLE_END
  0
XRECORD
  5
137F
102
{ACAD_REACTORS
330
30B
102
}
330
30B
100
AcDbXrecord
280
     1
102
ACAD_ROUNDTRIP_PRE2007_TABLESTYLE
 90
      512
 91
        0
  1

 92
      512
 93
        0
  2

 94
      512
 95
        0
  3

  0
ENDSEC
  0
EOF
