  0
SECTION
  2
HEADER
  9
$ACADVER
  1
AC1015
  9
$ACADMAINTVER
 70
    20
  9
$DWGCODEPAGE
  3
ANSI_936
  9
$INSBASE
 10
0.0
 20
0.0
 30
0.0
  9
$EXTMIN
 10
36.40169219798738
 20
17.63744132085322
 30
0.0
  9
$EXTMAX
 10
93.10661346322495
 20
85.44251803984392
 30
0.0
  9
$LIMMIN
 10
0.0
 20
0.0
  9
$LIMMAX
 10
17.0
 20
11.0
  9
$ORTHOMODE
 70
     0
  9
$REGENMODE
 70
     1
  9
$FILLMODE
 70
     1
  9
$QTEXTMODE
 70
     0
  9
$MIRRTEXT
 70
     1
  9
$LTSCALE
 40
1.0
  9
$ATTMODE
 70
     1
  9
$TEXTSIZE
 40
0.2
  9
$TRACEWID
 40
0.05
  9
$TEXTSTYLE
  7
STANDARD
  9
$CLAYER
  8
0
  9
$CELTYPE
  6
ByLayer
  9
$CECOLOR
 62
   256
  9
$CELTSCALE
 40
1.0
  9
$DISPSILH
 70
     0
  9
$DIMSCALE
 40
1.0
  9
$DIMASZ
 40
0.12
  9
$DIMEXO
 40
0.05
  9
$DIMDLI
 40
0.5
  9
$DIMRND
 40
0.0
  9
$DIMDLE
 40
0.0
  9
$DIMEXE
 40
0.1
  9
$DIMTP
 40
0.1
  9
$DIMTM
 40
0.1
  9
$DIMTXT
 40
0.12
  9
$DIMCEN
 40
0.0
  9
$DIMTSZ
 40
0.0
  9
$DIMTOL
 70
     0
  9
$DIMLIM
 70
     0
  9
$DIMTIH
 70
     1
  9
$DIMTOH
 70
     1
  9
$DIMSE1
 70
     0
  9
$DIMSE2
 70
     0
  9
$DIMTAD
 70
     0
  9
$DIMZIN
 70
     7
  9
$DIMBLK
  1

  9
$DIMASO
 70
     1
  9
$DIMSHO
 70
     1
  9
$DIMPOST
  1

  9
$DIMAPOST
  1
mm
  9
$DIMALT
 70
     0
  9
$DIMALTD
 70
     2
  9
$DIMALTF
 40
25.4
  9
$DIMLFAC
 40
1.0
  9
$DIMTOFL
 70
     0
  9
$DIMTVP
 40
0.0
  9
$DIMTIX
 70
     0
  9
$DIMSOXD
 70
     0
  9
$DIMSAH
 70
     0
  9
$DIMBLK1
  1

  9
$DIMBLK2
  1

  9
$DIMSTYLE
  2
AM_ANSI
  9
$DIMCLRD
 70
   256
  9
$DIMCLRE
 70
   256
  9
$DIMCLRT
 70
   140
  9
$DIMTFAC
 40
0.71
  9
$DIMGAP
 40
0.06
  9
$DIMJUST
 70
     0
  9
$DIMSD1
 70
     0
  9
$DIMSD2
 70
     0
  9
$DIMTOLJ
 70
     1
  9
$DIMTZIN
 70
     7
  9
$DIMALTZ
 70
     0
  9
$DIMALTTZ
 70
     0
  9
$DIMUPT
 70
     0
  9
$DIMDEC
 70
     4
  9
$DIMTDEC
 70
     4
  9
$DIMALTU
 70
     2
  9
$DIMALTTD
 70
     4
  9
$DIMTXSTY
  7
STANDARD
  9
$DIMAUNIT
 70
     0
  9
$DIMADEC
 70
     0
  9
$DIMALTRND
 40
0.0
  9
$DIMAZIN
 70
     2
  9
$DIMDSEP
 70
    46
  9
$DIMATFIT
 70
     3
  9
$DIMFRAC
 70
     0
  9
$DIMLDRBLK
  1

  9
$DIMLUNIT
 70
     2
  9
$DIMLWD
 70
    -1
  9
$DIMLWE
 70
    -1
  9
$DIMTMOVE
 70
     0
  9
$LUNITS
 70
     2
  9
$LUPREC
 70
     4
  9
$SKETCHINC
 40
0.1
  9
$FILLETRAD
 40
0.125
  9
$AUNITS
 70
     0
  9
$AUPREC
 70
     0
  9
$MENU
  1
.
  9
$ELEVATION
 40
0.0
  9
$PELEVATION
 40
0.0
  9
$THICKNESS
 40
0.0
  9
$LIMCHECK
 70
     0
  9
$CHAMFERA
 40
0.125
  9
$CHAMFERB
 40
0.125
  9
$CHAMFERC
 40
1.0
  9
$CHAMFERD
 40
0.0
  9
$SKPOLY
 70
     0
  9
$TDCREATE
 40
2455303.663696042
  9
$TDUCREATE
 40
2455303.330362708
  9
$TDUPDATE
 40
2455303.664342338
  9
$TDUUPDATE
 40
2455303.331009005
  9
$TDINDWG
 40
0.0006471875
  9
$TDUSRTIMER
 40
0.0006470139
  9
$USRTIMER
 70
     1
  9
$ANGBASE
 50
0.0
  9
$ANGDIR
 70
     0
  9
$PDMODE
 70
     0
  9
$PDSIZE
 40
0.0
  9
$PLINEWID
 40
0.0
  9
$SPLFRAME
 70
     0
  9
$SPLINETYPE
 70
     6
  9
$SPLINESEGS
 70
     8
  9
$HANDSEED
  5
B9D
  9
$SURFTAB1
 70
     6
  9
$SURFTAB2
 70
     6
  9
$SURFTYPE
 70
     6
  9
$SURFU
 70
     6
  9
$SURFV
 70
     6
  9
$UCSBASE
  2

  9
$UCSNAME
  2

  9
$UCSORG
 10
0.0
 20
0.0
 30
0.0
  9
$UCSXDIR
 10
1.0
 20
0.0
 30
0.0
  9
$UCSYDIR
 10
0.0
 20
1.0
 30
0.0
  9
$UCSORTHOREF
  2

  9
$UCSORTHOVIEW
 70
     0
  9
$UCSORGTOP
 10
0.0
 20
0.0
 30
0.0
  9
$UCSORGBOTTOM
 10
0.0
 20
0.0
 30
0.0
  9
$UCSORGLEFT
 10
0.0
 20
0.0
 30
0.0
  9
$UCSORGRIGHT
 10
0.0
 20
0.0
 30
0.0
  9
$UCSORGFRONT
 10
0.0
 20
0.0
 30
0.0
  9
$UCSORGBACK
 10
0.0
 20
0.0
 30
0.0
  9
$PUCSBASE
  2

  9
$PUCSNAME
  2

  9
$PUCSORG
 10
0.0
 20
0.0
 30
0.0
  9
$PUCSXDIR
 10
1.0
 20
0.0
 30
0.0
  9
$PUCSYDIR
 10
0.0
 20
1.0
 30
0.0
  9
$PUCSORTHOREF
  2

  9
$PUCSORTHOVIEW
 70
     0
  9
$PUCSORGTOP
 10
0.0
 20
0.0
 30
0.0
  9
$PUCSORGBOTTOM
 10
0.0
 20
0.0
 30
0.0
  9
$PUCSORGLEFT
 10
0.0
 20
0.0
 30
0.0
  9
$PUCSORGRIGHT
 10
0.0
 20
0.0
 30
0.0
  9
$PUCSORGFRONT
 10
0.0
 20
0.0
 30
0.0
  9
$PUCSORGBACK
 10
0.0
 20
0.0
 30
0.0
  9
$USERI1
 70
     0
  9
$USERI2
 70
     0
  9
$USERI3
 70
     0
  9
$USERI4
 70
     0
  9
$USERI5
 70
     0
  9
$USERR1
 40
0.0
  9
$USERR2
 40
0.0
  9
$USERR3
 40
0.0
  9
$USERR4
 40
0.0
  9
$USERR5
 40
0.0
  9
$WORLDVIEW
 70
     1
  9
$SHADEDGE
 70
     3
  9
$SHADEDIF
 70
    70
  9
$TILEMODE
 70
     1
  9
$MAXACTVP
 70
    64
  9
$PINSBASE
 10
0.0
 20
0.0
 30
0.0
  9
$PLIMCHECK
 70
     0
  9
$PEXTMIN
 10
1.000000000000000E+20
 20
1.000000000000000E+20
 30
1.000000000000000E+20
  9
$PEXTMAX
 10
-1.000000000000000E+20
 20
-1.000000000000000E+20
 30
-1.000000000000000E+20
  9
$PLIMMIN
 10
0.0
 20
0.0
  9
$PLIMMAX
 10
12.0
 20
9.0
  9
$UNITMODE
 70
     0
  9
$VISRETAIN
 70
     1
  9
$PLINEGEN
 70
     0
  9
$PSLTSCALE
 70
     1
  9
$TREEDEPTH
 70
  3020
  9
$CMLSTYLE
  2
Standard
  9
$CMLJUST
 70
     0
  9
$CMLSCALE
 40
1.0
  9
$PROXYGRAPHICS
 70
     1
  9
$MEASUREMENT
 70
     0
  9
$CELWEIGHT
370
    -1
  9
$ENDCAPS
280
     0
  9
$JOINSTYLE
280
     0
  9
$LWDISPLAY
290
     0
  9
$INSUNITS
 70
     1
  9
$HYPERLINKBASE
  1

  9
$STYLESHEET
  1

  9
$XEDIT
290
     1
  9
$CEPSNTYPE
380
     0
  9
$PSTYLEMODE
290
     1
  9
$FINGERPRINTGUID
  2
{C143988C-6A68-40A1-8557-6688193556E0}
  9
$VERSIONGUID
  2
{0837C8F0-F836-4331-8183-141357A0D360}
  9
$EXTNAMES
290
     1
  9
$PSVPSCALE
 40
0.0
  9
$OLESTARTUP
290
     0
  0
ENDSEC
  0
SECTION
  2
CLASSES
  0
CLASS
  1
ACDBDICTIONARYWDFLT
  2
AcDbDictionaryWithDefault
  3
ObjectDBX Classes
 90
        0
280
     0
281
     0
  0
CLASS
  1
ACDBPLACEHOLDER
  2
AcDbPlaceHolder
  3
ObjectDBX Classes
 90
        0
280
     0
281
     0
  0
CLASS
  1
LAYOUT
  2
AcDbLayout
  3
ObjectDBX Classes
 90
        0
280
     0
281
     0
  0
CLASS
  1
ACME_DOCUMENT
  2
AcMeDbDoc
  3
AcMeServices
 90
     1024
280
     0
281
     0
  0
CLASS
  1
AMGSETTINGSOBJ
  2
AmgSettingsObj
  3
"AcadM|Product Description: AutoCAD Mechanical|Company: Autodesk, Inc."
 90
     1024
280
     0
281
     0
  0
CLASS
  1
ACMESCOPE
  2
AcMeScope
  3
AcMeServices
 90
     1024
280
     0
281
     0
  0
CLASS
  1
ACMECOMMANDHISTORY
  2
AcMeCommandHistory
  3
AcMeServices
 90
     1024
280
     0
281
     0
  0
CLASS
  1
ACIMSYSVARMAN
  2
AcImSysVarManager
  3
AcMeServices
 90
     1024
280
     0
281
     0
  0
CLASS
  1
ACIMREALSYSVAR
  2
AcImRealSysVar
  3
AcMeServices
 90
     1024
280
     0
281
     0
  0
CLASS
  1
ACIMINTSYSVAR
  2
AcImIntSysVar
  3
AcMeServices
 90
     1024
280
     0
281
     0
  0
CLASS
  1
ACMEDRAWINGMAN
  2
AcMeDrawingMan
  3
AcMeServices
 90
     1024
280
     0
281
     0
  0
CLASS
  1
ACMEVIEW
  2
AcMeView
  3
AcMeServices
 90
     1024
280
     0
281
     0
  0
CLASS
  1
ACDBENTITYCACHE
  2
AcMeEntityCache
  3
AcMeServices
 90
     1024
280
     0
281
     0
  0
CLASS
  1
GSMANAGER
  2
AcMeGSManager
  3
AcMeServices
 90
     1024
280
     0
281
     0
  0
CLASS
  1
AMDTINTERNALREACTOR
  2
AmdtInternalReactor
  3
AcMeServices
 90
     1024
280
     0
281
     0
  0
CLASS
  1
ACMESTATEMGR
  2
AcMeStateMgr
  3
AcMeServices
 90
     1024
280
     0
281
     0
  0
CLASS
  1
ACGREFMASTER
  2
AcGrefMaster
  3
AcAttribServices
 90
     1024
280
     0
281
     0
  0
CLASS
  1
ACME_DATABASE
  2
AcMeDbDatabase
  3
AcMeServices
 90
     1024
280
     0
281
     0
  0
CLASS
  1
ACRFINSADJUSTERMGR
  2
AcRfInsAdjusterMgr
  3
AcMeServices
 90
     1024
280
     0
281
     0
  0
CLASS
  1
ACGREFACADMASTER
  2
AcGrefacadMaster
  3
AcGrefServices
 90
     1024
280
     0
281
     0
  0
CLASS
  1
AMIMASTER
  2
AmiMaster
  3
AmiServices
 90
     1024
280
     0
281
     0
  0
CLASS
  1
ACMDATADICTIONARY
  2
AcmDataDictionary
  3
"AcmSymBB|Product Description: AutoCAD Mechanical|Company: Autodesk, Inc."
 90
     1024
280
     0
281
     0
  0
CLASS
  1
ACMDATAENTRYBLOCK
  2
AcmDataEntryBlock
  3
AcmSymBB|Product Description: AutoCAD Mechanical|Company: Autodesk, Inc.
 90
     1024
280
     0
281
     0
  0
CLASS
  1
ACIMSTRSYSVAR
  2
AcImStrSysVar
  3
AcMeServices
 90
     1024
280
     0
281
     0
  0
CLASS
  1
ACMSTANDARDANSI
  2
AcmStandardANSI
  3
"Amdt_StdImp|Product Description: AutoCAD Mechanical|Company: Autodesk, Inc."
 90
     1024
280
     0
281
     0
  0
CLASS
  1
AMGOBJPROPCFG
  2
AmgObjPropCfg
  3
"AmgLay|Product Description: AutoCAD Mechanical|Company: Autodesk, Inc."
 90
     1025
280
     0
281
     0
  0
CLASS
  1
ACMSURFSTANDARDANSI
  2
AcmSurfTextStdANSI
  3
"Amdt_StdImp|Product Description: AutoCAD Mechanical|Company: Autodesk, Inc."
 90
     1024
280
     0
281
     0
  0
CLASS
  1
ACMFCFSTANDARDANSI
  2
AcmFCFStdANSI
  3
"Amdt_StdImp|Product Description: AutoCAD Mechanical|Company: Autodesk, Inc."
 90
     1024
280
     0
281
     0
  0
CLASS
  1
ACMWELDSTANDARDANSI
  2
AcmWeldingStdANSI
  3
"Amdt_StdImp|Product Description: AutoCAD Mechanical|Company: Autodesk, Inc."
 90
     1024
280
     0
281
     0
  0
CLASS
  1
ACMIDSTANDARDANSI
  2
AcmIdStdANSI
  3
"Amdt_StdImp|Product Description: AutoCAD Mechanical|Company: Autodesk, Inc."
 90
     1024
280
     0
281
     0
  0
CLASS
  1
ACMDATUMSTANDARDANSI
  2
AcmDatumStdANSI
  3
"Amdt_StdImp|Product Description: AutoCAD Mechanical|Company: Autodesk, Inc."
 90
     1024
280
     0
281
     0
  0
CLASS
  1
ACMBOMSTANDARDANSI
  2
AcmBOMStdANSI
  3
"Amdt_StdImp|Product Description: AutoCAD Mechanical|Company: Autodesk, Inc."
 90
     1024
280
     0
281
     0
  0
CLASS
  1
ACMDETAILSTANDARDANSI
  2
AmdtDetailSymStdANSI
  3
"Amdt_StdImp|Product Description: AutoCAD Mechanical|Company: Autodesk, Inc."
 90
     1024
280
     0
281
     0
  0
CLASS
  1
ACMSECTIONSTANDARDANSI
  2
AmdtSectionSymStdANSI
  3
"Amdt_StdImp|Product Description: AutoCAD Mechanical|Company: Autodesk, Inc."
 90
     1024
280
     0
281
     0
  0
CLASS
  1
ACMCENTERLINESTANDARDANSI
  2
AmdtCenterLineStdANSI
  3
"Amdt_StdImp|Product Description: AutoCAD Mechanical|Company: Autodesk, Inc."
 90
     1024
280
     0
281
     0
  0
CLASS
  1
ACMNOTESTANDARDANSI
  2
AmdtNoteStdANSI
  3
"Amdt_StdImp|Product Description: AutoCAD Mechanical|Company: Autodesk, Inc."
 90
     1024
280
     0
281
     0
  0
CLASS
  1
ACAMGLAYSTD
  2
AcAmgLayStd
  3
"AmgLay|Product Description: AutoCAD Mechanical|Company: Autodesk, Inc."
 90
     1024
280
     0
281
     0
  0
CLASS
  1
ACAMGDIMSTD
  2
AcAmgDimStd
  3
"AmgDim|Product Description: AutoCAD Mechanical|Company: Autodesk, Inc."
 90
     1024
280
     0
281
     0
  0
CLASS
  1
ACAMGHOLECHARTSTDANSI
  2
AcAmgHoleChartStdANSI
  3
AmgDim|Product Description: AutoCAD Mechanical|Company: Autodesk, Inc.
 90
     1024
280
     0
281
     0
  0
CLASS
  1
ACAMGTITLESTD
  2
AcAmgTitleStd
  3
"AmgTitle|Product Description: AutoCAD Mechanical|Company: Autodesk, Inc."
 90
     4095
280
     0
281
     0
  0
CLASS
  1
LAYER_INDEX
  2
AcDbLayerIndex
  3
ObjectDBX Classes
 90
    32768
280
     0
281
     0
  0
CLASS
  1
IDBUFFER
  2
AcDbIdBuffer
  3
ObjectDBX Classes
 90
    32768
280
     0
281
     0
  0
CLASS
  1
DICTIONARYVAR
  2
AcDbDictionaryVar
  3
ObjectDBX Classes
 90
        0
280
     0
281
     0
  0
CLASS
  1
AM_DRAWING_MGR
  2
AcDmDwgMgr
  3
AcMechDwgViewMgmt
 90
     1024
280
     0
281
     0
  0
CLASS
  1
AM_DWG_DOCUMENT
  2
AcDmDwgDocument
  3
AcMechDwgViewMgmt
 90
     1024
280
     0
281
     0
  0
CLASS
  1
AM_DWG_SHEET
  2
AcDmSheet
  3
AcMechDwgViewMgmt
 90
     1024
280
     0
281
     0
  0
CLASS
  1
AM_VIEWDIMPARMAP
  2
AcDmViewDimParMap
  3
AcMechDwgViewMgmt
 90
     1024
280
     0
281
     0
  0
CLASS
  1
AM_DWGMGR_NAME
  2
AcDmDwgMgrName
  3
AcMechDwgViewMgmt
 90
     1024
280
     0
281
     0
  0
CLASS
  1
AMDTMENUSTATEMGR
  2
AmdtMenuStateMgr
  3
McadcomServices
 90
     1024
280
     0
281
     0
  0
CLASS
  1
AMDTMCOMMENUSTATE
  2
AmdtMcomMenuState
  3
McadcomServices
 90
     1024
280
     0
281
     0
  0
CLASS
  1
MAPIAMMOUDLE
  2
MApiAmModule
  3
MApiAmServices
 90
     1024
280
     0
281
     0
  0
CLASS
  1
AMDTADMENUSTATE
  2
AmdtAdMenuState
  3
DesignerServices
 90
     1024
280
     0
281
     0
  0
CLASS
  1
ADAPPL
  2
AcAdAppl
  3
DesignerServices
 90
     1024
280
     0
281
     0
  0
CLASS
  1
DEPMGR
  2
AcAdDepMgr
  3
DesignerServices
 90
     1024
280
     0
281
     0
  0
CLASS
  1
PARAMMGR
  2
AcAdParamMgr
  3
DesignerServices
 90
     1024
280
     0
281
     0
  0
CLASS
  1
PARAMSCOPE
  2
AcAdParamScope
  3
DesignerServices
 90
     1024
280
     0
281
     0
  0
CLASS
  1
NAMEDAPPL
  2
AcAdNamedAppl
  3
DesignerServices
 90
     1024
280
     0
281
     0
  0
CLASS
  1
AMDTDMMENUSTATE
  2
AmdtDmMenuState
  3
AcMechDwgViewMgmt
 90
     1024
280
     0
281
     0
  0
CLASS
  1
AMDTAMMENUSTATE
  2
AmdtAmMenuState
  3
DesignerAssemblies
 90
     1024
280
     0
281
     0
  0
CLASS
  1
ACAMPROJECT
  2
AcAmProject
  3
DesignerAssemblies
 90
     1024
280
     0
281
     0
  0
CLASS
  1
ACAMGRCOMPDEF
  2
AcAmGrCompDef
  3
DesignerAssemblies
 90
     1024
280
     0
281
     0
  0
CLASS
  1
ACCMCONTEXT
  2
AcCmContext
  3
DesignerAssemblies
 90
     1024
280
     0
281
     0
  0
CLASS
  1
ACAMCOMPDEF
  2
AcAmCompDef
  3
DesignerAssemblies
 90
     1024
280
     0
281
     0
  0
CLASS
  1
ACAMCOMPDEFMGR
  2
AcAmCompDefMgr
  3
DesignerAssemblies
 90
     1024
280
     0
281
     0
  0
CLASS
  1
AMCONTEXTMGR
  2
AcAmContextMgr
  3
DesignerAssemblies
 90
     1024
280
     0
281
     0
  0
CLASS
  1
ACAMCONTEXTMODELER
  2
AcAmContextModeler
  3
DesignerAssemblies
 90
     1024
280
     0
281
     0
  0
CLASS
  1
ACMTHREADLINESTANDARDANSI
  2
AmdtThreadLineStdANSI
  3
"Amdt_StdImp|Product Description: AutoCAD Mechanical|Company: Autodesk, Inc."
 90
     1024
280
     0
281
     0
  0
CLASS
  1
CATALOGSTATE
  2
AcAmCatalogState
  3
DesignerAssemblies
 90
     1024
280
     0
281
     0
  0
CLASS
  1
ACAMGRCOMPDEFSET
  2
AcAmGrCompDefSet
  3
DesignerAssemblies
 90
     1024
280
     0
281
     0
  0
CLASS
  1
AMDTBROWSERDBTAB
  2
AmdtBrowserDbTab
  3
McadcomServices
 90
     1024
280
     0
281
     0
  0
CLASS
  1
CBROWSERAPPOBJECT
  2
CBrowserAppObject
  3
McadcomServices
 90
     1024
280
     0
281
     0
  0
CLASS
  1
DM_PLACEHOLDER
  2
AcDmSelsetPlaceholder
  3
AcMechDwgViewMgmt
 90
     1024
280
     0
281
     0
  0
CLASS
  1
TABLESTYLE
  2
AcDbTableStyle
  3
ObjectDBX Classes
 90
     4095
280
     0
281
     0
  0
CLASS
  1
AMDTNOTETEMPLATEDB
  2
AmdtNoteTemplateDB
  3
AcmSymBB|Product Description: AutoCAD Mechanical|Company: Autodesk, Inc.
 90
     1024
280
     0
281
     0
  0
CLASS
  1
MATERIAL
  2
AcDbMaterial
  3
ObjectDBX Classes
 90
     1153
280
     0
281
     0
  0
CLASS
  1
VISUALSTYLE
  2
AcDbVisualStyle
  3
ObjectDBX Classes
 90
     4095
280
     0
281
     0
  0
CLASS
  1
ACRFATTGENMGR
  2
AcRfAttGeneralMgr
  3
AcAttribServices
 90
     1024
280
     0
281
     0
  0
CLASS
  1
ACRFOBJATTMGR
  2
AcRfObjAttGroupMgr
  3
AcAttribServices
 90
     1024
280
     0
281
     0
  0
CLASS
  1
ACRFMCADAPIATTHOLDER
  2
AcRfMCADAPIAttHolder
  3
AcAttribServices
 90
     1024
280
     0
281
     0
  0
CLASS
  1
AMDTSYSATTR
  2
AmdtSystemAttribute
  3
AcAttribServices
 90
     1024
280
     0
281
     0
  0
CLASS
  1
ACMTAPERSTANDARDANSI
  2
AcmTaperStdANSI
  3
"Amdt_StdImp|Product Description: AutoCAD Mechanical|Company: Autodesk, Inc."
 90
     1024
280
     0
281
     0
  0
CLASS
  1
CAMSSTRUCTBTNSTATE
  2
StructBtnState
  3
DesignerAssemblies
 90
     1024
280
     0
281
     0
  0
CLASS
  1
SCALE
  2
AcDbScale
  3
ObjectDBX Classes
 90
     1153
280
     0
281
     0
  0
CLASS
  1
MLEADERSTYLE
  2
AcDbMLeaderStyle
  3
ACDB_MLEADERSTYLE_CLASS
 90
     4095
280
     0
281
     0
  0
CLASS
  1
ACMANOOTATIONVIEWSTANDARDANSI
  2
AmdtAnViewStdANSI
  3
"Amdt_StdImp|Product Description: AutoCAD Mechanical|Company: Autodesk, Inc."
 90
     1024
280
     0
281
     0
  0
CLASS
  1
CELLSTYLEMAP
  2
AcDbCellStyleMap
  3
ObjectDBX Classes
 90
     1152
280
     0
281
     0
  0
CLASS
  1
EXACXREFPANELOBJECT
  2
ExAcXREFPanelObject
  3
EXAC_ESW
 90
     1025
280
     0
281
     0
  0
CLASS
  1
NPOCOLLECTION
  2
AcDbImpNonPersistentObjectsCollection
  3
ObjectDBX Classes
 90
     1153
280
     0
281
     0
  0
CLASS
  1
SORTENTSTABLE
  2
AcDbSortentsTable
  3
ObjectDBX Classes
 90
        0
280
     0
281
     0
  0
CLASS
  1
ACAMGFILTERDAT
  2
AcAmgFilterDat
  3
"AcadM|Product Description: AutoCAD Mechanical|Company: Autodesk, Inc."
 90
     1024
280
     0
281
     0
  0
ENDSEC
  0
SECTION
  2
TABLES
  0
TABLE
  2
VPORT
  5
8
330
0
100
AcDbSymbolTable
 70
     1
  0
VPORT
  5
291
330
8
100
AcDbSymbolTableRecord
100
AcDbViewportTableRecord
  2
*Active
 70
     0
 10
0.0
 20
0.0
 11
1.0
 21
1.0
 12
52.47627194084998
 22
71.7598535123999
 13
0.0
 23
0.0
 14
0.125
 24
0.125
 15
1.0
 25
1.0
 16
0.0
 26
0.0
 36
1.0
 17
0.0
 27
0.0
 37
0.0
 40
34.42112441940908
 41
2.152278177458033
 42
50.0
 43
0.0
 44
0.0
 50
0.0
 51
0.0
 71
     0
 72
   100
 73
     1
 74
     3
 75
     0
 76
     0
 77
     0
 78
     0
281
     0
 65
     1
110
0.0
120
0.0
130
0.0
111
1.0
121
0.0
131
0.0
112
0.0
122
1.0
132
0.0
 79
     0
146
0.0
  0
ENDTAB
  0
TABLE
  2
LTYPE
  5
5
330
0
100
AcDbSymbolTable
 70
    16
  0
LTYPE
  5
14
330
5
100
AcDbSymbolTableRecord
100
AcDbLinetypeTableRecord
  2
ByBlock
 70
     0
  3

 72
    65
 73
     0
 40
0.0
  0
LTYPE
  5
15
330
5
100
AcDbSymbolTableRecord
100
AcDbLinetypeTableRecord
  2
ByLayer
 70
     0
  3

 72
    65
 73
     0
 40
0.0
  0
LTYPE
  5
16
330
5
100
AcDbSymbolTableRecord
100
AcDbLinetypeTableRecord
  2
Continuous
 70
     0
  3
Solid line
 72
    65
 73
     0
 40
0.0
  0
LTYPE
  5
6C
330
5
100
AcDbSymbolTableRecord
100
AcDbLinetypeTableRecord
  2
AM_ISO02W050
 70
     0
  3
__ __ __ __ __ __ __ __ __ __ __ __ __ __ __
 72
    65
 73
     2
 40
7.5
 49
6.0
 74
     0
 49
-1.5
 74
     0
  0
LTYPE
  5
6D
330
5
100
AcDbSymbolTableRecord
100
AcDbLinetypeTableRecord
  2
AM_ISO08W050
 70
     0
  3
____ . ____ . ____ . ____ . ____ . ____ . ____
 72
    65
 73
     4
 40
18.0
 49
12.0
 74
     0
 49
-1.5
 74
     0
 49
3.0
 74
     0
 49
-1.5
 74
     0
  0
LTYPE
  5
6E
330
5
100
AcDbSymbolTableRecord
100
AcDbLinetypeTableRecord
  2
AM_ISO09W050
 70
     0
  3
_____ . . _____ . . _____ . . ____ .. ____
 72
    65
 73
     6
 40
22.5
 49
12.0
 74
     0
 49
-1.5
 74
     0
 49
3.0
 74
     0
 49
-1.5
 74
     0
 49
3.0
 74
     0
 49
-1.5
 74
     0
  0
LTYPE
  5
6F
330
5
100
AcDbSymbolTableRecord
100
AcDbLinetypeTableRecord
  2
Amconstr
 70
     0
  3
_______________________
 72
    65
 73
     2
 40
9999.0
 49
9999.0
 74
     0
 49
0.0
 74
     0
  0
LTYPE
  5
70
330
5
100
AcDbSymbolTableRecord
100
AcDbLinetypeTableRecord
  2
AM_ISO08W050x2
 70
     0
  3
__ . __ . __ . __ . __ . __
 72
    65
 73
     4
 40
9.0
 49
6.0
 74
     0
 49
-0.75
 74
     0
 49
1.5
 74
     0
 49
-0.75
 74
     0
  0
LTYPE
  5
71
330
5
100
AcDbSymbolTableRecord
100
AcDbLinetypeTableRecord
  2
AM_ISO02W050x2
 70
     0
  3
 _ _ _ _ _ _ _ _ _ _ _ _
 72
    65
 73
     2
 40
3.75
 49
3.0
 74
     0
 49
-0.75
 74
     0
  0
LTYPE
  5
74
330
5
100
AcDbSymbolTableRecord
100
AcDbLinetypeTableRecord
  2
Amzigzag
 70
     0
  3
/\/-/\/-/\/-/\/-/\/-/\/
 72
    65
 73
     2
 40
11.0001
 49
0.0001
 74
     4
 75
   136
340
254
 46
0.04
 50
0.0
 44
0.0
 45
0.0
 49
-11.0
 74
     0
  0
LTYPE
  5
75
330
5
100
AcDbSymbolTableRecord
100
AcDbLinetypeTableRecord
  2
HIDDEN
 70
     0
  3
Hidden __ __ __ __ __ __ __ __ __ __ __ __ __ _
 72
    65
 73
     2
 40
0.375
 49
0.25
 74
     0
 49
-0.125
 74
     0
  0
LTYPE
  5
76
330
5
100
AcDbSymbolTableRecord
100
AcDbLinetypeTableRecord
  2
CENTER
 70
     0
  3
Center ____ _ ____ _ ____ _ ____ _ ____ _ ____
 72
    65
 73
     4
 40
2.0
 49
1.25
 74
     0
 49
-0.25
 74
     0
 49
0.25
 74
     0
 49
-0.25
 74
     0
  0
LTYPE
  5
77
330
5
100
AcDbSymbolTableRecord
100
AcDbLinetypeTableRecord
  2
PHANTOM2
 70
     0
  3
Phantom (.5x) ___ _ _ ___ _ _ ___ _ _ ___ _ _
 72
    65
 73
     6
 40
1.25
 49
0.625
 74
     0
 49
-0.125
 74
     0
 49
0.125
 74
     0
 49
-0.125
 74
     0
 49
0.125
 74
     0
 49
-0.125
 74
     0
  0
LTYPE
  5
78
330
5
100
AcDbSymbolTableRecord
100
AcDbLinetypeTableRecord
  2
CENTER2
 70
     0
  3
Center (.5x) ___ _ ___ _ ___ _ ___ _ ___ _ ___
 72
    65
 73
     4
 40
1.125
 49
0.75
 74
     0
 49
-0.125
 74
     0
 49
0.125
 74
     0
 49
-0.125
 74
     0
  0
LTYPE
  5
79
330
5
100
AcDbSymbolTableRecord
100
AcDbLinetypeTableRecord
  2
HIDDEN2
 70
     0
  3
Hidden (.5x) _ _ _ _ _ _ _ _ _ _ _ _ _ _ _ _ _
 72
    65
 73
     2
 40
0.1875
 49
0.125
 74
     0
 49
-0.0625
 74
     0
  0
LTYPE
  5
7A
330
5
100
AcDbSymbolTableRecord
100
AcDbLinetypeTableRecord
  2
Amzigzag2
 70
     0
  3
/\/-/\/-/\/-/\/-/\/-/\/
 72
    65
 73
     2
 40
0.4401
 49
0.0001
 74
     4
 75
   136
340
254
 46
0.0016
 50
0.0
 44
0.0
 45
0.0
 49
-0.4400000000000001
 74
     0
  0
LTYPE
  5
87
330
5
100
AcDbSymbolTableRecord
100
AcDbLinetypeTableRecord
  2
ACANSTGB
 70
     0
  3
__ . . __ . .
 72
    65
 73
     6
 40
0.35433070866
 49
0.15748031496
 74
     0
 49
-0.03937007874
 74
     0
 49
0.03937007874
 74
     0
 49
-0.03937007874
 74
     0
 49
0.03937007874
 74
     0
 49
-0.03937007874
 74
     0
  0
LTYPE
  5
88
330
5
100
AcDbSymbolTableRecord
100
AcDbLinetypeTableRecord
  2
ACANSTGL
 70
     0
  3
_ _ _ _ _
 72
    65
 73
     2
 40
0.11811023622
 49
0.07874015748
 74
     0
 49
-0.03937007874
 74
     0
  0
ENDTAB
  0
TABLE
  2
LAYER
  5
2
330
0
100
AcDbSymbolTable
 70
     5
  0
LAYER
  5
10
102
{ACAD_XDICTIONARY
360
B67
102
}
330
2
100
AcDbSymbolTableRecord
100
AcDbLayerTableRecord
  2
0
 70
     0
 62
     7
  6
Continuous
370
    -3
390
F
  0
LAYER
  5
38C
102
{ACAD_XDICTIONARY
360
38D
102
}
330
2
100
AcDbSymbolTableRecord
100
AcDbLayerTableRecord
  2
SURFACE
 70
     0
 62
     7
  6
Continuous
370
    -3
390
F
  0
LAYER
  5
38E
102
{ACAD_XDICTIONARY
360
38F
102
}
330
2
100
AcDbSymbolTableRecord
100
AcDbLayerTableRecord
  2
_SURFACE
 70
     0
 62
     7
  6
Continuous
370
    -3
390
F
  0
LAYER
  5
390
102
{ACAD_XDICTIONARY
360
391
102
}
330
2
100
AcDbSymbolTableRecord
100
AcDbLayerTableRecord
  2
__SOLID_BOWL
 70
     0
 62
     7
  6
Continuous
370
    -3
390
F
  0
LAYER
  5
392
102
{ACAD_XDICTIONARY
360
393
102
}
330
2
100
AcDbSymbolTableRecord
100
AcDbLayerTableRecord
  2
__SOLID_RIM
 70
     0
 62
     7
  6
Continuous
370
    -3
390
F
  0
ENDTAB
  0
TABLE
  2
STYLE
  5
3
330
0
100
AcDbSymbolTable
 70
     8
  0
STYLE
  5
11
330
3
100
AcDbSymbolTableRecord
100
AcDbTextStyleTableRecord
  2
STANDARD
 70
     0
 40
0.0
 41
1.0
 50
0.0
 71
     0
 42
0.2
  3
ROMANS.SHX
  4

  0
STYLE
  5
73
330
3
100
AcDbSymbolTableRecord
100
AcDbTextStyleTableRecord
  2

 70
     1
 40
0.0
 41
1.0
 50
0.0
 71
     0
 42
0.2
  3
ltypeshp.shx
  4

  0
STYLE
  5
7B
330
3
100
AcDbSymbolTableRecord
100
AcDbTextStyleTableRecord
  2
ACANSTS
 70
     0
 40
1.0
 41
1.0
 50
0.0
 71
     0
 42
0.2
  3
romans.shx
  4

  0
STYLE
  5
86
330
3
100
AcDbSymbolTableRecord
100
AcDbTextStyleTableRecord
  2
ACANSGDT
 70
     0
 40
0.0
 41
1.0
 50
0.0
 71
     0
 42
0.2
  3
amgdt.shx
  4

  0
STYLE
  5
13F
330
3
100
AcDbSymbolTableRecord
100
AcDbTextStyleTableRecord
  2
USER1
 70
     0
 40
0.0
 41
1.0
 50
0.0
 71
     0
 42
0.2
  3
TXT.SHX
  4

  0
STYLE
  5
140
330
3
100
AcDbSymbolTableRecord
100
AcDbTextStyleTableRecord
  2
USER2
 70
     0
 40
0.0
 41
1.0
 50
0.0
 71
     0
 42
0.2
  3
SIMPLEX.SHX
  4

  0
STYLE
  5
141
330
3
100
AcDbSymbolTableRecord
100
AcDbTextStyleTableRecord
  2
USER3
 70
     0
 40
0.0
 41
1.0
 50
0.0
 71
     0
 42
0.2
  3
ITALIC.SHX
  4

  0
STYLE
  5
254
330
3
100
AcDbSymbolTableRecord
100
AcDbTextStyleTableRecord
  2

 70
     1
 40
0.0
 41
1.0
 50
0.0
 71
     0
 42
0.2
  3
genltshp.shx
  4

  0
ENDTAB
  0
TABLE
  2
VIEW
  5
6
330
0
100
AcDbSymbolTable
 70
     0
  0
ENDTAB
  0
TABLE
  2
UCS
  5
7
330
0
100
AcDbSymbolTable
 70
     0
  0
ENDTAB
  0
TABLE
  2
APPID
  5
9
330
0
100
AcDbSymbolTable
 70
    14
  0
APPID
  5
12
330
9
100
AcDbSymbolTableRecord
100
AcDbRegAppTableRecord
  2
ACAD
 70
     0
  0
APPID
  5
4E
330
9
100
AcDbSymbolTableRecord
100
AcDbRegAppTableRecord
  2
MCAD_NO_VIS
 70
     0
  0
APPID
  5
4F
330
9
100
AcDbSymbolTableRecord
100
AcDbRegAppTableRecord
  2
ACAD_TEMP_GRAPHIC
 70
     0
  0
APPID
  5
60
330
9
100
AcDbSymbolTableRecord
100
AcDbRegAppTableRecord
  2
ACATTRIBSERVICES
 70
     0
  0
APPID
  5
F7
330
9
100
AcDbSymbolTableRecord
100
AcDbRegAppTableRecord
  2
AD_DRAW
 70
     0
  0
APPID
  5
115
330
9
100
AcDbSymbolTableRecord
100
AcDbRegAppTableRecord
  2
DESIGNERASSEMBLIES
 70
     0
  0
APPID
  5
11A
330
9
100
AcDbSymbolTableRecord
100
AcDbRegAppTableRecord
  2
ACADM_DIM_EDIT
 70
     0
  0
APPID
  5
11B
330
9
100
AcDbSymbolTableRecord
100
AcDbRegAppTableRecord
  2
AMDT_DM_ADJ
 70
     0
  0
APPID
  5
1D3
330
9
100
AcDbSymbolTableRecord
100
AcDbRegAppTableRecord
  2
ACAD_DSTYLE_DIMARC_LENGTH_SYMBOL
 70
     0
  0
APPID
  5
1D4
330
9
100
AcDbSymbolTableRecord
100
AcDbRegAppTableRecord
  2
ACAD_DSTYLE_DIMJOGGED_JOGANGLE_SYMBOL
 70
     0
  0
APPID
  5
2EE
330
9
100
AcDbSymbolTableRecord
100
AcDbRegAppTableRecord
  2
ACAD_MLEADERVER
 70
     0
  0
APPID
  5
B91
330
9
100
AcDbSymbolTableRecord
100
AcDbRegAppTableRecord
  2
ACAD_DSTYLE_DIM_LINETYPE
 70
     0
  0
APPID
  5
B92
330
9
100
AcDbSymbolTableRecord
100
AcDbRegAppTableRecord
  2
ACAD_DSTYLE_DIM_EXT1_LINETYPE
 70
     0
  0
APPID
  5
B93
330
9
100
AcDbSymbolTableRecord
100
AcDbRegAppTableRecord
  2
ACAD_DSTYLE_DIM_EXT2_LINETYPE
 70
     0
  0
ENDTAB
  0
TABLE
  2
DIMSTYLE
  5
A
330
0
100
AcDbSymbolTable
 70
     7
100
AcDbDimStyleTable
 71
     1
340
8C
  0
DIMSTYLE
105
27
330
A
100
AcDbSymbolTableRecord
100
AcDbDimStyleTableRecord
  2
Standard
 70
     0
340
11
  0
DIMSTYLE
105
8C
102
{ACAD_REACTORS
330
6A
102
}
330
A
100
AcDbSymbolTableRecord
100
AcDbDimStyleTableRecord
  2
AM_ANSI
 70
     0
  4
mm
 41
0.12
 42
0.05
 43
0.5
 44
0.1
 47
0.1
 48
0.1
 78
     7
 79
     2
140
0.12
141
0.0
146
0.71
147
0.06
176
   256
177
   256
178
   140
274
     4
284
     7
340
11
371
    -1
372
    -1
1001
ACAD_DSTYLE_DIMJOGGED_JOGANGLE_SYMBOL
1070
   384
1040
0.7853981633974483
1001
ACAD_DSTYLE_DIMARC_LENGTH_SYMBOL
1070
   379
1070
     1
1001
ACAD_DSTYLE_DIM_LINETYPE
1070
   380
1005
14
1001
ACAD_DSTYLE_DIM_EXT1_LINETYPE
1070
   381
1005
14
1001
ACAD_DSTYLE_DIM_EXT2_LINETYPE
1070
   382
1005
14
  0
DIMSTYLE
105
8D
330
A
100
AcDbSymbolTableRecord
100
AcDbDimStyleTableRecord
  2
AM_ANSI$3
 70
     0
  4
mm
 41
0.12
 42
0.05
 43
0.5
 44
0.1
 47
0.1
 48
0.1
 78
     7
 79
     2
140
0.12
141
0.0
146
0.71
147
0.06
176
   256
177
   256
178
   140
274
     4
284
     7
288
     1
289
     0
340
11
371
    -1
372
    -1
1001
ACAD_DSTYLE_DIMJOGGED_JOGANGLE_SYMBOL
1070
   384
1040
0.7853981633974483
1001
ACAD_DSTYLE_DIMARC_LENGTH_SYMBOL
1070
   379
1070
     1
1001
ACAD_DSTYLE_DIM_LINETYPE
1070
   380
1005
14
1001
ACAD_DSTYLE_DIM_EXT1_LINETYPE
1070
   381
1005
14
1001
ACAD_DSTYLE_DIM_EXT2_LINETYPE
1070
   382
1005
14
  0
DIMSTYLE
105
8E
330
A
100
AcDbSymbolTableRecord
100
AcDbDimStyleTableRecord
  2
AM_ANSI$4
 70
     0
  4
mm
 41
0.12
 42
0.05
 43
0.5
 44
0.1
 47
0.1
 48
0.1
 78
     7
 79
     2
140
0.12
141
0.0
146
0.71
147
0.06
176
   256
177
   256
178
   140
274
     4
284
     7
340
11
371
    -1
372
    -1
1001
ACAD_DSTYLE_DIMJOGGED_JOGANGLE_SYMBOL
1070
   384
1040
0.7853981633974483
1001
ACAD_DSTYLE_DIMARC_LENGTH_SYMBOL
1070
   379
1070
     1
1001
ACAD_DSTYLE_DIM_LINETYPE
1070
   380
1005
14
1001
ACAD_DSTYLE_DIM_EXT1_LINETYPE
1070
   381
1005
14
1001
ACAD_DSTYLE_DIM_EXT2_LINETYPE
1070
   382
1005
14
  0
DIMSTYLE
105
8F
330
A
100
AcDbSymbolTableRecord
100
AcDbDimStyleTableRecord
  2
AM_ANSI$7
 70
     0
  4
mm
 41
0.12
 42
0.05
 43
0.5
 44
0.1
 47
0.1
 48
0.1
 78
     7
 79
     2
140
0.12
141
0.0
146
0.71
147
0.06
176
   256
177
   256
178
   140
274
     4
284
     7
340
11
371
    -1
372
    -1
1001
ACAD_DSTYLE_DIMJOGGED_JOGANGLE_SYMBOL
1070
   384
1040
0.7853981633974483
1001
ACAD_DSTYLE_DIMARC_LENGTH_SYMBOL
1070
   379
1070
     1
1001
ACAD_DSTYLE_DIM_LINETYPE
1070
   380
1005
14
1001
ACAD_DSTYLE_DIM_EXT1_LINETYPE
1070
   381
1005
14
1001
ACAD_DSTYLE_DIM_EXT2_LINETYPE
1070
   382
1005
14
  0
DIMSTYLE
105
90
330
A
100
AcDbSymbolTableRecord
100
AcDbDimStyleTableRecord
  2
AM_ANSI$SF
 70
     0
  4
mm
 41
0.12
 42
0.05
 43
0.5
 44
0.1
 47
0.1
 48
0.1
 75
     1
 76
     1
 78
     7
 79
     2
140
0.12
141
0.0
146
0.71
147
0.06
176
   256
177
   256
178
   140
274
     4
284
     7
340
11
371
    -1
372
    -1
1001
ACAD_DSTYLE_DIMJOGGED_JOGANGLE_SYMBOL
1070
   384
1040
0.7853981633974483
1001
ACAD_DSTYLE_DIMARC_LENGTH_SYMBOL
1070
   379
1070
     1
1001
ACAD_DSTYLE_DIM_LINETYPE
1070
   380
1005
14
1001
ACAD_DSTYLE_DIM_EXT1_LINETYPE
1070
   381
1005
14
1001
ACAD_DSTYLE_DIM_EXT2_LINETYPE
1070
   382
1005
14
  0
DIMSTYLE
105
95
330
A
100
AcDbSymbolTableRecord
100
AcDbDimStyleTableRecord
  2
AM_ANSI$SH
 70
     0
  4
mm
 41
0.12
 42
0.05
 43
0.5
 44
0.1
 47
0.1
 48
0.1
 75
     1
 76
     1
 78
     7
 79
     2
140
0.12
141
0.0
146
0.71
147
0.06
173
     1
176
   256
177
   256
178
   140
274
     4
284
     7
340
11
343
91
371
    -1
372
    -1
1001
ACAD_DSTYLE_DIMJOGGED_JOGANGLE_SYMBOL
1070
   384
1040
0.7853981633974483
1001
ACAD_DSTYLE_DIMARC_LENGTH_SYMBOL
1070
   379
1070
     1
1001
ACAD_DSTYLE_DIM_LINETYPE
1070
   380
1005
14
1001
ACAD_DSTYLE_DIM_EXT1_LINETYPE
1070
   381
1005
14
1001
ACAD_DSTYLE_DIM_EXT2_LINETYPE
1070
   382
1005
14
  0
ENDTAB
  0
TABLE
  2
BLOCK_RECORD
  5
1
330
0
100
AcDbSymbolTable
 70
     4
  0
BLOCK_RECORD
  5
1F
102
{ACAD_XDICTIONARY
360
99
102
}
330
1
100
AcDbSymbolTableRecord
100
AcDbBlockTableRecord
  2
*Model_Space
340
22
  0
BLOCK_RECORD
  5
1B
330
1
100
AcDbSymbolTableRecord
100
AcDbBlockTableRecord
  2
*Paper_Space
340
1E
  0
BLOCK_RECORD
  5
23
330
1
100
AcDbSymbolTableRecord
100
AcDbBlockTableRecord
  2
*Paper_Space0
340
26
  0
BLOCK_RECORD
  5
91
330
1
100
AcDbSymbolTableRecord
100
AcDbBlockTableRecord
  2
GENAXEH
340
0
  0
ENDTAB
  0
ENDSEC
  0
SECTION
  2
BLOCKS
  0
BLOCK
  5
20
330
1F
100
AcDbEntity
  8
0
100
AcDbBlockBegin
  2
*Model_Space
 70
     0
 10
0.0
 20
0.0
 30
0.0
  3
*Model_Space
  1

  0
ENDBLK
  5
21
330
1F
100
AcDbEntity
  8
0
100
AcDbBlockEnd
  0
BLOCK
  5
1C
330
1B
100
AcDbEntity
 67
     1
  8
0
100
AcDbBlockBegin
  2
*Paper_Space
 70
     0
 10
0.0
 20
0.0
 30
0.0
  3
*Paper_Space
  1

  0
ENDBLK
  5
1D
330
1B
100
AcDbEntity
 67
     1
  8
0
100
AcDbBlockEnd
  0
BLOCK
  5
24
330
23
100
AcDbEntity
 67
     1
  8
0
100
AcDbBlockBegin
  2
*Paper_Space0
 70
     0
 10
0.0
 20
0.0
 30
0.0
  3
*Paper_Space0
  1

  0
ENDBLK
  5
25
330
23
100
AcDbEntity
 67
     1
  8
0
100
AcDbBlockEnd
  0
BLOCK
  5
93
330
91
100
AcDbEntity
  8
0
100
AcDbBlockBegin
  2
GENAXEH
 70
     0
 10
0.0
 20
0.0
 30
0.0
  3
GENAXEH
  1

  0
LINE
  5
92
330
91
100
AcDbEntity
  8
0
100
AcDbLine
 10
-1.0
 20
0.0
 30
0.0
 11
1.0
 21
0.0
 31
0.0
  0
ENDBLK
  5
94
330
91
100
AcDbEntity
  8
0
100
AcDbBlockEnd
  0
ENDSEC
  0
SECTION
  2
ENTITIES
  0
LWPOLYLINE
  5
832
330
1F
100
AcDbEntity
  8
0
  6
Continuous
 62
     7
100
AcDbPolyline
 90
       51
 70
     0
 43
0.0
 10
37.92682739308737
 20
85.20284281714392
 10
37.92286405118737
 20
85.2025788622439
 10
37.91624304188737
 20
85.20208240184391
 10
37.90800555448737
 20
85.20136724854392
 10
37.89846732548737
 20
85.20040334574392
 10
37.88807091858738
 20
85.19918568654391
 10
37.87686512908737
 20
85.19767681244392
 10
37.86481525298737
 20
85.1958251152439
 10
37.85223783428737
 20
85.19363670034392
 10
37.83913860028737
 20
85.19107687084391
 10
37.82553505638737
 20
85.18811158054392
 10
37.81175756998737
 20
85.1847850053439
 10
37.79789473598737
 20
85.18110395854391
 10
37.78387932548737
 20
85.17703569104391
 10
37.76980318198737
 20
85.17259176904392
 10
37.75571248338737
 20
85.16777582634391
 10
37.74158339508737
 20
85.16256856994392
 10
37.72740264318738
 20
85.15695127144391
 10
37.71317369188737
 20
85.15090965944391
 10
37.69892094138737
 20
85.14443808764392
 10
37.68466399998736
 20
85.13752974064392
 10
37.67041851448737
 20
85.1301763469439
 10
37.65619991588737
 20
85.12236962504392
 10
37.64202809748737
 20
85.11410398984391
 10
37.62791995448737
 20
85.10537253194391
 10
37.61389298578738
 20
85.09616885934391
 10
37.59996854378737
 20
85.08648946624392
 10
37.58616508868737
 20
85.07632935424391
 10
37.57250159438737
 20
85.06568411534392
 10
37.55900061798737
 20
85.05455257564392
 10
37.54568197448737
 20
85.04293192204391
 10
37.53256596168737
 20
85.03082005594391
 10
37.51967615068738
 20
85.0182184559439
 10
37.50703348868737
 20
85.00512679074391
 10
37.49465934268737
 20
84.99154555964391
 10
37.48257802488737
 20
84.97747919104391
 10
37.47081135988736
 20
84.96293015134391
 10
37.45938144138737
 20
84.94790176904391
 10
37.44831289648737
 20
84.93240157134392
 10
37.43762807558737
 20
84.91643505134391
 10
37.42734946048737
 20
84.90000860464391
 10
37.41750157388737
 20
84.88313298664392
 10
37.40810686338738
 20
84.86581683434392
 10
37.39918785068737
 20
84.84806987204391
 10
37.39076862448737
 20
84.82990640784391
 10
37.38287132868737
 20
84.81133846224393
 10
37.37551800928737
 20
84.79237915204391
 10
37.36873178598737
 20
84.77304637264392
 10
37.36253400108737
 20
84.75335560234391
 10
37.35694573528737
 20
84.73332344324392
 10
37.35383681428737
 20
84.72090921714391
  0
LINE
  5
833
330
1F
100
AcDbEntity
  8
0
  6
Continuous
 62
     7
100
AcDbLine
 10
39.15855734098737
 20
85.27452495084393
 30
0.0
 11
37.92693347628738
 21
85.20282399854393
 31
0.0
  0
LWPOLYLINE
  5
834
330
1F
100
AcDbEntity
  8
0
  6
Continuous
 62
     7
100
AcDbPolyline
 90
       12
 70
     0
 43
0.0
 10
53.06758968618737
 20
85.2028239984439
 10
51.83887429398737
 20
85.27437063884391
 10
50.57169886618737
 20
85.33488212044392
 10
49.30395323188736
 20
85.38195606054392
 10
48.03577952078737
 20
85.41558900444391
 10
46.76732028338737
 20
85.4357774839439
 10
45.49871849078736
 20
85.44251803984392
 10
44.23011648438737
 20
85.43580837494392
 10
42.96165660538736
 20
85.4156507754439
 10
41.69348182488737
 20
85.38204869714391
 10
40.42573469338736
 20
85.33500560514392
 10
39.15855734098737
 20
85.27452495084393
  0
LINE
  5
835
330
1F
100
AcDbEntity
  8
__SOLID_RIM
  6
Continuous
 62
     7
100
AcDbLine
 10
53.73812538249303
 20
84.0623054913439
 30
0.0
 11
37.25648135060761
 21
84.06230549134392
 31
0.0
  0
LWPOLYLINE
  5
836
330
1F
100
AcDbEntity
  8
0
  6
Continuous
 62
     7
100
AcDbPolyline
 90
       55
 70
     0
 43
0.0
 10
53.64068634838737
 20
84.72090921734391
 10
53.63888204258737
 20
84.7282434044439
 10
53.63382146038737
 20
84.74706311514392
 10
53.62822616378737
 20
84.76557646294391
 10
53.62211445528737
 20
84.78376993674391
 10
53.61550481128737
 20
84.80163095144391
 10
53.60841551648737
 20
84.81914860624391
 10
53.60086520868737
 20
84.8363120991439
 10
53.59287258768737
 20
84.85311150794391
 10
53.58445598748737
 20
84.8695385138439
 10
53.57563406808736
 20
84.88558486304389
 10
53.56642544398737
 20
84.90124314534391
 10
53.55684819638737
 20
84.91650747584392
 10
53.54692071678737
 20
84.9313719942439
 10
53.53666128188737
 20
84.9458315956439
 10
53.52608749958736
 20
84.95988259504391
 10
53.51521723918737
 20
84.97352135434391
 10
53.50406824068737
 20
84.9867448547439
 10
53.49265752958737
 20
84.9995513105439
 10
53.48100233398737
 20
85.01193903184391
 10
53.46911962248737
 20
85.02390697054392
 10
53.45702557368737
 20
85.03545517194391
 10
53.44473657668737
 20
85.04658373064392
 10
53.43226871518737
 20
85.0572933120439
 10
53.41963718808737
 20
85.06758557644392
 10
53.40685740948737
 20
85.07746220134391
 10
53.39394447598737
 20
85.08692534674391
 10
53.38091254428737
 20
85.09597804934392
 10
53.36777584428737
 20
85.10462343894392
 10
53.35454852098737
 20
85.11286488804392
 10
53.34124402748737
 20
85.12070638084392
 10
53.32787203218737
 20
85.12815410824391
 10
53.31444893838737
 20
85.13521055204391
 10
53.30099813468737
 20
85.14187543424391
 10
53.28752846978737
 20
85.14815644664391
 10
53.27405558778737
 20
85.15405811254391
 10
53.26061350278737
 20
85.15957817224391
 10
53.24721399028737
 20
85.16472506064392
 10
53.23386836528737
 20
85.1695074205439
 10
53.22061039218737
 20
85.17392673214391
 10
53.20744119658737
 20
85.17799640874391
 10
53.19438042008737
 20
85.18172387654391
 10
53.18149019278737
 20
85.18510675694392
 10
53.16872909858737
 20
85.18817098624392
 10
53.15615695678737
 20
85.19091691794391
 10
53.14399023208737
 20
85.19331980944391
 10
53.13221314428737
 20
85.19541012464392
 10
53.12085956428737
 20
85.19720808364391
 10
53.11022326098736
 20
85.19870073584391
 10
53.10030751878737
 20
85.19992649374392
 10
53.09112203128737
 20
85.20092019074391
 10
53.08297067768737
 20
85.20168847154392
 10
53.07600955058737
 20
85.20226050064392
 10
53.07008678338736
 20
85.20268654684391
 10
53.06769173868737
 20
85.20284307304391
  0
LINE
  5
837
330
1F
100
AcDbEntity
  8
SURFACE
  6
Continuous
 62
     7
100
AcDbLine
 10
53.67775035518737
 20
84.56490302204391
 30
0.0
 11
53.64069278618737
 21
84.72091050644392
 31
0.0
  0
LINE
  5
838
330
1F
100
AcDbEntity
  8
SURFACE
  6
Continuous
 62
     7
100
AcDbLine
 10
53.72213927618737
 20
84.37421600144391
 30
0.0
 11
53.67775035518737
 21
84.56490302204391
 31
0.0
  0
LINE
  5
839
330
1F
100
AcDbEntity
  8
SURFACE
  6
Continuous
 62
     7
100
AcDbLine
 10
53.75708875988737
 20
84.22095135294391
 30
0.0
 11
53.72213927618737
 21
84.37421600144391
 31
0.0
  0
LINE
  5
83A
330
1F
100
AcDbEntity
  8
__SOLID_RIM
  6
Continuous
 62
     7
100
AcDbLine
 10
54.03337926938736
 20
83.34389880414391
 30
0.0
 11
53.99024459748737
 21
83.64049924234391
 31
0.0
  0
LINE
  5
83B
330
1F
100
AcDbEntity
  8
__SOLID_RIM
  6
Continuous
 62
     7
100
AcDbLine
 10
53.99024459748737
 20
83.64049924234391
 30
0.0
 11
53.95889038978736
 21
83.85140236684396
 31
0.0
  0
LWPOLYLINE
  5
83C
330
1F
100
AcDbEntity
  8
__SOLID_BOWL
  6
Continuous
 62
     7
100
AcDbPolyline
 90
        5
 70
     0
 43
0.0
 10
48.61208214148736
 20
57.73671531334391
 10
48.61318881208736
 20
57.73831672844391
 10
48.61425884808737
 20
57.73996148614391
 10
48.61529030698736
 20
57.7416490048439
 10
48.61566641968736
 20
57.74230549134391
  0
LWPOLYLINE
  5
83D
330
1F
100
AcDbEntity
  8
__SOLID_RIM
  6
Continuous
 62
     7
100
AcDbPolyline
 90
       37
 70
     0
 43
0.0
 10
53.95898863388737
 20
71.6899678605439
 10
54.00375407588737
 20
71.83664102674391
 10
54.05314180718737
 20
72.00699295654391
 10
54.10135703408737
 20
72.1832938877439
 10
54.14821751998736
 20
72.36574599574391
 10
54.19346552278736
 20
72.5542349523439
 10
54.23679573178737
 20
72.74832577304391
 10
54.27804474468736
 20
72.94807262254392
 10
54.31705362058737
 20
73.15347757034391
 10
54.35359440708737
 20
73.36401109954391
 10
54.38757080078737
 20
73.57966209414391
 10
54.41891189728737
 20
73.80045134474392
 10
54.44750493488736
 20
74.02587986414392
 10
54.47333690798736
 20
74.25591236364391
 10
54.49642104398737
 20
74.49055154124391
 10
54.51675480048737
 20
74.72934028604391
 10
54.53439759168737
 20
74.9721280938439
 10
54.54944655658737
 20
75.21899191024392
 10
54.56200508398737
 20
75.46980426974392
 10
54.57220837838737
 20
75.72449030424391
 10
54.58021833558737
 20
75.98301433684392
 10
54.58621240948737
 20
76.24529938094392
 10
54.59032140448737
 20
76.51130280354391
 10
54.59257714938736
 20
76.78098032964391
 10
54.59283096368737
 20
77.0542905536439
 10
54.59090870578737
 20
77.33125249864392
 10
54.58664512278737
 20
77.61186306114391
 10
54.57987491818737
 20
77.8960533050439
 10
54.57046502128736
 20
78.18383678524391
 10
54.55830092738736
 20
78.47520560984391
 10
54.54327326208737
 20
78.77005644394391
 10
54.52527417828736
 20
79.06839539644392
 10
54.50419680158737
 20
79.37021702814391
 10
54.47994260468736
 20
79.67539920084391
 10
54.45240842308737
 20
79.98390009554391
 10
54.42148278528737
 20
80.29575830104391
 10
54.39257708238737
 20
80.5623049924439
  0
LWPOLYLINE
  5
83E
330
1F
100
AcDbEntity
  8
__SOLID_RIM
  6
Continuous
 62
     7
100
AcDbPolyline
 90
       10
 70
     0
 43
0.0
 10
52.78581172208737
 20
71.7078340304439
 10
52.78083929708737
 20
71.90894410634391
 10
52.77304039868737
 20
72.13040422474391
 10
52.76281176148737
 20
72.35172097914392
 10
52.75015657198736
 20
72.57286950114391
 10
52.73507822358737
 20
72.7938218560439
 10
52.71758081108736
 20
73.01454707624391
 10
52.69766937148737
 20
73.2350174909439
 10
52.67534892028737
 20
73.45520865954391
 10
52.65341723928736
 20
73.65130473914391
  0
LWPOLYLINE
  5
83F
330
1F
100
AcDbEntity
  8
__SOLID_RIM
  6
Continuous
 62
     7
100
AcDbPolyline
 90
        7
 70
     0
 43
0.0
 10
52.77734157008737
 20
71.63819493894391
 10
52.78047191418736
 20
71.65127535454391
 10
52.78273778878737
 20
71.66351145264392
 10
52.78439202998736
 20
71.6758454990439
 10
52.78543047138737
 20
71.68824669664392
 10
52.78585052208737
 20
71.7006842386439
 10
52.78581169028736
 20
71.7078340250439
  0
LINE
  5
840
330
1F
100
AcDbEntity
  8
__SOLID_RIM
  6
Continuous
 62
     7
100
AcDbLine
 10
52.71949416808737
 20
71.4223054913439
 30
0.0
 11
52.77734160188737
 21
71.63819493664391
 31
0.0
  0
LWPOLYLINE
  5
841
330
1F
100
AcDbEntity
  8
__SOLID_BOWL
  6
Continuous
 62
     7
100
AcDbPolyline
 90
       13
 70
     0
 43
0.0
 10
50.09136106258736
 20
58.39715187834391
 10
50.09120768108736
 20
58.40345285164391
 10
50.09065558378736
 20
58.41617370674391
 10
50.08978541428736
 20
58.42880700124391
 10
50.08860299938736
 20
58.44134505574391
 10
50.08711429598736
 20
58.45378059164391
 10
50.08532541238736
 20
58.46610642554392
 10
50.08324258748736
 20
58.47831565324391
 10
50.08087214158736
 20
58.49040183004391
 10
50.07822052888737
 20
58.5023586056439
 10
50.07529430208737
 20
58.51417990634391
 10
50.07210005218737
 20
58.52586011094391
 10
50.06864448688737
 20
58.53739369064391
  0
LWPOLYLINE
  5
842
330
1F
100
AcDbEntity
  8
__SOLID_BOWL
  6
Continuous
 62
     7
100
AcDbPolyline
 90
        3
 70
     0
 43
0.0
 10
50.09726397128737
 20
57.74230549134391
 10
50.09241782138737
 20
58.33553490544391
 10
50.09135874348736
 20
58.39715185424392
  0
LWPOLYLINE
  5
843
330
1F
100
AcDbEntity
  8
__SOLID_BOWL
  6
Continuous
 62
     7
100
AcDbPolyline
 90
       41
 70
     0
 43
0.0
 10
48.91831878118736
 20
66.7607624845439
 10
48.92229564648737
 20
66.76263888754391
 10
49.11029006628737
 20
66.85287511064391
 10
49.30030615238736
 20
66.9467550963439
 10
49.48595918638737
 20
67.04220280754391
 10
49.66469960188736
 20
67.13869062944391
 10
49.83783617848736
 20
67.23752880204391
 10
50.00498575628737
 20
67.33908920914391
 10
50.16563498518737
 20
67.4435560220439
 10
50.31969802898736
 20
67.55127099894391
 10
50.46704941308736
 20
67.66224192394391
 10
50.60774952338737
 20
67.77620511004392
 10
50.74201712898737
 20
67.89296587514392
 10
50.87020093958736
 20
68.01239579334391
 10
50.99227346038737
 20
68.1338193461439
 10
51.10850622028737
 20
68.2568122921439
 10
51.21948105958736
 20
68.3813598086439
 10
51.32530411138737
 20
68.50695388074391
 10
51.42617794068737
 20
68.63316920004391
 10
51.52268196538736
 20
68.76009881274391
 10
51.61499564508737
 20
68.8873903549439
 10
51.70317419528736
 20
69.01450704714391
 10
51.78767772238737
 20
69.14158476554391
 10
51.86882662788736
 20
69.26883610214391
 10
51.94673361938736
 20
69.39635159374391
 10
52.02140998738737
 20
69.5243043784439
 10
52.09285143188736
 20
69.6528757953439
 10
52.16102414968736
 20
69.78218970734392
 10
52.22574937188737
 20
69.91206771794391
 10
52.28702226758737
 20
70.0426405742439
 10
52.34481309038737
 20
70.1739490576439
 10
52.39894950068737
 20
70.30561475644391
 10
52.44945483298737
 20
70.43766466134392
 10
52.49635761558737
 20
70.57014427554391
 10
52.53955140838737
 20
70.70265021084392
 10
52.57908336038737
 20
70.83512941964392
 10
52.61503256338737
 20
70.96758343204391
 10
52.64740063078736
 20
71.09964391894391
 10
52.67626623868737
 20
71.23112944384391
 10
52.7091366052474
 20
71.36205604804391
 10
52.71949416808737
 20
71.4223054913439
  0
LINE
  5
844
330
1F
100
AcDbEntity
  8
__SOLID_BOWL
  6
Continuous
 62
     7
100
AcDbLine
 10
50.04743934988737
 20
58.65155980684391
 30
0.0
 11
50.04367565578736
 21
58.68698685634392
 31
0.0
  0
LINE
  5
845
330
1F
100
AcDbEntity
  8
__SOLID_BOWL
  6
Continuous
 62
     7
100
AcDbLine
 10
50.04367565578736
 20
58.68698685634392
 30
0.0
 11
50.03966085888737
 21
58.72690693574391
 31
0.0
  0
LINE
  5
846
330
1F
100
AcDbEntity
  8
__SOLID_BOWL
  6
Continuous
 62
     7
100
AcDbLine
 10
50.03966085888737
 20
58.72690693574391
 30
0.0
 11
50.03541484398737
 21
58.77145523884391
 31
0.0
  0
LINE
  5
847
330
1F
100
AcDbEntity
  8
__SOLID_BOWL
  6
Continuous
 62
     7
100
AcDbLine
 10
50.03541484398737
 20
58.77145523884391
 30
0.0
 11
50.03094893268737
 21
58.82085932044391
 31
0.0
  0
LINE
  5
848
330
1F
100
AcDbEntity
  8
__SOLID_BOWL
  6
Continuous
 62
     7
100
AcDbLine
 10
50.03094893268737
 20
58.82085932044391
 30
0.0
 11
50.02628610408737
 21
58.87522979864391
 31
0.0
  0
LINE
  5
849
330
1F
100
AcDbEntity
  8
__SOLID_BOWL
  6
Continuous
 62
     7
100
AcDbLine
 10
50.02628610408737
 20
58.87522979864391
 30
0.0
 11
50.02145282578736
 21
58.93470544664391
 31
0.0
  0
LINE
  5
84A
330
1F
100
AcDbEntity
  8
__SOLID_BOWL
  6
Continuous
 62
     7
100
AcDbLine
 10
50.02145282578736
 20
58.93470544664391
 30
0.0
 11
50.01477851388736
 21
59.02233122484391
 31
0.0
  0
LINE
  5
84B
330
1F
100
AcDbEntity
  8
__SOLID_BOWL
  6
Continuous
 62
     7
100
AcDbLine
 10
50.01477851388736
 20
59.02233122484391
 30
0.0
 11
50.00962569498736
 21
59.09478139294392
 31
0.0
  0
LINE
  5
84C
330
1F
100
AcDbEntity
  8
__SOLID_BOWL
  6
Continuous
 62
     7
100
AcDbLine
 10
50.00962569498736
 20
59.09478139294392
 30
0.0
 11
50.00438056138737
 21
59.17347037274391
 31
0.0
  0
LINE
  5
84D
330
1F
100
AcDbEntity
  8
__SOLID_BOWL
  6
Continuous
 62
     7
100
AcDbLine
 10
50.00438056138737
 20
59.17347037274391
 30
0.0
 11
49.99909545908737
 21
59.2587058014439
 31
0.0
  0
LWPOLYLINE
  5
84E
330
1F
100
AcDbEntity
  8
__SOLID_BOWL
  6
Continuous
 62
     7
100
AcDbPolyline
 90
       30
 70
     0
 43
0.0
 10
49.98072031318736
 20
59.6003478701439
 10
49.96945595278737
 20
59.79615111674391
 10
49.95693827848737
 20
59.99493927164391
 10
49.94312917438737
 20
60.19690556424391
 10
49.92796775578736
 20
60.40205426554392
 10
49.91135814348736
 20
60.61090634864391
 10
49.89322871908736
 20
60.8235448431439
 10
49.87352420838736
 20
61.03984654694391
 10
49.85216559878736
 20
61.2599383093439
 10
49.82906872298737
 20
61.48395394794391
 10
49.80417803828737
 20
61.71172759524391
 10
49.77745984248737
 20
61.94293001364391
 10
49.74885686818737
 20
62.17747474394391
 10
49.71829448888737
 20
62.4154126643439
 10
49.68571939188737
 20
62.6566193539439
 10
49.65106488458737
 20
62.90107389394391
 10
49.61426364508736
 20
63.1487548081439
 10
49.57526451098736
 20
63.39953528314391
 10
49.53400144208736
 20
63.65339129164391
 10
49.49040787438736
 20
63.91029863914391
 10
49.44443509198737
 20
64.17012935484391
 10
49.39601732958736
 20
64.43285715214392
 10
49.34508821068736
 20
64.69845485204391
 10
49.29160151478736
 20
64.9667923619439
 10
49.23549209488736
 20
65.23784023884392
 10
49.17669425758737
 20
65.51156788234391
 10
49.11516537808736
 20
65.78784221974391
 10
49.05085056388736
 20
66.06659630494391
 10
48.98368004248736
 20
66.3478297815439
 10
48.91882966348737
 20
66.61063176754391
  0
LINE
  5
84F
330
1F
100
AcDbEntity
  8
__SOLID_BOWL
  6
Continuous
 62
     7
100
AcDbLine
 10
49.99909545908737
 20
59.2587058014439
 30
0.0
 11
49.99384880258737
 21
59.35059454494391
 31
0.0
  0
LINE
  5
850
330
1F
100
AcDbEntity
  8
__SOLID_BOWL
  6
Continuous
 62
     7
100
AcDbLine
 10
49.99384880258737
 20
59.35059454494391
 30
0.0
 11
49.98072031318736
 21
59.6003478701439
 31
0.0
  0
LINE
  5
851
330
1F
100
AcDbEntity
  8
__SOLID_RIM
  6
Continuous
 62
     7
100
AcDbLine
 10
52.40510529728737
 20
73.87230549134391
 30
0.0
 11
38.58941786438737
 21
73.87230549134391
 31
0.0
  0
LINE
  5
852
330
1F
100
AcDbEntity
  8
__SOLID_BOWL
  6
Continuous
 62
     7
100
AcDbLine
 10
50.05613717818737
 20
58.57777922814391
 30
0.0
 11
50.05416101258736
 21
58.59347284414391
 31
0.0
  0
LINE
  5
853
330
1F
100
AcDbEntity
  8
__SOLID_BOWL
  6
Continuous
 62
     7
100
AcDbLine
 10
50.05416101258736
 20
58.59347284414391
 30
0.0
 11
50.05204522518737
 21
58.61100240934391
 31
0.0
  0
LINE
  5
854
330
1F
100
AcDbEntity
  8
__SOLID_BOWL
  6
Continuous
 62
     7
100
AcDbLine
 10
50.05204522518737
 20
58.61100240934391
 30
0.0
 11
50.04980215598736
 21
58.6303587326439
 31
0.0
  0
LINE
  5
855
330
1F
100
AcDbEntity
  8
__SOLID_BOWL
  6
Continuous
 62
     7
100
AcDbLine
 10
50.04980215598736
 20
58.6303587326439
 30
0.0
 11
50.04743934988737
 21
58.65155980684391
 31
0.0
  0
LWPOLYLINE
  5
856
330
1F
100
AcDbEntity
  8
__SOLID_BOWL
  6
Continuous
 62
     7
100
AcDbPolyline
 90
       20
 70
     0
 43
0.0
 10
48.91882966308736
 20
66.6106317701439
 10
48.91483571348736
 20
66.62882499384392
 10
48.91191231228737
 20
66.64729562844391
 10
48.91013804908737
 20
66.66523464864392
 10
48.90940712588736
 20
66.68260029254392
 10
48.90962255008736
 20
66.6994286381439
 10
48.91069896178737
 20
66.71566918814391
 10
48.91254980738736
 20
66.73127037374391
 10
48.91510421588737
 20
66.74627411854391
 10
48.91829358778736
 20
66.7606701124439
 10
48.92203821748736
 20
66.77439985414392
 10
48.92626097578737
 20
66.78743367904392
 10
48.93089534158736
 20
66.79977450264392
 10
48.93585523798737
 20
66.81137442884391
 10
48.94102009278737
 20
66.82213295834391
 10
48.94630625558736
 20
66.83205103024391
 10
48.95162113918736
 20
66.84111363904391
 10
48.95680700028737
 20
66.8492129293439
 10
48.96174947028736
 20
66.8563340941439
 10
48.96637375788737
 20
66.8625186114439
  0
LINE
  5
857
330
1F
100
AcDbEntity
  8
__SOLID_RIM
  6
Continuous
 62
     7
100
AcDbLine
 10
51.58360352718736
 20
71.6359623140439
 30
0.0
 11
51.24270047188737
 21
71.63578920994391
 31
0.0
  0
LINE
  5
858
330
1F
100
AcDbEntity
  8
__SOLID_RIM
  6
Continuous
 62
     7
100
AcDbLine
 10
52.77734157008737
 20
71.64083798554391
 30
0.0
 11
53.89217314238736
 21
71.64083798554391
 31
0.0
  0
LINE
  5
859
330
1F
100
AcDbEntity
  8
__SOLID_RIM
  6
Continuous
 62
     7
100
AcDbLine
 10
38.21718159168737
 20
71.64083798554391
 30
0.0
 11
37.10235001928737
 21
71.64083798554391
 31
0.0
  0
LINE
  5
85A
330
1F
100
AcDbEntity
  8
__SOLID_RIM
  6
Continuous
 62
     7
100
AcDbLine
 10
39.41091963448737
 20
71.6359623140439
 30
0.0
 11
39.75182268978737
 21
71.63578920994391
 31
0.0
  0
LWPOLYLINE
  5
85B
330
1F
100
AcDbEntity
  8
__SOLID_BOWL
  6
Continuous
 62
     7
100
AcDbPolyline
 90
        4
 70
     0
 43
0.0
 10
50.06864448688737
 20
58.53739369064391
 10
50.06493438358737
 20
58.54877538754391
 10
50.06097651638737
 20
58.56000038564391
 10
50.05713677038737
 20
58.57011798194391
  0
LINE
  5
85C
330
1F
100
AcDbEntity
  8
__SOLID_BOWL
  6
Continuous
 62
     7
100
AcDbLine
 10
45.49726158078736
 20
57.68748180454391
 30
0.0
 11
45.49726158088737
 21
57.69712756204391
 31
0.0
  0
LWPOLYLINE
  5
85D
330
1F
100
AcDbEntity
  8
__SOLID_BOWL
  6
Continuous
 62
     7
100
AcDbPolyline
 90
        4
 70
     0
 43
0.0
 10
40.93737423648736
 20
58.57002217124391
 10
40.93420510048736
 20
58.56178871384392
 10
40.92991081628737
 20
58.54972149644391
 10
40.92590445278736
 20
58.53747608194391
  0
LWPOLYLINE
  5
85E
330
1F
100
AcDbEntity
  8
__SOLID_BOWL
  6
Continuous
 62
     7
100
AcDbPolyline
 90
       12
 70
     0
 43
0.0
 10
40.92590445278736
 20
58.53747608194391
 10
40.92219422428736
 20
58.52505878464391
 10
40.91878825578736
 20
58.51247626414391
 10
40.91569480938736
 20
58.49973657634391
 10
40.91292170798737
 20
58.48684709654391
 10
40.91047664298737
 20
58.47381554764391
 10
40.90836731628736
 20
58.46065106454391
 10
40.90660102888736
 20
58.44736207814391
 10
40.90518490658737
 20
58.43395736354391
 10
40.90412595498736
 20
58.4204471128439
 10
40.90343083178736
 20
58.40684114944391
 10
40.90316209908737
 20
58.39715187834391
  0
LINE
  5
85F
330
1F
100
AcDbEntity
  8
__SOLID_BOWL
  6
Continuous
 62
     7
100
AcDbLine
 10
40.95568143528736
 20
58.73531637244391
 30
0.0
 11
40.95112172988736
 21
58.68964494864391
 31
0.0
  0
LINE
  5
860
330
1F
100
AcDbEntity
  8
__SOLID_BOWL
  6
Continuous
 62
     7
100
AcDbLine
 10
40.95112172988736
 20
58.68964494864391
 30
0.0
 11
40.94826001488736
 21
58.66242014414392
 31
0.0
  0
LINE
  5
861
330
1F
100
AcDbEntity
  8
__SOLID_BOWL
  6
Continuous
 62
     7
100
AcDbLine
 10
40.94826001488736
 20
58.66242014414392
 30
0.0
 11
40.94555089748737
 21
58.63771056624391
 31
0.0
  0
LINE
  5
862
330
1F
100
AcDbEntity
  8
__SOLID_BOWL
  6
Continuous
 62
     7
100
AcDbLine
 10
40.94555089748737
 20
58.63771056624391
 30
0.0
 11
40.94299641288737
 21
58.61540697344391
 31
0.0
  0
LINE
  5
863
330
1F
100
AcDbEntity
  8
__SOLID_BOWL
  6
Continuous
 62
     7
100
AcDbLine
 10
40.94299641288737
 20
58.61540697344391
 30
0.0
 11
40.94060322298736
 21
58.59543441544391
 31
0.0
  0
LINE
  5
864
330
1F
100
AcDbEntity
  8
__SOLID_BOWL
  6
Continuous
 62
     7
100
AcDbLine
 10
40.94060322298736
 20
58.59543441544391
 30
0.0
 11
40.93839236848736
 21
58.57782877354391
 31
0.0
  0
LINE
  5
865
330
1F
100
AcDbEntity
  8
__SOLID_BOWL
  6
Continuous
 62
     7
100
AcDbLine
 10
42.07909420878737
 20
66.62576609944391
 30
0.0
 11
42.07569415058737
 21
66.61063436764391
 31
0.0
  0
LWPOLYLINE
  5
866
330
1F
100
AcDbEntity
  8
__SOLID_BOWL
  6
Continuous
 62
     7
100
AcDbPolyline
 90
       30
 70
     0
 43
0.0
 10
42.07569349818736
 20
66.61063176754391
 10
42.01084311918736
 20
66.3478297815439
 10
41.94367259768736
 20
66.06659630494391
 10
41.87935778348736
 20
65.78784221974391
 10
41.81782890408736
 20
65.51156788234391
 10
41.75903106668736
 20
65.23784023884392
 10
41.70292164688737
 20
64.9667923619439
 10
41.64943495098737
 20
64.69845485204391
 10
41.59850583198736
 20
64.43285715214392
 10
41.55008806968736
 20
64.17012935484391
 10
41.50411528728736
 20
63.91029863914391
 10
41.46052171948737
 20
63.65339129164391
 10
41.41925865068737
 20
63.39953528314391
 10
41.38025951658736
 20
63.1487548081439
 10
41.34345827708736
 20
62.90107389394391
 10
41.30880376978736
 20
62.6566193539439
 10
41.27622867278737
 20
62.4154126643439
 10
41.24566629348737
 20
62.17747474394391
 10
41.21706331918736
 20
61.94293001364391
 10
41.19034512338736
 20
61.71172759524391
 10
41.16545443868736
 20
61.48395394794391
 10
41.14235756288737
 20
61.2599383093439
 10
41.12099895328737
 20
61.03984654694391
 10
41.10129444248737
 20
60.8235448431439
 10
41.08316501818737
 20
60.61090634864391
 10
41.06655540588737
 20
60.40205426554392
 10
41.05139398728737
 20
60.19690556424391
 10
41.03758488318736
 20
59.99493927164391
 10
41.02506720888736
 20
59.79615111674391
 10
41.01380284838736
 20
59.6003478701439
  0
LWPOLYLINE
  5
867
330
1F
100
AcDbEntity
  8
__SOLID_BOWL
  6
Continuous
 62
     7
100
AcDbPolyline
 90
        3
 70
     0
 43
0.0
 10
40.90316441808736
 20
58.39715185424392
 10
40.90210534018736
 20
58.33553490544391
 10
40.89725919038737
 20
57.74230549134391
  0
LINE
  5
868
330
1F
100
AcDbEntity
  8
__SOLID_BOWL
  6
Continuous
 62
     7
100
AcDbLine
 10
41.01380284838736
 20
59.6003478701439
 30
0.0
 11
41.00002054438736
 21
59.33867555484391
 31
0.0
  0
LINE
  5
869
330
1F
100
AcDbEntity
  8
__SOLID_BOWL
  6
Continuous
 62
     7
100
AcDbLine
 10
41.00002054438736
 20
59.33867555484391
 30
0.0
 11
40.99410204538736
 21
59.23669841224391
 31
0.0
  0
LINE
  5
86A
330
1F
100
AcDbEntity
  8
__SOLID_BOWL
  6
Continuous
 62
     7
100
AcDbLine
 10
40.99410204538736
 20
59.23669841224391
 30
0.0
 11
40.98816530078736
 21
59.14317393654391
 31
0.0
  0
LINE
  5
86B
330
1F
100
AcDbEntity
  8
__SOLID_BOWL
  6
Continuous
 62
     7
100
AcDbLine
 10
40.98816530078736
 20
59.14317393654391
 30
0.0
 11
40.98230678888736
 21
59.05779425064391
 31
0.0
  0
LINE
  5
86C
330
1F
100
AcDbEntity
  8
__SOLID_BOWL
  6
Continuous
 62
     7
100
AcDbLine
 10
40.98230678888736
 20
59.05779425064391
 30
0.0
 11
40.97658566568736
 21
58.98002390644391
 31
0.0
  0
LINE
  5
86D
330
1F
100
AcDbEntity
  8
__SOLID_BOWL
  6
Continuous
 62
     7
100
AcDbLine
 10
40.97658566568736
 20
58.98002390644391
 30
0.0
 11
40.97102937838736
 21
58.90920001114391
 31
0.0
  0
LINE
  5
86E
330
1F
100
AcDbEntity
  8
__SOLID_BOWL
  6
Continuous
 62
     7
100
AcDbLine
 10
40.97102937838736
 20
58.90920001114391
 30
0.0
 11
40.96566773818736
 21
58.8449136364439
 31
0.0
  0
LINE
  5
86F
330
1F
100
AcDbEntity
  8
__SOLID_BOWL
  6
Continuous
 62
     7
100
AcDbLine
 10
40.96566773818736
 20
58.8449136364439
 30
0.0
 11
40.96053881568736
 21
58.78699760084391
 31
0.0
  0
LINE
  5
870
330
1F
100
AcDbEntity
  8
__SOLID_BOWL
  6
Continuous
 62
     7
100
AcDbLine
 10
40.96053881568736
 20
58.78699760084391
 30
0.0
 11
40.95568143528736
 21
58.73531637244391
 31
0.0
  0
LWPOLYLINE
  5
871
330
1F
100
AcDbEntity
  8
__SOLID_BOWL
  6
Continuous
 62
     7
100
AcDbPolyline
 90
       20
 70
     0
 43
0.0
 10
42.02407735538737
 20
66.86760615464391
 10
42.02793674698736
 20
66.86279246134391
 10
42.03210898328737
 20
66.8572506156439
 10
42.03656489528737
 20
66.85092135154391
 10
42.04120678918736
 20
66.84383679254391
 10
42.04599345668737
 20
66.83594394134392
 10
42.05096231538736
 20
66.82702367904392
 10
42.05604756068736
 20
66.81698009504391
 10
42.06110438708736
 20
66.80585337324391
 10
42.06602146728736
 20
66.79361325044391
 10
42.07069876318736
 20
66.78016750194391
 10
42.07496682498737
 20
66.76559572914391
 10
42.07863175738737
 20
66.75015395824392
 10
42.08158294138736
 20
66.73388861434391
 10
42.08371407188737
 20
66.71683197554393
 10
42.08490760638737
 20
66.69925210044391
 10
42.08509331388737
 20
66.68121922354391
 10
42.08420520898736
 20
66.66279960674391
 10
42.08220840248737
 20
66.64426761324391
 10
42.07909420878737
 20
66.62576609944391
  0
LINE
  5
872
330
1F
100
AcDbEntity
  8
__SOLID_RIM
  6
Continuous
 62
     7
100
AcDbLine
 10
38.21718155978737
 20
71.63819493664391
 30
0.0
 11
38.27502899358737
 21
71.4223054913439
 31
0.0
  0
LWPOLYLINE
  5
873
330
1F
100
AcDbEntity
  8
__SOLID_BOWL
  6
Continuous
 62
     7
100
AcDbPolyline
 90
       41
 70
     0
 43
0.0
 10
38.27502899358737
 20
71.4223054913439
 10
38.28816505316741
 20
71.36205604804391
 10
38.31825692288737
 20
71.23112944384391
 10
38.34712253078737
 20
71.09964391894391
 10
38.37949059828737
 20
70.96758343204391
 10
38.41543980128737
 20
70.83512941964392
 10
38.45497175328737
 20
70.70265021084392
 10
38.49816554608736
 20
70.57014427554391
 10
38.54506832858737
 20
70.43766466134392
 10
38.59557366098737
 20
70.30561475644391
 10
38.64971007118737
 20
70.1739490576439
 10
38.70750089398736
 20
70.0426405742439
 10
38.76877378978737
 20
69.91206771794391
 10
38.83349901188737
 20
69.78218970734392
 10
38.90167172968737
 20
69.65287579524392
 10
38.97311317428736
 20
69.5243043784439
 10
39.04778954228737
 20
69.39635159364391
 10
39.12569653378737
 20
69.26883610214391
 10
39.20684543928736
 20
69.14158476554391
 10
39.29134896628737
 20
69.01450704704391
 10
39.37952751658737
 20
68.8873903549439
 10
39.47184119628737
 20
68.76009881274391
 10
39.56834522098737
 20
68.63316919994392
 10
39.66921905028737
 20
68.50695388074391
 10
39.77504210208737
 20
68.3813598086439
 10
39.88601694138737
 20
68.25681229204391
 10
40.00224970128736
 20
68.1338193461439
 10
40.12432222208736
 20
68.01239579334391
 10
40.25250603258736
 20
67.89296587514392
 10
40.38677363828736
 20
67.77620511004392
 10
40.52747374858737
 20
67.66224192394391
 10
40.67482513268736
 20
67.55127099894391
 10
40.82888817648736
 20
67.4435560220439
 10
40.98953740538736
 20
67.33908920914391
 10
41.15668698318737
 20
67.23752880204391
 10
41.32982355978736
 20
67.13869062944391
 10
41.50856397528737
 20
67.0422028076439
 10
41.69421700928737
 20
66.9467550963439
 10
41.88423309538737
 20
66.85287511064391
 10
42.07222751508736
 20
66.76263888754391
 10
42.07610253698736
 20
66.7608105373439
  0
LWPOLYLINE
  5
874
330
1F
100
AcDbEntity
  8
__SOLID_RIM
  6
Continuous
 62
     7
100
AcDbPolyline
 90
        8
 70
     0
 43
0.0
 10
38.20871147138737
 20
71.70783402514391
 10
38.20866356978737
 20
71.7022841034439
 10
38.20900401798737
 20
71.68984415644391
 10
38.20996307528737
 20
71.67743658354391
 10
38.21153834988737
 20
71.66509220674391
 10
38.21372587508737
 20
71.65284184644391
 10
38.21652016028737
 20
71.64071592224392
 10
38.21718159168737
 20
71.63819493874391
  0
LWPOLYLINE
  5
875
330
1F
100
AcDbEntity
  8
__SOLID_RIM
  6
Continuous
 62
     7
100
AcDbPolyline
 90
       10
 70
     0
 43
0.0
 10
38.34110592238737
 20
73.65130473914391
 10
38.31917424138737
 20
73.45520865954391
 10
38.29685379018737
 20
73.2350174909439
 10
38.27694235058737
 20
73.01454707624391
 10
38.25944493808737
 20
72.7938218560439
 10
38.24436658958737
 20
72.57286950114391
 10
38.23171140018736
 20
72.35172097914392
 10
38.22148276288737
 20
72.13040422474391
 10
38.21368386458737
 20
71.90894410634391
 10
38.20871143948738
 20
71.7078340304439
  0
LWPOLYLINE
  5
876
330
1F
100
AcDbEntity
  8
__SOLID_RIM
  6
Continuous
 62
     7
100
AcDbPolyline
 90
       37
 70
     0
 43
0.0
 10
36.60194607918737
 20
80.5623049924439
 10
36.57304037628737
 20
80.29575830104391
 10
36.54211473858737
 20
79.98390009554391
 10
36.51458055698737
 20
79.67539920084391
 10
36.49032636008737
 20
79.37021702814391
 10
36.46924898328737
 20
79.06839539644392
 10
36.45124989948737
 20
78.77005644394391
 10
36.43622223418737
 20
78.47520560984391
 10
36.42405814038737
 20
78.18383678524391
 10
36.41464824348737
 20
77.8960533050439
 10
36.40787803888737
 20
77.61186306114391
 10
36.40361445588737
 20
77.33125249864392
 10
36.40169219798738
 20
77.0542905536439
 10
36.40194601228737
 20
76.78098032964391
 10
36.40420175718737
 20
76.51130280354391
 10
36.40831075218737
 20
76.24529938094392
 10
36.41430482608738
 20
75.98301433684392
 10
36.42231478328737
 20
75.72449030424391
 10
36.43251807768737
 20
75.46980426974392
 10
36.44507660508736
 20
75.21899191024392
 10
36.46012556988737
 20
74.9721280938439
 10
36.47776836118737
 20
74.72934028604391
 10
36.49810211768737
 20
74.49055154124391
 10
36.52118625368737
 20
74.25591236364391
 10
36.54701822678737
 20
74.02587986414392
 10
36.57561126438737
 20
73.80045134474392
 10
36.60695236088737
 20
73.57966209414391
 10
36.64092875458737
 20
73.36401109954391
 10
36.67746954108737
 20
73.15347757034391
 10
36.71647841688737
 20
72.94807262254392
 10
36.75772742978737
 20
72.74832577304391
 10
36.80105763888737
 20
72.5542349523439
 10
36.84630564168737
 20
72.36574599574391
 10
36.89316612748737
 20
72.1832938877439
 10
36.94138135448737
 20
72.00699295654391
 10
36.99076908578737
 20
71.83664102674391
 10
37.03553452778737
 20
71.6899678605439
  0
LWPOLYLINE
  5
877
330
1F
100
AcDbEntity
  8
__SOLID_RIM
  6
Continuous
 62
     7
100
AcDbPolyline
 90
        7
 70
     0
 43
0.0
 10
36.86500001468737
 20
82.66062992964391
 10
36.82815664058737
 20
82.38940775054391
 10
36.77617829378737
 20
81.99635319904391
 10
36.72746892618737
 20
81.61536598864392
 10
36.68195187368737
 20
81.24646862094392
 10
36.63950353948737
 20
80.88962090434391
 10
36.60194383258737
 20
80.56230525624391
  0
LWPOLYLINE
  5
878
330
1F
100
AcDbEntity
  8
__SOLID_RIM
  6
Continuous
 62
     7
100
AcDbPolyline
 90
        2
 70
     0
 43
0.0
 10
37.00427856418738
 20
83.64049924234391
 10
36.96114389228737
 20
83.34389880414391
  0
LINE
  5
879
330
1F
100
AcDbEntity
  8
0
  6
Continuous
 62
     7
100
AcDbLine
 10
37.27238388578737
 20
84.3742160029439
 30
0.0
 11
37.23743440178737
 21
84.22095135294391
 31
0.0
  0
LINE
  5
87A
330
1F
100
AcDbEntity
  8
0
  6
Continuous
 62
     7
100
AcDbLine
 10
37.31677280688737
 20
84.56490302384391
 30
0.0
 11
37.27238388578737
 21
84.3742160029439
 31
0.0
  0
LINE
  5
87B
330
1F
100
AcDbEntity
  8
0
  6
Continuous
 62
     7
100
AcDbLine
 10
37.35383037548737
 20
84.72091050644392
 30
0.0
 11
37.31677280688737
 21
84.56490302384391
 31
0.0
  0
LINE
  5
87C
330
1F
100
AcDbEntity
  8
__SOLID_BOWL
  6
Continuous
 62
     7
100
AcDbLine
 10
50.09726991638737
 20
57.74230549134391
 30
0.0
 11
40.89725324518736
 21
57.74230549134391
 31
0.0
  0
ARC
  5
8D4
330
1F
100
AcDbEntity
  8
__SOLID_RIM
  6
Continuous
 62
     7
100
AcDbCircle
 10
74.64847513118737
 20
77.99989211634391
 30
0.0
 40
37.4731080369
100
AcDbArc
 50
170.6897604486998
 51
176.0790463481002
  0
ARC
  5
8D5
330
1F
100
AcDbEntity
  8
__SOLID_RIM
  6
Continuous
 62
     7
100
AcDbCircle
 10
74.27263476068737
 20
78.22994551444391
 30
0.0
 40
37.0832969127
100
AcDbArc
 50
179.6527286346996
 51
180.1786389755
  0
ARC
  5
8D6
330
1F
100
AcDbEntity
  8
__SOLID_RIM
  6
Continuous
 62
     7
100
AcDbCircle
 10
72.55833203108737
 20
78.2850356393439
 30
0.0
 40
35.3686868423
100
AcDbArc
 50
176.3886773692003
 51
179.7251386489998
  0
ARC
  5
8D7
330
1F
100
AcDbEntity
  8
__SOLID_RIM
  6
Continuous
 62
     7
100
AcDbCircle
 10
71.05578103288737
 20
78.21921430624391
 30
0.0
 40
33.8664248512
100
AcDbArc
 50
180.1774520941997
 51
181.0912951539003
  0
ARC
  5
8D8
330
1F
100
AcDbEntity
  8
__SOLID_RIM
  6
Continuous
 62
     7
100
AcDbCircle
 10
56.07090986228737
 20
83.5766792132439
 30
0.0
 40
2.053791801999999
100
AcDbArc
 50
187.5533394836999
 51
188.1937825028995
  0
ARC
  5
8D9
330
1F
100
AcDbEntity
  8
__SOLID_RIM
  6
Continuous
 62
     7
100
AcDbCircle
 10
55.51180564258737
 20
83.50248883194391
 30
0.0
 40
1.489786464799999
100
AcDbArc
 50
187.0290998052999
 51
187.5513062597
  0
ARC
  5
8DA
330
1F
100
AcDbEntity
  8
__SOLID_RIM
  6
Continuous
 62
     7
100
AcDbCircle
 10
51.95186901858736
 20
74.92314377494391
 30
0.0
 40
1.4115880933
100
AcDbArc
 50
311.8890379713003
 51
315.602684256
  0
ARC
  5
8DB
330
1F
100
AcDbEntity
  8
__SOLID_RIM
  6
Continuous
 62
     7
100
AcDbCircle
 10
52.03812076318737
 20
74.82574971224392
 30
0.0
 40
1.281438314399999
100
AcDbArc
 50
311.6757838964999
 51
311.9231096184001
  0
ARC
  5
8DC
330
1F
100
AcDbEntity
  8
__SOLID_RIM
  6
Continuous
 62
     7
100
AcDbCircle
 10
54.89107151378736
 20
83.42625365314392
 30
0.0
 40
0.8643885859999999
100
AcDbArc
 50
186.3156175899004
 51
187.0489294895999
  0
ARC
  5
8DD
330
1F
100
AcDbEntity
  8
__SOLID_RIM
  6
Continuous
 62
     7
100
AcDbCircle
 10
54.58846240838737
 20
83.39317148644392
 30
0.0
 40
0.5599769494000001
100
AcDbArc
 50
186.1983943189002
 51
186.3572810989001
  0
ARC
  5
8DE
330
1F
100
AcDbEntity
  8
__SOLID_RIM
  6
Continuous
 62
     7
100
AcDbCircle
 10
52.40510487268736
 20
73.62230549134391
 30
0.0
 40
0.25
100
AcDbArc
 50
6.661089422299991
 51
89.99999999989986
  0
ARC
  5
8DF
330
1F
100
AcDbEntity
  8
0
  6
Continuous
 62
     7
100
AcDbCircle
 10
53.63028415658736
 20
84.19230549134391
 30
0.0
 40
0.13
100
AcDbArc
 50
283.1422565699999
 51
12.72977152260023
  0
ARC
  5
8E0
330
1F
100
AcDbEntity
  8
__SOLID_RIM
  6
Continuous
 62
     7
100
AcDbCircle
 10
53.89217217818736
 20
71.71083798554391
 30
0.0
 40
0.07
100
AcDbArc
 50
270.0000008690997
 51
342.6539459103002
  0
ARC
  5
8E1
330
1F
100
AcDbEntity
  8
__SOLID_BOWL
  6
Continuous
 62
     7
100
AcDbCircle
 10
48.55340378958736
 20
57.77694889594392
 30
0.0
 40
0.0699105635
100
AcDbArc
 50
326.5935135779998
 51
330.2488947731
  0
ARC
  5
8E2
330
1F
100
AcDbEntity
  8
__SOLID_RIM
  6
Continuous
 62
     7
100
AcDbCircle
 10
39.04265414178737
 20
74.92314377614391
 30
0.0
 40
1.4115880933
100
AcDbArc
 50
224.3973158169001
 51
228.1109621017001
  0
ARC
  5
8E3
330
1F
100
AcDbEntity
  8
__SOLID_RIM
  6
Continuous
 62
     7
100
AcDbCircle
 10
38.95640239828736
 20
74.82574971204392
 30
0.0
 40
1.2814383142
100
AcDbArc
 50
228.0768903815999
 51
228.3242161035002
  0
ARC
  5
8E4
330
1F
100
AcDbEntity
  8
__SOLID_RIM
  6
Continuous
 62
     7
100
AcDbCircle
 10
38.58941828898737
 20
73.62230549134391
 30
0.0
 40
0.25
100
AcDbArc
 50
90.00000000009974
 51
173.3389105777
  0
ARC
  5
8E5
330
1F
100
AcDbEntity
  8
0
  6
Continuous
 62
     7
100
AcDbCircle
 10
37.36423900498737
 20
84.19230549134391
 30
0.0
 40
0.13
100
AcDbArc
 50
167.2702284555004
 51
256.8577434296
  0
ARC
  5
8E6
330
1F
100
AcDbEntity
  8
__SOLID_RIM
  6
Continuous
 62
     7
100
AcDbCircle
 10
37.10235098348737
 20
71.71083798554391
 30
0.0
 40
0.07
100
AcDbArc
 50
197.3460540896998
 51
269.9999991308998
  0
ARC
  5
8E7
330
1F
100
AcDbEntity
  8
__SOLID_RIM
  6
Continuous
 62
     7
100
AcDbCircle
 10
16.34604803048737
 20
77.99989211634391
 30
0.0
 40
37.4731080369
100
AcDbArc
 50
3.920953651899791
 51
9.310239551300135
  0
ARC
  5
8E8
330
1F
100
AcDbEntity
  8
__SOLID_RIM
  6
Continuous
 62
     7
100
AcDbCircle
 10
16.72188840098737
 20
78.22994551444392
 30
0.0
 40
37.08329691260001
100
AcDbArc
 50
359.8213610244999
 51
0.347271365299582
  0
ARC
  5
8E9
330
1F
100
AcDbEntity
  8
__SOLID_RIM
  6
Continuous
 62
     7
100
AcDbCircle
 10
18.43619113058737
 20
78.28503563934392
 30
0.0
 40
35.3686868423
100
AcDbArc
 50
0.2748613510002115
 51
3.611322630799695
  0
ARC
  5
8EA
330
1F
100
AcDbEntity
  8
__SOLID_RIM
  6
Continuous
 62
     7
100
AcDbCircle
 10
19.93874212868736
 20
78.21921430624391
 30
0.0
 40
33.8664248512
100
AcDbArc
 50
358.9087048460998
 51
359.8225479058002
  0
SPLINE
  5
959
330
1F
100
AcDbEntity
  8
0
  6
Continuous
 62
     7
100
AcDbSpline
210
0.0
220
0.0
230
1.0
 70
     8
 71
     3
 72
     8
 73
     4
 74
     0
 42
0.0000000001
 43
0.0000000001
 40
0.4079131305968952
 40
0.4079131305968952
 40
0.4079131305968952
 40
0.4079131305968952
 40
0.4107890178062286
 40
0.4107890178062286
 40
0.4107890178062286
 40
0.4107890178062286
 10
37.93179139213726
 20
85.20310680988153
 30
0.0
 10
37.9307366080759
 20
85.20317237920757
 30
0.0
 10
37.92977400518906
 20
85.2033830772528
 30
0.0
 10
37.92926749688737
 20
85.20419696854393
 30
0.0
  0
SPLINE
  5
95A
330
1F
100
AcDbEntity
  8
__SOLID_BOWL
  6
Continuous
 62
     7
100
AcDbSpline
210
0.0
220
0.0
230
1.0
 70
     8
 71
     3
 72
     9
 73
     5
 74
     3
 42
0.0000000001
 43
0.0000000001
 44
0.0000000001
 12
0.2559772939367751
 22
0.9666827943999033
 32
0.0
 13
0.9263033623332079
 23
0.3767785568874556
 33
0.0
 40
0.0
 40
0.0
 40
0.0
 40
0.0
 40
0.0018799731262685
 40
0.0042154861755577
 40
0.0042154861755577
 40
0.0042154861755577
 40
0.0042154861755577
 10
42.07569505828736
 20
66.61063412414391
 30
0.0
 10
42.07585546843188
 20
66.61123990336895
 30
0.0
 10
42.0766085663857
 20
66.61251831220312
 30
0.0
 10
42.07788895009058
 20
66.61321241339848
 30
0.0
 10
42.07861008128737
 20
66.61350573714392
 30
0.0
 11
42.07569505828736
 21
66.61063412414391
 31
0.0
 11
42.07663205468736
 21
66.61226395134391
 31
0.0
 11
42.07861008128737
 21
66.61350573714392
 31
0.0
  0
SPLINE
  5
95B
330
1F
100
AcDbEntity
  8
__SOLID_BOWL
  6
Continuous
 62
     7
100
AcDbSpline
210
0.0
220
0.0
230
1.0
 70
     8
 71
     3
 72
     9
 73
     5
 74
     3
 42
0.0000000001
 43
0.0000000001
 44
0.0000000001
 12
-0.2551947653238211
 22
0.9668896688616133
 32
0.0
 13
-0.9263033602472335
 23
0.3767785620157867
 33
0.0
 40
0.0
 40
0.0
 40
0.0
 40
0.0
 40
0.0018825557554924
 40
0.0042180688047817
 40
0.0042180688047817
 40
0.0042180688047817
 40
0.0042180688047817
 10
48.91882878698737
 20
66.6106315383439
 30
0.0
 10
48.91866864752929
 20
66.61123827958093
 30
0.0
 10
48.91791535988888
 20
66.61251792239804
 30
0.0
 10
48.91663421148251
 20
66.6132124133945
 30
0.0
 10
48.91591308028736
 20
66.61350573714392
 30
0.0
 11
48.91882878698737
 21
66.6106315383439
 31
0.0
 11
48.91789110688737
 21
66.61226395134391
 31
0.0
 11
48.91591308028736
 21
66.61350573714392
 31
0.0
  0
LINE
  5
95C
330
1F
100
AcDbEntity
  8
__SOLID_BOWL
  6
Continuous
 62
     7
100
AcDbLine
 10
49.98823594078736
 20
59.4208497901439
 30
0.0
 11
49.98801156408736
 21
59.42530151884391
 31
0.0
  0
SPLINE
  5
95D
330
1F
100
AcDbEntity
  8
__SOLID_BOWL
  6
Continuous
 62
     7
100
AcDbSpline
210
0.0
220
0.0
230
1.0
 70
     8
 71
     3
 72
     8
 73
     4
 74
     2
 42
0.0000000001
 43
0.0000000001
 44
0.0000000001
 12
0.7975394172427458
 22
0.6032668380941401
 32
0.0
 13
-0.081450823775886
 23
0.9966773616904468
 33
0.0
 40
0.0
 40
0.0
 40
0.0
 40
0.0
 40
0.0019908935079467
 40
0.0019908935079467
 40
0.0019908935079467
 40
0.0019908935079467
 10
49.98800502508736
 20
59.42529782804392
 30
0.0
 10
49.9885342971034
 20
59.42569817472109
 30
0.0
 10
49.98877238279279
 20
59.42649512558094
 30
0.0
 10
49.98871832948736
 20
59.42715655174391
 30
0.0
 11
49.98800502508736
 21
59.42529782804392
 31
0.0
 11
49.98871832948736
 21
59.42715655174391
 31
0.0
  0
LINE
  5
95E
330
1F
100
AcDbEntity
  8
__SOLID_BOWL
  6
Continuous
 62
     7
100
AcDbLine
 10
49.98871832948736
 20
59.42715655174391
 30
0.0
 11
49.98862888908736
 21
59.42772859344391
 31
0.0
  0
LINE
  5
95F
330
1F
100
AcDbEntity
  8
__SOLID_BOWL
  6
Continuous
 62
     7
100
AcDbLine
 10
49.98800502508736
 20
59.42529782804392
 30
0.0
 11
49.98787357828736
 21
59.42788039134391
 31
0.0
  0
LINE
  5
960
330
1F
100
AcDbEntity
  8
__SOLID_BOWL
  6
Continuous
 62
     7
100
AcDbLine
 10
48.91675949348737
 20
66.61012750764391
 30
0.0
 11
48.91591308028736
 21
66.61350573714392
 31
0.0
  0
LINE
  5
961
330
1F
100
AcDbEntity
  8
__SOLID_BOWL
  6
Continuous
 62
     7
100
AcDbLine
 10
45.49726158078736
 20
57.6971280982439
 30
0.0
 11
45.49018104458736
 21
57.69712805214392
 31
0.0
  0
SPLINE
  5
962
330
1F
100
AcDbEntity
  8
__SOLID_BOWL
  6
Continuous
 62
     7
100
AcDbSpline
210
0.0
220
0.0
230
1.0
 70
     8
 71
     3
 72
    87
 73
    83
 74
    81
 42
0.0000000001
 43
0.0000000001
 44
0.0000000001
 12
-0.1552126027340998
 22
0.987881089986293
 32
0.0
 13
-0.9999996410578217
 23
0.0008472804893133
 33
0.0
 40
0.0
 40
0.0
 40
0.0
 40
0.0
 40
0.0345041439046395
 40
0.0728632161990925
 40
0.115373358094915
 40
0.1609545051663621
 40
0.2068557119278842
 40
0.2501512503776653
 40
0.2920257626150732
 40
0.3349891289237041
 40
0.3795260846713797
 40
0.4252306673568698
 40
0.4722723150625558
 40
0.5190871074775675
 40
0.5636131873847919
 40
0.6057754707789264
 40
0.6464550716165223
 40
0.6859652264658474
 40
0.7244610768409664
 40
0.7616989970580848
 40
0.7979264009201935
 40
0.8333922444101647
 40
0.8683769545694485
 40
0.9039508330685659
 40
0.9421843857717638
 40
0.9848665343228503
 40
1.030813924458077
 40
1.077710308658222
 40
1.124834222544517
 40
1.172272092468945
 40
1.219176285186279
 40
1.265646641380147
 40
1.312955390238695
 40
1.361802872912592
 40
1.411956607951933
 40
1.462895238738942
 40
1.514199876101588
 40
1.565865215356949
 40
1.618237964246065
 40
1.671276898657307
 40
1.723999553261982
 40
1.776027676445842
 40
1.828335852738057
 40
1.881135969210477
 40
1.933342070441634
 40
1.985072913146559
 40
2.037516968404065
 40
2.090884015696832
 40
2.145108069487235
 40
2.200624647744141
 40
2.257607828069327
 40
2.315578942409496
 40
2.374200278904147
 40
2.433573511171313
 40
2.493651521764626
 40
2.554416993219756
 40
2.615703712259692
 40
2.677385968654686
 40
2.739539603810616
 40
2.802232983936718
 40
2.865406370678005
 40
2.929080485669748
 40
2.993267236259651
 40
3.057695866603571
 40
3.12206010843837
 40
3.186475065360737
 40
3.251378108284457
 40
3.316940654245111
 40
3.382866405604188
 40
3.44915638206393
 40
3.515771362689124
 40
3.582548477218995
 40
3.64941804197484
 40
3.716403135773721
 40
3.783366960419423
 40
3.850241962454018
 40
3.916989067934903
 40
3.983807425757806
 40
4.050519299410635
 40
4.117242670990624
 40
4.18792278680419
 40
4.268539929381202
 40
4.268539929381202
 40
4.268539929381202
 40
4.268539929381202
 10
49.10685528488737
 20
66.99638503074391
 30
0.0
 10
49.10507012556052
 20
67.00774702784042
 30
0.0
 10
49.10012428423279
 20
67.03156440016235
 30
0.0
 10
49.08919471742399
 20
67.0684742248558
 30
0.0
 10
49.07427923621124
 20
67.10793390844625
 30
0.0
 10
49.05585393077605
 20
67.14864714218467
 30
0.0
 10
49.03534290094341
 20
67.18863081616586
 30
0.0
 10
49.01417979624611
 20
67.22685908068621
 30
0.0
 10
48.99257566225662
 20
67.26370789990375
 30
0.0
 10
48.96988534795004
 20
67.30038608592312
 30
0.0
 10
48.94555841079181
 20
67.33753643731876
 30
0.0
 10
48.91952956324702
 20
67.37517938782186
 30
0.0
 10
48.89215723693489
 20
67.41279995914375
 30
0.0
 10
48.86417032338854
 20
67.44947155925484
 30
0.0
 10
48.83653467699276
 20
67.48435313058402
 30
0.0
 10
48.80989059845827
 20
67.51740793379041
 30
0.0
 10
48.78413530389097
 20
67.54903082538409
 30
0.0
 10
48.75911772289557
 20
67.57967818408826
 30
0.0
 10
48.734869506917
 20
67.6094726776503
 30
0.0
 10
48.71142601107405
 20
67.63851104674566
 30
0.0
 10
48.68881011716685
 20
67.66691869521462
 30
0.0
 10
48.6669067527646
 20
67.69493192170623
 30
0.0
 10
48.64537536339975
 20
67.72295775819737
 30
0.0
 10
48.62353077371427
 20
67.75190484118773
 30
0.0
 10
48.60041299633312
 20
67.78310321826992
 30
0.0
 10
48.57506894420467
 20
67.81695499626877
 30
0.0
 10
48.54776135203307
 20
67.85294327435805
 30
0.0
 10
48.51911072568291
 20
67.88976819237959
 30
0.0
 10
48.48951357037385
 20
67.92647871105408
 30
0.0
 10
48.45909386551606
 20
67.96251743560723
 30
0.0
 10
48.42770584856019
 20
67.99742915004859
 30
0.0
 10
48.39499383278824
 20
68.0310505485958
 30
0.0
 10
48.36018975071517
 20
68.06347237684083
 30
0.0
 10
48.32267230805981
 20
68.09466918708382
 30
0.0
 10
48.28272060083858
 20
68.12472926405675
 30
0.0
 10
48.2407489197528
 20
68.15337904403499
 30
0.0
 10
48.19704967697479
 20
68.18029030727149
 30
0.0
 10
48.15180541029853
 20
68.20550333144819
 30
0.0
 10
48.10512500371779
 20
68.22924261393666
 30
0.0
 10
48.05736031290161
 20
68.25155719087678
 30
0.0
 10
48.00906633286444
 20
68.27240946149021
 30
0.0
 10
47.96044847543235
 20
68.2918461631096
 30
0.0
 10
47.91132302523066
 20
68.31003305000726
 30
0.0
 10
47.86175497167399
 20
68.32715389622683
 30
0.0
 10
47.81205294364474
 20
68.34326868017697
 30
0.0
 10
47.7621404360977
 20
68.35831236235299
 30
0.0
 10
47.71159793631582
 20
68.37257546276197
 30
0.0
 10
47.66001888517271
 20
68.38619706757971
 30
0.0
 10
47.60724104848896
 20
68.39926359545732
 30
0.0
 10
47.55310458272515
 20
68.41183241081811
 30
0.0
 10
47.49758916451543
 20
68.42396228236722
 30
0.0
 10
47.44091497507279
 20
68.43561571692366
 30
0.0
 10
47.38333041622347
 20
68.44677808498513
 30
0.0
 10
47.32493485536674
 20
68.45742727561357
 30
0.0
 10
47.26573129765785
 20
68.46761210382104
 30
0.0
 10
47.20580019987475
 20
68.47731197265886
 30
0.0
 10
47.14525526406321
 20
68.48654971640954
 30
0.0
 10
47.08417270163321
 20
68.49531558388147
 30
0.0
 10
47.0225522063518
 20
68.50361669098202
 30
0.0
 10
46.96037547059993
 20
68.5114968866279
 30
0.0
 10
46.89763523083827
 20
68.51894603928132
 30
0.0
 10
46.83434791575986
 20
68.52599445056305
 30
0.0
 10
46.77059725125464
 20
68.53264870915456
 30
0.0
 10
46.70657384233369
 20
68.53889104463469
 30
0.0
 10
46.64243623759102
 20
68.5447322140876
 30
0.0
 10
46.57810494259083
 20
68.55017570041283
 30
0.0
 10
46.51334256837465
 20
68.55524638785479
 30
0.0
 10
46.44804935690205
 20
68.55997395683971
 30
0.0
 10
46.38226919310695
 20
68.56436309046642
 30
0.0
 10
46.31611561606091
 20
68.56840994397427
 30
0.0
 10
46.24965760681757
 20
68.57211116811386
 30
0.0
 10
46.1829886009487
 20
68.57548248749541
 30
0.0
 10
46.11617927395172
 20
68.57850269851976
 30
0.0
 10
46.04929347803257
 20
68.58119055732226
 30
0.0
 10
45.98239286282797
 20
68.5835325464167
 30
0.0
 10
45.91556057220617
 20
68.585534930387
 30
0.0
 10
45.84876708876723
 20
68.58718150798158
 30
0.0
 10
45.78202053818234
 20
68.58849295475798
 30
0.0
 10
45.71527569709365
 20
68.58943490340552
 30
0.0
 10
45.64723978307735
 20
68.59006260699242
 30
0.0
 10
45.57456634498923
 20
68.59029979122297
 30
0.0
 10
45.52413395200074
 20
68.5903269717999
 30
0.0
 10
45.49726158078736
 20
68.59034974024391
 30
0.0
 11
49.10685528488737
 21
66.99638503074391
 31
0.0
 11
49.09994717908737
 21
67.03019056314392
 31
0.0
 11
49.08916541248736
 21
67.06700322314389
 31
0.0
 11
49.07424032948736
 21
67.1068071684439
 31
0.0
 11
49.05556468438736
 21
67.14838674574392
 31
0.0
 11
49.03472718848736
 21
67.1892856399439
 31
0.0
 11
49.01379312248737
 21
67.22718377354391
 31
0.0
 11
48.99261916418737
 21
67.2633104709439
 31
0.0
 11
48.97000852358736
 21
67.29984278234391
 31
0.0
 11
48.94561841088736
 21
67.3371075489439
 31
0.0
 11
48.91963595288737
 21
67.37470835684391
 31
0.0
 11
48.89196864778736
 21
67.4127535516439
 31
0.0
 11
48.86359322238736
 21
67.44998875034392
 31
0.0
 11
48.83599536598737
 21
67.48493056074392
 31
0.0
 11
48.80955228808737
 21
67.51776989344392
 31
0.0
 11
48.78388320868737
 21
67.5493282249439
 31
0.0
 11
48.75891154178737
 21
67.5799463272439
 31
0.0
 11
48.73462475328736
 21
67.60981407574391
 31
0.0
 11
48.71124788768736
 21
67.63880001814391
 31
0.0
 11
48.68869400018737
 21
67.6671504493439
 31
0.0
 11
48.66684800838736
 21
67.69508928784391
 31
0.0
 11
48.64553469148737
 21
67.72283225934391
 31
0.0
 11
48.62410490868737
 21
67.7512270694439
 31
0.0
 11
48.60127196738737
 21
67.78189401164391
 31
0.0
 11
48.57568593028736
 21
67.81605715714391
 31
0.0
 11
48.54787977928737
 21
67.85263557464391
 31
0.0
 11
48.51905123228736
 21
67.88962456934391
 31
0.0
 11
48.48944298488737
 21
67.92628537874391
 31
0.0
 11
48.45879127308737
 21
67.96249068314391
 31
0.0
 11
48.42738258538736
 21
67.99732597604391
 31
0.0
 11
48.39492396178737
 21
68.03058152834392
 31
0.0
 11
48.36027656958737
 21
68.06279450604391
 31
0.0
 11
48.32276559298737
 21
68.09408353284391
 31
0.0
 11
48.28270682858736
 21
68.12426121554391
 31
0.0
 11
48.24063350828737
 21
68.15297671354392
 31
0.0
 11
48.19696485428736
 21
68.17990651994391
 31
0.0
 11
48.15185937368737
 21
68.2051018151439
 31
0.0
 11
48.10519626748737
 21
68.22888120424392
 31
0.0
 11
48.05715800998736
 21
68.25136351684391
 31
0.0
 11
48.00876125088737
 21
68.27227839234391
 31
0.0
 11
47.96045531848736
 21
68.29160357014391
 31
0.0
 11
47.91141278738737
 21
68.30979630084391
 31
0.0
 11
47.86151429658736
 21
68.32705877214391
 31
0.0
 11
47.81184801038736
 21
68.34314407664391
 31
0.0
 11
47.76232576868737
 21
68.35809826214391
 31
0.0
 11
47.71185560768737
 21
68.3723510436439
 31
0.0
 11
47.66026125638737
 21
68.38599159534391
 31
0.0
 11
47.60762898178737
 21
68.3990335154439
 31
0.0
 11
47.55355472348736
 21
68.41160590784392
 31
0.0
 11
47.49788686208737
 21
68.4237785019439
 31
0.0
 11
47.44110598568736
 21
68.43546533954391
 31
0.0
 11
47.38355659808736
 21
68.44662459934392
 31
0.0
 11
47.32514880148737
 21
68.45728808874392
 31
0.0
 11
47.26594091298736
 21
68.4674759882439
 31
0.0
 11
47.20595756738737
 21
68.4771940524439
 31
0.0
 11
47.14537237148737
 21
68.48644045544391
 31
0.0
 11
47.08431608158736
 21
68.4952057402439
 31
0.0
 11
47.02272003928736
 21
68.50351248064391
 31
0.0
 11
46.96052420518737
 21
68.5113952550439
 31
0.0
 11
46.89779228978737
 21
68.5188506948439
 31
0.0
 11
46.83450991228736
 21
68.52590290144391
 31
0.0
 11
46.77067014858737
 21
68.53256799874391
 31
0.0
 11
46.70654606058737
 21
68.53882497454391
 31
0.0
 11
46.64244705988736
 21
68.54466224584391
 31
0.0
 11
46.57826161588737
 21
68.55009505854392
 31
0.0
 11
46.51355700298736
 21
68.55516635524391
 31
0.0
 11
46.44816583788736
 21
68.55990375534391
 31
0.0
 11
46.38238646768736
 21
68.56429455804391
 31
0.0
 11
46.31622024338736
 21
68.56834322954391
 31
0.0
 11
46.24970856158737
 21
68.5720515752439
 31
0.0
 11
46.18301653358737
 21
68.5754215049439
 31
0.0
 11
46.11621536648736
 21
68.57844520544391
 31
0.0
 11
46.04928422418736
 21
68.58113313804391
 31
0.0
 11
45.98236144318736
 21
68.5834773211439
 31
0.0
 11
45.91551634588737
 21
68.5854770371439
 31
0.0
 11
45.84878959548737
 21
68.58712533054391
 31
0.0
 11
45.78198401488736
 21
68.58843198384391
 31
0.0
 11
45.71527888508737
 21
68.58938053254391
 31
0.0
 11
45.64855826108736
 21
68.58998604724391
 31
0.0
 11
45.57787867228737
 21
68.59025899134391
 31
0.0
 11
45.49726158078736
 21
68.59034974024391
 31
0.0
  0
SPLINE
  5
963
330
1F
100
AcDbEntity
  8
__SOLID_BOWL
  6
Continuous
 62
     7
100
AcDbSpline
210
0.0
220
0.0
230
1.0
 70
     8
 71
     3
 72
    86
 73
    82
 74
    80
 42
0.0000000001
 43
0.0000000001
 44
0.0000000001
 12
-0.9730373714578519
 22
0.2306475097337812
 32
0.0
 13
-0.9999999362578931
 23
-0.0003570493100744
 33
0.0
 40
0.0
 40
0.0
 40
0.0
 40
0.0
 40
0.0237363409170394
 40
0.0523169015610455
 40
0.0860189921648759
 40
0.1238185648039856
 40
0.1629871387727863
 40
0.2006555056391927
 40
0.2378379353407895
 40
0.2767398150505901
 40
0.3177054795396828
 40
0.3603503972658182
 40
0.4047865871614917
 40
0.4493159516880117
 40
0.4919370138872202
 40
0.5327796675272189
 40
0.5726968827062401
 40
0.6118949618885087
 40
0.650525467596768
 40
0.68835346476604
 40
0.7257834815051388
 40
0.7631082287994434
 40
0.8008054108870648
 40
0.8404688402949622
 40
0.8848519313556789
 40
0.9359196694570847
 40
0.9918034615087563
 40
1.050129333981074
 40
1.110719021684103
 40
1.173396164388975
 40
1.236130126419397
 40
1.299348548230753
 40
1.36438392883153
 40
1.431179095577812
 40
1.498894714370742
 40
1.566287716985215
 40
1.632429819426144
 40
1.69755822250717
 40
1.762150469580724
 40
1.825598564163391
 40
1.886451332391948
 40
1.945302770509001
 40
2.003364914486841
 40
2.059919006048587
 40
2.113851505085075
 40
2.166501974904242
 40
2.218547893712485
 40
2.269852291950849
 40
2.32075312937748
 40
2.371695695564463
 40
2.422293145831697
 40
2.472050697266545
 40
2.521141979440508
 40
2.569578484700478
 40
2.617442767582685
 40
2.664683297341441
 40
2.711087561674003
 40
2.756654307760071
 40
2.801557942011723
 40
2.845819672667431
 40
2.889497395042485
 40
2.932689411205566
 40
2.975301812106894
 40
3.017162545542067
 40
3.058331303866541
 40
3.099088026396745
 40
3.139594919359677
 40
3.179676924351026
 40
3.219339526719951
 40
3.258592564762579
 40
3.297354271544992
 40
3.335646052470978
 40
3.373776299377504
 40
3.411742799839779
 40
3.449462952347676
 40
3.486897992099717
 40
3.524149912788287
 40
3.561115485516575
 40
3.597819237435343
 40
3.636403008863574
 40
3.680105696667682
 40
3.680105696667682
 40
3.680105696667682
 40
3.680105696667682
 10
48.91295242458737
 20
66.61419099884392
 30
0.0
 10
48.90525364232939
 20
66.61601590815149
 30
0.0
 10
48.88847652880235
 20
66.62083855442945
 30
0.0
 10
48.86136166786426
 20
66.63017565572239
 30
0.0
 10
48.8301543205211
 20
66.64197549978306
 30
0.0
 10
48.79579690975925
 20
66.65540673662161
 30
0.0
 10
48.76011692711131
 20
66.66908942688623
 30
0.0
 10
48.72437182509347
 20
66.68201133361461
 30
0.0
 10
48.68847451202114
 20
66.69422896556257
 30
0.0
 10
48.65133254585094
 20
66.70618282198526
 30
0.0
 10
48.61227610051747
 20
66.7181169799816
 30
0.0
 10
48.57125187590491
 20
66.72990626263
 30
0.0
 10
48.52886278351203
 20
66.74121979485303
 30
0.0
 10
48.48626147459366
 20
66.75167631649916
 30
0.0
 10
48.44458545649699
 20
66.76082915277752
 30
0.0
 10
48.40418260943742
 20
66.7685429618239
 30
0.0
 10
48.36468879986393
 20
66.77484197720736
 30
0.0
 10
48.32573285920789
 20
66.77969374614109
 30
0.0
 10
48.28731736449405
 20
66.78304653053334
 30
0.0
 10
48.24938698700236
 20
66.78485394771212
 30
0.0
 10
48.21184832509462
 20
66.78505507191515
 30
0.0
 10
48.17437966134534
 20
66.78362605320529
 30
0.0
 10
48.13626757547842
 20
66.78049070964026
 30
0.0
 10
48.09600082863287
 20
66.77533193101464
 30
0.0
 10
48.05164315612273
 20
66.76742210192419
 30
0.0
 10
48.00249396639258
 20
66.75595045311286
 30
0.0
 10
47.94958567796599
 20
66.74049262198555
 30
0.0
 10
47.89457919435856
 20
66.72119834641236
 30
0.0
 10
47.8384823152375
 20
66.6984065037652
 30
0.0
 10
47.78200560724452
 20
66.67278644746523
 30
0.0
 10
47.72579372633003
 20
66.64458151934812
 30
0.0
 10
47.66988314666295
 20
66.61411601436125
 30
0.0
 10
47.61365244052851
 20
66.58146493428207
 30
0.0
 10
47.55688176442588
 20
66.54679702140028
 30
0.0
 10
47.49996880393991
 20
66.5108708572162
 30
0.0
 10
47.44377051321325
 20
66.47423496880069
 30
0.0
 10
47.38860966289175
 20
66.43759394824616
 30
0.0
 10
47.33437975870416
 20
66.40124027060861
 30
0.0
 10
47.28079733470375
 20
66.3655336764624
 30
0.0
 10
47.228221181204
 20
66.33088809320838
 30
0.0
 10
47.17697460439856
 20
66.2977053970464
 30
0.0
 10
47.12690778246771
 20
66.26600904014513
 30
0.0
 10
47.07769627966125
 20
66.23564703898532
 30
0.0
 10
47.02948933019846
 20
66.20678848125715
 30
0.0
 10
46.98245748077569
 20
66.17948959465789
 30
0.0
 10
46.9364320649998
 20
66.15345734540804
 30
0.0
 10
46.89086992667664
 20
66.12839233265967
 30
0.0
 10
46.84551324809571
 20
66.10417199939007
 30
0.0
 10
46.80016959339638
 20
66.08071672996928
 30
0.0
 10
46.75470567608783
 20
66.05801828513534
 30
0.0
 10
46.70929861019515
 20
66.03606909352484
 30
0.0
 10
46.66417789000663
 20
66.01495426086609
 30
0.0
 10
46.61943625328269
 20
65.99473884911262
 30
0.0
 10
46.5750028669605
 20
65.9753847319487
 30
0.0
 10
46.53087130056078
 20
65.95689384318574
 30
0.0
 10
46.48710117775968
 20
65.93930677306776
 30
0.0
 10
46.44381816129591
 20
65.92257335623372
 30
0.0
 10
46.4010608858371
 20
65.90664973447343
 30
0.0
 10
46.35876161107541
 20
65.89155414205823
 30
0.0
 10
46.31684883944577
 20
65.87726220996405
 30
0.0
 10
46.27528126811046
 20
65.86373919339384
 30
0.0
 10
46.23405036475363
 20
65.85097262945293
 30
0.0
 10
46.19322315781167
 20
65.83896442814728
 30
0.0
 10
46.15287031068294
 20
65.82774929348676
 30
0.0
 10
46.11294037049126
 20
65.81734236182699
 30
0.0
 10
46.07329061069269
 20
65.8076701675375
 30
0.0
 10
46.0338480095701
 20
65.79869805559259
 30
0.0
 10
45.99462691166308
 20
65.79041851835731
 30
0.0
 10
45.95569110126264
 20
65.78283483349645
 30
0.0
 10
45.91707770571227
 20
65.77592264063378
 30
0.0
 10
45.87881952236624
 20
65.76964235603483
 30
0.0
 10
45.84083901713822
 20
65.76400728678422
 30
0.0
 10
45.80303086928002
 20
65.75905225468019
 30
0.0
 10
45.76533061236519
 20
65.75478585188038
 30
0.0
 10
45.72779259235284
 20
65.75119702467643
 30
0.0
 10
45.69043358216808
 20
65.74830132355298
 30
0.0
 10
45.65327883720724
 20
65.74610297745426
 30
0.0
 10
45.61633357816091
 20
65.74460681828437
 30
0.0
 10
45.57892245203432
 20
65.74376132482139
 30
0.0
 10
45.53925760034
 20
65.74375778847851
 30
0.0
 10
45.51182914146017
 20
65.74376610798208
 30
0.0
 10
45.49726157978737
 20
65.74376090664391
 30
0.0
 11
48.91295242458737
 21
66.61419099884392
 31
0.0
 11
48.89008881768737
 21
66.62056825214391
 31
0.0
 11
48.86302069668737
 21
66.62974241544391
 31
0.0
 11
48.83145372568737
 21
66.6415473827439
 31
0.0
 11
48.79620713808737
 21
66.65520336144391
 31
0.0
 11
48.75960495568737
 21
66.66914816084392
 31
0.0
 11
48.72418018518736
 21
66.68195407734391
 31
0.0
 11
48.68898543758737
 21
66.6939483601439
 31
0.0
 11
48.65195940458736
 21
66.70588272754392
 31
0.0
 11
48.61277954588736
 21
66.71784618604391
 31
0.0
 11
48.57179036868736
 21
66.7296137839439
 31
0.0
 11
48.52885570248737
 21
66.7410675785439
 31
0.0
 11
48.48560133108737
 21
66.7516469764439
 31
0.0
 11
48.44396606118737
 21
66.76076066084391
 31
0.0
 11
48.40384308038736
 21
66.76839405904392
 31
0.0
 11
48.36441946468736
 21
66.77465206134391
 31
0.0
 11
48.32551934358736
 21
66.77947595914393
 31
0.0
 11
48.28703330438736
 21
66.78281373654392
 31
0.0
 11
48.24924715018737
 21
66.78459247784392
 31
0.0
 11
48.21181762148737
 21
66.78478361754392
 31
0.0
 11
48.17452006798736
 21
66.78335909534391
 31
0.0
 11
48.13694980928737
 21
66.78026827044391
 31
0.0
 11
48.09760776618737
 21
66.77522929464391
 31
0.0
 11
48.05391047398737
 21
66.76745720184391
 31
0.0
 11
48.00417155568736
 21
66.75588335714391
 31
0.0
 11
47.95051603638737
 21
66.7402601864439
 31
0.0
 11
47.89545657888736
 21
66.72101535494391
 31
0.0
 11
47.83928438188737
 21
66.6983042444439
 31
0.0
 11
47.78219938588736
 21
66.67242515154391
 31
0.0
 11
47.72610236408737
 21
66.64434180884391
 31
0.0
 11
47.67055384708736
 21
66.6141601734439
 31
0.0
 11
47.61428140638736
 21
66.58155629104391
 31
0.0
 11
47.55723044768736
 21
66.54681751714392
 31
0.0
 11
47.49996734118737
 21
66.51067416834391
 31
0.0
 11
47.44347513028737
 21
66.4739257410439
 31
0.0
 11
47.38835428188736
 21
66.43736798144391
 31
0.0
 11
47.33421464778736
 21
66.40116564854391
 31
0.0
 11
47.28044895748737
 21
66.36536887594392
 31
0.0
 11
47.22745135838737
 21
66.33048456434391
 31
0.0
 11
47.17635767758737
 21
66.2974316494439
 31
0.0
 11
47.12662479208737
 21
66.26596528854391
 31
0.0
 11
47.07720023888737
 21
66.2354952031439
 31
0.0
 11
47.02867338878736
 21
66.20645195794391
 31
0.0
 11
46.98203742408736
 21
66.17936319184391
 31
0.0
 11
46.93620586658737
 21
66.1534490970439
 31
0.0
 11
46.89060143888736
 21
66.12836894874391
 31
0.0
 11
46.84534221618736
 21
66.10420815324392
 31
0.0
 11
46.80012694758736
 21
66.08083135414391
 31
0.0
 11
46.75455475368737
 21
66.05806470764391
 31
0.0
 11
46.70900057958736
 21
66.0360438267439
 31
0.0
 11
46.66393024658737
 21
66.01496115594392
 31
0.0
 11
46.61919199048736
 21
65.9947511973439
 31
0.0
 11
46.57478321858737
 21
65.97541325484391
 31
0.0
 11
46.53063469578737
 21
65.95692278404391
 31
0.0
 11
46.48680424498737
 21
65.93930009314391
 31
0.0
 11
46.44352340948737
 21
65.92256315714391
 31
0.0
 11
46.40081774988736
 21
65.90667117844391
 31
0.0
 11
46.35852492318736
 21
65.89158299834392
 31
0.0
 11
46.31663148268737
 21
65.87729872574391
 31
0.0
 11
46.27509573018737
 21
65.8637885556439
 31
0.0
 11
46.23383601448736
 21
65.85101412334392
 31
0.0
 11
46.19295323238737
 21
65.83899685084391
 31
0.0
 11
46.15261855618737
 21
65.82779707854391
 31
0.0
 11
46.11278100978736
 21
65.8174126402439
 31
0.0
 11
46.07318531358736
 21
65.80775389944391
 31
0.0
 11
46.03368719188736
 21
65.79877020534391
 31
0.0
 11
45.99446918258736
 21
65.7904928343439
 31
0.0
 11
45.95553852928737
 21
65.78290822754391
 31
0.0
 11
45.91690042228736
 21
65.77598741234391
 31
0.0
 11
45.87864942758737
 21
65.76971594384392
 31
0.0
 11
45.84077068218737
 21
65.76410692134391
 31
0.0
 11
45.80296314218736
 21
65.75915660334391
 31
0.0
 11
45.76523755778736
 21
65.75488630604391
 31
0.0
 11
45.72768819358737
 21
65.75130089764392
 31
0.0
 11
45.69036490348736
 21
65.74841053134392
 31
0.0
 11
45.65317784018737
 21
65.74621327894391
 31
0.0
 11
45.61624269378737
 21
65.74471376984391
 31
0.0
 11
45.57954774968736
 21
65.74390972854391
 31
0.0
 11
45.54096426758737
 21
65.74376030744392
 31
0.0
 11
45.49726157978737
 21
65.74376090664391
 31
0.0
  0
LINE
  5
964
330
1F
100
AcDbEntity
  8
__SOLID_BOWL
  6
Continuous
 62
     7
100
AcDbLine
 10
49.10756023158737
 20
66.9917169842439
 30
0.0
 11
49.10685528518737
 21
66.9963850312439
 31
0.0
  0
SPLINE
  5
965
330
1F
100
AcDbEntity
  8
__SOLID_BOWL
  6
Continuous
 62
     7
100
AcDbSpline
210
0.0
220
0.0
230
1.0
 70
     8
 71
     3
 72
    22
 73
    18
 74
    16
 42
0.0000000001
 43
0.0000000001
 44
0.0000000001
 12
0.8521988901043819
 22
0.5232179772378427
 32
0.0
 13
-0.1463608959762463
 23
0.9892312611968096
 33
0.0
 40
0.0
 40
0.0
 40
0.0
 40
0.0
 40
0.0220664565571499
 40
0.0428910582423145
 40
0.0624472924396814
 40
0.080726632071383
 40
0.0977176699391105
 40
0.1134045785048076
 40
0.1277781966352801
 40
0.1408548239439243
 40
0.1526566224977119
 40
0.163201155592927
 40
0.1725189346288554
 40
0.1806768439288358
 40
0.1877754424935871
 40
0.1939769459856526
 40
0.1995389396905711
 40
0.1995389396905711
 40
0.1995389396905711
 40
0.1995389396905711
 10
48.96462195178736
 20
66.86038380444391
 30
0.0
 10
48.97089028838288
 20
66.86423232669878
 30
0.0
 10
48.98302296641244
 20
66.87179676952864
 30
0.0
 10
49.00050957506859
 20
66.88309078148093
 30
0.0
 10
49.0167407176854
 20
66.89399643696228
 30
0.0
 10
49.03169587508007
 20
66.9045032869779
 30
0.0
 10
49.0453565392948
 20
66.91460117288937
 30
0.0
 10
49.05770232762704
 20
66.92427802914619
 30
0.0
 10
49.0687182430328
 20
66.93352458513881
 30
0.0
 10
49.07839532610597
 20
66.94233693265397
 30
0.0
 10
49.08672704512826
 20
66.95071199287039
 30
0.0
 10
49.0937031537493
 20
66.95864357119643
 30
0.0
 10
49.09931291554529
 20
66.96612648151614
 30
0.0
 10
49.10354800051641
 20
66.97315896344568
 30
0.0
 10
49.10639881124422
 20
66.979750196687
 30
0.0
 10
49.10784480234603
 20
66.98591037577884
 30
0.0
 10
49.10783157748139
 20
66.98988296606142
 30
0.0
 10
49.10756022468737
 20
66.99171699874391
 30
0.0
 11
48.96462195178736
 21
66.86038380444391
 31
0.0
 11
48.98334189628737
 21
66.87206679134391
 31
0.0
 11
49.00082904738737
 21
66.8833744693439
 31
0.0
 11
49.01705434768736
 21
66.89429170004391
 31
0.0
 11
49.03200284558737
 21
66.9048119979439
 31
0.0
 11
49.04565586298737
 21
66.91492587374391
 31
0.0
 11
49.05798946208737
 21
66.92461924434391
 31
0.0
 11
49.06898297828736
 21
66.93387902294391
 31
0.0
 11
49.07863174148737
 21
66.94270509514391
 31
0.0
 11
49.08692994958737
 21
66.95109688824391
 31
0.0
 11
49.09386084288737
 21
66.95904357914391
 31
0.0
 11
49.09940668508737
 21
66.96653121164391
 31
0.0
 11
49.10355832958737
 21
66.97355369924392
 31
0.0
 11
49.10630509248736
 21
66.98009933864391
 31
0.0
 11
49.10763952238736
 21
66.98615557034391
 31
0.0
 11
49.10756022468737
 21
66.99171699874391
 31
0.0
  0
SPLINE
  5
966
330
1F
100
AcDbEntity
  8
__SOLID_BOWL
  6
Continuous
 62
     7
100
AcDbSpline
210
0.0
220
0.0
230
1.0
 70
     8
 71
     3
 72
    87
 73
    83
 74
    81
 42
0.0000000001
 43
0.0000000001
 44
0.0000000001
 12
0.1552126027341
 22
0.987881089986293
 32
0.0
 13
0.9999996410578418
 23
0.0008472804658858
 33
0.0
 40
0.0
 40
0.0
 40
0.0
 40
0.0
 40
0.0345041439046395
 40
0.0728632162272005
 40
0.1153733581230224
 40
0.1609545051944695
 40
0.2068557119105959
 40
0.2501512504087286
 40
0.2920257625955704
 40
0.3349891289568299
 40
0.3795260846497418
 40
0.4252306673920815
 40
0.4722723150977665
 40
0.5190871075127792
 40
0.5636131874200036
 40
0.6057754707362366
 40
0.6464550716514226
 40
0.6859652264375434
 40
0.7244610768126636
 40
0.7616989970925589
 40
0.7979264009546677
 40
0.8333922443830417
 40
0.8683769545423244
 40
0.9039508331016843
 40
0.9421843858048822
 40
0.9848665343559677
 40
1.030813924491194
 40
1.077710308691339
 40
1.124834222499836
 40
1.17227209235965
 40
1.219176285143948
 40
1.26564664133953
 40
1.312955390198079
 40
1.361802872948769
 40
1.411956607848067
 40
1.462895238635067
 40
1.514199875997721
 40
1.565865215301851
 40
1.618237964145555
 40
1.671276898599192
 40
1.723999553164203
 40
1.776027676348063
 40
1.828335852675052
 40
1.881135969114777
 40
1.933342070376747
 40
1.985072913052764
 40
2.037516968337448
 40
2.090884015630213
 40
2.145108069420616
 40
2.200624647580121
 40
2.257607828002996
 40
2.315578942343165
 40
2.374200278837818
 40
2.433573510988647
 40
2.493651521598922
 40
2.554416993152765
 40
2.615703712093844
 40
2.677385968573615
 40
2.739539603643804
 40
2.802232983769908
 40
2.865406370511193
 40
2.929080485602321
 40
2.993267236092765
 40
3.057695866436685
 40
3.122060108371071
 40
3.186475065285003
 40
3.251378108116844
 40
3.316940654077498
 40
3.382866405436577
 40
3.449156381896315
 40
3.515771362521511
 40
3.582548477051382
 40
3.649418041807227
 40
3.716403135606108
 40
3.783366960248308
 40
3.850241962285895
 40
3.916989067766781
 40
3.983807425489703
 40
4.050519299242523
 40
4.117242670722514
 40
4.187922786636079
 40
4.26853992931309
 40
4.26853992931309
 40
4.26853992931309
 40
4.26853992931309
 10
41.88766787668736
 20
66.99638503074391
 30
0.0
 10
41.88945303601421
 20
67.00774702784042
 30
0.0
 10
41.89439887731163
 20
67.03156440018111
 30
0.0
 10
41.90532844428877
 20
67.06847422483438
 30
0.0
 10
41.92024392544176
 20
67.10793390845492
 30
0.0
 10
41.93866923093578
 20
67.14864714214889
 30
0.0
 10
41.95918026057705
 20
67.18863081623061
 30
0.0
 10
41.98034336548346
 20
67.22685908061695
 30
0.0
 10
42.00194749926537
 20
67.26370789997554
 30
0.0
 10
42.02463781377423
 20
67.30038608584951
 30
0.0
 10
42.0489647507424
 20
67.33753643739013
 30
0.0
 10
42.07499359845324
 20
67.37517938778165
 30
0.0
 10
42.10236592472824
 20
67.41279995915184
 30
0.0
 10
42.13035283829526
 20
67.44947155924785
 30
0.0
 10
42.15798848464247
 20
67.48435313058243
 30
0.0
 10
42.18463256327907
 20
67.51740793370645
 30
0.0
 10
42.21038785775348
 20
67.54903082534813
 30
0.0
 10
42.2354054386827
 20
67.57967818411263
 30
0.0
 10
42.25965365465358
 20
67.60947267768052
 30
0.0
 10
42.28309715060201
 20
67.63851104671755
 30
0.0
 10
42.30571304451142
 20
67.66691869518587
 30
0.0
 10
42.32761640880788
 20
67.69493192173417
 30
0.0
 10
42.3491477981702
 20
67.72295775822598
 30
0.0
 10
42.37099238797187
 20
67.75190484115402
 30
0.0
 10
42.39411016533469
 20
67.78310321827511
 30
0.0
 10
42.41945421747064
 20
67.81695499626846
 30
0.0
 10
42.44676180964776
 20
67.85294327435297
 30
0.0
 10
42.4754124359504
 20
67.88976819238022
 30
0.0
 10
42.5050095913511
 20
67.92647871091737
 30
0.0
 10
42.53542929603129
 20
67.96251743559006
 30
0.0
 10
42.56681731316276
 20
67.99742914987374
 30
0.0
 10
42.5995293287444
 20
68.03105054863472
 30
0.0
 10
42.63433341087798
 20
68.06347237686146
 30
0.0
 10
42.6718508535658
 20
68.09466918702987
 30
0.0
 10
42.71180256077679
 20
68.12472926397941
 30
0.0
 10
42.7537742418163
 20
68.15337904394533
 30
0.0
 10
42.79747348463445
 20
68.18029030714192
 30
0.0
 10
42.84271775121356
 20
68.20550333150015
 30
0.0
 10
42.88939815791975
 20
68.22924261377515
 30
0.0
 10
42.93716284861675
 20
68.2515571909333
 30
0.0
 10
42.98545682873636
 20
68.27240946136631
 30
0.0
 10
43.03407468616416
 20
68.29184616298097
 30
0.0
 10
43.0832001362971
 20
68.31003305007374
 30
0.0
 10
43.1327681899492
 20
68.32715389604813
 30
0.0
 10
43.18247021788397
 20
68.34326868025707
 30
0.0
 10
43.23238272551847
 20
68.35831236217941
 30
0.0
 10
43.28292522523667
 20
68.37257546280608
 30
0.0
 10
43.3345042764052
 20
68.38619706756924
 30
0.0
 10
43.38728211305538
 20
68.3992635954437
 30
0.0
 10
43.44141857880987
 20
68.41183241084646
 30
0.0
 10
43.49693399702913
 20
68.42396228235334
 30
0.0
 10
43.55360818650316
 20
68.4356157169162
 30
0.0
 10
43.61119274530643
 20
68.44677808501565
 30
0.0
 10
43.66958830616352
 20
68.45742727545422
 30
0.0
 10
43.72879186383445
 20
68.46761210388027
 30
0.0
 10
43.7887229616407
 20
68.47731197261184
 30
0.0
 10
43.84926789746312
 20
68.48654971648025
 30
0.0
 10
43.91035045989707
 20
68.49531558368892
 30
0.0
 10
43.97197095514393
 20
68.50361669103925
 30
0.0
 10
44.03414769087692
 20
68.51149688661209
 30
0.0
 10
44.09688793066827
 20
68.51894603929422
 30
0.0
 10
44.16017524575002
 20
68.5259944505464
 30
0.0
 10
44.22392591025231
 20
68.53264870916553
 30
0.0
 10
44.28794931917497
 20
68.53889104462725
 30
0.0
 10
44.35208692394422
 20
68.54473221412817
 30
0.0
 10
44.41641821896226
 20
68.55017570023583
 30
0.0
 10
44.48118059312668
 20
68.55524638790649
 30
0.0
 10
44.54647380457376
 20
68.55997395682632
 30
0.0
 10
44.61225396836749
 20
68.56436309046998
 30
0.0
 10
44.67840754541389
 20
68.56840994397353
 30
0.0
 10
44.74486555465717
 20
68.57211116811322
 30
0.0
 10
44.81153456052592
 20
68.57548248749864
 30
0.0
 10
44.87834388752342
 20
68.57850269850735
 30
0.0
 10
44.94522968343942
 20
68.58119055736864
 30
0.0
 10
45.01213029865128
 20
68.58353254624358
 30
0.0
 10
45.07896258926614
 20
68.58553493043342
 30
0.0
 10
45.14575607267459
 20
68.58718150796756
 30
0.0
 10
45.21250262325891
 20
68.58849295476375
 30
0.0
 10
45.27924746431446
 20
68.58943490340275
 30
0.0
 10
45.34728337836402
 20
68.59006260699385
 30
0.0
 10
45.4199568164855
 20
68.59029979122232
 30
0.0
 10
45.47038920954065
 20
68.59032697180051
 30
0.0
 10
45.49726158078736
 20
68.59034974024391
 30
0.0
 11
41.88766787668736
 21
66.99638503074391
 31
0.0
 11
41.89457598248736
 21
67.03019056314392
 31
0.0
 11
41.90535774918736
 21
67.06700322314389
 31
0.0
 11
41.92028283218736
 21
67.1068071684439
 31
0.0
 11
41.93895847728736
 21
67.14838674574392
 31
0.0
 11
41.95979597308737
 21
67.1892856399439
 31
0.0
 11
41.98073003918736
 21
67.22718377354391
 31
0.0
 11
42.00190399738736
 21
67.2633104709439
 31
0.0
 11
42.02451463808737
 21
67.29984278234391
 31
0.0
 11
42.04890475068737
 21
67.3371075489439
 31
0.0
 11
42.07488720878736
 21
67.37470835684391
 31
0.0
 11
42.10255451388737
 21
67.4127535516439
 31
0.0
 11
42.13092993928737
 21
67.44998875034392
 31
0.0
 11
42.15852779568737
 21
67.48493056074392
 31
0.0
 11
42.18497087358737
 21
67.51776989334391
 31
0.0
 11
42.21063995298736
 21
67.5493282249439
 31
0.0
 11
42.23561161978736
 21
67.5799463272439
 31
0.0
 11
42.25989840828737
 21
67.60981407574391
 31
0.0
 11
42.28327527398737
 21
67.63880001814391
 31
0.0
 11
42.30582916148736
 21
67.6671504493439
 31
0.0
 11
42.32767515318736
 21
67.69508928784391
 31
0.0
 11
42.34898847008736
 21
67.72283225934391
 31
0.0
 11
42.37041825298737
 21
67.7512270694439
 31
0.0
 11
42.39325119428737
 21
67.78189401164391
 31
0.0
 11
42.41883723138736
 21
67.81605715714391
 31
0.0
 11
42.44664338238736
 21
67.85263557464391
 31
0.0
 11
42.47547192938736
 21
67.88962456934391
 31
0.0
 11
42.50508017678736
 21
67.92628537864391
 31
0.0
 11
42.53573188848736
 21
67.96249068304391
 31
0.0
 11
42.56714057628737
 21
67.99732597594391
 31
0.0
 11
42.59959919978736
 21
68.03058152834392
 31
0.0
 11
42.63424659198736
 21
68.06279450604391
 31
0.0
 11
42.67175756868737
 21
68.09408353284391
 31
0.0
 11
42.71181633298737
 21
68.1242612154439
 31
0.0
 11
42.75388965328736
 21
68.1529767134439
 31
0.0
 11
42.79755830728737
 21
68.17990651984391
 31
0.0
 11
42.84266378788736
 21
68.2051018151439
 31
0.0
 11
42.88932689408737
 21
68.2288812041439
 31
0.0
 11
42.93736515158736
 21
68.25136351684391
 31
0.0
 11
42.98576191068737
 21
68.27227839224391
 31
0.0
 11
43.03406784308736
 21
68.29160357004392
 31
0.0
 11
43.08311037418737
 21
68.30979630084391
 31
0.0
 11
43.13300886498736
 21
68.32705877204391
 31
0.0
 11
43.18267515118736
 21
68.34314407664391
 31
0.0
 11
43.23219739288737
 21
68.35809826204391
 31
0.0
 11
43.28266755388736
 21
68.3723510436439
 31
0.0
 11
43.33426190518737
 21
68.38599159534391
 31
0.0
 11
43.38689417978737
 21
68.3990335154439
 31
0.0
 11
43.44096843798737
 21
68.41160590784392
 31
0.0
 11
43.49663629948736
 21
68.4237785019439
 31
0.0
 11
43.55341717588737
 21
68.43546533954391
 31
0.0
 11
43.61096656348736
 21
68.44662459934392
 31
0.0
 11
43.66937435998736
 21
68.4572880886439
 31
0.0
 11
43.72858224848736
 21
68.4674759882439
 31
0.0
 11
43.78856559418736
 21
68.4771940524439
 31
0.0
 11
43.84915078998736
 21
68.48644045544391
 31
0.0
 11
43.91020707998737
 21
68.49520574014391
 31
0.0
 11
43.97180312218736
 21
68.50351248064391
 31
0.0
 11
44.03399895628736
 21
68.5113952550439
 31
0.0
 11
44.09673087168736
 21
68.5188506948439
 31
0.0
 11
44.16001324928736
 21
68.52590290144391
 31
0.0
 11
44.22385301288737
 21
68.53256799874391
 31
0.0
 11
44.28797710088736
 21
68.53882497454391
 31
0.0
 11
44.35207610168736
 21
68.54466224584391
 31
0.0
 11
44.41626154568736
 21
68.5500950584439
 31
0.0
 11
44.48096615848736
 21
68.55516635524391
 31
0.0
 11
44.54635732358736
 21
68.55990375534391
 31
0.0
 11
44.61213669378737
 21
68.56429455804391
 31
0.0
 11
44.67830291808737
 21
68.56834322954391
 31
0.0
 11
44.74481459988736
 21
68.5720515752439
 31
0.0
 11
44.81150662788737
 21
68.5754215049439
 31
0.0
 11
44.87830779498736
 21
68.57844520544391
 31
0.0
 11
44.94523893728737
 21
68.58113313804391
 31
0.0
 11
45.01216171828736
 21
68.58347732104391
 31
0.0
 11
45.07900681558736
 21
68.5854770371439
 31
0.0
 11
45.14573356598737
 21
68.58712533054391
 31
0.0
 11
45.21253914648736
 21
68.58843198384391
 31
0.0
 11
45.27924427638736
 21
68.58938053254391
 31
0.0
 11
45.34596490028737
 21
68.58998604724391
 31
0.0
 11
45.41664448918736
 21
68.59025899134391
 31
0.0
 11
45.49726158078736
 21
68.59034974024391
 31
0.0
  0
SPLINE
  5
967
330
1F
100
AcDbEntity
  8
__SOLID_BOWL
  6
Continuous
 62
     7
100
AcDbSpline
210
0.0
220
0.0
230
1.0
 70
     8
 71
     3
 72
    86
 73
    82
 74
    80
 42
0.0000000001
 43
0.0000000001
 44
0.0000000001
 12
0.9730373714594325
 22
0.2306475097271116
 32
0.0
 13
0.9999999362578735
 23
-0.0003570493646246
 33
0.0
 40
0.0
 40
0.0
 40
0.0
 40
0.0
 40
0.0237363409170411
 40
0.0523169015610472
 40
0.0860189920712145
 40
0.1238185648035702
 40
0.1629871387723693
 40
0.2006555055447319
 40
0.2378379353409829
 40
0.2767398149556039
 40
0.3177054794446981
 40
0.3603503972669509
 40
0.4047865871626245
 40
0.4493159515920095
 40
0.491937013791218
 40
0.5327796675294528
 40
0.5726968827084722
 40
0.6118949618907444
 40
0.650525467499376
 40
0.6883534647685389
 40
0.7257834815076342
 40
0.7631082288019389
 40
0.8008054108895603
 40
0.8404688401982715
 40
0.8848519313574414
 40
0.9359196693614492
 40
0.991803461413119
 40
1.050129333979837
 40
1.110719021682866
 40
1.173396164387739
 40
1.23613012641816
 40
1.29934854814165
 40
1.364383928828952
 40
1.431179095575235
 40
1.498894714283602
 40
1.566287716981899
 40
1.632429819422828
 40
1.697558222420725
 40
1.762150469577519
 40
1.825598564076655
 40
1.886451332389178
 40
1.945302770421722
 40
2.003364914399563
 40
2.05991900596131
 40
2.113851505084267
 40
2.166501974903437
 40
2.218547893624055
 40
2.26985229186242
 40
2.32075312937788
 40
2.371695695564865
 40
2.422293145832097
 40
2.472050697266944
 40
2.521141979440908
 40
2.569578484700878
 40
2.617442767583083
 40
2.664683297249061
 40
2.71108756167489
 40
2.756654307760958
 40
2.80155794201261
 40
2.845819672668318
 40
2.889497395043372
 40
2.932689411110926
 40
2.975301812012254
 40
3.017162545543782
 40
3.058331303868256
 40
3.09908802639846
 40
3.139594919361392
 40
3.179676924352741
 40
3.219339526721666
 40
3.258592564764294
 40
3.297354271546707
 40
3.335646052472693
 40
3.373776299379219
 40
3.411742799841494
 40
3.449462952349391
 40
3.486897992001731
 40
3.524149912790127
 40
3.561115485518417
 40
3.59781923743718
 40
3.636403008865414
 40
3.680105694569523
 40
3.680105694569523
 40
3.680105694569523
 40
3.680105694569523
 10
42.08157073708736
 20
66.61419099884392
 30
0.0
 10
42.08926951934535
 20
66.61601590815144
 30
0.0
 10
42.10604663287137
 20
66.62083855443214
 30
0.0
 10
42.13316149378562
 20
66.63017565569984
 30
0.0
 10
42.16436884110272
 20
66.64197549982919
 30
0.0
 10
42.19872625189156
 20
66.65540673659757
 30
0.0
 10
42.23440623453808
 20
66.66908942686356
 30
0.0
 10
42.27015133653227
 20
66.68201133365951
 30
0.0
 10
42.30604864960166
 20
66.69422896551849
 30
0.0
 10
42.34319061574957
 20
66.70618282200816
 30
0.0
 10
42.3822470610869
 20
66.71811697999505
 30
0.0
 10
42.42327128574093
 20
66.72990626261463
 30
0.0
 10
42.46566037813264
 20
66.74121979483944
 30
0.0
 10
42.50826168701123
 20
66.75167631651183
 30
0.0
 10
42.54993770510892
 20
66.76082915278943
 30
0.0
 10
42.59034055220616
 20
66.76854296181218
 30
0.0
 10
42.62983436181044
 20
66.77484197720986
 30
0.0
 10
42.66879030243422
 20
66.77969374613337
 30
0.0
 10
42.70720579714666
 20
66.78304653054276
 30
0.0
 10
42.74513617463922
 20
66.78485394770875
 30
0.0
 10
42.78267483658013
 20
66.78505507191641
 30
0.0
 10
42.82014350032916
 20
66.78362605320337
 30
0.0
 10
42.85825558616428
 20
66.78049070964959
 30
0.0
 10
42.89852233300501
 20
66.77533193099248
 30
0.0
 10
42.94288000549095
 20
66.76742210195252
 30
0.0
 10
42.99202919521186
 20
66.75595045309535
 30
0.0
 10
43.04493748363574
 20
66.74049262196868
 30
0.0
 10
43.09994396729062
 20
66.72119834643443
 30
0.0
 10
43.15604084643688
 20
66.69840650376354
 30
0.0
 10
43.21251755442768
 20
66.67278644746092
 30
0.0
 10
43.26872943532896
 20
66.64458151938021
 30
0.0
 10
43.32464001494584
 20
66.61411601430302
 30
0.0
 10
43.38087072112999
 20
66.58146493431235
 30
0.0
 10
43.43764139723453
 20
66.54679702142975
 30
0.0
 10
43.49455435766273
 20
66.51087085715585
 30
0.0
 10
43.55075264844697
 20
66.47423496882985
 30
0.0
 10
43.60591349877223
 20
66.43759394827985
 30
0.0
 10
43.66014340289085
 20
66.40124027053902
 30
0.0
 10
43.71372582695371
 20
66.36553367653717
 30
0.0
 10
43.76630198038895
 20
66.33088809313408
 30
0.0
 10
43.81754855725386
 20
66.29770539711561
 30
0.0
 10
43.86761537911633
 20
66.26600904010721
 30
0.0
 10
43.91682688191965
 20
66.23564703899536
 30
0.0
 10
43.96503383139104
 20
66.2067884812254
 30
0.0
 10
44.01206568088098
 20
66.17948959468396
 30
0.0
 10
44.05809109665507
 20
66.15345734543272
 30
0.0
 10
44.10365323491819
 20
66.12839233263581
 30
0.0
 10
44.14900991349948
 20
66.10417199936492
 30
0.0
 10
44.1943535682591
 20
66.08071672999653
 30
0.0
 10
44.23981748558496
 20
66.05801828513159
 30
0.0
 10
44.28522455148011
 20
66.03606909352592
 30
0.0
 10
44.33034527166783
 20
66.01495426086549
 30
0.0
 10
44.37508690839256
 20
65.9947388491139
 30
0.0
 10
44.41952029471247
 20
65.97538473194425
 30
0.0
 10
44.46365186109186
 20
65.95689384321388
 30
0.0
 10
44.50742198386288
 20
65.93930677301999
 30
0.0
 10
44.55070500035572
 20
65.92257335626007
 30
0.0
 10
44.59346227583599
 20
65.90664973446919
 30
0.0
 10
44.63576155059996
 20
65.89155414206001
 30
0.0
 10
44.67767432222802
 20
65.87726220996112
 30
0.0
 10
44.71924189353702
 20
65.8637391934134
 30
0.0
 10
44.76047279684917
 20
65.85097262943621
 30
0.0
 10
44.80130000379207
 20
65.83896442813141
 30
0.0
 10
44.8416528509631
 20
65.82774929350356
 30
0.0
 10
44.88158279118285
 20
65.81734236182469
 30
0.0
 10
44.92123255098221
 20
65.8076701675381
 30
0.0
 10
44.96067515210459
 20
65.79869805559241
 30
0.0
 10
44.99989625001166
 20
65.79041851835736
 30
0.0
 10
45.03883206041208
 20
65.78283483349645
 30
0.0
 10
45.07744545596247
 20
65.7759226406338
 30
0.0
 10
45.11570363930849
 20
65.76964235603485
 30
0.0
 10
45.15368414453651
 20
65.76400728678416
 30
0.0
 10
45.19149229239473
 20
65.75905225468043
 30
0.0
 10
45.22919254930948
 20
65.75478585187951
 30
0.0
 10
45.26673056928904
 20
65.75119702468277
 30
0.0
 10
45.30408957947265
 20
65.74830132354347
 30
0.0
 10
45.34124432443443
 20
65.74610297745874
 30
0.0
 10
45.37818958351375
 20
65.74460681828352
 30
0.0
 10
45.41560070964043
 20
65.74376132482173
 30
0.0
 10
45.4552655606347
 20
65.7437577884781
 30
0.0
 10
45.48269401881457
 20
65.74376610798264
 30
0.0
 10
45.49726157978737
 20
65.74376090664391
 30
0.0
 11
42.08157073708736
 21
66.61419099884392
 31
0.0
 11
42.10443434398736
 21
66.62056825214391
 31
0.0
 11
42.13150246498736
 21
66.62974241544391
 31
0.0
 11
42.16306943588736
 21
66.6415473827439
 31
0.0
 11
42.19831602358737
 21
66.65520336144391
 31
0.0
 11
42.23491820598737
 21
66.66914816084392
 31
0.0
 11
42.27034297638737
 21
66.68195407734391
 31
0.0
 11
42.30553772408736
 21
66.6939483601439
 31
0.0
 11
42.34256375698737
 21
66.70588272754392
 31
0.0
 11
42.38174361568737
 21
66.71784618604391
 31
0.0
 11
42.42273279298736
 21
66.7296137839439
 31
0.0
 11
42.46566745918737
 21
66.7410675785439
 31
0.0
 11
42.50892183048736
 21
66.7516469764439
 31
0.0
 11
42.55055710038736
 21
66.76076066084391
 31
0.0
 11
42.59068008128736
 21
66.76839405904392
 31
0.0
 11
42.63010369698736
 21
66.77465206134391
 31
0.0
 11
42.66900381808737
 21
66.77947595914393
 31
0.0
 11
42.70748985718737
 21
66.78281373654392
 31
0.0
 11
42.74527601148736
 21
66.78459247784392
 31
0.0
 11
42.78270554018736
 21
66.78478361754392
 31
0.0
 11
42.82000309368736
 21
66.78335909534391
 31
0.0
 11
42.85757335238736
 21
66.78026827044391
 31
0.0
 11
42.89691539538736
 21
66.77522929464391
 31
0.0
 11
42.94061268768736
 21
66.76745720184391
 31
0.0
 11
42.99035160588736
 21
66.75588335714391
 31
0.0
 11
43.04400712518736
 21
66.7402601864439
 31
0.0
 11
43.09906658278737
 21
66.72101535494391
 31
0.0
 11
43.15523877978736
 21
66.6983042444439
 31
0.0
 11
43.21232377578737
 21
66.67242515154391
 31
0.0
 11
43.26842079758736
 21
66.64434180884391
 31
0.0
 11
43.32396931448736
 21
66.6141601734439
 31
0.0
 11
43.38024175528736
 21
66.58155629104391
 31
0.0
 11
43.43729271398736
 21
66.54681751714392
 31
0.0
 11
43.49455582038737
 21
66.51067416834391
 31
0.0
 11
43.55104803138736
 21
66.4739257410439
 31
0.0
 11
43.60616887978737
 21
66.43736798144391
 31
0.0
 11
43.66030851378737
 21
66.40116564854391
 31
0.0
 11
43.71407420418736
 21
66.36536887594392
 31
0.0
 11
43.76707180318736
 21
66.33048456434391
 31
0.0
 11
43.81816548408736
 21
66.2974316494439
 31
0.0
 11
43.86789836948736
 21
66.26596528854391
 31
0.0
 11
43.91732292268737
 21
66.2354952031439
 31
0.0
 11
43.96584977278736
 21
66.20645195794391
 31
0.0
 11
44.01248573758737
 21
66.17936319184391
 31
0.0
 11
44.05831729508737
 21
66.1534490970439
 31
0.0
 11
44.10392172268736
 21
66.12836894874391
 31
0.0
 11
44.14918094538736
 21
66.10420815324392
 31
0.0
 11
44.19439621408737
 21
66.08083135414391
 31
0.0
 11
44.23996840798737
 21
66.05806470764391
 31
0.0
 11
44.28552258208736
 21
66.0360438267439
 31
0.0
 11
44.33059291508736
 21
66.01496115594392
 31
0.0
 11
44.37533117118737
 21
65.9947511973439
 31
0.0
 11
44.41973994308736
 21
65.97541325484391
 31
0.0
 11
44.46388846588736
 21
65.95692278404391
 31
0.0
 11
44.50771891658736
 21
65.93930009314391
 31
0.0
 11
44.55099975218736
 21
65.92256315714391
 31
0.0
 11
44.59370541178737
 21
65.90667117844391
 31
0.0
 11
44.63599823848737
 21
65.89158299834392
 31
0.0
 11
44.67789167898736
 21
65.87729872574391
 31
0.0
 11
44.71942743148736
 21
65.8637885556439
 31
0.0
 11
44.76068714708737
 21
65.85101412334392
 31
0.0
 11
44.80156992918736
 21
65.83899685084391
 31
0.0
 11
44.84190460548736
 21
65.82779707854391
 31
0.0
 11
44.88174215188736
 21
65.8174126402439
 31
0.0
 11
44.92133784808737
 21
65.80775389944391
 31
0.0
 11
44.96083596978737
 21
65.79877020534391
 31
0.0
 11
45.00005397908736
 21
65.7904928343439
 31
0.0
 11
45.03898463238736
 21
65.78290822754391
 31
0.0
 11
45.07762273938737
 21
65.77598741234391
 31
0.0
 11
45.11587373408736
 21
65.76971594384392
 31
0.0
 11
45.15375247948736
 21
65.76410692134391
 31
0.0
 11
45.19156001948736
 21
65.75915660334391
 31
0.0
 11
45.22928560388737
 21
65.75488630604391
 31
0.0
 11
45.26683496808736
 21
65.75130089764392
 31
0.0
 11
45.30415825808737
 21
65.74841053134392
 31
0.0
 11
45.34134532148736
 21
65.74621327894391
 31
0.0
 11
45.37828046788736
 21
65.74471376984391
 31
0.0
 11
45.41497541198737
 21
65.74390972854391
 31
0.0
 11
45.45355889408736
 21
65.74376030744392
 31
0.0
 11
45.49726157978737
 21
65.74376090664391
 31
0.0
  0
LINE
  5
968
330
1F
100
AcDbEntity
  8
__SOLID_BOWL
  6
Continuous
 62
     7
100
AcDbLine
 10
48.91591310188736
 20
66.61350574534392
 30
0.0
 11
48.91295242458737
 21
66.61419099884392
 31
0.0
  0
LINE
  5
969
330
1F
100
AcDbEntity
  8
__SOLID_BOWL
  6
Continuous
 62
     7
100
AcDbLine
 10
42.07861005978736
 20
66.61350574534392
 30
0.0
 11
42.08157073708736
 21
66.61419099884392
 31
0.0
  0
LINE
  5
96A
330
1F
100
AcDbEntity
  8
__SOLID_BOWL
  6
Continuous
 62
     7
100
AcDbLine
 10
41.88696292998736
 20
66.9917169842439
 30
0.0
 11
41.88766787648737
 21
66.9963850312439
 31
0.0
  0
SPLINE
  5
96B
330
1F
100
AcDbEntity
  8
__SOLID_BOWL
  6
Continuous
 62
     7
100
AcDbSpline
210
0.0
220
0.0
230
1.0
 70
     8
 71
     3
 72
    22
 73
    18
 74
    16
 42
0.0000000001
 43
0.0000000001
 44
0.0000000001
 12
-0.8520904890393417
 22
0.5233944960435631
 32
0.0
 13
0.1463608956718091
 23
0.9892312612418523
 33
0.0
 40
0.0
 40
0.0
 40
0.0
 40
0.0
 40
0.0217347848038406
 40
0.0425593864890066
 40
0.0621156206863721
 40
0.0803949603180737
 40
0.0973859981858011
 40
0.1130729067514997
 40
0.1274465248819709
 40
0.1405231521906164
 40
0.1523249507444028
 40
0.1628694839053475
 40
0.172187262941277
 40
0.1803451721903655
 40
0.1874437707551168
 40
0.1936452742687006
 40
0.1992072679750448
 40
0.1992072679750448
 40
0.1992072679750448
 40
0.1992072679750448
 10
42.02961857008737
 20
66.86055737494391
 30
0.0
 10
42.02344523561648
 20
66.86434933052358
 30
0.0
 10
42.01140732155995
 20
66.87185675355755
 30
0.0
 10
41.99401358620092
 20
66.88309078173512
 30
0.0
 10
41.97778244408763
 20
66.89399643690065
 30
0.0
 10
41.96282728657096
 20
66.90450328699265
 30
0.0
 10
41.94916662238576
 20
66.91460117288603
 30
0.0
 10
41.93682083404573
 20
66.92427802914645
 30
0.0
 10
41.92580491864432
 20
66.93352458514053
 30
0.0
 10
41.91612783556196
 20
66.94233693264798
 30
0.0
 10
41.90779611655251
 20
66.95071199290513
 30
0.0
 10
41.90082000782936
 20
66.95864357116935
 30
0.0
 10
41.89521024601751
 20
66.9661264814878
 30
0.0
 10
41.89097516115388
 20
66.97315896347091
 30
0.0
 10
41.8881243504817
 20
66.97975019669989
 30
0.0
 10
41.88667835914547
 20
66.98591037576637
 30
0.0
 10
41.88669158419384
 20
66.98988296606086
 30
0.0
 10
41.88696293698736
 20
66.99171699874391
 30
0.0
 11
42.02961857008737
 21
66.86055737494391
 31
0.0
 11
42.01118126538736
 21
66.87206679134391
 31
0.0
 11
41.99369411428736
 21
66.8833744693439
 31
0.0
 11
41.97746881398737
 21
66.89429170004391
 31
0.0
 11
41.96252031608736
 21
66.9048119979439
 31
0.0
 11
41.94886729868737
 21
66.91492587374391
 31
0.0
 11
41.93653369958736
 21
66.92461924434391
 31
0.0
 11
41.92554018338737
 21
66.93387902294391
 31
0.0
 11
41.91589142018736
 21
66.94270509514391
 31
0.0
 11
41.90759321208736
 21
66.95109688824391
 31
0.0
 11
41.90066231868736
 21
66.95904357914391
 31
0.0
 11
41.89511647648736
 21
66.96653121164391
 31
0.0
 11
41.89096483208736
 21
66.97355369924392
 31
0.0
 11
41.88821806918737
 21
66.98009933864391
 31
0.0
 11
41.88688363918736
 21
66.98615557034391
 31
0.0
 11
41.88696293698736
 21
66.99171699874391
 31
0.0
  0
LINE
  5
96C
330
1F
100
AcDbEntity
  8
__SOLID_BOWL
  6
Continuous
 62
     7
100
AcDbLine
 10
41.00628722078736
 20
59.4208497901439
 30
0.0
 11
41.00651159758736
 21
59.42530151884391
 31
0.0
  0
LINE
  5
96D
330
1F
100
AcDbEntity
  8
__SOLID_BOWL
  6
Continuous
 62
     7
100
AcDbLine
 10
41.00651813658736
 20
59.42529782804392
 30
0.0
 11
41.00664958328737
 21
59.42788039134391
 31
0.0
  0
LINE
  5
96E
330
1F
100
AcDbEntity
  8
__SOLID_BOWL
  6
Continuous
 62
     7
100
AcDbLine
 10
42.07776431968737
 20
66.61013010854389
 30
0.0
 11
42.07861008128737
 21
66.61350573714392
 31
0.0
  0
SPLINE
  5
96F
330
1F
100
AcDbEntity
  8
__SOLID_BOWL
  6
Continuous
 62
     7
100
AcDbSpline
210
0.0
220
0.0
230
1.0
 70
     8
 71
     3
 72
     8
 73
     4
 74
     2
 42
0.0000000001
 43
0.0000000001
 44
0.0000000001
 12
-0.7975394172427456
 22
0.6032668380941403
 32
0.0
 13
0.0814508237758863
 23
0.9966773616904468
 33
0.0
 40
0.0
 40
0.0
 40
0.0
 40
0.0
 40
0.0019908935079473
 40
0.0019908935079473
 40
0.0019908935079473
 40
0.0019908935079473
 10
41.00651813658736
 20
59.42529782804392
 30
0.0
 10
41.00598886457132
 20
59.42569817472109
 30
0.0
 10
41.00575077888193
 20
59.42649512558094
 30
0.0
 10
41.00580483218736
 20
59.42715655174391
 30
0.0
 11
41.00651813658736
 21
59.42529782804392
 31
0.0
 11
41.00580483218736
 21
59.42715655174391
 31
0.0
  0
LINE
  5
970
330
1F
100
AcDbEntity
  8
__SOLID_BOWL
  6
Continuous
 62
     7
100
AcDbLine
 10
41.00580483218736
 20
59.42715655174391
 30
0.0
 11
41.00589427258736
 21
59.42772859344391
 31
0.0
  0
LINE
  5
971
330
1F
100
AcDbEntity
  8
__SOLID_BOWL
  6
Continuous
 62
     7
100
AcDbLine
 10
45.49726158078736
 20
57.6971280982439
 30
0.0
 11
45.50482649108736
 21
57.69712804464392
 31
0.0
  0
SPLINE
  5
972
330
1F
100
AcDbEntity
  8
__SOLID_RIM
  6
Continuous
 62
     7
100
AcDbSpline
210
0.0
220
0.0
230
1.0
 70
     8
 71
     3
 72
    12
 73
     8
 74
     6
 42
0.0000000001
 43
0.0000000001
 44
0.0000000001
 12
-0.990243584648301
 22
-0.1393472032833222
 32
0.0
 13
0.1077130575942612
 23
-0.9941820241905883
 33
0.0
 40
0.0
 40
0.0
 40
0.0
 40
0.0
 40
0.0005428636422795
 40
0.0020853633019034
 40
0.0046037790807386
 40
0.0080797972146929
 40
0.0109049422498307
 40
0.0109049422498307
 40
0.0109049422498307
 40
0.0109049422498307
 10
54.03103172978737
 20
83.34356845804391
 30
0.0
 10
54.03085254070767
 20
83.3435432425338
 30
0.0
 10
54.03103024159666
 20
83.34250411771838
 30
0.0
 10
54.03090201815047
 20
83.34129023899667
 30
0.0
 10
54.03120121639926
 20
83.33860627160465
 30
0.0
 10
54.03143811246948
 20
83.33575064207092
 30
0.0
 10
54.03165765468408
 20
83.33364617418046
 30
0.0
 10
54.03175908968737
 20
83.3327099380439
 30
0.0
 11
54.03103172978737
 21
83.34356845804391
 31
0.0
 11
54.03092908098737
 21
83.3430353875439
 31
0.0
 11
54.03096877658737
 21
83.34149339874391
 31
0.0
 11
54.03114961928737
 21
83.33898148434391
 31
0.0
 11
54.03147089948737
 21
83.33552034564391
 31
0.0
 11
54.03175908968737
 21
83.3327099380439
 31
0.0
  0
SPLINE
  5
973
330
1F
100
AcDbEntity
  8
__SOLID_RIM
  6
Continuous
 62
     7
100
AcDbSpline
210
0.0
220
0.0
230
1.0
 70
     8
 71
     3
 72
    16
 73
    12
 74
    10
 42
0.0000000001
 43
0.0000000001
 44
0.0000000001
 12
0.8884345194662103
 22
0.459003381927458
 32
0.0
 13
0.734576382079997
 23
0.6785260045792368
 33
0.0
 40
0.0
 40
0.0
 40
0.0
 40
0.0
 40
0.0241643615654568
 40
0.0564076924587104
 40
0.089102237971945
 40
0.1224250256588504
 40
0.1565815654869513
 40
0.1916262338009835
 40
0.2276452765017566
 40
0.2647588292542578
 40
0.3030196672898477
 40
0.3030196672898477
 40
0.3030196672898477
 40
0.3030196672898477
 10
52.64526957588737
 20
73.69169330784391
 30
0.0
 10
52.65242572687257
 20
73.69539048240412
 30
0.0
 10
52.66900646359584
 20
73.7042629622465
 30
0.0
 10
52.69473570539339
 20
73.71911277759743
 30
0.0
 10
52.72252688885044
 20
73.73645770576266
 30
0.0
 10
52.75026208881568
 20
73.75506211445486
 30
0.0
 10
52.77803131516069
 20
73.77499066539347
 30
0.0
 10
52.80590593720228
 20
73.79628613270911
 30
0.0
 10
52.83392857294351
 20
73.81898698043997
 30
0.0
 10
52.8621381269905
 20
73.84313757923617
 30
0.0
 10
52.88079946822752
 20
73.85996507318918
 30
0.0
 10
52.89016797088737
 20
73.86861873104391
 30
0.0
 11
52.64526957588737
 21
73.69169330784391
 31
0.0
 11
52.66657803388737
 21
73.70308918374391
 31
0.0
 11
52.69451048028737
 21
73.71919541934392
 31
0.0
 11
52.72225268968736
 21
73.73649579864391
 31
0.0
 11
52.74993227188737
 21
73.75504974454391
 31
0.0
 11
52.77769063458737
 21
73.77495307374392
 31
0.0
 11
52.80554630748737
 21
73.79621783954391
 31
0.0
 11
52.83354213468737
 21
73.81888069674392
 31
0.0
 11
52.86174414308736
 21
73.8430066686439
 31
0.0
 11
52.89016797088737
 21
73.86861873104391
 31
0.0
  0
SPLINE
  5
974
330
1F
100
AcDbEntity
  8
__SOLID_RIM
  6
Continuous
 62
     7
100
AcDbSpline
210
0.0
220
0.0
230
1.0
 70
     8
 71
     3
 72
    58
 73
    54
 74
    52
 42
0.0000000001
 43
0.0000000001
 44
0.0000000001
 12
0.7000946699113501
 22
0.7140500354749083
 32
0.0
 13
0.0190387752273453
 23
0.9998187460924318
 33
0.0
 40
0.0
 40
0.0
 40
0.0
 40
0.0
 40
0.0378377211688723
 40
0.0759524011536522
 40
0.1143955935584519
 40
0.153214250529232
 40
0.1924315463659115
 40
0.2320812420618769
 40
0.2722306467108036
 40
0.3129350713896362
 40
0.3542360353883169
 40
0.3962135770481552
 40
0.4389534643883759
 40
0.482529130320346
 40
0.5269772100673526
 40
0.5723253253005318
 40
0.6186320899094886
 40
0.6659816831190149
 40
0.7144356063567779
 40
0.7640534100405719
 40
0.8149462607117461
 40
0.8672304999358962
 40
0.9209775400652585
 40
0.976258584487226
 40
1.033153237164909
 40
1.09171780285647
 40
1.152038751257704
 40
1.214224737790872
 40
1.278299722853004
 40
1.344308500524893
 40
1.412391496556998
 40
1.482708701237477
 40
1.555356272548212
 40
1.630470510738205
 40
1.708290503588188
 40
1.78903067760368
 40
1.872807139916389
 40
1.959786471527176
 40
2.050209941795271
 40
2.144292265187544
 40
2.242261677119262
 40
2.344338788843188
 40
2.450633492160043
 40
2.56132728643907
 40
2.676782104187482
 40
2.797323482647647
 40
2.923185328492925
 40
3.054583355418876
 40
3.191703694414242
 40
3.334765833933766
 40
3.483931434311772
 40
3.639313359343721
 40
3.800944558377397
 40
3.800944558377397
 40
3.800944558377397
 40
3.800944558377397
 10
52.96045558618736
 20
73.93555540264391
 30
0.0
 10
52.96928558182468
 20
73.94456141135822
 30
0.0
 10
52.98673364344756
 20
73.96291266552086
 30
0.0
 10
53.01218645859573
 20
73.9913129278616
 30
0.0
 10
53.03703658216762
 20
74.02067172981031
 30
0.0
 10
53.06130911602196
 20
74.05098157039628
 30
0.0
 10
53.08502558740485
 20
74.08223447687004
 30
0.0
 10
53.1082095474328
 20
74.11443228697142
 30
0.0
 10
53.13089068134154
 20
74.14758830621429
 30
0.0
 10
53.15309802930851
 20
74.18172179873433
 30
0.0
 10
53.1748611269456
 20
74.21685885740294
 30
0.0
 10
53.19621123995638
 20
74.25303823026604
 30
0.0
 10
53.2171836735685
 20
74.29031015599652
 30
0.0
 10
53.23780265444764
 20
74.32871588752764
 30
0.0
 10
53.25808135120159
 20
74.36828173169016
 30
0.0
 10
53.27802869497876
 20
74.40903159848443
 30
0.0
 10
53.2976585540196
 20
74.45100542910305
 30
0.0
 10
53.31698812133729
 20
74.49425477652447
 30
0.0
 10
53.33603173507855
 20
74.53883341922909
 30
0.0
 10
53.35480489486553
 20
74.58480490966127
 30
0.0
 10
53.37332603426522
 20
74.63225172449924
 30
0.0
 10
53.39161295852946
 20
74.68126110549732
 30
0.0
 10
53.40967498273027
 20
74.73190948233973
 30
0.0
 10
53.42751436693329
 20
74.78426292272179
 30
0.0
 10
53.44512976721009
 20
74.83838346623816
 30
0.0
 10
53.46251911927176
 20
74.8943387549836
 30
0.0
 10
53.47968077073387
 20
74.952206408856
 30
0.0
 10
53.4966075526437
 20
75.01205434963799
 30
0.0
 10
53.51328757056756
 20
75.07393728961054
 30
0.0
 10
53.52970814058581
 20
75.13792097706929
 30
0.0
 10
53.54586656292919
 20
75.20411519529327
 30
0.0
 10
53.56176068483027
 20
75.27264700761602
 30
0.0
 10
53.57738448998418
 20
75.34364270660863
 30
0.0
 10
53.59273238907683
 20
75.41725517691725
 30
0.0
 10
53.60780303833823
 20
75.49367630651136
 30
0.0
 10
53.62258991282217
 20
75.57309176924559
 30
0.0
 10
53.6370761438685
 20
75.65566416763513
 30
0.0
 10
53.65124259136054
 20
75.74156511020229
 30
0.0
 10
53.66507033378745
 20
75.83099897755151
 30
0.0
 10
53.67853883672271
 20
75.92419064491583
 30
0.0
 10
53.69162054993373
 20
76.021358466933
 30
0.0
 10
53.70427794149498
 20
76.12268624635216
 30
0.0
 10
53.71646867808043
 20
76.22834202252644
 30
0.0
 10
53.72814925765158
 20
76.33854071843974
 30
0.0
 10
53.73927190024206
 20
76.45356917037687
 30
0.0
 10
53.7497824934141
 20
76.57373138591541
 30
0.0
 10
53.7596131241831
 20
76.69928259157697
 30
0.0
 10
53.76868442742846
 20
76.8304311174426
 30
0.0
 10
53.77690928085132
 20
76.96737974177921
 30
0.0
 10
53.78419177776931
 20
77.1103123265076
 30
0.0
 10
53.79042898893402
 20
77.25938721087516
 30
0.0
 10
53.79550967167485
 20
77.41469909269037
 30
0.0
 10
53.79799813803132
 20
77.52034258692816
 30
0.0
 10
53.79902389138736
 20
77.57420988784392
 30
0.0
 11
52.96045558618736
 21
73.93555540264391
 31
0.0
 11
52.98653382118736
 21
73.96297106974391
 31
0.0
 11
53.01197834678736
 21
73.99134896514391
 31
0.0
 11
53.03682186218736
 21
74.02068629264391
 31
0.0
 11
53.06109355208737
 21
74.0509810644439
 31
0.0
 11
53.08480725358737
 21
74.08221656754391
 31
0.0
 11
53.10798264068736
 21
74.1143879803439
 31
0.0
 11
53.13065816308736
 21
74.14752097564392
 31
0.0
 11
53.15286302628737
 21
74.18163540424391
 31
0.0
 11
53.17461716658737
 21
74.2167427682439
 31
0.0
 11
53.19595836938737
 21
74.25289061834391
 31
0.0
 11
53.21692448068737
 21
74.29013468024391
 31
0.0
 11
53.23754353308737
 21
74.32852339394391
 31
0.0
 11
53.25782381388737
 21
74.3680751575439
 31
0.0
 11
53.27776830918736
 21
74.40880191364391
 31
0.0
 11
53.29739224548736
 21
74.45074494134392
 31
0.0
 11
53.31671942118737
 21
74.4939704460439
 31
0.0
 11
53.33576128748737
 21
74.53852591714391
 31
0.0
 11
53.35452642458736
 21
74.5844584336439
 31
0.0
 11
53.37303983868737
 21
74.6318645065439
 31
0.0
 11
53.39132481978737
 21
74.68084716814392
 31
0.0
 11
53.40938523558737
 21
74.73146895894391
 31
0.0
 11
53.42722249468737
 21
74.78379319864391
 31
0.0
 11
53.44483849548737
 21
74.83789197884391
 31
0.0
 11
53.46222568648737
 21
74.8938159803439
 31
0.0
 11
53.47938347948737
 21
74.95164527184392
 31
0.0
 11
53.49631467638737
 21
75.01148197874392
 31
0.0
 11
53.51299700858737
 21
75.07334718304392
 31
0.0
 11
53.52941236978736
 21
75.13728226454391
 31
0.0
 11
53.54556472568737
 21
75.2034214794439
 31
0.0
 11
53.56145833518737
 21
75.27191894254392
 31
0.0
 11
53.57707897718737
 21
75.34286726994391
 31
0.0
 11
53.59241759698736
 21
75.41639872934391
 31
0.0
 11
53.60748193128737
 21
75.49274672944391
 31
0.0
 11
53.62226922008737
 21
75.57212123284391
 31
0.0
 11
53.63675355618737
 21
75.65463607784391
 31
0.0
 11
53.65091476818736
 21
75.74045486484391
 31
0.0
 11
53.66473979988737
 21
75.8298152166439
 31
0.0
 11
53.67820582198737
 21
75.92292885594391
 31
0.0
 11
53.69128632938736
 21
76.02002111104392
 31
0.0
 11
53.70394814548737
 21
76.12130988214392
 31
0.0
 11
53.71614063728737
 21
76.22690300264391
 31
0.0
 11
53.72781655078736
 21
76.33697929044391
 31
0.0
 11
53.73893721648737
 21
76.45189728614392
 31
0.0
 11
53.74944954038737
 21
76.57197940374391
 31
0.0
 11
53.75928315538736
 21
76.69745651024391
 31
0.0
 11
53.76835876278737
 21
76.8285407382439
 31
0.0
 11
53.77658775888737
 21
76.9654139313439
 31
0.0
 11
53.78387623138737
 21
77.1082902902439
 31
0.0
 11
53.79012056238737
 21
77.25732513404391
 31
0.0
 11
53.79520936508737
 21
77.4126237068439
 31
0.0
 11
53.79902389138736
 21
77.57420988784392
 31
0.0
  0
LINE
  5
975
330
1F
100
AcDbEntity
  8
__SOLID_RIM
  6
Continuous
 62
     7
100
AcDbLine
 10
53.73461803958736
 20
80.51282769704391
 30
0.0
 11
53.73144793668737
 21
80.56230542974391
 31
0.0
  0
SPLINE
  5
976
330
1F
100
AcDbEntity
  8
__SOLID_RIM
  6
Continuous
 62
     7
100
AcDbSpline
210
0.0
220
0.0
230
1.0
 70
     8
 71
     3
 72
    34
 73
    30
 74
    28
 42
0.0000000001
 43
0.0000000001
 44
0.0000000001
 12
0.9999999888138708
 22
-0.0001495735884117
 32
0.0
 13
0.9999999999999994
 23
0.000000034026968
 33
0.0
 40
0.0
 40
0.0
 40
0.0
 40
0.0
 40
0.2176167128513105
 40
0.4475468918751897
 40
0.6907442086457799
 40
0.9484957566888915
 40
1.221138466758466
 40
1.484145836788429
 40
1.722063733227649
 40
1.938474213708513
 40
2.135984140909051
 40
2.315301522714335
 40
2.481001064726244
 40
2.644475136046611
 40
2.815007897172971
 40
2.994166343103959
 40
3.180204406116149
 40
3.373141873769751
 40
3.573876926207986
 40
3.781677996327703
 40
3.993048012725564
 40
4.205564014818095
 40
4.418593703732573
 40
4.632922211179938
 40
4.849216225532571
 40
5.068215118598124
 40
5.290503269442953
 40
5.5159205147429
 40
5.745442822638365
 40
5.745442822638365
 40
5.745442822638365
 40
5.745442822638365
 10
39.75182269348737
 20
71.63578921104392
 30
0.0
 10
39.82436159695971
 20
71.6357783611397
 30
0.0
 10
39.9735439009204
 20
71.63579286939242
 30
0.0
 10
40.20379193685964
 20
71.63593362225047
 30
0.0
 10
40.44741814413963
 20
71.636205933629
 30
0.0
 10
40.70528168299891
 20
71.63661209818926
 30
0.0
 10
40.96974864783723
 20
71.6369784571084
 30
0.0
 10
41.22760464522275
 20
71.6371250122231
 30
0.0
 10
41.46671660119136
 20
71.63693809535371
 30
0.0
 10
41.6839954302438
 20
71.63640317802833
 30
0.0
 10
41.88174048000951
 20
71.63581569930845
 30
0.0
 10
42.06258201527915
 20
71.63529437801066
 30
0.0
 10
42.23207854661334
 20
71.63489050950144
 30
0.0
 10
42.39864714724468
 20
71.63462871171484
 30
0.0
 10
42.56970215531308
 20
71.63445392588714
 30
0.0
 10
42.74827854187377
 20
71.63433522582505
 30
0.0
 10
42.93432318485161
 20
71.63425601727476
 30
0.0
 10
43.12756003818547
 20
71.63420047205534
 30
0.0
 10
43.32805122964584
 20
71.63415472795961
 30
0.0
 10
43.53468660327282
 20
71.63410386683874
 30
0.0
 10
43.74524895227248
 20
71.63402590165844
 30
0.0
 10
43.95755416454889
 20
71.63392542462457
 30
0.0
 10
44.17084553232099
 20
71.63380892430161
 30
0.0
 10
44.3853962331616
 20
71.63368453819259
 30
0.0
 10
44.60193666950561
 20
71.63356089192342
 30
0.0
 10
44.82113032583337
 20
71.63344638340146
 30
0.0
 10
45.04336506833027
 20
71.63334971723606
 30
0.0
 10
45.2691076267704
 20
71.63328127639177
 30
0.0
 10
45.42075414482221
 20
71.63326323794059
 30
0.0
 10
45.49726158078736
 20
71.63326324054391
 30
0.0
 11
39.75182269348737
 21
71.63578921104392
 31
0.0
 11
39.96943940528737
 21
71.63581060184391
 31
0.0
 11
40.19936954218737
 21
71.63594978194391
 31
0.0
 11
40.44256671048737
 21
71.6362185109439
 31
0.0
 11
40.70031798158736
 21
71.63659635344391
 31
0.0
 11
40.97296046858736
 21
71.63694511774391
 31
0.0
 11
41.23596781008736
 21
71.6370676215439
 31
0.0
 11
41.47388561828736
 21
71.63686271334391
 31
0.0
 11
41.69029553438736
 21
71.63636847094392
 31
0.0
 11
41.88780464558736
 21
71.63580072474392
 31
0.0
 11
42.06712131938736
 21
71.63529682514391
 31
0.0
 11
42.23282041288737
 21
71.63491129144391
 31
0.0
 11
42.39629427068737
 21
71.63464707554391
 31
0.0
 11
42.56682693648737
 21
71.63446676324392
 31
0.0
 11
42.74598534018736
 21
71.63434375074391
 31
0.0
 11
42.93202338488736
 21
71.63426120664391
 31
0.0
 11
43.12496084378737
 21
71.63420308784392
 31
0.0
 11
43.32569589038736
 21
71.63415467424392
 31
0.0
 11
43.53349695328737
 21
71.63409989714391
 31
0.0
 11
43.74486695548736
 21
71.63402242454392
 31
0.0
 11
43.95738293428737
 21
71.63392292544391
 31
0.0
 11
44.17041259218737
 21
71.6338079732439
 31
0.0
 11
44.38474106448736
 21
71.63368522894391
 31
0.0
 11
44.60103504438737
 21
71.63356314784391
 31
0.0
 11
44.82003390828737
 21
71.63345012374391
 31
0.0
 11
45.04232203878737
 21
71.63335501944391
 31
0.0
 11
45.26773927428736
 21
71.63328855024392
 31
0.0
 11
45.49726158078736
 21
71.63326324054391
 31
0.0
  0
SPLINE
  5
977
330
1F
100
AcDbEntity
  8
__SOLID_RIM
  6
Continuous
 62
     7
100
AcDbSpline
210
0.0
220
0.0
230
1.0
 70
     8
 71
     3
 72
    20
 73
    16
 74
    14
 42
0.0000000001
 43
0.0000000001
 44
0.0000000001
 12
0.5498621241865351
 22
-0.8352554366091078
 32
0.0
 13
0.9999996508356245
 23
-0.0008356605943409
 33
0.0
 40
0.0
 40
0.0
 40
0.0
 40
0.0
 40
0.0005104838608169
 40
0.0031761673950632
 40
0.0220410771057284
 40
0.0580746491202376
 40
0.112077105136531
 40
0.1846507686712721
 40
0.2760796669217564
 40
0.3862402513493449
 40
0.5144515705726982
 40
0.6592646537850472
 40
0.8199448417603631
 40
0.9980276560889738
 40
1.193409764114898
 40
1.193409764114898
 40
1.193409764114898
 40
1.193409764114898
 10
38.21754781668737
 20
71.63843637534391
 30
0.0
 10
38.21764138193406
 20
71.6382942472039
 30
0.0
 10
38.21890829895309
 20
71.63834300579319
 30
0.0
 10
38.22556888052812
 20
71.63694717294474
 30
0.0
 10
38.24570279748831
 20
71.6384580946748
 30
0.0
 10
38.28135448365433
 20
71.63713186063958
 30
0.0
 10
38.33587284411794
 20
71.63755437222673
 30
0.0
 10
38.40841016148902
 20
71.63719929200976
 30
0.0
 10
38.49984726934419
 20
71.63717012950414
 30
0.0
 10
38.60976328262389
 20
71.63700413251723
 30
0.0
 10
38.73749738475352
 20
71.63684477184697
 30
0.0
 10
38.8820635061995
 20
71.63661443014302
 30
0.0
 10
39.04325594609586
 20
71.63637039464912
 30
0.0
 10
39.22130398248372
 20
71.63614200457752
 30
0.0
 10
39.34579227618555
 20
71.63601673492007
 30
0.0
 10
39.41091962278737
 20
71.6359623105439
 30
0.0
 11
38.21754781668737
 21
71.63843637534391
 31
0.0
 11
38.21804069458737
 21
71.63830346504392
 31
0.0
 11
38.22068934638738
 21
71.63800261234391
 31
0.0
 11
38.23955267478737
 21
71.63775835824392
 31
0.0
 11
38.27558572148737
 21
71.6375637878439
 31
0.0
 11
38.32958795488737
 21
71.63740872784391
 31
0.0
 11
38.40216150228737
 21
71.63727889474391
 31
0.0
 11
38.49359031748737
 21
71.63715566154391
 31
0.0
 11
38.60375081548737
 21
71.63701766944391
 31
0.0
 11
38.73196201808737
 21
71.63684473924391
 31
0.0
 11
38.87677493408737
 21
71.63662467324392
 31
0.0
 11
39.03745494338737
 21
71.6363850503439
 31
0.0
 11
39.21553761198737
 21
71.63615722694391
 31
0.0
 11
39.41091962278737
 21
71.6359623105439
 31
0.0
  0
SPLINE
  5
978
330
1F
100
AcDbEntity
  8
__SOLID_RIM
  6
Continuous
 62
     7
100
AcDbSpline
210
0.0
220
0.0
230
1.0
 70
     8
 71
     3
 72
    16
 73
    12
 74
    10
 42
0.0000000001
 43
0.0000000001
 44
0.0000000001
 12
-0.8884405734797079
 22
0.4589916637533273
 32
0.0
 13
-0.7345763820455559
 23
0.6785260046165229
 33
0.0
 40
0.0
 40
0.0
 40
0.0
 40
0.0
 40
0.0241753766406382
 40
0.0564187075338887
 40
0.0891132529622751
 40
0.122436040649179
 40
0.156592580477277
 40
0.1916372488707968
 40
0.2276562915715671
 40
0.2647698442480814
 40
0.3030306823579594
 40
0.3030306823579594
 40
0.3030306823579594
 40
0.3030306823579594
 10
38.34926337288737
 20
73.69168825144391
 30
0.0
 10
38.34210391105847
 20
73.69538701689262
 30
0.0
 10
38.32551987826504
 20
73.70426112670147
 30
0.0
 10
38.29978745632873
 20
73.71911277749692
 30
0.0
 10
38.27199627277524
 20
73.73645770581515
 30
0.0
 10
38.24426107286332
 20
73.75506211444087
 30
0.0
 10
38.21649184650233
 20
73.77499066542745
 30
0.0
 10
38.18861722438512
 20
73.79628613267971
 30
0.0
 10
38.16059458863403
 20
73.81898698040552
 30
0.0
 10
38.132385034683
 20
73.84313757931026
 30
0.0
 10
38.11372369336497
 20
73.85996507317192
 30
0.0
 10
38.10435519068737
 20
73.86861873104391
 30
0.0
 11
38.34926337288737
 21
73.69168825144391
 31
0.0
 11
38.32794512768737
 21
73.70308918374391
 31
0.0
 11
38.30001268128737
 21
73.71919541934392
 31
0.0
 11
38.27227047198737
 21
73.73649579864391
 31
0.0
 11
38.24459088978737
 21
73.75504974454391
 31
0.0
 11
38.21683252708737
 21
73.77495307374392
 31
0.0
 11
38.18897685408737
 21
73.79621783954391
 31
0.0
 11
38.16098102688737
 21
73.81888069674392
 31
0.0
 11
38.13277901858737
 21
73.8430066686439
 31
0.0
 11
38.10435519068737
 21
73.86861873104391
 31
0.0
  0
SPLINE
  5
979
330
1F
100
AcDbEntity
  8
__SOLID_RIM
  6
Continuous
 62
     7
100
AcDbSpline
210
0.0
220
0.0
230
1.0
 70
     8
 71
     3
 72
    58
 73
    54
 74
    52
 42
0.0000000001
 43
0.0000000001
 44
0.0000000001
 12
-0.7000946699113499
 22
0.7140500354749086
 32
0.0
 13
-0.019038775227345
 23
0.9998187460924318
 33
0.0
 40
0.0
 40
0.0
 40
0.0
 40
0.0
 40
0.0378377211688723
 40
0.0759524011536546
 40
0.1143955935584543
 40
0.1532142505917591
 40
0.1924315464284386
 40
0.2320812420659526
 40
0.2722306467713581
 40
0.3129350714501888
 40
0.3542360353962
 40
0.3962135770560366
 40
0.4389534643962572
 40
0.4825291303282274
 40
0.526977210075234
 40
0.5723253253084132
 40
0.6186320899597489
 40
0.6659816831284564
 40
0.7144356063662194
 40
0.7640534100500134
 40
0.8149462607211876
 40
0.8672304999453389
 40
0.9209775400747
 40
0.9762585844966675
 40
1.033153237205313
 40
1.091717802867187
 40
1.152038751296864
 40
1.214224737802804
 40
1.278299722864937
 40
1.344308500561696
 40
1.412391496570075
 40
1.482708701273157
 40
1.555356272583892
 40
1.630470510753465
 40
1.708290503603447
 40
1.789030677637254
 40
1.872807139932674
 40
1.959786471543461
 40
2.050209941811556
 40
2.144292265203829
 40
2.242261677135547
 40
2.344338788859472
 40
2.450633492187798
 40
2.561327286456278
 40
2.676782104214322
 40
2.797323482665766
 40
2.923185328511044
 40
3.054583355436994
 40
3.191703694438362
 40
3.334765833952792
 40
3.483931434334984
 40
3.639313359363657
 40
3.800944558397334
 40
3.800944558397334
 40
3.800944558397334
 40
3.800944558397334
 10
38.03406757548737
 20
73.93555540264391
 30
0.0
 10
38.02523757985007
 20
73.94456141135822
 30
0.0
 10
38.00778951822869
 20
73.96291266552207
 30
0.0
 10
37.98233670307367
 20
73.99131292785729
 30
0.0
 10
37.95748657951374
 20
74.02067172984252
 30
0.0
 10
37.93321404555085
 20
74.05098157036732
 30
0.0
 10
37.90949757415784
 20
74.08223447683804
 30
0.0
 10
37.88631361426548
 20
74.11443228703473
 30
0.0
 10
37.86363248021889
 20
74.14758830618106
 30
0.0
 10
37.84142513225833
 20
74.18172179870939
 30
0.0
 10
37.81966203474466
 20
74.21685885743307
 30
0.0
 10
37.79831192171179
 20
74.25303823026197
 30
0.0
 10
37.77733948810745
 20
74.29031015599736
 30
0.0
 10
37.7567205072291
 20
74.32871588752849
 30
0.0
 10
37.73644181046365
 20
74.36828173168578
 30
0.0
 10
37.71649446672681
 20
74.40903159851427
 30
0.0
 10
37.69686460750615
 20
74.45100542905013
 30
0.0
 10
37.67753504037191
 20
74.49425477655498
 30
0.0
 10
37.6584914265851
 20
74.53883341922405
 30
0.0
 10
37.63971826681248
 20
74.58480490966272
 30
0.0
 10
37.62119712740793
 20
74.63225172449861
 30
0.0
 10
37.60291020314835
 20
74.68126110549835
 30
0.0
 10
37.58484817893338
 20
74.73190948233618
 30
0.0
 10
37.5670087947811
 20
74.78426292274534
 30
0.0
 10
37.54939339429397
 20
74.83838346619467
 30
0.0
 10
37.5320040424816
 20
74.89433875502783
 30
0.0
 10
37.51484239076898
 20
74.95220640881543
 30
0.0
 10
37.49791560906577
 20
75.0120543496578
 30
0.0
 10
37.48123559113526
 20
75.07393728962572
 30
0.0
 10
37.46481502091971
 20
75.1379209770355
 30
0.0
 10
37.44865659881819
 20
75.20411519532668
 30
0.0
 10
37.43276247670532
 20
75.27264700759883
 30
0.0
 10
37.41713867157474
 20
75.34364270659868
 30
0.0
 10
37.40179077261847
 20
75.41725517692866
 30
0.0
 10
37.38672012336858
 20
75.49367630652326
 30
0.0
 10
37.37193324868636
 20
75.5730917692216
 30
0.0
 10
37.35744701785208
 20
75.65566416764913
 30
0.0
 10
37.34328057030109
 20
75.74156511019992
 30
0.0
 10
37.32945282789033
 20
75.83099897755213
 30
0.0
 10
37.31598432495387
 20
75.92419064491593
 30
0.0
 10
37.30290261172975
 20
76.02135846693176
 30
0.0
 10
37.29024522022509
 20
76.12268624636112
 30
0.0
 10
37.27805448341183
 20
76.22834202251008
 30
0.0
 10
37.26637390411467
 20
76.33854071845583
 30
0.0
 10
37.25525126124589
 20
76.4535691703625
 30
0.0
 10
37.24474066831642
 20
76.57373138592331
 30
0.0
 10
37.23491003746486
 20
76.69928259157491
 30
0.0
 10
37.22583873429666
 20
76.83043111744763
 30
0.0
 10
37.21761388063829
 20
76.96737974177088
 30
0.0
 10
37.21033138399874
 20
77.11031232651508
 30
0.0
 10
37.20409417255249
 20
77.25938721086913
 30
0.0
 10
37.19901349005694
 20
77.41469909269354
 30
0.0
 10
37.19652502364341
 20
77.52034258692816
 30
0.0
 10
37.19549927028737
 20
77.57420988784392
 30
0.0
 11
38.03406757548737
 21
73.93555540264391
 31
0.0
 11
38.00798934048737
 21
73.96297106974391
 31
0.0
 11
37.98254481488737
 21
73.99134896514391
 31
0.0
 11
37.95770129948737
 21
74.02068629264391
 31
0.0
 11
37.93342960948737
 21
74.0509810644439
 31
0.0
 11
37.90971590798737
 21
74.08221656754391
 31
0.0
 11
37.88654052098737
 21
74.1143879803439
 31
0.0
 11
37.86386499848737
 21
74.14752097564392
 31
0.0
 11
37.84166013528737
 21
74.18163540424391
 31
0.0
 11
37.81990599508737
 21
74.2167427682439
 31
0.0
 11
37.79856479228737
 21
74.25289061834391
 31
0.0
 11
37.77759868098737
 21
74.29013468024391
 31
0.0
 11
37.75697962858738
 21
74.32852339394391
 31
0.0
 11
37.73669934778737
 21
74.3680751575439
 31
0.0
 11
37.71675485248737
 21
74.40880191364391
 31
0.0
 11
37.69713091608738
 21
74.45074494134392
 31
0.0
 11
37.67780374048737
 21
74.4939704460439
 31
0.0
 11
37.65876187418737
 21
74.53852591714391
 31
0.0
 11
37.63999673708737
 21
74.5844584336439
 31
0.0
 11
37.62148332298738
 21
74.6318645065439
 31
0.0
 11
37.60319834188737
 21
74.68084716814392
 31
0.0
 11
37.58513792608737
 21
74.73146895894391
 31
0.0
 11
37.56730066698736
 21
74.78379319864391
 31
0.0
 11
37.54968466608737
 21
74.83789197884391
 31
0.0
 11
37.53229747518736
 21
74.8938159803439
 31
0.0
 11
37.51513968208737
 21
74.95164527184392
 31
0.0
 11
37.49820848528737
 21
75.01148197874392
 31
0.0
 11
37.48152615308737
 21
75.07334718304392
 31
0.0
 11
37.46511079178737
 21
75.13728226454391
 31
0.0
 11
37.44895843598737
 21
75.2034214794439
 31
0.0
 11
37.43306482638736
 21
75.27191894254392
 31
0.0
 11
37.41744418438737
 21
75.34286726994391
 31
0.0
 11
37.40210556468737
 21
75.41639872934391
 31
0.0
 11
37.38704123038737
 21
75.49274672944391
 31
0.0
 11
37.37225394148737
 21
75.57212123284391
 31
0.0
 11
37.35776960548737
 21
75.65463607784391
 31
0.0
 11
37.34360839348737
 21
75.74045486484391
 31
0.0
 11
37.32978336178737
 21
75.8298152166439
 31
0.0
 11
37.31631733968737
 21
75.92292885594391
 31
0.0
 11
37.30323683228737
 21
76.02002111104392
 31
0.0
 11
37.29057501618737
 21
76.12130988214392
 31
0.0
 11
37.27838252428737
 21
76.22690300264391
 31
0.0
 11
37.26670661088737
 21
76.33697929044391
 31
0.0
 11
37.25558594508737
 21
76.45189728614392
 31
0.0
 11
37.24507362128737
 21
76.57197940374391
 31
0.0
 11
37.23524000628737
 21
76.69745651024391
 31
0.0
 11
37.22616439888737
 21
76.8285407382439
 31
0.0
 11
37.21793540268737
 21
76.9654139313439
 31
0.0
 11
37.21064693028737
 21
77.1082902902439
 31
0.0
 11
37.20440259918737
 21
77.25732513404391
 31
0.0
 11
37.19931379658737
 21
77.4126237068439
 31
0.0
 11
37.19549927028737
 21
77.57420988784392
 31
0.0
  0
LINE
  5
97A
330
1F
100
AcDbEntity
  8
__SOLID_RIM
  6
Continuous
 62
     7
100
AcDbLine
 10
37.25990512208737
 20
80.51282769704391
 30
0.0
 11
37.26307522498737
 21
80.56230542974391
 31
0.0
  0
SPLINE
  5
97B
330
1F
100
AcDbEntity
  8
__SOLID_RIM
  6
Continuous
 62
     7
100
AcDbSpline
210
0.0
220
0.0
230
1.0
 70
     8
 71
     3
 72
    34
 73
    30
 74
    28
 42
0.0000000001
 43
0.0000000001
 44
0.0000000001
 12
-0.9999999888138708
 22
-0.0001495735884114
 32
0.0
 13
-0.9999999999999994
 23
0.0000000340269683
 33
0.0
 40
0.0
 40
0.0
 40
0.0
 40
0.0
 40
0.2176167129513123
 40
0.4475468919751932
 40
0.6907442086457819
 40
0.9484957566888935
 40
1.221138466858466
 40
1.484145836888431
 40
1.722063733227647
 40
1.938474213708514
 40
2.135984140909051
 40
2.315301522714337
 40
2.481001064726244
 40
2.644475136146611
 40
2.81500789717297
 40
2.994166343103961
 40
3.180204406116149
 40
3.373141873769751
 40
3.573876926207984
 40
3.781677996327704
 40
3.993048012825564
 40
4.205564014818096
 40
4.418593703732576
 40
4.632922211179941
 40
4.849216225532571
 40
5.068215118598126
 40
5.290503269442955
 40
5.515920514742902
 40
5.745442822738368
 40
5.745442822738368
 40
5.745442822738368
 40
5.745442822738368
 10
51.24270046818736
 20
71.63578921104392
 30
0.0
 10
51.17016156468169
 20
71.6357783611397
 30
0.0
 10
51.02097926068767
 20
71.63579286939242
 30
0.0
 10
50.79073122474842
 20
71.6359336222504
 30
0.0
 10
50.54710501750177
 20
71.63620593362908
 30
0.0
 10
50.28924147864248
 20
71.63661209818934
 30
0.0
 10
50.02477451377084
 20
71.6369784571083
 30
0.0
 10
49.76691851638531
 20
71.63712501222313
 30
0.0
 10
49.52780656045003
 20
71.63693809535359
 30
0.0
 10
49.31052773143093
 20
71.63640317802833
 30
0.0
 10
49.11278268166523
 20
71.63581569930844
 30
0.0
 10
48.93194114639559
 20
71.63529437801068
 30
0.0
 10
48.76244461502807
 20
71.6348905095013
 30
0.0
 10
48.5958760143967
 20
71.63462871171502
 30
0.0
 10
48.42482100632833
 20
71.63445392588705
 30
0.0
 10
48.24624461980095
 20
71.63433522582505
 30
0.0
 10
48.06019997682313
 20
71.63425601727476
 30
0.0
 10
47.86696312348926
 20
71.63420047205531
 30
0.0
 10
47.66647193202889
 20
71.63415472795962
 30
0.0
 10
47.45983655836858
 20
71.63410386683873
 30
0.0
 10
47.24927420936892
 20
71.63402590165849
 30
0.0
 10
47.0369689970925
 20
71.63392542462455
 30
0.0
 10
46.82367762935373
 20
71.63380892430163
 30
0.0
 10
46.60912692851312
 20
71.63368453819261
 30
0.0
 10
46.39258649216911
 20
71.63356089192342
 30
0.0
 10
46.17339283584136
 20
71.63344638340146
 30
0.0
 10
45.95115809334445
 20
71.63334971723604
 30
0.0
 10
45.72541553487099
 20
71.63328127639177
 30
0.0
 10
45.57376901678585
 20
71.63326323794059
 30
0.0
 10
45.49726158078736
 20
71.63326324054391
 30
0.0
 11
51.24270046818736
 21
71.63578921104392
 31
0.0
 11
51.02508375628737
 21
71.63581060184391
 31
0.0
 11
50.79515361938736
 21
71.63594978194391
 31
0.0
 11
50.55195645118736
 21
71.6362185109439
 31
0.0
 11
50.29420518008737
 21
71.63659635344391
 31
0.0
 11
50.02156269298737
 21
71.63694511774391
 31
0.0
 11
49.75855535148737
 21
71.6370676215439
 31
0.0
 11
49.52063754338737
 21
71.63686271334391
 31
0.0
 11
49.30422762728737
 21
71.63636847094392
 31
0.0
 11
49.10671851608737
 21
71.63580072474392
 31
0.0
 11
48.92740184228737
 21
71.63529682514391
 31
0.0
 11
48.76170274878737
 21
71.63491129144391
 31
0.0
 11
48.59822889088737
 21
71.63464707554391
 31
0.0
 11
48.42769622518737
 21
71.63446676324392
 31
0.0
 11
48.24853782148736
 21
71.63434375074391
 31
0.0
 11
48.06249977678737
 21
71.63426120664391
 31
0.0
 11
47.86956231788737
 21
71.63420308784392
 31
0.0
 11
47.66882727128737
 21
71.63415467424392
 31
0.0
 11
47.46102620838736
 21
71.63409989714391
 31
0.0
 11
47.24965620608736
 21
71.63402242454392
 31
0.0
 11
47.03714022738736
 21
71.63392292544391
 31
0.0
 11
46.82411056948736
 21
71.6338079732439
 31
0.0
 11
46.60978209718736
 21
71.63368522894391
 31
0.0
 11
46.39348811728736
 21
71.63356314784391
 31
0.0
 11
46.17448925338736
 21
71.63345012374391
 31
0.0
 11
45.95220112288736
 21
71.63335501944391
 31
0.0
 11
45.72678388738736
 21
71.63328855024392
 31
0.0
 11
45.49726158078736
 21
71.63326324054391
 31
0.0
  0
SPLINE
  5
97C
330
1F
100
AcDbEntity
  8
__SOLID_RIM
  6
Continuous
 62
     7
100
AcDbSpline
210
0.0
220
0.0
230
1.0
 70
     8
 71
     3
 72
    20
 73
    16
 74
    14
 42
0.0000000001
 43
0.0000000001
 44
0.0000000001
 12
-0.5498618026081039
 22
-0.8352556483092866
 32
0.0
 13
-0.9999996508356247
 23
-0.0008356605942706
 33
0.0
 40
0.0
 40
0.0
 40
0.0
 40
0.0
 40
0.0005104839573697
 40
0.0031761673922532
 40
0.022041077102922
 40
0.0580746491174312
 40
0.1120771052337242
 40
0.1846507686684654
 40
0.2760796669189497
 40
0.3862402514465381
 40
0.5144515705698897
 40
0.6592646538822403
 40
0.8199448417575545
 40
0.9980276560861669
 40
1.193409764212091
 40
1.193409764212091
 40
1.193409764212091
 40
1.193409764212091
 10
52.77697534498737
 20
71.63843637534391
 30
0.0
 10
52.7768817797777
 20
71.63829424714099
 30
0.0
 10
52.77561486253881
 20
71.63834300594968
 30
0.0
 10
52.7689542815878
 20
71.63694717243664
 30
0.0
 10
52.74882036379445
 20
71.63845809509542
 30
0.0
 10
52.71316867818997
 20
71.63713186042134
 30
0.0
 10
52.65865031743689
 20
71.63755437231991
 30
0.0
 10
52.58611300018574
 20
71.6371992919738
 30
0.0
 10
52.49467589228522
 20
71.63717012951697
 30
0.0
 10
52.38475987902159
 20
71.63700413251304
 30
0.0
 10
52.25702577685322
 20
71.63684477184816
 30
0.0
 10
52.11245965544232
 20
71.6366144301428
 30
0.0
 10
51.95126721554541
 20
71.63637039464915
 30
0.0
 10
51.77321917915772
 20
71.6361420045774
 30
0.0
 10
51.64873088542252
 20
71.6360167349201
 30
0.0
 10
51.58360353878737
 20
71.6359623105439
 30
0.0
 11
52.77697534498737
 21
71.63843637534391
 31
0.0
 11
52.77648246698737
 21
71.63830346504392
 31
0.0
 11
52.77383381528736
 21
71.63800261234391
 31
0.0
 11
52.75497048688737
 21
71.63775835824392
 31
0.0
 11
52.71893744018736
 21
71.6375637878439
 31
0.0
 11
52.66493520668737
 21
71.63740872784391
 31
0.0
 11
52.59236165938736
 21
71.63727889474391
 31
0.0
 11
52.50093284418737
 21
71.63715566154391
 31
0.0
 11
52.39077234608736
 21
71.63701766944391
 31
0.0
 11
52.26256114358736
 21
71.63684473924391
 31
0.0
 11
52.11774822748736
 21
71.63662467324392
 31
0.0
 11
51.95706821828736
 21
71.6363850503439
 31
0.0
 11
51.77898554968737
 21
71.63615722694391
 31
0.0
 11
51.58360353878737
 21
71.6359623105439
 31
0.0
  0
LINE
  5
97F
330
1F
100
AcDbEntity
  8
0
100
AcDbLine
 10
54.03808377785669
 20
83.2839696704876
 30
0.0
 11
54.39257708238737
 21
80.5623049924439
 31
0.0
  0
LINE
  5
980
330
1F
100
AcDbEntity
  8
0
100
AcDbLine
 10
36.86500001468737
 20
82.66062992964391
 30
0.0
 11
36.96114389228737
 21
83.34389880414391
 31
0.0
  0
ARC
  5
981
330
1F
100
AcDbEntity
  8
0
100
AcDbCircle
 10
53.66418878259274
 20
83.76391601821367
 30
0.0
 40
0.3074132373202966
100
AcDbArc
 50
16.5342677110554
 51
76.08323376812125
  0
ARC
  5
982
330
1F
100
AcDbEntity
  8
0
100
AcDbCircle
 10
37.33041795050783
 20
83.76391601821367
 30
0.0
 40
0.3074132373202966
100
AcDbArc
 50
103.9167662318787
 51
163.4657322889446
  0
LINE
  5
983
330
1F
100
AcDbEntity
  8
0
100
AcDbLine
 10
37.00427856418738
 20
83.64049924234391
 30
0.0
 11
37.03571634331319
 21
83.85140236684391
 31
0.0
  0
LINE
  5
984
330
1F
100
AcDbEntity
  8
0
100
AcDbLine
 10
40.93737423648736
 20
58.57002217124391
 30
0.0
 11
40.93855943673856
 21
58.57915918393656
 31
0.0
  0
LINE
  5
985
330
1F
100
AcDbEntity
  8
0
100
AcDbLine
 10
50.05613717818737
 20
58.57777922814391
 30
0.0
 11
50.05713677038737
 21
58.57011798194391
 31
0.0
  0
LWPOLYLINE
  5
AC5
330
1F
100
AcDbEntity
  8
0
  6
Continuous
 62
     7
100
AcDbPolyline
 90
        9
 70
     0
 43
0.0
 10
38.78906500988738
 20
75.7530440103439
 10
38.78463680048738
 20
75.7505798913439
 10
38.77967709088738
 20
75.7472204256439
 10
38.77470197618739
 20
75.74307938824389
 10
38.76988104528739
 20
75.73811157824391
 10
38.76535956328739
 20
75.73224593854391
 10
38.76143003598738
 20
75.7256451312439
 10
38.7582655778874
 20
75.7184329468439
 10
38.7565713625874
 20
75.7130771496439
  0
LINE
  5
AC6
330
1F
100
AcDbEntity
  8
0
  6
Continuous
 62
     7
100
AcDbLine
 10
39.42509978988737
 20
76.08011235674391
 30
0.0
 11
39.42512310098739
 21
76.0801246305439
 31
0.0
  0
LWPOLYLINE
  5
AC7
330
1F
100
AcDbEntity
  8
_SURFACE
  6
Continuous
 62
     7
100
AcDbPolyline
 90
        7
 70
     0
 43
0.0
 10
39.4251207137874
 20
76.08012339784391
 10
39.31855718588737
 20
76.02429040884391
 10
39.24002194818739
 20
75.98346573874391
 10
39.16159102118739
 20
75.94293752884391
 10
39.08261804548736
 20
75.9023483626439
 10
39.00137881218738
 20
75.86079969814391
 10
38.91728538888738
 20
75.81798703124391
  0
LINE
  5
AC8
330
1F
100
AcDbEntity
  8
_SURFACE
  6
Continuous
 62
     7
100
AcDbLine
 10
38.91728538888738
 20
75.81798703124391
 30
0.0
 11
38.7890650586874
 21
75.75304399014391
 31
0.0
  0
LWPOLYLINE
  5
AC9
330
1F
100
AcDbEntity
  8
0
  6
Continuous
 62
     7
100
AcDbPolyline
 90
       34
 70
     0
 43
0.0
 10
43.75118210658739
 20
76.6515896445439
 10
43.59946966008736
 20
76.64901082284391
 10
43.44983743618739
 20
76.64526198384391
 10
43.30249346898738
 20
76.6404862209439
 10
43.15760382388738
 20
76.63473433544391
 10
43.01536151898737
 20
76.62805279184391
 10
42.87596045638737
 20
76.6204636204439
 10
42.73956277698736
 20
76.6119884919439
 10
42.60631264568739
 20
76.6027188213439
 10
42.47631920148738
 20
76.59274249234392
 10
42.34962876368739
 20
76.5821275095439
 10
42.22633633658738
 20
76.5709442771439
 10
42.10653473578737
 20
76.5592696938439
 10
41.99025214778738
 20
76.54716873674392
 10
41.87755326758737
 20
76.5347006953439
 10
41.76850122278738
 20
76.5219250025439
 10
41.66309911438737
 20
76.50890515784391
 10
41.56131715408737
 20
76.49573967914389
 10
41.46315841278736
 20
76.48249475294391
 10
41.36859381378736
 20
76.4692132458439
 10
41.27763773398739
 20
76.45594199234391
 10
41.19031188828738
 20
76.4427280863439
 10
41.10658619718738
 20
76.4296120915439
 10
41.02645692508737
 20
76.4166342564439
 10
40.94991736068736
 20
76.40383710194391
 10
40.87695083248739
 20
76.3912676796439
 10
40.80757553868737
 20
76.37896679134391
 10
40.74188513368738
 20
76.3669648669439
 10
40.67978509508738
 20
76.3552774882439
 10
40.62104845958738
 20
76.34389486964391
 10
40.56489041188739
 20
76.3329167289439
 10
40.51050318938739
 20
76.3224526817439
 10
40.45780108278738
 20
76.31249230514391
 10
40.40677300518739
 20
76.3029918477439
  0
LINE
  5
ACA
330
1F
100
AcDbEntity
  8
0
  6
Continuous
 62
     7
100
AcDbLine
 10
44.21672593548739
 20
76.65725213514391
 30
0.0
 11
43.75118210658739
 21
76.6515896445439
 31
0.0
  0
LWPOLYLINE
  5
ACB
330
1F
100
AcDbEntity
  8
0
  6
Continuous
 62
     7
100
AcDbPolyline
 90
        9
 70
     0
 43
0.0
 10
45.49726214338737
 20
76.6635581068439
 10
45.36179427048738
 20
76.66401815304391
 10
45.19279890018738
 20
76.6639941777439
 10
45.02567572828739
 20
76.6634962761439
 10
44.86042048658738
 20
76.66270369454391
 10
44.69698091038738
 20
76.66166320434391
 10
44.53521829958738
 20
76.66039780564389
 10
44.37513238628738
 20
76.6589307679439
 10
44.21672593548739
 20
76.65725213514391
  0
LINE
  5
ACC
330
1F
100
AcDbEntity
  8
SURFACE
  6
Continuous
 62
     7
100
AcDbLine
 10
38.53494841728739
 20
74.91551346274391
 30
0.0
 11
38.3425062001874
 21
74.19730555054392
 31
0.0
  0
LINE
  5
ACD
330
1F
100
AcDbEntity
  8
0
  6
Continuous
 62
     7
100
AcDbLine
 10
38.75657148668738
 20
75.7130771613439
 30
0.0
 11
38.63952510608739
 21
75.2762444422439
 31
0.0
  0
LWPOLYLINE
  5
ACE
330
1F
100
AcDbEntity
  8
0
  6
Continuous
 62
     7
100
AcDbPolyline
 90
        9
 70
     0
 43
0.0
 10
39.50214353638738
 20
76.11002231874391
 10
39.48945508508739
 20
76.1059082089439
 10
39.47766848698739
 20
76.10190672994391
 10
39.46674198308738
 20
76.0980037572439
 10
39.45656155458737
 20
76.0941547383439
 10
39.44716782288738
 20
76.09036894244392
 10
39.4384748376874
 20
76.0866037839439
 10
39.43018360978739
 20
76.08270119904389
 10
39.42509720198739
 20
76.08011099424391
  0
LWPOLYLINE
  5
ACF
330
1F
100
AcDbEntity
  8
0
  6
Continuous
 62
     7
100
AcDbPolyline
 90
       27
 70
     0
 43
0.0
 10
40.21754245848739
 20
76.26827723414391
 10
40.17394484028737
 20
76.26015063164391
 10
40.1317939540874
 20
76.2522016205439
 10
40.09107531428738
 20
76.2444214032439
 10
40.05177615618738
 20
76.23680324864391
 10
40.01387526148737
 20
76.22934626894391
 10
39.9773475052874
 20
76.22205203284391
 10
39.94217786998739
 20
76.2149243548439
 10
39.90834523518739
 20
76.2079662025439
 10
39.87581777018737
 20
76.2011779662439
 10
39.84457955768737
 20
76.19456112264391
 10
39.81461345828738
 20
76.1881150013439
 10
39.78588706878738
 20
76.1818354335439
 10
39.75838337858737
 20
76.1757212902439
 10
39.73208524038738
 20
76.1697712077439
 10
39.70696150478737
 20
76.1639805189439
 10
39.68299608828737
 20
76.15834784544389
 10
39.66017052458737
 20
76.15287124114392
 10
39.63845190798738
 20
76.1475451312439
 10
39.61782479768739
 20
76.14236797424391
 10
39.59827080108737
 20
76.13733753944391
 10
39.57975512888739
 20
76.13244753174391
 10
39.56226116598738
 20
76.1276961068439
 10
39.54577672328738
 20
76.12308248594391
 10
39.53027255218739
 20
76.1186008221439
 10
39.51573458598737
 20
76.11424886684391
 10
39.50214353638738
 20
76.11002231874391
  0
LINE
  5
AD0
330
1F
100
AcDbEntity
  8
0
  6
Continuous
 62
     7
100
AcDbLine
 10
40.40677300518739
 20
76.3029918477439
 30
0.0
 11
40.21754245848739
 21
76.26827723414391
 31
0.0
  0
LINE
  5
AD1
330
1F
100
AcDbEntity
  8
0
  6
Continuous
 62
     7
100
AcDbLine
 10
44.05081497138739
 20
75.38030526184392
 30
0.0
 11
45.49726158075587
 21
75.38030526184392
 31
0.0
  0
LWPOLYLINE
  5
AD2
330
1F
100
AcDbEntity
  8
0
  6
Continuous
 62
     7
100
AcDbPolyline
 90
        8
 70
     0
 43
0.0
 10
40.39469881468737
 20
74.03836861204391
 10
40.39913662268737
 20
74.0452183504439
 10
40.41108474608738
 20
74.0616509071439
 10
40.42440450658737
 20
74.07706611114391
 10
40.43893280478736
 20
74.09126829154391
 10
40.45430611768738
 20
74.10396908454391
 10
40.47035557008739
 20
74.1151409609439
 10
40.4806932881874
 20
74.12115391704389
  0
LINE
  5
AD3
330
1F
100
AcDbEntity
  8
SURFACE
  6
Continuous
 62
     7
100
AcDbLine
 10
38.76226236368739
 20
75.1036300581439
 30
0.0
 11
38.7322722638874
 21
75.09695300014391
 31
0.0
  0
LINE
  5
AD4
330
1F
100
AcDbEntity
  8
SURFACE
  6
Continuous
 62
     7
100
AcDbLine
 10
38.76600900258738
 20
75.10445979064392
 30
0.0
 11
38.76226236368739
 21
75.1036300581439
 31
0.0
  0
LINE
  5
AD5
330
1F
100
AcDbEntity
  8
SURFACE
  6
Continuous
 62
     7
100
AcDbLine
 10
38.76995106668737
 20
75.1053320821439
 30
0.0
 11
38.76600900258738
 21
75.10445979064392
 31
0.0
  0
LINE
  5
AD6
330
1F
100
AcDbEntity
  8
SURFACE
  6
Continuous
 62
     7
100
AcDbLine
 10
38.77409223638738
 20
75.1062477256439
 30
0.0
 11
38.76995106668737
 21
75.1053320821439
 31
0.0
  0
LWPOLYLINE
  5
AD7
330
1F
100
AcDbEntity
  8
SURFACE
  6
Continuous
 62
     7
100
AcDbPolyline
 90
        3
 70
     0
 43
0.0
 10
38.78068493098739
 20
75.1077041167439
 10
38.77843595378737
 20
75.1072074623439
 10
38.77409223638738
 20
75.1062477256439
  0
LWPOLYLINE
  5
AD8
330
1F
100
AcDbEntity
  8
SURFACE
  6
Continuous
 62
     7
100
AcDbPolyline
 90
        3
 70
     0
 43
0.0
 10
38.78774181198738
 20
75.1092615235439
 10
38.7853373818874
 20
75.10873104374391
 10
38.78068493098739
 20
75.1077041167439
  0
LINE
  5
AD9
330
1F
100
AcDbEntity
  8
SURFACE
  6
Continuous
 62
     7
100
AcDbLine
 10
38.79531204678738
 20
75.1109304804439
 30
0.0
 11
38.78774181198738
 21
75.1092615235439
 31
0.0
  0
LINE
  5
ADA
330
1F
100
AcDbEntity
  8
SURFACE
  6
Continuous
 62
     7
100
AcDbLine
 10
38.83465341758738
 20
75.1195169443439
 30
0.0
 11
38.79531204678738
 21
75.1109304804439
 31
0.0
  0
LINE
  5
ADB
330
1F
100
AcDbEntity
  8
SURFACE
  6
Continuous
 62
     7
100
AcDbLine
 10
38.86425043898738
 20
75.1258268261439
 30
0.0
 11
38.83465341758738
 21
75.1195169443439
 31
0.0
  0
LINE
  5
ADC
330
1F
100
AcDbEntity
  8
SURFACE
  6
Continuous
 62
     7
100
AcDbLine
 10
38.88933905018739
 20
75.1310463318439
 30
0.0
 11
38.86425043898738
 21
75.1258268261439
 31
0.0
  0
LINE
  5
ADD
330
1F
100
AcDbEntity
  8
SURFACE
  6
Continuous
 62
     7
100
AcDbLine
 10
38.91218023778738
 20
75.13567721104391
 30
0.0
 11
38.88933905018739
 21
75.1310463318439
 31
0.0
  0
LINE
  5
ADE
330
1F
100
AcDbEntity
  8
SURFACE
  6
Continuous
 62
     7
100
AcDbLine
 10
38.93172224478739
 20
75.13954038714391
 30
0.0
 11
38.91218023778738
 21
75.13567721104391
 31
0.0
  0
LINE
  5
ADF
330
1F
100
AcDbEntity
  8
SURFACE
  6
Continuous
 62
     7
100
AcDbLine
 10
38.95239503908739
 20
75.1435237338439
 30
0.0
 11
38.93172224478739
 21
75.13954038714391
 31
0.0
  0
LINE
  5
AE0
330
1F
100
AcDbEntity
  8
SURFACE
  6
Continuous
 62
     7
100
AcDbLine
 10
38.97419750778737
 20
75.1476068414439
 30
0.0
 11
38.95239503908739
 21
75.1435237338439
 31
0.0
  0
LINE
  5
AE1
330
1F
100
AcDbEntity
  8
SURFACE
  6
Continuous
 62
     7
100
AcDbLine
 10
38.99712647498738
 20
75.15176905724391
 30
0.0
 11
38.97419750778737
 21
75.1476068414439
 31
0.0
  0
LINE
  5
AE2
330
1F
100
AcDbEntity
  8
SURFACE
  6
Continuous
 62
     7
100
AcDbLine
 10
39.01506418428737
 20
75.1549307348439
 30
0.0
 11
38.99712647498738
 21
75.15176905724391
 31
0.0
  0
LINE
  5
AE3
330
1F
100
AcDbEntity
  8
SURFACE
  6
Continuous
 62
     7
100
AcDbLine
 10
39.03363837098739
 20
75.1581172127439
 30
0.0
 11
39.01506418428737
 21
75.1549307348439
 31
0.0
  0
LINE
  5
AE4
330
1F
100
AcDbEntity
  8
SURFACE
  6
Continuous
 62
     7
100
AcDbLine
 10
39.05284990588739
 20
75.16131969774391
 30
0.0
 11
39.03363837098739
 21
75.1581172127439
 31
0.0
  0
LINE
  5
AE5
330
1F
100
AcDbEntity
  8
SURFACE
  6
Continuous
 62
     7
100
AcDbLine
 10
39.07269958348739
 20
75.16452922024391
 30
0.0
 11
39.05284990588739
 21
75.16131969774391
 31
0.0
  0
LINE
  5
AE6
330
1F
100
AcDbEntity
  8
SURFACE
  6
Continuous
 62
     7
100
AcDbLine
 10
39.09318782968738
 20
75.1677365925439
 30
0.0
 11
39.07269958348739
 21
75.16452922024391
 31
0.0
  0
LINE
  5
AE7
330
1F
100
AcDbEntity
  8
SURFACE
  6
Continuous
 62
     7
100
AcDbLine
 10
39.11429068268738
 20
75.17092953264389
 30
0.0
 11
39.09318782968738
 21
75.1677365925439
 31
0.0
  0
LINE
  5
AE8
330
1F
100
AcDbEntity
  8
SURFACE
  6
Continuous
 62
     7
100
AcDbLine
 10
39.13599327828739
 20
75.17410002704391
 30
0.0
 11
39.11429068268738
 21
75.17092953264389
 31
0.0
  0
LINE
  5
AE9
330
1F
100
AcDbEntity
  8
SURFACE
  6
Continuous
 62
     7
100
AcDbLine
 10
39.22482667972723
 20
75.18661898443145
 30
0.0
 11
39.13599327828739
 21
75.17410002704391
 31
0.0
  0
LINE
  5
AEA
330
1F
100
AcDbEntity
  8
SURFACE
  6
Continuous
 62
     7
100
AcDbLine
 10
39.18120889688739
 20
75.18035493294391
 30
0.0
 11
39.15829736988739
 21
75.1772432588439
 31
0.0
  0
LINE
  5
AEB
330
1F
100
AcDbEntity
  8
SURFACE
  6
Continuous
 62
     7
100
AcDbLine
 10
39.18906318968739
 20
75.18139498914391
 30
0.0
 11
39.18120889688739
 21
75.18035493294391
 31
0.0
  0
LWPOLYLINE
  5
AEC
330
1F
100
AcDbEntity
  8
SURFACE
  6
Continuous
 62
     7
100
AcDbPolyline
 90
       14
 70
     0
 43
0.0
 10
38.7385012484874
 20
75.09813377074391
 10
38.72231240178739
 20
75.0950650017439
 10
38.70490022958738
 20
75.0905111407439
 10
38.68636766558739
 20
75.0841504635439
 10
38.66700835518738
 20
75.07569544424391
 10
38.64768048368738
 20
75.0651916403439
 10
38.62877563348739
 20
75.05261451534391
 10
38.61043091768737
 20
75.03779518604391
 10
38.59307661018737
 20
75.02079309554391
 10
38.57707197768739
 20
75.0016871044439
 10
38.5626758236874
 20
74.9804737317439
 10
38.55018338158739
 20
74.95717369474391
 10
38.5399480448874
 20
74.9319000117439
 10
38.53494911208738
 20
74.91550991904389
  0
LINE
  5
AED
330
1F
100
AcDbEntity
  8
0
  6
Continuous
 62
     7
100
AcDbLine
 10
38.34251208108738
 20
74.19730583074391
 30
0.0
 11
38.34250625048738
 21
74.19730573834391
 31
0.0
  0
LINE
  5
AEE
330
1F
100
AcDbEntity
  8
0
  6
Continuous
 62
     7
100
AcDbLine
 10
39.31464065998738
 20
75.18030526184389
 30
0.0
 11
43.64370819018738
 21
75.18030526184389
 31
0.0
  0
LINE
  5
AEF
330
1F
100
AcDbEntity
  8
0
  6
Continuous
 62
     7
100
AcDbLine
 10
45.49726158078736
 20
74.19730582494392
 30
0.0
 11
38.34251208108738
 21
74.19730583074391
 31
0.0
  0
LINE
  5
AF0
330
1F
100
AcDbEntity
  8
SURFACE
  6
Continuous
 62
     7
100
AcDbLine
 10
38.34258080248737
 20
74.19730548804391
 30
0.0
 11
38.34699920378738
 21
74.19729081604391
 31
0.0
  0
LINE
  5
AF1
330
1F
100
AcDbEntity
  8
0
  6
Continuous
 62
     7
100
AcDbLine
 10
38.34250625048738
 20
74.19730573834391
 30
0.0
 11
38.3425464532874
 21
74.19730549154391
 31
0.0
  0
LINE
  5
AF2
330
1F
100
AcDbEntity
  8
SURFACE
  6
Continuous
 62
     7
100
AcDbLine
 10
38.34699920378738
 20
74.19729081604391
 30
0.0
 11
38.35839262558737
 21
74.1972041381439
 31
0.0
  0
LINE
  5
AF3
330
1F
100
AcDbEntity
  8
SURFACE
  6
Continuous
 62
     7
100
AcDbLine
 10
38.35839262558737
 20
74.1972041381439
 30
0.0
 11
38.38314445518738
 21
74.1969027461439
 31
0.0
  0
LINE
  5
AF4
330
1F
100
AcDbEntity
  8
SURFACE
  6
Continuous
 62
     7
100
AcDbLine
 10
38.38314445518738
 20
74.1969027461439
 30
0.0
 11
38.42508242988738
 21
74.1962109368439
 31
0.0
  0
LWPOLYLINE
  5
AF5
330
1F
100
AcDbEntity
  8
SURFACE
  6
Continuous
 62
     7
100
AcDbPolyline
 90
        3
 70
     0
 43
0.0
 10
38.42508242988738
 20
74.1962109368439
 10
38.49030830908738
 20
74.1949178306439
 10
38.49674816118737
 20
74.19478244414389
  0
LINE
  5
AF6
330
1F
100
AcDbEntity
  8
SURFACE
  6
Continuous
 62
     7
100
AcDbLine
 10
38.49674816118737
 20
74.19478244414389
 30
0.0
 11
38.51702839578739
 21
74.1943509387439
 31
0.0
  0
LWPOLYLINE
  5
AF7
330
1F
100
AcDbEntity
  8
SURFACE
  6
Continuous
 62
     7
100
AcDbPolyline
 90
        3
 70
     0
 43
0.0
 10
38.51702839578739
 20
74.1943509387439
 10
38.53134400168737
 20
74.19404282824391
 10
38.5387393118874
 20
74.19388287494391
  0
LWPOLYLINE
  5
AF8
330
1F
100
AcDbEntity
  8
SURFACE
  6
Continuous
 62
     7
100
AcDbPolyline
 90
        3
 70
     0
 43
0.0
 10
38.60331099738737
 20
74.1924804438439
 10
38.61202088798739
 20
74.1922922975439
 10
38.62981833308739
 20
74.19190988364391
  0
LINE
  5
AF9
330
1F
100
AcDbEntity
  8
SURFACE
  6
Continuous
 62
     7
100
AcDbLine
 10
38.5387393118874
 20
74.19388287494391
 30
0.0
 11
38.60331099738737
 21
74.1924804438439
 31
0.0
  0
LINE
  5
AFA
330
1F
100
AcDbEntity
  8
0
  6
Continuous
 62
     7
100
AcDbLine
 10
38.53493826638739
 20
74.9154694279439
 30
0.0
 11
38.53495097698739
 21
74.91537659424391
 31
0.0
  0
LWPOLYLINE
  5
AFB
330
1F
100
AcDbEntity
  8
SURFACE
  6
Continuous
 62
     7
100
AcDbPolyline
 90
       15
 70
     0
 43
0.0
 10
42.26067483488738
 20
74.0305054537439
 10
42.26511471258739
 20
74.0409745544439
 10
42.27536711748739
 20
74.06106456604391
 10
42.28704924158738
 20
74.07949360504391
 10
42.29996434538738
 20
74.0962757379439
 10
42.31381570618738
 20
74.1113002759439
 10
42.32831058318739
 20
74.12451935884391
 10
42.34320159278739
 20
74.1359568377439
 10
42.35813297018738
 20
74.14557481804391
 10
42.37249423438739
 20
74.15327036754391
 10
42.38557832698738
 20
74.1590430443439
 10
42.39711740918737
 20
74.1631743891439
 10
42.40714796218738
 20
74.1660116581439
 10
42.41543058088739
 20
74.16777916234391
 10
42.42086486728739
 20
74.16861689014391
  0
LINE
  5
AFC
330
1F
100
AcDbEntity
  8
0
  6
Continuous
 62
     7
100
AcDbLine
 10
43.82048488548737
 20
75.2535285665439
 30
0.0
 11
43.87403827608737
 21
75.30708195714391
 31
0.0
  0
LWPOLYLINE
  5
AFD
330
1F
100
AcDbEntity
  8
0
  6
Continuous
 62
     7
100
AcDbPolyline
 90
       56
 70
     0
 43
0.0
 10
40.20157853068737
 20
73.9343056496439
 10
40.2040897623874
 20
73.9343178337439
 10
40.20746253758737
 20
73.9343742745439
 10
40.21093262588737
 20
73.9344820865439
 10
40.21447365378738
 20
73.9346451830439
 10
40.21812006448736
 20
73.9348696888439
 10
40.22167967308739
 20
73.93514464024391
 10
40.22503182068739
 20
73.93545424784391
 10
40.22829559588738
 20
73.9358031752439
 10
40.23163412758738
 20
73.9362088379439
 10
40.23510377358739
 20
73.9366829804439
 10
40.23864538148738
 20
73.9372225623439
 10
40.24224767368737
 20
73.93782944774391
 10
40.24591900638738
 20
73.9385087101439
 10
40.24964782228737
 20
73.9392619567439
 10
40.25339318988737
 20
73.9400834672439
 10
40.25714100938738
 20
73.9409713680439
 10
40.26090264388737
 20
73.94192957974391
 10
40.26467566758738
 20
73.9429590392439
 10
40.26845795248736
 20
73.9440606944439
 10
40.27224858368739
 20
73.9452358242439
 10
40.27604687848738
 20
73.94648582424391
 10
40.27985170678737
 20
73.9478119911439
 10
40.28366084358738
 20
73.9492152399439
 10
40.28747188868739
 20
73.9506963637439
 10
40.29128294828739
 20
73.95225630314391
 10
40.29509231348739
 20
73.95389605874391
 10
40.29889781038737
 20
73.9556164131439
 10
40.3026975332874
 20
73.95741823904391
 10
40.30648952138737
 20
73.95930236694391
 10
40.31027146458739
 20
73.96126942624391
 10
40.31404133538738
 20
73.9633201576439
 10
40.31779704258737
 20
73.96545524834391
 10
40.32153613268739
 20
73.9676751468439
 10
40.32525645268738
 20
73.9699804376439
 10
40.32895580078739
 20
73.97237165314391
 10
40.33263161178739
 20
73.9748490529439
 10
40.33628161148736
 20
73.9774130450439
 10
40.33990350258737
 20
73.9800639943439
 10
40.34349465208738
 20
73.9828019793439
 10
40.34705269458739
 20
73.9856272309439
 10
40.35057522768737
 20
73.98853991954391
 10
40.35405953708739
 20
73.9915399104439
 10
40.35750316958739
 20
73.99462723504391
 10
40.36090364128738
 20
73.99780186084391
 10
40.36425817428737
 20
74.00106342724391
 10
40.36756424408737
 20
74.0044117531439
 10
40.37081929918737
 20
74.00784658784392
 10
40.37402051578739
 20
74.01136733094389
 10
40.37716531418739
 20
74.0149735751439
 10
40.3802510938874
 20
74.01866483854391
 10
40.38327500398738
 20
74.02244026894391
 10
40.38623442898738
 20
74.0262992201439
 10
40.3891267387874
 20
74.03024096774391
 10
40.3919490775874
 20
74.03426439694391
 10
40.39469881468737
 20
74.03836861204391
  0
LINE
  5
AFE
330
1F
100
AcDbEntity
  8
SURFACE
  6
Continuous
 62
     7
100
AcDbLine
 10
39.02395473018739
 20
73.9343054913439
 30
0.0
 11
40.20156843108738
 21
73.9343054913439
 31
0.0
  0
LINE
  5
AFF
330
1F
100
AcDbEntity
  8
SURFACE
  6
Continuous
 62
     7
100
AcDbLine
 10
40.21239445248737
 20
74.19488234024391
 30
0.0
 11
40.21459557158737
 21
74.19471440434389
 31
0.0
  0
LWPOLYLINE
  5
B00
330
1F
100
AcDbEntity
  8
SURFACE
  6
Continuous
 62
     7
100
AcDbPolyline
 90
       45
 70
     0
 43
0.0
 10
40.21459557158737
 20
74.19471440434389
 10
40.22084015488739
 20
74.19418149534391
 10
40.22728347748738
 20
74.1935723570439
 10
40.23379401608737
 20
74.1928965018439
 10
40.24031125258737
 20
74.19215982864391
 10
40.24688772928736
 20
74.1913560037439
 10
40.25355830218738
 20
74.1904790459439
 10
40.26033451898739
 20
74.1895249443439
 10
40.26720017178739
 20
74.18849341444391
 10
40.27414963928738
 20
74.1873828455439
 10
40.28118146278738
 20
74.18619078164391
 10
40.28829448078737
 20
74.1849146125439
 10
40.29548422978739
 20
74.1835523104439
 10
40.30274877738738
 20
74.1821014016439
 10
40.31008727718737
 20
74.1805591475439
 10
40.31749673108738
 20
74.1789232167439
 10
40.32497643298738
 20
74.17719074444391
 10
40.33252399638739
 20
74.17535919104391
 10
40.34013373748739
 20
74.17342685244389
 10
40.34780412918739
 20
74.1713910280439
 10
40.35553321818738
 20
74.1692490779439
 10
40.36331449428739
 20
74.1669996648439
 10
40.37114580408739
 20
74.16464029094391
 10
40.37902547708738
 20
74.16216827344391
 10
40.38694754598738
 20
74.15958230174391
 10
40.39491023338739
 20
74.15687979944391
 10
40.40291116668739
 20
74.1540592232439
 10
40.41094328398737
 20
74.15112197914391
 10
40.41900302418738
 20
74.1480684649439
 10
40.42708942808739
 20
74.14489810854391
 10
40.43519921278736
 20
74.1416112227439
 10
40.44332851868738
 20
74.1382084159439
 10
40.45147656378738
 20
74.1346890265439
 10
40.45964466078738
 20
74.13105135984391
 10
40.46782855548737
 20
74.12729611154389
 10
40.47602774158737
 20
74.12342227774392
 10
40.48424912188737
 20
74.1194250921439
 10
40.49249088618738
 20
74.11530367944391
 10
40.50074986568738
 20
74.11105782124391
 10
40.50903082508738
 20
74.10668307274391
 10
40.51733283168736
 20
74.10217768214391
 10
40.52565157508739
 20
74.09754191954391
 10
40.53399030768737
 20
74.0927795343439
 10
40.54234775248737
 20
74.0879063606439
 10
40.55073673858738
 20
74.0829310150439
  0
LWPOLYLINE
  5
B01
330
1F
100
AcDbEntity
  8
0
  6
Continuous
 62
     7
100
AcDbPolyline
 90
       16
 70
     0
 43
0.0
 10
38.62730347638738
 20
74.19196381434391
 10
38.6318737232874
 20
74.19136990804391
 10
38.63718165718739
 20
74.19056722444389
 10
38.64297251668738
 20
74.18955600804391
 10
38.64895030968738
 20
74.1883627450439
 10
38.6550286100874
 20
74.18699194064391
 10
38.66127425358739
 20
74.18541542764391
 10
38.6676334152874
 20
74.1836320807439
 10
38.67408997518739
 20
74.18163346764391
 10
38.68064232308738
 20
74.1794067432439
 10
38.68726065228738
 20
74.1769488968439
 10
38.69393773238737
 20
74.17424993034391
 10
38.70066088338738
 20
74.17130189984391
 10
38.70739314488738
 20
74.16810907464391
 10
38.71412560198739
 20
74.16466475464391
 10
38.72084608588738
 20
74.16096391484391
  0
LINE
  5
B02
330
1F
100
AcDbEntity
  8
SURFACE
  6
Continuous
 62
     7
100
AcDbLine
 10
42.26069882698737
 20
74.03025699024391
 30
0.0
 11
42.26074273268737
 21
74.0303740705439
 31
0.0
  0
LWPOLYLINE
  5
B03
330
1F
100
AcDbEntity
  8
0
  6
Continuous
 62
     7
100
AcDbPolyline
 90
       13
 70
     0
 43
0.0
 10
38.9729155907874
 20
73.93990572194391
 10
38.97797673338736
 20
73.93882957294391
 10
38.98294101208738
 20
73.9378887849439
 10
38.98779826078739
 20
73.93707689724391
 10
38.99255095808739
 20
73.93638532984391
 10
38.99719001738738
 20
73.9358074626439
 10
39.00168522038739
 20
73.9353383348439
 10
39.00606059678738
 20
73.9349669356439
 10
39.01039215158737
 20
73.93468138614391
 10
39.01489206468737
 20
73.9344707126439
 10
39.01935087618737
 20
73.93434712014391
 10
39.02324219558737
 20
73.9343065813439
 10
39.02394377238737
 20
73.9343056496439
  0
LINE
  5
B04
330
1F
100
AcDbEntity
  8
SURFACE
  6
Continuous
 62
     7
100
AcDbLine
 10
40.73743827298737
 20
73.97010315454391
 30
0.0
 11
40.86230941578738
 21
73.8962288773439
 31
0.0
  0
LINE
  5
B05
330
1F
100
AcDbEntity
  8
SURFACE
  6
Continuous
 62
     7
100
AcDbLine
 10
40.67764906758738
 20
74.00587624034391
 30
0.0
 11
40.73743827298737
 21
73.97010315454391
 31
0.0
  0
LINE
  5
B06
330
1F
100
AcDbEntity
  8
SURFACE
  6
Continuous
 62
     7
100
AcDbLine
 10
40.55073673858738
 20
74.0829310150439
 30
0.0
 11
40.56770479578737
 21
74.07268230664391
 31
0.0
  0
LINE
  5
B07
330
1F
100
AcDbEntity
  8
SURFACE
  6
Continuous
 62
     7
100
AcDbLine
 10
40.62084940498737
 20
74.0402259477439
 30
0.0
 11
40.67764906758738
 21
74.00587624034391
 31
0.0
  0
LINE
  5
B08
330
1F
100
AcDbEntity
  8
SURFACE
  6
Continuous
 62
     7
100
AcDbLine
 10
40.56770479578737
 20
74.07268230664391
 30
0.0
 11
40.62084940498737
 21
74.0402259477439
 31
0.0
  0
LWPOLYLINE
  5
B09
330
1F
100
AcDbEntity
  8
0
  6
Continuous
 62
     7
100
AcDbPolyline
 90
       19
 70
     0
 43
0.0
 10
38.72084608588738
 20
74.16096391484391
 10
38.72751463558739
 20
74.1570188283439
 10
38.73411659178739
 20
74.15283027124392
 10
38.74064645068738
 20
74.14839361144391
 10
38.7470799945874
 20
74.14371760004391
 10
38.75340569988738
 20
74.13880380754391
 10
38.75961537018738
 20
74.1336515808439
 10
38.76569112058739
 20
74.12826903304391
 10
38.77162488928739
 20
74.12265689854391
 10
38.77740553068738
 20
74.11681907764389
 10
38.78301227868739
 20
74.11077096044391
 10
38.78843673668739
 20
74.10451701654391
 10
38.79367058868739
 20
74.0980620556439
 10
38.79869576548738
 20
74.09142469494391
 10
38.80350550918739
 20
74.0846114040439
 10
38.80809325108739
 20
74.07762891214391
 10
38.81244417738738
 20
74.0704985787439
 10
38.81655358548737
 20
74.0632284622439
 10
38.82172069638738
 20
74.0535172117439
  0
LWPOLYLINE
  5
B0A
330
1F
100
AcDbEntity
  8
0
  6
Continuous
 62
     7
100
AcDbPolyline
 90
       32
 70
     0
 43
0.0
 10
38.82172069638738
 20
74.0535172117439
 10
38.82520946828739
 20
74.04739572894391
 10
38.82886610548739
 20
74.04141244364391
 10
38.83268192558738
 20
74.03557524364391
 10
38.83665049388738
 20
74.02988758674391
 10
38.84076535298739
 20
74.0243526554439
 10
38.84501703538738
 20
74.01897703714391
 10
38.84939873718737
 20
74.0137631159439
 10
38.85390368208739
 20
74.00871299674391
 10
38.85852182668738
 20
74.0038319040439
 10
38.86324617738738
 20
73.99912112324391
 10
38.8680698161874
 20
73.99458166754391
 10
38.87298233128739
 20
73.9902173753439
 10
38.87797671338738
 20
73.98602844144391
 10
38.88304607498738
 20
73.98201480384391
 10
38.8881798366874
 20
73.97817892594391
 10
38.89337115578739
 20
73.97451993874391
 10
38.89861331768738
 20
73.97103676364391
 10
38.90389571058738
 20
73.9677305656439
 10
38.9092117595874
 20
73.9645995017439
 10
38.91455510688739
 20
73.9616415130439
 10
38.9199153574874
 20
73.95885648164391
 10
38.92528634558737
 20
73.9562416713439
 10
38.9306621843874
 20
73.9537941492439
 10
38.93603290058739
 20
73.9515125971439
 10
38.94139350308739
 20
73.9493932447439
 10
38.94673802838737
 20
73.9474326888439
 10
38.95205509198739
 20
73.9456291835439
 10
38.95734341258738
 20
73.9439772637439
 10
38.96259450318739
 20
73.9424738036439
 10
38.96778604398738
 20
73.9411187164439
 10
38.9729155907874
 20
73.93990572194391
  0
ARC
  5
B0B
330
1F
100
AcDbEntity
  8
SURFACE
  6
Continuous
 62
     7
100
AcDbCircle
 10
42.02826158078737
 20
74.12230549134391
 30
0.0
 40
0.25
100
AcDbArc
 50
270.0
 51
338.3954478294003
  0
ARC
  5
B0C
330
1F
100
AcDbEntity
  8
0
  6
Continuous
 62
     7
100
AcDbCircle
 10
43.64370819018738
 20
75.4303052618439
 30
0.0
 40
0.25
100
AcDbArc
 50
270.0
 51
315.0000000000005
  0
ARC
  5
B0D
330
1F
100
AcDbEntity
  8
0
  6
Continuous
 62
     7
100
AcDbCircle
 10
44.05081497138739
 20
75.13030526184391
 30
0.0
 40
0.25
100
AcDbArc
 50
90.0
 51
135.0000000000004
  0
SPLINE
  5
B0E
330
1F
100
AcDbEntity
  8
0
  6
Continuous
 62
     7
100
AcDbSpline
210
0.0
220
0.0
230
1.0
 70
     8
 71
     3
 72
    10
 73
     6
 74
     4
 42
0.0000000001
 43
0.0000000001
 44
0.0000000001
 12
-0.9999055697128829
 22
-0.0137423308486979
 32
0.0
 13
0.9989785568950019
 23
-0.0451867554044277
 33
0.0
 40
0.0
 40
0.0
 40
0.0
 40
0.0
 40
0.0064298631769768
 40
0.0091392980746122
 40
0.0104656512954099
 40
0.0104656512954099
 40
0.0104656512954099
 40
0.0104656512954099
 10
39.03174728938738
 20
73.9348337645439
 30
0.0
 10
39.029604204053
 20
73.93480431077486
 30
0.0
 10
39.02807451024803
 20
73.93477835982574
 30
0.0
 10
39.02139152877383
 20
73.93445619792345
 30
0.0
 10
39.02350121234523
 20
73.9343245638101
 30
0.0
 10
39.02394287848738
 20
73.93430458594391
 30
0.0
 11
39.03174728938738
 21
73.9348337645439
 31
0.0
 11
39.02532030468739
 21
73.93464138954391
 31
0.0
 11
39.02262074378739
 21
73.93441028694391
 31
0.0
 11
39.02394287848738
 21
73.93430458594391
 31
0.0
  0
SPLINE
  5
B0F
330
1F
100
AcDbEntity
  8
0
  6
Continuous
 62
     7
100
AcDbSpline
210
0.0
220
0.0
230
1.0
 70
     8
 71
     3
 72
    32
 73
    28
 74
    26
 42
0.0000000001
 43
0.0000000001
 44
0.0000000001
 12
-0.2593115979787478
 22
-0.9657937125254587
 32
0.0
 13
0.9977172270656783
 23
-0.0675302511203226
 33
0.0
 40
0.0
 40
0.0
 40
0.0
 40
0.0
 40
0.001696889853596
 40
0.0035949944258722
 40
0.0056232038860238
 40
0.0078987403162828
 40
0.0105058230597408
 40
0.0135007251144542
 40
0.0169205243055941
 40
0.0207900345054658
 40
0.0251262949401072
 40
0.0299413364411308
 40
0.0410389643716942
 40
0.0541315962048548
 40
0.0692465249307789
 40
0.0864008968296626
 40
0.1056059526130135
 40
0.1268679476728866
 40
0.1501854163001981
 40
0.1755539262595134
 40
0.2029679066745176
 40
0.2639055803261345
 40
0.3329417232359082
 40
0.4100323994018204
 40
0.4952074912465011
 40
0.5885139401258427
 40
0.6899971315393758
 40
0.6899971315393758
 40
0.6899971315393758
 40
0.6899971315393758
 10
38.63952782248738
 20
75.2762539649439
 30
0.0
 10
38.63938114808087
 20
75.27570768309343
 30
0.0
 10
38.63920031293363
 20
75.27450901251734
 30
0.0
 10
38.63943285089907
 20
75.27262427213376
 30
0.0
 10
38.64022740819849
 20
75.27069356900657
 30
0.0
 10
38.64155041060783
 20
75.26879110385666
 30
0.0
 10
38.64339070856138
 20
75.26690563083798
 30
0.0
 10
38.64574728723656
 20
75.26502811317429
 30
0.0
 10
38.64862216488031
 20
75.26315366576061
 30
0.0
 10
38.65201748214974
 20
75.26128019798571
 30
0.0
 10
38.65593472112461
 20
75.25940666496862
 30
0.0
 10
38.66215563526932
 20
75.25678288951628
 30
0.0
 10
38.67127822481986
 20
75.25355699411523
 30
0.0
 10
38.68384522033922
 20
75.249839423135
 30
0.0
 10
38.69850409331424
 20
75.24611848380598
 30
0.0
 10
38.71525542655651
 20
75.24239570490052
 30
0.0
 10
38.73409994843122
 20
75.23867358572855
 30
0.0
 10
38.75503463180912
 20
75.23495399361959
 30
0.0
 10
38.77805345508276
 20
75.2312382553096
 30
0.0
 10
38.80314789519776
 20
75.22752770323887
 30
0.0
 10
38.84070781059684
 20
75.22240697199615
 30
0.0
 10
38.89279237867183
 20
75.21609627441397
 30
0.0
 10
38.96142848552134
 20
75.20879628404175
 30
0.0
 10
39.03818808095028
 20
75.20153690645253
 30
0.0
 10
39.12307374858343
 20
75.19432154248782
 30
0.0
 10
39.21612015475886
 20
75.18715010584712
 30
0.0
 10
39.28089015054375
 20
75.18258965697746
 30
0.0
 10
39.31464065998738
 20
75.18030526184389
 30
0.0
 11
38.63952782248738
 21
75.2762539649439
 31
0.0
 11
38.6392838462874
 21
75.27457470594391
 31
0.0
 11
38.63950708458738
 21
75.27268977474391
 31
0.0
 11
38.64025624728738
 21
75.27080499654392
 31
0.0
 11
38.64153166648738
 21
75.2689204881439
 31
0.0
 11
38.64333359078738
 21
75.26703635724391
 31
0.0
 11
38.64566193428739
 21
75.2651526760439
 31
0.0
 11
38.64851652758737
 21
75.26326950754389
 31
0.0
 11
38.65189720128738
 21
75.26138691504391
 31
0.0
 11
38.65580378618738
 21
75.25950496154391
 31
0.0
 11
38.6602361126874
 21
75.25762371024391
 31
0.0
 11
38.67067731308738
 21
75.2538635666439
 31
0.0
 11
38.68321944748739
 21
75.25010698934391
 31
0.0
 11
38.69786116078739
 21
75.2463544832439
 31
0.0
 11
38.71460109798737
 21
75.24260655344391
 31
0.0
 11
38.73343790378739
 21
75.23886370494391
 31
0.0
 11
38.75436888368738
 21
75.23512652494391
 31
0.0
 11
38.77738598588739
 21
75.2313959285439
 31
0.0
 11
38.80247981888739
 21
75.22767291324391
 31
0.0
 11
38.82964099118739
 21
75.22395847634391
 31
0.0
 11
38.89012778858738
 21
75.21655932704391
 31
0.0
 11
38.9587712468874
 21
75.2092064595439
 31
0.0
 11
39.03551547868737
 21
75.2019061008439
 31
0.0
 11
39.12038157098739
 21
75.19465747004391
 31
0.0
 11
39.21340985448738
 21
75.18745803454391
 31
0.0
 11
39.31464065998738
 21
75.18030526184389
 31
0.0
  0
SPLINE
  5
B10
330
1F
100
AcDbEntity
  8
0
  6
Continuous
 62
     7
100
AcDbSpline
210
0.0
220
0.0
230
1.0
 70
     8
 71
     3
 72
    10
 73
     6
 74
     4
 42
0.0000000001
 43
0.0000000001
 44
0.0000000001
 12
-0.9999864564662118
 22
-0.00520450613886
 32
0.0
 13
0.1200915776049063
 23
0.9927628180932064
 33
0.0
 40
0.0
 40
0.0
 40
0.0
 40
0.0
 40
0.3479626664479615
 40
0.5851545836414465
 40
0.6918067597778315
 40
0.6918067597778315
 40
0.6918067597778315
 40
0.6918067597778315
 10
39.4827833463874
 20
75.7523372322439
 30
0.0
 10
39.36679736178611
 20
75.75173357429936
 30
0.0
 10
39.14825585406431
 20
75.73173271885453
 30
0.0
 10
38.9832808634389
 20
75.78969996141774
 30
0.0
 10
38.78670760289165
 20
75.71751924403161
 30
0.0
 10
38.79097694558739
 20
75.75281268234391
 30
0.0
 11
39.4827833463874
 21
75.7523372322439
 31
0.0
 11
39.13482068048738
 21
75.75235675994391
 31
0.0
 11
38.89762886868739
 21
75.75258035994391
 31
0.0
 11
38.79097694558739
 21
75.75281268234391
 31
0.0
  0
SPLINE
  5
B11
330
1F
100
AcDbEntity
  8
0
  6
Continuous
 62
     7
100
AcDbSpline
210
0.0
220
0.0
230
1.0
 70
     8
 71
     3
 72
    10
 73
     6
 74
     4
 42
0.0000000001
 43
0.0000000001
 44
0.0000000001
 12
-0.9999964283643832
 22
-0.0026726875008113
 32
0.0
 13
-0.99999356611406
 23
0.0035871618984175
 33
0.0
 40
0.0
 40
0.0
 40
0.0
 40
0.0
 40
0.3106828672185733
 40
0.587546376554291
 40
0.8205574722663095
 40
0.8205574722663095
 40
0.8205574722663095
 40
0.8205574722663095
 10
40.30334078098739
 20
75.7525624144439
 30
0.0
 10
40.19978019512986
 20
75.75228562837192
 30
0.0
 10
40.00393078821043
 20
75.75255213372777
 30
0.0
 10
39.73041223051446
 20
75.75247284672615
 30
0.0
 10
39.56045321150245
 20
75.75205861706908
 30
0.0
 10
39.48278334598739
 20
75.75233723324391
 30
0.0
 11
40.30334078098739
 21
75.7525624144439
 31
0.0
 11
39.99265792548737
 21
75.75247708274391
 31
0.0
 11
39.71579444048739
 21
75.7523609993439
 31
0.0
 11
39.48278334598739
 21
75.75233723324391
 31
0.0
  0
SPLINE
  5
B12
330
1F
100
AcDbEntity
  8
0
  6
Continuous
 62
     7
100
AcDbSpline
210
0.0
220
0.0
230
1.0
 70
     8
 71
     3
 72
    10
 73
     6
 74
     4
 42
0.0000000001
 43
0.0000000001
 44
0.0000000001
 12
-0.9999856675424613
 22
0.005353943374569
 32
0.0
 13
-0.9999964130966978
 23
-0.0026783938729908
 33
0.0
 40
0.0
 40
0.0
 40
0.0
 40
0.0
 40
0.5478047255347189
 40
1.11263897392878
 40
1.687578419892581
 40
1.687578419892581
 40
1.687578419892581
 40
1.687578419892581
 10
41.99091915518737
 20
75.7528262091439
 30
0.0
 10
41.80832019713846
 20
75.75380384763751
 30
0.0
 10
41.43743658007372
 20
75.75243899973798
 30
0.0
 10
40.87491245418985
 20
75.75276129471271
 30
0.0
 10
40.49498657555793
 20
75.75307571920703
 30
0.0
 10
40.30334078098739
 20
75.7525624144439
 30
0.0
 11
41.99091915518737
 21
75.7528262091439
 31
0.0
 11
41.44311442988739
 21
75.7528422459439
 31
0.0
 11
40.87828018458738
 21
75.75278312524391
 31
0.0
 11
40.30334078098739
 21
75.7525624144439
 31
0.0
  0
SPLINE
  5
B13
330
1F
100
AcDbEntity
  8
0
  6
Continuous
 62
     7
100
AcDbSpline
210
0.0
220
0.0
230
1.0
 70
     8
 71
     3
 72
    13
 73
     9
 74
     7
 42
0.0000000001
 43
0.0000000001
 44
0.0000000001
 12
-0.9999999999979717
 22
0.0000020140645176
 32
0.0
 13
-0.9999856650548803
 23
0.0053544079737072
 33
0.0
 40
0.0
 40
0.0
 40
0.0
 40
0.0
 40
0.6683509073706309
 40
1.324122376427283
 40
1.949430584841833
 40
2.53007086721967
 40
3.056125153190577
 40
3.506342492471841
 40
3.506342492471841
 40
3.506342492471841
 40
3.506342492471841
 10
45.49726158068738
 20
75.75298268214391
 30
0.0
 10
45.27447794489762
 20
75.75298313084452
 30
0.0
 10
44.83310383432722
 20
75.75287661034514
 30
0.0
 10
44.18329359384817
 20
75.75295070400162
 30
0.0
 10
43.56272042322316
 20
75.75286793095722
 30
0.0
 10
42.98538570846652
 20
75.75258415062446
 30
0.0
 10
42.46641658711705
 20
75.75296364320724
 30
0.0
 10
42.14098945033417
 20
75.75202266004012
 30
0.0
 10
41.99091915518737
 20
75.7528262091439
 30
0.0
 11
45.49726158068738
 21
75.75298268214391
 31
0.0
 11
44.82891067668738
 21
75.7529155588439
 31
0.0
 11
44.17313920768738
 21
75.75292417864391
 31
0.0
 11
43.54783100678737
 21
75.75282723634391
 31
0.0
 11
42.96719073848739
 21
75.7526993757439
 31
0.0
 11
42.44113645588739
 21
75.7526398227439
 31
0.0
 11
41.99091915518737
 21
75.7528262091439
 31
0.0
  0
LINE
  5
B14
330
1F
100
AcDbEntity
  8
0
100
AcDbLine
 10
38.78798332561199
 20
75.10553673933438
 30
0.0
 11
38.77997578925123
 21
75.10754751294931
 31
0.0
  0
LWPOLYLINE
  5
B15
330
1F
100
AcDbEntity
  8
0
  6
Continuous
 62
     7
100
AcDbPolyline
 90
        9
 70
     0
 43
0.0
 10
52.20545815168738
 20
75.7530440103439
 10
52.20988636108739
 20
75.7505798913439
 10
52.21484607068738
 20
75.7472204256439
 10
52.21982118538737
 20
75.74307938824389
 10
52.22464211628737
 20
75.73811157824391
 10
52.22916359828737
 20
75.73224593854391
 10
52.23309312558739
 20
75.7256451312439
 10
52.23625758368739
 20
75.7184329468439
 10
52.2379517989874
 20
75.7130771496439
  0
LINE
  5
B16
330
1F
100
AcDbEntity
  8
0
  6
Continuous
 62
     7
100
AcDbLine
 10
51.56942337168736
 20
76.08011235674391
 30
0.0
 11
51.56940006058737
 21
76.0801246305439
 31
0.0
  0
LWPOLYLINE
  5
B17
330
1F
100
AcDbEntity
  8
_SURFACE
  6
Continuous
 62
     7
100
AcDbPolyline
 90
        7
 70
     0
 43
0.0
 10
51.5694024477874
 20
76.08012339784391
 10
51.67596597568739
 20
76.02429040884391
 10
51.75450121338737
 20
75.98346573874391
 10
51.83293214038737
 20
75.94293752884391
 10
51.91190511608737
 20
75.9023483626439
 10
51.99314434938738
 20
75.86079969814391
 10
52.07723777268738
 20
75.81798703124391
  0
LINE
  5
B18
330
1F
100
AcDbEntity
  8
_SURFACE
  6
Continuous
 62
     7
100
AcDbLine
 10
52.07723777268738
 20
75.81798703124391
 30
0.0
 11
52.20545810288739
 21
75.75304399014391
 31
0.0
  0
LWPOLYLINE
  5
B19
330
1F
100
AcDbEntity
  8
0
  6
Continuous
 62
     7
100
AcDbPolyline
 90
       34
 70
     0
 43
0.0
 10
47.24334105498736
 20
76.6515896445439
 10
47.39505350148736
 20
76.64901082284391
 10
47.5446857253874
 20
76.64526198384391
 10
47.69202969258738
 20
76.6404862209439
 10
47.83691933768738
 20
76.63473433544391
 10
47.97916164258738
 20
76.62805279184391
 10
48.11856270518738
 20
76.6204636204439
 10
48.25496038458736
 20
76.6119884919439
 10
48.38821051588739
 20
76.6027188213439
 10
48.51820396008737
 20
76.59274249234392
 10
48.64489439788737
 20
76.5821275095439
 10
48.76818682498738
 20
76.5709442771439
 10
48.88798842578738
 20
76.5592696938439
 10
49.00427101378737
 20
76.54716873674392
 10
49.11696989398738
 20
76.5347006953439
 10
49.22602193878738
 20
76.5219250025439
 10
49.33142404718738
 20
76.50890515784391
 10
49.43320600748738
 20
76.49573967914389
 10
49.53136474878736
 20
76.48249475294391
 10
49.62592934778739
 20
76.4692132458439
 10
49.71688542758737
 20
76.45594199234391
 10
49.80421127328738
 20
76.4427280863439
 10
49.88793696438738
 20
76.4296120915439
 10
49.96806623648739
 20
76.4166342564439
 10
50.04460580088736
 20
76.40383710194391
 10
50.11757232908739
 20
76.3912676796439
 10
50.18694762288738
 20
76.37896679134391
 10
50.25263802788739
 20
76.3669648669439
 10
50.31473806648738
 20
76.3552774882439
 10
50.37347470198738
 20
76.34389486964391
 10
50.42963274968737
 20
76.3329167289439
 10
50.48401997218737
 20
76.3224526817439
 10
50.53672207878737
 20
76.31249230514391
 10
50.58775015638737
 20
76.3029918477439
  0
LINE
  5
B1A
330
1F
100
AcDbEntity
  8
0
  6
Continuous
 62
     7
100
AcDbLine
 10
46.77779722608737
 20
76.65725213514391
 30
0.0
 11
47.24334105498736
 21
76.6515896445439
 31
0.0
  0
LWPOLYLINE
  5
B1B
330
1F
100
AcDbEntity
  8
0
  6
Continuous
 62
     7
100
AcDbPolyline
 90
        9
 70
     0
 43
0.0
 10
45.49726101818738
 20
76.6635581068439
 10
45.63272889108738
 20
76.66401815304391
 10
45.80172426138737
 20
76.6639941777439
 10
45.96884743328739
 20
76.6634962761439
 10
46.13410267498737
 20
76.66270369454391
 10
46.29754225118738
 20
76.66166320434391
 10
46.45930486198738
 20
76.66039780564389
 10
46.61939077528738
 20
76.6589307679439
 10
46.77779722608737
 20
76.65725213514391
  0
LINE
  5
B1C
330
1F
100
AcDbEntity
  8
SURFACE
  6
Continuous
 62
     7
100
AcDbLine
 10
52.45957474428739
 20
74.91551346274391
 30
0.0
 11
52.65201696138738
 21
74.19730555054392
 31
0.0
  0
LINE
  5
B1D
330
1F
100
AcDbEntity
  8
0
  6
Continuous
 62
     7
100
AcDbLine
 10
52.23795167488738
 20
75.7130771613439
 30
0.0
 11
52.35499805548737
 21
75.2762444422439
 31
0.0
  0
LWPOLYLINE
  5
B1E
330
1F
100
AcDbEntity
  8
0
  6
Continuous
 62
     7
100
AcDbPolyline
 90
        9
 70
     0
 43
0.0
 10
51.49237962518738
 20
76.11002231874391
 10
51.50506807648738
 20
76.1059082089439
 10
51.51685467458738
 20
76.10190672994391
 10
51.52778117848739
 20
76.0980037572439
 10
51.53796160698736
 20
76.0941547383439
 10
51.54735533868738
 20
76.09036894244392
 10
51.55604832388736
 20
76.0866037839439
 10
51.56433955178737
 20
76.08270119904389
 10
51.56942595958738
 20
76.08011099424391
  0
LWPOLYLINE
  5
B1F
330
1F
100
AcDbEntity
  8
0
  6
Continuous
 62
     7
100
AcDbPolyline
 90
       27
 70
     0
 43
0.0
 10
50.77698070308738
 20
76.26827723414391
 10
50.82057832128739
 20
76.26015063164391
 10
50.86272920748739
 20
76.2522016205439
 10
50.90344784728738
 20
76.2444214032439
 10
50.94274700538737
 20
76.23680324864391
 10
50.98064790008739
 20
76.22934626894391
 10
51.01717565628739
 20
76.22205203284391
 10
51.05234529158737
 20
76.2149243548439
 10
51.08617792638738
 20
76.2079662025439
 10
51.11870539138736
 20
76.2011779662439
 10
51.14994360388736
 20
76.19456112264391
 10
51.17990970328738
 20
76.1881150013439
 10
51.20863609278739
 20
76.1818354335439
 10
51.23613978298736
 20
76.1757212902439
 10
51.26243792118739
 20
76.1697712077439
 10
51.28756165678736
 20
76.1639805189439
 10
51.31152707328737
 20
76.15834784544389
 10
51.33435263698736
 20
76.15287124114392
 10
51.35607125358738
 20
76.1475451312439
 10
51.37669836388737
 20
76.14236797424391
 10
51.39625236048736
 20
76.13733753944391
 10
51.41476803268737
 20
76.13244753174391
 10
51.43226199558738
 20
76.1276961068439
 10
51.44874643828739
 20
76.12308248594391
 10
51.46425060938738
 20
76.1186008221439
 10
51.47878857558739
 20
76.11424886684391
 10
51.49237962518738
 20
76.11002231874391
  0
LINE
  5
B20
330
1F
100
AcDbEntity
  8
0
  6
Continuous
 62
     7
100
AcDbLine
 10
50.58775015638737
 20
76.3029918477439
 30
0.0
 11
50.77698070308738
 21
76.26827723414391
 31
0.0
  0
LINE
  5
B21
330
1F
100
AcDbEntity
  8
0
  6
Continuous
 62
     7
100
AcDbLine
 10
46.94370819018739
 20
75.38030526184392
 30
0.0
 11
45.49726158081888
 21
75.38030526184392
 31
0.0
  0
LWPOLYLINE
  5
B22
330
1F
100
AcDbEntity
  8
0
  6
Continuous
 62
     7
100
AcDbPolyline
 90
        8
 70
     0
 43
0.0
 10
50.59982434688738
 20
74.03836861204391
 10
50.59538653888738
 20
74.0452183504439
 10
50.58343841548738
 20
74.0616509071439
 10
50.57011865498738
 20
74.07706611114391
 10
50.55559035678736
 20
74.09126829154391
 10
50.54021704388738
 20
74.10396908454391
 10
50.52416759148737
 20
74.1151409609439
 10
50.51382987338739
 20
74.12115391704389
  0
LINE
  5
B23
330
1F
100
AcDbEntity
  8
SURFACE
  6
Continuous
 62
     7
100
AcDbLine
 10
52.23226079788737
 20
75.1036300581439
 30
0.0
 11
52.26225089768739
 21
75.09695300014391
 31
0.0
  0
LINE
  5
B24
330
1F
100
AcDbEntity
  8
SURFACE
  6
Continuous
 62
     7
100
AcDbLine
 10
52.22851415898738
 20
75.10445979064392
 30
0.0
 11
52.23226079788737
 21
75.1036300581439
 31
0.0
  0
LINE
  5
B25
330
1F
100
AcDbEntity
  8
SURFACE
  6
Continuous
 62
     7
100
AcDbLine
 10
52.22457209488736
 20
75.1053320821439
 30
0.0
 11
52.22851415898738
 21
75.10445979064392
 31
0.0
  0
LINE
  5
B26
330
1F
100
AcDbEntity
  8
SURFACE
  6
Continuous
 62
     7
100
AcDbLine
 10
52.22043092518738
 20
75.1062477256439
 30
0.0
 11
52.22457209488736
 21
75.1053320821439
 31
0.0
  0
LWPOLYLINE
  5
B27
330
1F
100
AcDbEntity
  8
SURFACE
  6
Continuous
 62
     7
100
AcDbPolyline
 90
        3
 70
     0
 43
0.0
 10
52.21383823058737
 20
75.1077041167439
 10
52.21608720778736
 20
75.1072074623439
 10
52.22043092518738
 20
75.1062477256439
  0
LWPOLYLINE
  5
B28
330
1F
100
AcDbEntity
  8
SURFACE
  6
Continuous
 62
     7
100
AcDbPolyline
 90
        3
 70
     0
 43
0.0
 10
52.20678134958738
 20
75.1092615235439
 10
52.20918577968738
 20
75.10873104374391
 10
52.21383823058737
 20
75.1077041167439
  0
LINE
  5
B29
330
1F
100
AcDbEntity
  8
SURFACE
  6
Continuous
 62
     7
100
AcDbLine
 10
52.19921111478739
 20
75.1109304804439
 30
0.0
 11
52.20678134958738
 21
75.1092615235439
 31
0.0
  0
LINE
  5
B2A
330
1F
100
AcDbEntity
  8
SURFACE
  6
Continuous
 62
     7
100
AcDbLine
 10
52.15986974398738
 20
75.1195169443439
 30
0.0
 11
52.19921111478739
 21
75.1109304804439
 31
0.0
  0
LINE
  5
B2B
330
1F
100
AcDbEntity
  8
SURFACE
  6
Continuous
 62
     7
100
AcDbLine
 10
52.13027272258738
 20
75.1258268261439
 30
0.0
 11
52.15986974398738
 21
75.1195169443439
 31
0.0
  0
LINE
  5
B2C
330
1F
100
AcDbEntity
  8
SURFACE
  6
Continuous
 62
     7
100
AcDbLine
 10
52.10518411138737
 20
75.1310463318439
 30
0.0
 11
52.13027272258738
 21
75.1258268261439
 31
0.0
  0
LINE
  5
B2D
330
1F
100
AcDbEntity
  8
SURFACE
  6
Continuous
 62
     7
100
AcDbLine
 10
52.08234292378738
 20
75.13567721104391
 30
0.0
 11
52.10518411138737
 21
75.1310463318439
 31
0.0
  0
LINE
  5
B2E
330
1F
100
AcDbEntity
  8
SURFACE
  6
Continuous
 62
     7
100
AcDbLine
 10
52.06280091678737
 20
75.13954038714391
 30
0.0
 11
52.08234292378738
 21
75.13567721104391
 31
0.0
  0
LINE
  5
B2F
330
1F
100
AcDbEntity
  8
SURFACE
  6
Continuous
 62
     7
100
AcDbLine
 10
52.04212812248737
 20
75.1435237338439
 30
0.0
 11
52.06280091678737
 21
75.13954038714391
 31
0.0
  0
LINE
  5
B30
330
1F
100
AcDbEntity
  8
SURFACE
  6
Continuous
 62
     7
100
AcDbLine
 10
52.02032565378736
 20
75.1476068414439
 30
0.0
 11
52.04212812248737
 21
75.1435237338439
 31
0.0
  0
LINE
  5
B31
330
1F
100
AcDbEntity
  8
SURFACE
  6
Continuous
 62
     7
100
AcDbLine
 10
51.99739668658738
 20
75.15176905724391
 30
0.0
 11
52.02032565378736
 21
75.1476068414439
 31
0.0
  0
LINE
  5
B32
330
1F
100
AcDbEntity
  8
SURFACE
  6
Continuous
 62
     7
100
AcDbLine
 10
51.97945897728736
 20
75.1549307348439
 30
0.0
 11
51.99739668658738
 21
75.15176905724391
 31
0.0
  0
LINE
  5
B33
330
1F
100
AcDbEntity
  8
SURFACE
  6
Continuous
 62
     7
100
AcDbLine
 10
51.96088479058737
 20
75.1581172127439
 30
0.0
 11
51.97945897728736
 21
75.1549307348439
 31
0.0
  0
LINE
  5
B34
330
1F
100
AcDbEntity
  8
SURFACE
  6
Continuous
 62
     7
100
AcDbLine
 10
51.94167325568738
 20
75.16131969774391
 30
0.0
 11
51.96088479058737
 21
75.1581172127439
 31
0.0
  0
LINE
  5
B35
330
1F
100
AcDbEntity
  8
SURFACE
  6
Continuous
 62
     7
100
AcDbLine
 10
51.92182357808737
 20
75.16452922024391
 30
0.0
 11
51.94167325568738
 21
75.16131969774391
 31
0.0
  0
LINE
  5
B36
330
1F
100
AcDbEntity
  8
SURFACE
  6
Continuous
 62
     7
100
AcDbLine
 10
51.90133533188738
 20
75.1677365925439
 30
0.0
 11
51.92182357808737
 21
75.16452922024391
 31
0.0
  0
LINE
  5
B37
330
1F
100
AcDbEntity
  8
SURFACE
  6
Continuous
 62
     7
100
AcDbLine
 10
51.88023247888738
 20
75.17092953264389
 30
0.0
 11
51.90133533188738
 21
75.1677365925439
 31
0.0
  0
LINE
  5
B38
330
1F
100
AcDbEntity
  8
SURFACE
  6
Continuous
 62
     7
100
AcDbLine
 10
51.85852988328737
 20
75.17410002704391
 30
0.0
 11
51.88023247888738
 21
75.17092953264389
 31
0.0
  0
LINE
  5
B39
330
1F
100
AcDbEntity
  8
SURFACE
  6
Continuous
 62
     7
100
AcDbLine
 10
51.7696964818475
 20
75.18661898443145
 30
0.0
 11
51.85852988328737
 21
75.17410002704391
 31
0.0
  0
LINE
  5
B3A
330
1F
100
AcDbEntity
  8
SURFACE
  6
Continuous
 62
     7
100
AcDbLine
 10
51.81331426468737
 20
75.18035493294391
 30
0.0
 11
51.8362257916874
 21
75.1772432588439
 31
0.0
  0
LINE
  5
B3B
330
1F
100
AcDbEntity
  8
SURFACE
  6
Continuous
 62
     7
100
AcDbLine
 10
51.80545997188737
 20
75.18139498914391
 30
0.0
 11
51.81331426468737
 21
75.18035493294391
 31
0.0
  0
LWPOLYLINE
  5
B3C
330
1F
100
AcDbEntity
  8
SURFACE
  6
Continuous
 62
     7
100
AcDbPolyline
 90
       14
 70
     0
 43
0.0
 10
52.25602191308739
 20
75.09813377074391
 10
52.27221075978737
 20
75.0950650017439
 10
52.28962293198738
 20
75.0905111407439
 10
52.30815549598737
 20
75.0841504635439
 10
52.32751480638738
 20
75.07569544424391
 10
52.34684267788738
 20
75.0651916403439
 10
52.36574752808737
 20
75.05261451534391
 10
52.38409224388736
 20
75.03779518604391
 10
52.40144655138736
 20
75.02079309554391
 10
52.41745118388739
 20
75.0016871044439
 10
52.43184733788739
 20
74.9804737317439
 10
52.44433977998737
 20
74.95717369474391
 10
52.45457511668739
 20
74.9319000117439
 10
52.45957404948739
 20
74.91550991904389
  0
LINE
  5
B3D
330
1F
100
AcDbEntity
  8
0
  6
Continuous
 62
     7
100
AcDbLine
 10
52.65201108048739
 20
74.19730583074391
 30
0.0
 11
52.65201691108739
 21
74.19730573834391
 31
0.0
  0
LINE
  5
B3E
330
1F
100
AcDbEntity
  8
0
  6
Continuous
 62
     7
100
AcDbLine
 10
51.67988250158739
 20
75.18030526184389
 30
0.0
 11
47.35081497138738
 21
75.18030526184389
 31
0.0
  0
LINE
  5
B3F
330
1F
100
AcDbEntity
  8
0
  6
Continuous
 62
     7
100
AcDbLine
 10
45.49726158078736
 20
74.19730582494392
 30
0.0
 11
52.65201108048739
 21
74.19730583074391
 31
0.0
  0
LINE
  5
B40
330
1F
100
AcDbEntity
  8
SURFACE
  6
Continuous
 62
     7
100
AcDbLine
 10
52.65194235908738
 20
74.19730548804391
 30
0.0
 11
52.64752395778739
 21
74.19729081604391
 31
0.0
  0
LINE
  5
B41
330
1F
100
AcDbEntity
  8
0
  6
Continuous
 62
     7
100
AcDbLine
 10
52.65201691108739
 20
74.19730573834391
 30
0.0
 11
52.65197670828739
 21
74.19730549154391
 31
0.0
  0
LINE
  5
B42
330
1F
100
AcDbEntity
  8
SURFACE
  6
Continuous
 62
     7
100
AcDbLine
 10
52.64752395778739
 20
74.19729081604391
 30
0.0
 11
52.63613053598736
 21
74.1972041381439
 31
0.0
  0
LINE
  5
B43
330
1F
100
AcDbEntity
  8
SURFACE
  6
Continuous
 62
     7
100
AcDbLine
 10
52.63613053598736
 20
74.1972041381439
 30
0.0
 11
52.61137870638738
 21
74.1969027461439
 31
0.0
  0
LINE
  5
B44
330
1F
100
AcDbEntity
  8
SURFACE
  6
Continuous
 62
     7
100
AcDbLine
 10
52.61137870638738
 20
74.1969027461439
 30
0.0
 11
52.56944073168738
 21
74.1962109368439
 31
0.0
  0
LWPOLYLINE
  5
B45
330
1F
100
AcDbEntity
  8
SURFACE
  6
Continuous
 62
     7
100
AcDbPolyline
 90
        3
 70
     0
 43
0.0
 10
52.56944073168738
 20
74.1962109368439
 10
52.50421485248738
 20
74.1949178306439
 10
52.49777500038736
 20
74.19478244414389
  0
LINE
  5
B46
330
1F
100
AcDbEntity
  8
SURFACE
  6
Continuous
 62
     7
100
AcDbLine
 10
52.49777500038736
 20
74.19478244414389
 30
0.0
 11
52.47749476578737
 21
74.1943509387439
 31
0.0
  0
LWPOLYLINE
  5
B47
330
1F
100
AcDbEntity
  8
SURFACE
  6
Continuous
 62
     7
100
AcDbPolyline
 90
        3
 70
     0
 43
0.0
 10
52.47749476578737
 20
74.1943509387439
 10
52.46317915988736
 20
74.19404282824391
 10
52.45578384968739
 20
74.19388287494391
  0
LWPOLYLINE
  5
B48
330
1F
100
AcDbEntity
  8
SURFACE
  6
Continuous
 62
     7
100
AcDbPolyline
 90
        3
 70
     0
 43
0.0
 10
52.39121216418737
 20
74.1924804438439
 10
52.38250227358737
 20
74.1922922975439
 10
52.36470482848737
 20
74.19190988364391
  0
LINE
  5
B49
330
1F
100
AcDbEntity
  8
SURFACE
  6
Continuous
 62
     7
100
AcDbLine
 10
52.45578384968739
 20
74.19388287494391
 30
0.0
 11
52.39121216418737
 21
74.1924804438439
 31
0.0
  0
LINE
  5
B4A
330
1F
100
AcDbEntity
  8
0
  6
Continuous
 62
     7
100
AcDbLine
 10
52.45958489518738
 20
74.9154694279439
 30
0.0
 11
52.45957218458737
 21
74.91537659424391
 31
0.0
  0
LWPOLYLINE
  5
B4B
330
1F
100
AcDbEntity
  8
SURFACE
  6
Continuous
 62
     7
100
AcDbPolyline
 90
       15
 70
     0
 43
0.0
 10
48.73384832668738
 20
74.0305054537439
 10
48.72940844898737
 20
74.0409745544439
 10
48.71915604408737
 20
74.06106456604391
 10
48.70747391998738
 20
74.07949360504391
 10
48.69455881618738
 20
74.0962757379439
 10
48.68070745538737
 20
74.1113002759439
 10
48.66621257838737
 20
74.12451935884391
 10
48.6513215687874
 20
74.1359568377439
 10
48.63639019138737
 20
74.14557481804391
 10
48.62202892718737
 20
74.15327036754391
 10
48.60894483458737
 20
74.1590430443439
 10
48.59740575238736
 20
74.1631743891439
 10
48.58737519938738
 20
74.1660116581439
 10
48.57909258068737
 20
74.16777916234391
 10
48.57365829428736
 20
74.16861689014391
  0
LINE
  5
B4C
330
1F
100
AcDbEntity
  8
0
  6
Continuous
 62
     7
100
AcDbLine
 10
47.17403827608738
 20
75.2535285665439
 30
0.0
 11
47.12048488548738
 21
75.30708195714391
 31
0.0
  0
LWPOLYLINE
  5
B4D
330
1F
100
AcDbEntity
  8
0
  6
Continuous
 62
     7
100
AcDbPolyline
 90
       56
 70
     0
 43
0.0
 10
50.79294463088739
 20
73.9343056496439
 10
50.79043339918739
 20
73.9343178337439
 10
50.78706062398739
 20
73.9343742745439
 10
50.78359053568736
 20
73.9344820865439
 10
50.78004950778738
 20
73.9346451830439
 10
50.77640309708737
 20
73.9348696888439
 10
50.77284348848737
 20
73.93514464024391
 10
50.76949134088737
 20
73.93545424784391
 10
50.76622756568737
 20
73.9358031752439
 10
50.76288903398737
 20
73.9362088379439
 10
50.75941938798739
 20
73.9366829804439
 10
50.75587778008737
 20
73.9372225623439
 10
50.75227548788738
 20
73.93782944774391
 10
50.74860415518738
 20
73.9385087101439
 10
50.74487533928736
 20
73.9392619567439
 10
50.74112997168739
 20
73.9400834672439
 10
50.73738215218738
 20
73.9409713680439
 10
50.73362051768739
 20
73.94192957974391
 10
50.72984749398738
 20
73.9429590392439
 10
50.72606520908736
 20
73.9440606944439
 10
50.72227457788738
 20
73.9452358242439
 10
50.71847628308738
 20
73.94648582424391
 10
50.71467145478736
 20
73.9478119911439
 10
50.71086231798737
 20
73.9492152399439
 10
50.70705127288737
 20
73.9506963637439
 10
50.70324021328737
 20
73.95225630314391
 10
50.69943084808738
 20
73.95389605874391
 10
50.69562535118738
 20
73.9556164131439
 10
50.69182562828739
 20
73.95741823904391
 10
50.68803364018738
 20
73.95930236694391
 10
50.68425169698738
 20
73.96126942624391
 10
50.68048182618738
 20
73.9633201576439
 10
50.67672611898739
 20
73.96545524834391
 10
50.67298702888739
 20
73.9676751468439
 10
50.66926670888737
 20
73.9699804376439
 10
50.66556736078739
 20
73.97237165314391
 10
50.66189154978737
 20
73.9748490529439
 10
50.65824155008737
 20
73.9774130450439
 10
50.65461965898738
 20
73.9800639943439
 10
50.65102850948737
 20
73.9828019793439
 10
50.64747046698737
 20
73.9856272309439
 10
50.64394793388736
 20
73.98853991954391
 10
50.64046362448737
 20
73.9915399104439
 10
50.63701999198737
 20
73.99462723504391
 10
50.63361952028738
 20
73.99780186084391
 10
50.63026498728736
 20
74.00106342724391
 10
50.62695891748738
 20
74.0044117531439
 10
50.62370386238739
 20
74.00784658784392
 10
50.62050264578736
 20
74.01136733094389
 10
50.61735784738736
 20
74.0149735751439
 10
50.6142720676874
 20
74.01866483854391
 10
50.61124815758738
 20
74.02244026894391
 10
50.60828873258738
 20
74.0262992201439
 10
50.60539642278739
 20
74.03024096774391
 10
50.60257408398739
 20
74.03426439694391
 10
50.59982434688738
 20
74.03836861204391
  0
LINE
  5
B4E
330
1F
100
AcDbEntity
  8
SURFACE
  6
Continuous
 62
     7
100
AcDbLine
 10
51.97056843138738
 20
73.9343054913439
 30
0.0
 11
50.79295473048738
 21
73.9343054913439
 31
0.0
  0
LINE
  5
B4F
330
1F
100
AcDbEntity
  8
SURFACE
  6
Continuous
 62
     7
100
AcDbLine
 10
50.78212870908739
 20
74.19488234024391
 30
0.0
 11
50.77992758998736
 21
74.19471440434389
 31
0.0
  0
LWPOLYLINE
  5
B50
330
1F
100
AcDbEntity
  8
SURFACE
  6
Continuous
 62
     7
100
AcDbPolyline
 90
       45
 70
     0
 43
0.0
 10
50.77992758998736
 20
74.19471440434389
 10
50.77368300668739
 20
74.19418149534391
 10
50.76723968408739
 20
74.1935723570439
 10
50.76072914548738
 20
74.1928965018439
 10
50.75421190898738
 20
74.19215982864391
 10
50.74763543228737
 20
74.1913560037439
 10
50.74096485938738
 20
74.1904790459439
 10
50.7341886425874
 20
74.1895249443439
 10
50.72732298978739
 20
74.18849341444391
 10
50.72037352228737
 20
74.1873828455439
 10
50.71334169878737
 20
74.18619078164391
 10
50.70622868078736
 20
74.1849146125439
 10
50.69903893178737
 20
74.1835523104439
 10
50.69177438418738
 20
74.1821014016439
 10
50.68443588438738
 20
74.1805591475439
 10
50.67702643048737
 20
74.1789232167439
 10
50.66954672858738
 20
74.17719074444391
 10
50.6619991651874
 20
74.17535919104391
 10
50.65438942408737
 20
74.17342685244389
 10
50.64671903238736
 20
74.1713910280439
 10
50.63898994338739
 20
74.1692490779439
 10
50.63120866728739
 20
74.1669996648439
 10
50.62337735748737
 20
74.16464029094391
 10
50.61549768448738
 20
74.16216827344391
 10
50.60757561558737
 20
74.15958230174391
 10
50.5996129281874
 20
74.15687979944391
 10
50.59161199488737
 20
74.1540592232439
 10
50.58357987758738
 20
74.15112197914391
 10
50.57552013738739
 20
74.1480684649439
 10
50.56743373348739
 20
74.14489810854391
 10
50.55932394878737
 20
74.1416112227439
 10
50.55119464288738
 20
74.1382084159439
 10
50.54304659778738
 20
74.1346890265439
 10
50.53487850078737
 20
74.13105135984391
 10
50.52669460608739
 20
74.12729611154389
 10
50.51849541998739
 20
74.12342227774392
 10
50.51027403968736
 20
74.1194250921439
 10
50.50203227538737
 20
74.11530367944391
 10
50.49377329588738
 20
74.11105782124391
 10
50.48549233648738
 20
74.10668307274391
 10
50.47719032988736
 20
74.10217768214391
 10
50.4688715864874
 20
74.09754191954391
 10
50.46053285388738
 20
74.0927795343439
 10
50.45217540908736
 20
74.0879063606439
 10
50.44378642298737
 20
74.0829310150439
  0
LWPOLYLINE
  5
B51
330
1F
100
AcDbEntity
  8
0
  6
Continuous
 62
     7
100
AcDbPolyline
 90
       16
 70
     0
 43
0.0
 10
52.36721968518738
 20
74.19196381434391
 10
52.36264943828739
 20
74.19136990804391
 10
52.35734150438737
 20
74.19056722444389
 10
52.35155064488738
 20
74.18955600804391
 10
52.34557285188738
 20
74.1883627450439
 10
52.33949455148739
 20
74.18699194064391
 10
52.3332489079874
 20
74.18541542764391
 10
52.32688974628739
 20
74.1836320807439
 10
52.32043318638737
 20
74.18163346764391
 10
52.31388083848738
 20
74.1794067432439
 10
52.30726250928738
 20
74.1769488968439
 10
52.30058542918737
 20
74.17424993034391
 10
52.29386227818737
 20
74.17130189984391
 10
52.28713001668738
 20
74.16810907464391
 10
52.28039755958737
 20
74.16466475464391
 10
52.27367707568738
 20
74.16096391484391
  0
LINE
  5
B52
330
1F
100
AcDbEntity
  8
SURFACE
  6
Continuous
 62
     7
100
AcDbLine
 10
48.73382433458736
 20
74.03025699024391
 30
0.0
 11
48.73378042888738
 21
74.0303740705439
 31
0.0
  0
LWPOLYLINE
  5
B53
330
1F
100
AcDbEntity
  8
0
  6
Continuous
 62
     7
100
AcDbPolyline
 90
       13
 70
     0
 43
0.0
 10
52.0216075707874
 20
73.93990572194391
 10
52.01654642818737
 20
73.93882957294391
 10
52.01158214948738
 20
73.9378887849439
 10
52.00672490078737
 20
73.93707689724391
 10
52.00197220348737
 20
73.93638532984391
 10
51.99733314418738
 20
73.9358074626439
 10
51.99283794118738
 20
73.9353383348439
 10
51.98846256478738
 20
73.9349669356439
 10
51.98413100998736
 20
73.93468138614391
 10
51.97963109688739
 20
73.9344707126439
 10
51.97517228538739
 20
73.93434712014391
 10
51.97128096598736
 20
73.9343065813439
 10
51.97057938918736
 20
73.9343056496439
  0
LWPOLYLINE
  5
B54
330
1F
100
AcDbEntity
  8
SURFACE
  6
Continuous
 62
     7
100
AcDbPolyline
 90
        3
 70
     0
 43
0.0
 10
50.13221374578738
 20
73.8962288773439
 10
50.09008571528737
 20
73.87141232044391
 10
50.08311644888737
 20
73.86730526184391
  0
LINE
  5
B55
330
1F
100
AcDbEntity
  8
SURFACE
  6
Continuous
 62
     7
100
AcDbLine
 10
50.25708488858739
 20
73.97010315454391
 30
0.0
 11
50.13221374578738
 21
73.8962288773439
 31
0.0
  0
LINE
  5
B56
330
1F
100
AcDbEntity
  8
SURFACE
  6
Continuous
 62
     7
100
AcDbLine
 10
50.31687409398738
 20
74.00587624034391
 30
0.0
 11
50.25708488858739
 21
73.97010315454391
 31
0.0
  0
LINE
  5
B57
330
1F
100
AcDbEntity
  8
SURFACE
  6
Continuous
 62
     7
100
AcDbLine
 10
50.44378642298737
 20
74.0829310150439
 30
0.0
 11
50.42681836578738
 21
74.07268230664391
 31
0.0
  0
LINE
  5
B58
330
1F
100
AcDbEntity
  8
SURFACE
  6
Continuous
 62
     7
100
AcDbLine
 10
50.37367375658736
 20
74.0402259477439
 30
0.0
 11
50.31687409398738
 21
74.00587624034391
 31
0.0
  0
LINE
  5
B59
330
1F
100
AcDbEntity
  8
SURFACE
  6
Continuous
 62
     7
100
AcDbLine
 10
50.42681836578738
 20
74.07268230664391
 30
0.0
 11
50.37367375658736
 21
74.0402259477439
 31
0.0
  0
LWPOLYLINE
  5
B5A
330
1F
100
AcDbEntity
  8
0
  6
Continuous
 62
     7
100
AcDbPolyline
 90
       19
 70
     0
 43
0.0
 10
52.27367707568738
 20
74.16096391484391
 10
52.26700852598738
 20
74.1570188283439
 10
52.26040656978738
 20
74.15283027124392
 10
52.25387671088738
 20
74.14839361144391
 10
52.24744316698736
 20
74.14371760004391
 10
52.24111746168738
 20
74.13880380754391
 10
52.23490779138739
 20
74.1336515808439
 10
52.22883204098737
 20
74.12826903304391
 10
52.22289827228739
 20
74.12265689854391
 10
52.21711763088738
 20
74.11681907764389
 10
52.21151088288739
 20
74.11077096044391
 10
52.20608642488738
 20
74.10451701654391
 10
52.20085257288737
 20
74.0980620556439
 10
52.19582739608738
 20
74.09142469494391
 10
52.19101765238737
 20
74.0846114040439
 10
52.18642991048738
 20
74.07762891214391
 10
52.18207898418738
 20
74.0704985787439
 10
52.17796957608737
 20
74.0632284622439
 10
52.17280246518739
 20
74.0535172117439
  0
LWPOLYLINE
  5
B5B
330
1F
100
AcDbEntity
  8
0
  6
Continuous
 62
     7
100
AcDbPolyline
 90
       32
 70
     0
 43
0.0
 10
52.17280246518739
 20
74.0535172117439
 10
52.16931369328738
 20
74.04739572894391
 10
52.1656570560874
 20
74.04141244364391
 10
52.16184123598738
 20
74.03557524364391
 10
52.15787266768739
 20
74.02988758674391
 10
52.15375780858737
 20
74.0243526554439
 10
52.14950612618737
 20
74.01897703714391
 10
52.14512442438739
 20
74.0137631159439
 10
52.14061947948737
 20
74.00871299674391
 10
52.13600133488738
 20
74.0038319040439
 10
52.13127698418738
 20
73.99912112324391
 10
52.12645334538739
 20
73.99458166754391
 10
52.12154083028737
 20
73.9902173753439
 10
52.11654644818738
 20
73.98602844144391
 10
52.11147708658739
 20
73.98201480384391
 10
52.10634332488739
 20
73.97817892594391
 10
52.10115200578737
 20
73.97451993874391
 10
52.09590984388738
 20
73.97103676364391
 10
52.09062745098738
 20
73.9677305656439
 10
52.08531140198736
 20
73.9645995017439
 10
52.07996805468737
 20
73.9616415130439
 10
52.07460780408739
 20
73.95885648164391
 10
52.06923681598737
 20
73.9562416713439
 10
52.06386097718739
 20
73.9537941492439
 10
52.05849026098737
 20
73.9515125971439
 10
52.05312965848738
 20
73.9493932447439
 10
52.04778513318739
 20
73.9474326888439
 10
52.04246806958737
 20
73.9456291835439
 10
52.03717974898738
 20
73.9439772637439
 10
52.03192865838737
 20
73.9424738036439
 10
52.02673711758738
 20
73.9411187164439
 10
52.0216075707874
 20
73.93990572194391
  0
ARC
  5
B5C
330
1F
100
AcDbEntity
  8
SURFACE
  6
Continuous
 62
     7
100
AcDbCircle
 10
48.96626158078736
 20
74.12230549134391
 30
0.0
 40
0.25
100
AcDbArc
 50
201.6045521705995
 51
270.0
  0
ARC
  5
B5D
330
1F
100
AcDbEntity
  8
0
  6
Continuous
 62
     7
100
AcDbCircle
 10
47.35081497138738
 20
75.4303052618439
 30
0.0
 40
0.25
100
AcDbArc
 50
224.9999999999994
 51
270.0
  0
ARC
  5
B5E
330
1F
100
AcDbEntity
  8
0
  6
Continuous
 62
     7
100
AcDbCircle
 10
46.94370819018739
 20
75.13030526184391
 30
0.0
 40
0.25
100
AcDbArc
 50
44.99999999999956
 51
90.0
  0
SPLINE
  5
B5F
330
1F
100
AcDbEntity
  8
0
  6
Continuous
 62
     7
100
AcDbSpline
210
0.0
220
0.0
230
1.0
 70
     8
 71
     3
 72
    10
 73
     6
 74
     4
 42
0.0000000001
 43
0.0000000001
 44
0.0000000001
 12
0.9999055697128829
 22
-0.0137423308486979
 32
0.0
 13
-0.9989785568950019
 23
-0.0451867554044277
 33
0.0
 40
0.0
 40
0.0
 40
0.0
 40
0.0
 40
0.0064298631769768
 40
0.0091392980746122
 40
0.0104656512954099
 40
0.0104656512954099
 40
0.0104656512954099
 40
0.0104656512954099
 10
51.96277587218737
 20
73.9348337645439
 30
0.0
 10
51.96491895752176
 20
73.93480431077486
 30
0.0
 10
51.96644865132673
 20
73.93477835982574
 30
0.0
 10
51.97313163280093
 20
73.93445619792345
 30
0.0
 10
51.97102194922954
 20
73.9343245638101
 30
0.0
 10
51.97058028308738
 20
73.93430458594391
 30
0.0
 11
51.96277587218737
 21
73.9348337645439
 31
0.0
 11
51.96920285688737
 21
73.93464138954391
 31
0.0
 11
51.97190241778738
 21
73.93441028694391
 31
0.0
 11
51.97058028308738
 21
73.93430458594391
 31
0.0
  0
SPLINE
  5
B60
330
1F
100
AcDbEntity
  8
0
  6
Continuous
 62
     7
100
AcDbSpline
210
0.0
220
0.0
230
1.0
 70
     8
 71
     3
 72
    32
 73
    28
 74
    26
 42
0.0000000001
 43
0.0000000001
 44
0.0000000001
 12
0.2593115979787478
 22
-0.9657937125254587
 32
0.0
 13
-0.9977172270656783
 23
-0.0675302511203226
 33
0.0
 40
0.0
 40
0.0
 40
0.0
 40
0.0
 40
0.0016968898536001
 40
0.0035949944258796
 40
0.0056232038860312
 40
0.0078987403162902
 40
0.0105058230597482
 40
0.0135007251144616
 40
0.0169205243056016
 40
0.0207900345054733
 40
0.0251262949401146
 40
0.029941336441112
 40
0.0410389643717022
 40
0.0541315962048628
 40
0.0692465249307869
 40
0.0864008968296983
 40
0.1056059526130214
 40
0.1268679476728944
 40
0.1501854163001779
 40
0.1755539262595213
 40
0.2029679066745255
 40
0.2639055803261424
 40
0.3329417232359161
 40
0.4100323994018283
 40
0.495207491246509
 40
0.5885139401258505
 40
0.6899971315393837
 40
0.6899971315393837
 40
0.6899971315393837
 40
0.6899971315393837
 10
52.35499533908738
 20
75.2762539649439
 30
0.0
 10
52.35514201349388
 20
75.27570768309343
 30
0.0
 10
52.35532284864119
 20
75.27450901251734
 30
0.0
 10
52.35509031067568
 20
75.27262427213378
 30
0.0
 10
52.35429575337627
 20
75.27069356900653
 30
0.0
 10
52.35297275096692
 20
75.26879110385667
 30
0.0
 10
52.35113245301338
 20
75.26690563083798
 30
0.0
 10
52.3487758743382
 20
75.26502811317431
 30
0.0
 10
52.34590099669446
 20
75.26315366576063
 30
0.0
 10
52.34250567942502
 20
75.26128019798569
 30
0.0
 10
52.33858844045015
 20
75.25940666496865
 30
0.0
 10
52.33236752630546
 20
75.25678288951624
 30
0.0
 10
52.3232449367549
 20
75.25355699411526
 30
0.0
 10
52.31067794123553
 20
75.24983942313503
 30
0.0
 10
52.29601906826051
 20
75.24611848380597
 30
0.0
 10
52.27926773501824
 20
75.2423957049005
 30
0.0
 10
52.26042321314355
 20
75.23867358572857
 30
0.0
 10
52.23948852976565
 20
75.23495399361959
 30
0.0
 10
52.21646970649201
 20
75.2312382553096
 30
0.0
 10
52.19137526637702
 20
75.22752770323887
 30
0.0
 10
52.15381535097792
 20
75.22240697199612
 30
0.0
 10
52.10173078290293
 20
75.21609627441399
 30
0.0
 10
52.03309467605342
 20
75.20879628404175
 30
0.0
 10
51.95633508062448
 20
75.20153690645253
 30
0.0
 10
51.87144941299133
 20
75.19432154248782
 30
0.0
 10
51.77840300681591
 20
75.18715010584712
 30
0.0
 10
51.71363301103101
 20
75.18258965697746
 30
0.0
 10
51.67988250158739
 20
75.18030526184389
 30
0.0
 11
52.35499533908738
 21
75.2762539649439
 31
0.0
 11
52.35523931528739
 21
75.27457470594391
 31
0.0
 11
52.35501607698738
 21
75.27268977474391
 31
0.0
 11
52.35426691428738
 21
75.27080499654392
 31
0.0
 11
52.35299149508738
 21
75.2689204881439
 31
0.0
 11
52.35118957078738
 21
75.26703635724391
 31
0.0
 11
52.34886122728737
 21
75.2651526760439
 31
0.0
 11
52.34600663398738
 21
75.26326950754389
 31
0.0
 11
52.34262596028738
 21
75.26138691504391
 31
0.0
 11
52.33871937538738
 21
75.25950496154391
 31
0.0
 11
52.33428704888739
 21
75.25762371024391
 31
0.0
 11
52.32384584848738
 21
75.2538635666439
 31
0.0
 11
52.31130371408737
 21
75.25010698934391
 31
0.0
 11
52.29666200078738
 21
75.2463544832439
 31
0.0
 11
52.27992206358736
 21
75.24260655344391
 31
0.0
 11
52.26108525778737
 21
75.23886370494391
 31
0.0
 11
52.24015427788739
 21
75.23512652494391
 31
0.0
 11
52.21713717568739
 21
75.2313959285439
 31
0.0
 11
52.19204334268737
 21
75.22767291324391
 31
0.0
 11
52.16488217038737
 21
75.22395847634391
 31
0.0
 11
52.10439537298738
 21
75.21655932704391
 31
0.0
 11
52.03575191468736
 21
75.2092064595439
 31
0.0
 11
51.95900768288739
 21
75.2019061008439
 31
0.0
 11
51.87414159058737
 21
75.19465747004391
 31
0.0
 11
51.78111330708738
 21
75.18745803454391
 31
0.0
 11
51.67988250158739
 21
75.18030526184389
 31
0.0
  0
SPLINE
  5
B61
330
1F
100
AcDbEntity
  8
0
  6
Continuous
 62
     7
100
AcDbSpline
210
0.0
220
0.0
230
1.0
 70
     8
 71
     3
 72
    10
 73
     6
 74
     4
 42
0.0000000001
 43
0.0000000001
 44
0.0000000001
 12
0.9999864564662118
 22
-0.00520450613886
 32
0.0
 13
-0.1200915776049063
 23
0.9927628180932064
 33
0.0
 40
0.0
 40
0.0
 40
0.0
 40
0.0
 40
0.3479626664479615
 40
0.5851545836414465
 40
0.6918067597778315
 40
0.6918067597778315
 40
0.6918067597778315
 40
0.6918067597778315
 10
51.51173981518737
 20
75.7523372322439
 30
0.0
 10
51.62772579978865
 20
75.75173357429936
 30
0.0
 10
51.84626730751045
 20
75.73173271885453
 30
0.0
 10
52.01124229813586
 20
75.78969996141774
 30
0.0
 10
52.20781555868311
 20
75.71751924403161
 30
0.0
 10
52.20354621598737
 20
75.75281268234391
 30
0.0
 11
51.51173981518737
 21
75.7523372322439
 31
0.0
 11
51.85970248108738
 21
75.75235675994391
 31
0.0
 11
52.09689429288737
 21
75.75258035994391
 31
0.0
 11
52.20354621598737
 21
75.75281268234391
 31
0.0
  0
SPLINE
  5
B62
330
1F
100
AcDbEntity
  8
0
  6
Continuous
 62
     7
100
AcDbSpline
210
0.0
220
0.0
230
1.0
 70
     8
 71
     3
 72
    10
 73
     6
 74
     4
 42
0.0000000001
 43
0.0000000001
 44
0.0000000001
 12
0.9999964283643832
 22
-0.0026726875008113
 32
0.0
 13
0.99999356611406
 23
0.0035871618984175
 33
0.0
 40
0.0
 40
0.0
 40
0.0
 40
0.0
 40
0.3106828672185165
 40
0.5875463765542626
 40
0.8205574722662811
 40
0.8205574722662811
 40
0.8205574722662811
 40
0.8205574722662811
 10
50.69118238058739
 20
75.7525624144439
 30
0.0
 10
50.7947429664449
 20
75.75228562837192
 30
0.0
 10
50.99059237336433
 20
75.75255213372777
 30
0.0
 10
51.26411093106028
 20
75.75247284672613
 30
0.0
 10
51.4340699500723
 20
75.75205861706908
 30
0.0
 10
51.51173981558738
 20
75.75233723324391
 30
0.0
 11
50.69118238058739
 21
75.7525624144439
 31
0.0
 11
51.00186523608737
 21
75.75247708274391
 31
0.0
 11
51.27872872108738
 21
75.7523609993439
 31
0.0
 11
51.51173981558738
 21
75.75233723324391
 31
0.0
  0
SPLINE
  5
B63
330
1F
100
AcDbEntity
  8
0
  6
Continuous
 62
     7
100
AcDbSpline
210
0.0
220
0.0
230
1.0
 70
     8
 71
     3
 72
    10
 73
     6
 74
     4
 42
0.0000000001
 43
0.0000000001
 44
0.0000000001
 12
0.9999856675424613
 22
0.005353943374569
 32
0.0
 13
0.9999964130966978
 23
-0.0026783938729908
 33
0.0
 40
0.0
 40
0.0
 40
0.0
 40
0.0
 40
0.5478047255347473
 40
1.112638973928808
 40
1.687578419892638
 40
1.687578419892638
 40
1.687578419892638
 40
1.687578419892638
 10
49.00360400638736
 20
75.7528262091439
 30
0.0
 10
49.18620296443629
 20
75.75380384763751
 30
0.0
 10
49.55708658150103
 20
75.75243899973798
 30
0.0
 10
50.11961070738491
 20
75.75276129471271
 30
0.0
 10
50.49953658601684
 20
75.75307571920703
 30
0.0
 10
50.69118238058739
 20
75.7525624144439
 30
0.0
 11
49.00360400638736
 21
75.7528262091439
 31
0.0
 11
49.55140873168737
 21
75.7528422459439
 31
0.0
 11
50.11624297698737
 21
75.75278312524391
 31
0.0
 11
50.69118238058739
 21
75.7525624144439
 31
0.0
  0
SPLINE
  5
B64
330
1F
100
AcDbEntity
  8
0
  6
Continuous
 62
     7
100
AcDbSpline
210
0.0
220
0.0
230
1.0
 70
     8
 71
     3
 72
    13
 73
     9
 74
     7
 42
0.0000000001
 43
0.0000000001
 44
0.0000000001
 12
0.9999999999979717
 22
0.0000020140645176
 32
0.0
 13
0.9999856650548803
 23
0.0053544079737072
 33
0.0
 40
0.0
 40
0.0
 40
0.0
 40
0.0
 40
0.6683509073706309
 40
1.324122376427283
 40
1.949430584841833
 40
2.53007086721967
 40
3.056125153190577
 40
3.506342492471813
 40
3.506342492471813
 40
3.506342492471813
 40
3.506342492471813
 10
45.49726158088738
 20
75.75298268214391
 30
0.0
 10
45.72004521667714
 20
75.75298313084452
 30
0.0
 10
46.16141932724754
 20
75.75287661034514
 30
0.0
 10
46.81122956772658
 20
75.75295070400162
 30
0.0
 10
47.4318027383516
 20
75.75286793095722
 30
0.0
 10
48.00913745310824
 20
75.75258415062446
 30
0.0
 10
48.5281065744577
 20
75.75296364320725
 30
0.0
 10
48.85353371124057
 20
75.75202266004012
 30
0.0
 10
49.00360400638736
 20
75.7528262091439
 30
0.0
 11
45.49726158088738
 21
75.75298268214391
 31
0.0
 11
46.16561248488737
 21
75.7529155588439
 31
0.0
 11
46.82138395388737
 21
75.75292417864391
 31
0.0
 11
47.44669215478738
 21
75.75282723634391
 31
0.0
 11
48.02733242308737
 21
75.7526993757439
 31
0.0
 11
48.55338670568738
 21
75.7526398227439
 31
0.0
 11
49.00360400638736
 21
75.7528262091439
 31
0.0
  0
LINE
  5
B65
330
1F
100
AcDbEntity
  8
0
100
AcDbLine
 10
52.2065398359628
 20
75.10553673933438
 30
0.0
 11
52.21454737232356
 21
75.10754751294931
 31
0.0
  0
LINE
  5
B66
330
1F
100
AcDbEntity
  8
0
100
AcDbLine
 10
48.96626158078736
 20
73.87230549134391
 30
0.0
 11
44.7885535178418
 21
73.87230549134391
 31
0.0
  0
ENDSEC
  0
SECTION
  2
OBJECTS
  0
DICTIONARY
  5
C
330
0
100
AcDbDictionary
281
     1
  3
ACAD_2007HEADERVARS_RT
350
B86
  3
ACAD_COLOR
350
C9
  3
ACAD_GROUP
350
D
  3
ACAD_LAYOUT
350
1A
  3
ACAD_MATERIAL
350
C8
  3
ACAD_MLEADERSTYLE
350
2EC
  3
ACAD_MLINESTYLE
350
17
  3
ACAD_PLOTSETTINGS
350
19
  3
ACAD_PLOTSTYLENAME
350
E
  3
ACAD_SCALELIST
350
2CA
  3
ACAD_TABLESTYLE
350
123
  3
ACAD_VISUALSTYLE
350
296
  3
ACDB_RECOMPOSE_DATA
350
30D
  3
AcDbVariableDictionary
350
9E
  3
AcmDictionary
350
63
  3
AcmSystemVariableManager
350
B94
  3
AMG
350
49
  3
AMGSNAPSETTINGS
350
77C
  3
DWGPROPS
350
B85
  0
DICTIONARY
  5
B67
330
10
100
AcDbDictionary
280
     1
281
     1
  3
ADSK_XREC_LAYER_RECONCILED
360
B68
  0
DICTIONARY
  5
38D
330
38C
100
AcDbDictionary
280
     1
281
     1
  3
ADSK_XREC_LAYER_RECONCILED
360
B69
  0
DICTIONARY
  5
38F
330
38E
100
AcDbDictionary
280
     1
281
     1
  3
ADSK_XREC_LAYER_RECONCILED
360
B6A
  0
DICTIONARY
  5
391
330
390
100
AcDbDictionary
280
     1
281
     1
  3
ADSK_XREC_LAYER_RECONCILED
360
B6B
  0
DICTIONARY
  5
393
330
392
100
AcDbDictionary
280
     1
281
     1
  3
ADSK_XREC_LAYER_RECONCILED
360
B6C
  0
DICTIONARY
  5
99
330
1F
100
AcDbDictionary
280
     1
281
     1
  0
DICTIONARY
  5
B86
102
{ACAD_REACTORS
330
C
102
}
330
C
100
AcDbDictionary
281
     1
  3
DIMARCSYM
350
B87
  3
DIMLTEX1
350
B89
  3
DIMLTEX2
350
B8A
  3
DIMLTYPE
350
B88
  0
DICTIONARY
  5
C9
102
{ACAD_REACTORS
330
C
102
}
330
C
100
AcDbDictionary
281
     1
  0
DICTIONARY
  5
D
102
{ACAD_REACTORS
330
C
102
}
330
C
100
AcDbDictionary
281
     1
  0
DICTIONARY
  5
1A
102
{ACAD_REACTORS
330
C
102
}
330
C
100
AcDbDictionary
281
     1
  3
Layout1
350
1E
  3
Layout2
350
26
  3
Model
350
22
  0
DICTIONARY
  5
C8
102
{ACAD_REACTORS
330
C
102
}
330
C
100
AcDbDictionary
281
     1
  3
ByBlock
350
294
  3
ByLayer
350
293
  3
Global
350
295
  0
DICTIONARY
  5
2EC
102
{ACAD_REACTORS
330
C
102
}
330
C
100
AcDbDictionary
281
     1
  3
Standard
350
2ED
  0
DICTIONARY
  5
17
102
{ACAD_REACTORS
330
C
102
}
330
C
100
AcDbDictionary
281
     1
  3
Standard
350
18
  0
DICTIONARY
  5
19
102
{ACAD_REACTORS
330
C
102
}
330
C
100
AcDbDictionary
281
     1
  0
ACDBDICTIONARYWDFLT
  5
E
102
{ACAD_REACTORS
330
C
102
}
330
C
100
AcDbDictionary
281
     1
  3
Normal
350
F
100
AcDbDictionaryWithDefault
340
F
  0
DICTIONARY
  5
2CA
102
{ACAD_REACTORS
330
C
102
}
330
C
100
AcDbDictionary
281
     1
  3
A0
350
2CB
  3
A1
350
2CC
  3
A2
350
2CD
  3
A3
350
2CE
  3
A4
350
2CF
  3
A5
350
2D0
  3
A6
350
2D1
  3
A7
350
2D2
  3
A8
350
2D3
  3
A9
350
2D4
  3
B0
350
2D5
  3
B1
350
2D6
  3
B2
350
2D7
  3
B3
350
2D8
  3
B4
350
2D9
  3
B5
350
2DA
  3
B6
350
2DB
  3
B7
350
2DC
  3
B8
350
2DD
  3
B9
350
2DE
  3
C0
350
2DF
  3
C1
350
2E0
  3
C2
350
2E1
  3
C3
350
2E2
  3
C4
350
2E3
  3
C5
350
2E4
  3
C6
350
2E5
  3
C7
350
2E6
  3
C8
350
2E7
  3
C9
350
2E8
  3
D0
350
2E9
  3
D1
350
2EA
  3
D2
350
2EB
  0
DICTIONARY
  5
123
102
{ACAD_REACTORS
330
C
102
}
330
C
100
AcDbDictionary
281
     1
  3
Standard
350
124
  0
DICTIONARY
  5
296
102
{ACAD_REACTORS
330
C
102
}
330
C
100
AcDbDictionary
281
     1
  3
2dWireframe
350
29C
  3
3D Hidden
350
29E
  3
3dWireframe
350
29D
  3
Basic
350
29B
  3
Brighten
350
2A2
  3
ColorChange
350
2A6
  3
Conceptual
350
29F
  3
Dim
350
2A1
  3
Facepattern
350
2A5
  3
Flat
350
297
  3
FlatWithEdges
350
298
  3
Gouraud
350
299
  3
GouraudWithEdges
350
29A
  3
Linepattern
350
2A4
  3
Realistic
350
2A0
  3
Thicken
350
2A3
  0
XRECORD
  5
30D
102
{ACAD_REACTORS
330
C
102
}
330
C
100
AcDbXrecord
280
     1
 90
        1
330
124
  0
DICTIONARY
  5
9E
102
{ACAD_REACTORS
330
C
102
}
330
C
100
AcDbDictionary
281
     1
  3
CANNOSCALE
350
310
  3
CMLEADERSTYLE
350
30E
  3
CTABLESTYLE
350
144
  3
DIMASSOC
350
A0
  3
INDEXCTL
350
9F
  3
LAYEREVAL
350
36B
  3
LAYERNOTIFY
350
36C
  3
LIGHTINGUNITS
350
311
  3
MSLTSCALE
350
30F
  3
SORTENTS
350
B83
  0
DICTIONARY
  5
63
102
{ACAD_REACTORS
330
C
102
}
330
C
100
AcDbDictionary
281
     1
  3
AcmStdDictionary
350
69
  3
AMDTSECTSYM_ARROWCOLOR
350
12C
  0
DICTIONARY
  5
49
102
{ACAD_REACTORS
330
C
102
}
330
C
100
AcDbDictionary
281
     1
  0
DICTIONARY
  5
77C
102
{ACAD_REACTORS
330
C
102
}
330
C
100
AcDbDictionary
281
     1
  0
XRECORD
  5
B85
102
{ACAD_REACTORS
330
C
102
}
330
C
100
AcDbXrecord
280
     1
  1
DWGPROPS COOKIE
  2

  3

  4

  6

  7

  8
ko59342
  9

300
AmdtFileType=84
301
=
302
=
303
=
304
=
305
=
306
=
307
=
308
=
309
=
 40
0.0006470138888889
 41
2455303.663696042
 42
2455303.664342338
  1

 90
        1
  0
XRECORD
  5
B68
102
{ACAD_REACTORS
330
B67
102
}
330
B67
100
AcDbXrecord
280
     1
290
     1
  0
XRECORD
  5
B69
102
{ACAD_REACTORS
330
38D
102
}
330
38D
100
AcDbXrecord
280
     1
290
     1
  0
XRECORD
  5
B6A
102
{ACAD_REACTORS
330
38F
102
}
330
38F
100
AcDbXrecord
280
     1
290
     1
  0
XRECORD
  5
B6B
102
{ACAD_REACTORS
330
391
102
}
330
391
100
AcDbXrecord
280
     1
290
     1
  0
XRECORD
  5
B6C
102
{ACAD_REACTORS
330
393
102
}
330
393
100
AcDbXrecord
280
     1
290
     1
  0
XRECORD
  5
B87
102
{ACAD_REACTORS
330
B86
102
}
330
B86
100
AcDbXrecord
280
     1
 70
     1
  0
XRECORD
  5
B89
102
{ACAD_REACTORS
330
B86
102
}
330
B86
100
AcDbXrecord
280
     1
340
14
  0
XRECORD
  5
B8A
102
{ACAD_REACTORS
330
B86
102
}
330
B86
100
AcDbXrecord
280
     1
340
14
  0
XRECORD
  5
B88
102
{ACAD_REACTORS
330
B86
102
}
330
B86
100
AcDbXrecord
280
     1
340
14
  0
LAYOUT
  5
1E
102
{ACAD_XDICTIONARY
360
B8B
102
}
102
{ACAD_REACTORS
330
1A
102
}
330
1A
100
AcDbPlotSettings
  1

  2

  4

  6

 40
0.0
 41
0.0
 42
0.0
 43
0.0
 44
0.0
 45
0.0
 46
0.0
 47
0.0
 48
0.0
 49
0.0
140
0.0
141
0.0
142
1.0
143
1.0
 70
   688
 72
     0
 73
     0
 74
     5
  7

 75
    16
147
1.0
148
0.0
149
0.0
100
AcDbLayout
  1
Layout1
 70
     1
 71
     1
 10
0.0
 20
0.0
 11
12.0
 21
9.0
 12
0.0
 22
0.0
 32
0.0
 14
1.000000000000000E+20
 24
1.000000000000000E+20
 34
1.000000000000000E+20
 15
-1.000000000000000E+20
 25
-1.000000000000000E+20
 35
-1.000000000000000E+20
146
0.0
 13
0.0
 23
0.0
 33
0.0
 16
1.0
 26
0.0
 36
0.0
 17
0.0
 27
1.0
 37
0.0
 76
     0
330
1B
  0
LAYOUT
  5
26
102
{ACAD_XDICTIONARY
360
B8F
102
}
102
{ACAD_REACTORS
330
1A
102
}
330
1A
100
AcDbPlotSettings
  1

  2

  4

  6

 40
0.0
 41
0.0
 42
0.0
 43
0.0
 44
0.0
 45
0.0
 46
0.0
 47
0.0
 48
0.0
 49
0.0
140
0.0
141
0.0
142
1.0
143
1.0
 70
   688
 72
     0
 73
     0
 74
     5
  7

 75
    16
147
1.0
148
0.0
149
0.0
100
AcDbLayout
  1
Layout2
 70
     1
 71
     2
 10
0.0
 20
0.0
 11
12.0
 21
9.0
 12
0.0
 22
0.0
 32
0.0
 14
0.0
 24
0.0
 34
0.0
 15
0.0
 25
0.0
 35
0.0
146
0.0
 13
0.0
 23
0.0
 33
0.0
 16
1.0
 26
0.0
 36
0.0
 17
0.0
 27
1.0
 37
0.0
 76
     0
330
23
  0
LAYOUT
  5
22
102
{ACAD_XDICTIONARY
360
B8D
102
}
102
{ACAD_REACTORS
330
1A
102
}
330
1A
100
AcDbPlotSettings
  1

  2

  4

  6

 40
0.0
 41
0.0
 42
0.0
 43
0.0
 44
0.0
 45
0.0
 46
0.0
 47
0.0
 48
0.0
 49
0.0
140
0.0
141
0.0
142
1.0
143
1.0
 70
  1712
 72
     0
 73
     0
 74
     0
  7

 75
     0
147
1.0
148
0.0
149
0.0
100
AcDbLayout
  1
Model
 70
     1
 71
     0
 10
0.0
 20
0.0
 11
12.0
 21
9.0
 12
0.0
 22
0.0
 32
0.0
 14
0.0
 24
0.0
 34
0.0
 15
0.0
 25
0.0
 35
0.0
146
0.0
 13
0.0
 23
0.0
 33
0.0
 16
1.0
 26
0.0
 36
0.0
 17
0.0
 27
1.0
 37
0.0
 76
     0
330
1F
331
291
  0
MATERIAL
  5
294
102
{ACAD_XDICTIONARY
360
B99
102
}
102
{ACAD_REACTORS
330
C8
102
}
330
C8
100
AcDbMaterial
  1
ByBlock
 73
     1
 78
     1
172
     1
176
     1
270
     1
274
     1
  0
MATERIAL
  5
293
102
{ACAD_XDICTIONARY
360
B97
102
}
102
{ACAD_REACTORS
330
C8
102
}
330
C8
100
AcDbMaterial
  1
ByLayer
 73
     1
 78
     1
172
     1
176
     1
270
     1
274
     1
  0
MATERIAL
  5
295
102
{ACAD_XDICTIONARY
360
B9B
102
}
102
{ACAD_REACTORS
330
C8
102
}
330
C8
100
AcDbMaterial
  1
Global
 73
     1
 78
     1
172
     1
176
     1
270
     1
274
     1
  0
MLEADERSTYLE
  5
2ED
102
{ACAD_REACTORS
330
2EC
102
}
330
2EC
100
AcDbMLeaderStyle
170
     2
171
     1
172
     0
 90
        2
 40
0.0
 41
0.0
173
     1
 91
-1056964608
340
14
 92
       -2
290
     1
 42
0.09
291
     1
 43
0.36
  3
Standard
 44
0.18
300

342
11
174
     1
178
     6
175
     1
176
     0
 93
-1056964608
 45
0.18
292
     0
297
     0
 46
0.18
 94
-1056964608
 47
1.0
 49
1.0
140
1.0
293
     1
141
0.0
294
     1
177
     0
142
1.0
295
     0
296
     0
143
0.125
1001
ACAD_MLEADERVER
1070
     2
  0
MLINESTYLE
  5
18
102
{ACAD_REACTORS
330
17
102
}
330
17
100
AcDbMlineStyle
  2
STANDARD
 70
     0
  3

 62
   256
 51
90.0
 52
90.0
 71
     2
 49
0.5
 62
   256
  6
BYLAYER
 49
-0.5
 62
   256
  6
BYLAYER
  0
ACDBPLACEHOLDER
  5
F
102
{ACAD_REACTORS
330
E
102
}
330
E
  0
SCALE
  5
2CB
102
{ACAD_REACTORS
330
2CA
102
}
330
2CA
100
AcDbScale
 70
     0
300
1:1
140
1.0
141
1.0
290
     1
  0
SCALE
  5
2CC
102
{ACAD_REACTORS
330
2CA
102
}
330
2CA
100
AcDbScale
 70
     0
300
1:2
140
1.0
141
2.0
290
     0
  0
SCALE
  5
2CD
102
{ACAD_REACTORS
330
2CA
102
}
330
2CA
100
AcDbScale
 70
     0
300
1:4
140
1.0
141
4.0
290
     0
  0
SCALE
  5
2CE
102
{ACAD_REACTORS
330
2CA
102
}
330
2CA
100
AcDbScale
 70
     0
300
1:5
140
1.0
141
5.0
290
     0
  0
SCALE
  5
2CF
102
{ACAD_REACTORS
330
2CA
102
}
330
2CA
100
AcDbScale
 70
     0
300
1:8
140
1.0
141
8.0
290
     0
  0
SCALE
  5
2D0
102
{ACAD_REACTORS
330
2CA
102
}
330
2CA
100
AcDbScale
 70
     0
300
1:10
140
1.0
141
10.0
290
     0
  0
SCALE
  5
2D1
102
{ACAD_REACTORS
330
2CA
102
}
330
2CA
100
AcDbScale
 70
     0
300
1:16
140
1.0
141
16.0
290
     0
  0
SCALE
  5
2D2
102
{ACAD_REACTORS
330
2CA
102
}
330
2CA
100
AcDbScale
 70
     0
300
1:20
140
1.0
141
20.0
290
     0
  0
SCALE
  5
2D3
102
{ACAD_REACTORS
330
2CA
102
}
330
2CA
100
AcDbScale
 70
     0
300
1:30
140
1.0
141
30.0
290
     0
  0
SCALE
  5
2D4
102
{ACAD_REACTORS
330
2CA
102
}
330
2CA
100
AcDbScale
 70
     0
300
1:40
140
1.0
141
40.0
290
     0
  0
SCALE
  5
2D5
102
{ACAD_REACTORS
330
2CA
102
}
330
2CA
100
AcDbScale
 70
     0
300
1:50
140
1.0
141
50.0
290
     0
  0
SCALE
  5
2D6
102
{ACAD_REACTORS
330
2CA
102
}
330
2CA
100
AcDbScale
 70
     0
300
1:100
140
1.0
141
100.0
290
     0
  0
SCALE
  5
2D7
102
{ACAD_REACTORS
330
2CA
102
}
330
2CA
100
AcDbScale
 70
     0
300
2:1
140
2.0
141
1.0
290
     0
  0
SCALE
  5
2D8
102
{ACAD_REACTORS
330
2CA
102
}
330
2CA
100
AcDbScale
 70
     0
300
4:1
140
4.0
141
1.0
290
     0
  0
SCALE
  5
2D9
102
{ACAD_REACTORS
330
2CA
102
}
330
2CA
100
AcDbScale
 70
     0
300
8:1
140
8.0
141
1.0
290
     0
  0
SCALE
  5
2DA
102
{ACAD_REACTORS
330
2CA
102
}
330
2CA
100
AcDbScale
 70
     0
300
10:1
140
10.0
141
1.0
290
     0
  0
SCALE
  5
2DB
102
{ACAD_REACTORS
330
2CA
102
}
330
2CA
100
AcDbScale
 70
     0
300
100:1
140
100.0
141
1.0
290
     0
  0
SCALE
  5
2DC
102
{ACAD_REACTORS
330
2CA
102
}
330
2CA
100
AcDbScale
 70
     0
300
1/128" = 1'-0"
140
0.0078125
141
12.0
290
     0
  0
SCALE
  5
2DD
102
{ACAD_REACTORS
330
2CA
102
}
330
2CA
100
AcDbScale
 70
     0
300
1/64" = 1'-0"
140
0.015625
141
12.0
290
     0
  0
SCALE
  5
2DE
102
{ACAD_REACTORS
330
2CA
102
}
330
2CA
100
AcDbScale
 70
     0
300
1/32" = 1'-0"
140
0.03125
141
12.0
290
     0
  0
SCALE
  5
2DF
102
{ACAD_REACTORS
330
2CA
102
}
330
2CA
100
AcDbScale
 70
     0
300
1/16" = 1'-0"
140
0.0625
141
12.0
290
     0
  0
SCALE
  5
2E0
102
{ACAD_REACTORS
330
2CA
102
}
330
2CA
100
AcDbScale
 70
     0
300
3/32" = 1'-0"
140
0.09375
141
12.0
290
     0
  0
SCALE
  5
2E1
102
{ACAD_REACTORS
330
2CA
102
}
330
2CA
100
AcDbScale
 70
     0
300
1/8" = 1'-0"
140
0.125
141
12.0
290
     0
  0
SCALE
  5
2E2
102
{ACAD_REACTORS
330
2CA
102
}
330
2CA
100
AcDbScale
 70
     0
300
3/16" = 1'-0"
140
0.1875
141
12.0
290
     0
  0
SCALE
  5
2E3
102
{ACAD_REACTORS
330
2CA
102
}
330
2CA
100
AcDbScale
 70
     0
300
1/4" = 1'-0"
140
0.25
141
12.0
290
     0
  0
SCALE
  5
2E4
102
{ACAD_REACTORS
330
2CA
102
}
330
2CA
100
AcDbScale
 70
     0
300
3/8" = 1'-0"
140
0.375
141
12.0
290
     0
  0
SCALE
  5
2E5
102
{ACAD_REACTORS
330
2CA
102
}
330
2CA
100
AcDbScale
 70
     0
300
1/2" = 1'-0"
140
0.5
141
12.0
290
     0
  0
SCALE
  5
2E6
102
{ACAD_REACTORS
330
2CA
102
}
330
2CA
100
AcDbScale
 70
     0
300
3/4" = 1'-0"
140
0.75
141
12.0
290
     0
  0
SCALE
  5
2E7
102
{ACAD_REACTORS
330
2CA
102
}
330
2CA
100
AcDbScale
 70
     0
300
1" = 1'-0"
140
1.0
141
12.0
290
     0
  0
SCALE
  5
2E8
102
{ACAD_REACTORS
330
2CA
102
}
330
2CA
100
AcDbScale
 70
     0
300
1-1/2" = 1'-0"
140
1.5
141
12.0
290
     0
  0
SCALE
  5
2E9
102
{ACAD_REACTORS
330
2CA
102
}
330
2CA
100
AcDbScale
 70
     0
300
3" = 1'-0"
140
3.0
141
12.0
290
     0
  0
SCALE
  5
2EA
102
{ACAD_REACTORS
330
2CA
102
}
330
2CA
100
AcDbScale
 70
     0
300
6" = 1'-0"
140
6.0
141
12.0
290
     0
  0
SCALE
  5
2EB
102
{ACAD_REACTORS
330
2CA
102
}
330
2CA
100
AcDbScale
 70
     0
300
1'-0" = 1'-0"
140
12.0
141
12.0
290
     0
  0
TABLESTYLE
  5
124
102
{ACAD_XDICTIONARY
360
30B
102
}
102
{ACAD_REACTORS
330
123
102
}
330
123
100
AcDbTableStyle
  3
Standard
 70
     0
 71
     0
 40
0.06
 41
0.06
280
     0
281
     0
  7
STANDARD
140
0.18
170
     2
 62
     0
 63
     7
283
     0
274
    -2
284
     1
 64
     0
275
    -2
285
     1
 65
     0
276
    -2
286
     1
 66
     0
277
    -2
287
     1
 67
     0
278
    -2
288
     1
 68
     0
279
    -2
289
     1
 69
     0
  7
STANDARD
140
0.25
170
     5
 62
     0
 63
     7
283
     0
274
    -2
284
     1
 64
     0
275
    -2
285
     1
 65
     0
276
    -2
286
     1
 66
     0
277
    -2
287
     1
 67
     0
278
    -2
288
     1
 68
     0
279
    -2
289
     1
 69
     0
  7
STANDARD
140
0.18
170
     5
 62
     0
 63
     7
283
     0
274
    -2
284
     1
 64
     0
275
    -2
285
     1
 65
     0
276
    -2
286
     1
 66
     0
277
    -2
287
     1
 67
     0
278
    -2
288
     1
 68
     0
279
    -2
289
     1
 69
     0
  0
VISUALSTYLE
  5
29C
102
{ACAD_REACTORS
330
296
102
}
330
296
100
AcDbVisualStyle
  2
2dWireframe
 70
     4
 71
     0
 72
     2
 73
     0
 90
        0
 40
-0.6
 41
-30.0
 62
     5
 63
     7
 74
     1
 91
        4
 64
     7
 65
   257
 75
     1
175
     1
 42
1.0
 92
        0
 66
   257
 43
1.0
 76
     1
 77
     6
 78
     2
 67
     7
 79
     5
170
     0
171
     0
290
     0
174
     0
 93
        1
 44
0.0
173
     0
291
     0
 45
0.0
1001
ACAD
1000
AcDbSavedByObjectVersion
1070
     0
  0
VISUALSTYLE
  5
29E
102
{ACAD_REACTORS
330
296
102
}
330
296
100
AcDbVisualStyle
  2
3D Hidden
 70
     6
 71
     1
 72
     2
 73
     2
 90
        0
 40
-0.6
 41
-30.0
 62
     5
 63
     7
 74
     2
 91
        2
 64
     7
 65
   257
 75
     2
175
     1
 42
40.0
 92
        0
 66
   257
 43
1.0
 76
     1
 77
     6
 78
     2
 67
     7
 79
     3
170
     0
171
     0
290
     0
174
     0
 93
        1
 44
0.0
173
     0
291
     0
 45
0.0
1001
ACAD
1000
AcDbSavedByObjectVersion
1070
     0
  0
VISUALSTYLE
  5
29D
102
{ACAD_REACTORS
330
296
102
}
330
296
100
AcDbVisualStyle
  2
3dWireframe
 70
     5
 71
     0
 72
     2
 73
     0
 90
        0
 40
-0.6
 41
-30.0
 62
     5
 63
     7
 74
     1
 91
        4
 64
     7
 65
   257
 75
     1
175
     1
 42
1.0
 92
        0
 66
   257
 43
1.0
 76
     1
 77
     6
 78
     2
 67
     7
 79
     5
170
     0
171
     0
290
     0
174
     0
 93
        1
 44
0.0
173
     0
291
     0
 45
0.0
1001
ACAD
1000
AcDbSavedByObjectVersion
1070
     0
  0
VISUALSTYLE
  5
29B
102
{ACAD_REACTORS
330
296
102
}
330
296
100
AcDbVisualStyle
  2
Basic
 70
     7
 71
     1
 72
     0
 73
     1
 90
        0
 40
-0.6
 41
-30.0
 62
     5
 63
     7
 74
     0
 91
        4
 64
     7
 65
   257
 75
     1
175
     1
 42
1.0
 92
        8
 66
     7
 43
1.0
 76
     1
 77
     6
 78
     2
 67
     7
 79
     5
170
     0
171
     0
290
     0
174
     0
 93
        1
 44
0.0
173
     0
291
     1
 45
0.0
1001
ACAD
1000
AcDbSavedByObjectVersion
1070
     0
  0
VISUALSTYLE
  5
2A2
102
{ACAD_REACTORS
330
296
102
}
330
296
100
AcDbVisualStyle
  2
Brighten
 70
    12
 71
     2
 72
     2
 73
     0
 90
        0
 40
-0.6
 41
-30.0
 62
     5
 63
     7
 74
     1
 91
        4
 64
     7
 65
   257
 75
     1
175
     1
 42
1.0
 92
        8
 66
     7
 43
1.0
 76
     1
 77
     6
 78
     2
 67
     7
 79
     5
170
     0
171
     0
290
     0
174
     0
 93
        1
 44
50.0
173
     0
291
     1
 45
0.0
1001
ACAD
1000
AcDbSavedByObjectVersion
1070
     0
  0
VISUALSTYLE
  5
2A6
102
{ACAD_REACTORS
330
296
102
}
330
296
100
AcDbVisualStyle
  2
ColorChange
 70
    16
 71
     2
 72
     2
 73
     3
 90
        0
 40
-0.6
 41
-30.0
 62
     5
 63
     8
 74
     1
 91
        4
 64
     7
 65
   257
 75
     1
175
     1
 42
1.0
 92
        8
 66
     8
 43
1.0
 76
     1
 77
     6
 78
     2
 67
     7
 79
     5
170
     0
171
     0
290
     0
174
     0
 93
        1
 44
0.0
173
     0
291
     1
 45
0.0
1001
ACAD
1000
AcDbSavedByObjectVersion
1070
     0
  0
VISUALSTYLE
  5
29F
102
{ACAD_REACTORS
330
296
102
}
330
296
100
AcDbVisualStyle
  2
Conceptual
 70
     9
 71
     3
 72
     2
 73
     0
 90
        0
 40
-0.6
 41
-30.0
 62
     5
 63
     7
 74
     2
 91
        2
 64
     7
 65
   257
 75
     1
175
     1
 42
40.0
 92
        8
 66
     7
 43
1.0
 76
     1
 77
     6
 78
     2
 67
     7
 79
     3
170
     0
171
     0
290
     0
174
     0
 93
        1
 44
0.0
173
     0
291
     0
 45
0.0
1001
ACAD
1000
AcDbSavedByObjectVersion
1070
     0
  0
VISUALSTYLE
  5
2A1
102
{ACAD_REACTORS
330
296
102
}
330
296
100
AcDbVisualStyle
  2
Dim
 70
    11
 71
     2
 72
     2
 73
     0
 90
        0
 40
-0.6
 41
-30.0
 62
     5
 63
     7
 74
     1
 91
        4
 64
     7
 65
   257
 75
     1
175
     1
 42
1.0
 92
        8
 66
     7
 43
1.0
 76
     1
 77
     6
 78
     2
 67
     7
 79
     5
170
     0
171
     0
290
     0
174
     0
 93
        1
 44
-50.0
173
     0
291
     1
 45
0.0
1001
ACAD
1000
AcDbSavedByObjectVersion
1070
     0
  0
VISUALSTYLE
  5
2A5
102
{ACAD_REACTORS
330
296
102
}
330
296
100
AcDbVisualStyle
  2
Facepattern
 70
    15
 71
     2
 72
     2
 73
     0
 90
        0
 40
-0.6
 41
-30.0
 62
     5
 63
     7
 74
     1
 91
        4
 64
     7
 65
   257
 75
     1
175
     1
 42
1.0
 92
        8
 66
     7
 43
1.0
 76
     1
 77
     6
 78
     2
 67
     7
 79
     5
170
     0
171
     0
290
     0
174
     0
 93
        1
 44
0.0
173
     0
291
     1
 45
0.0
1001
ACAD
1000
AcDbSavedByObjectVersion
1070
     0
  0
VISUALSTYLE
  5
297
102
{ACAD_REACTORS
330
296
102
}
330
296
100
AcDbVisualStyle
  2
Flat
 70
     0
 71
     2
 72
     1
 73
     1
 90
        2
 40
-0.6
 41
30.0
 62
     5
 63
     7
 74
     0
 91
        4
 64
     7
 65
   257
 75
     1
175
     1
 42
1.0
 92
        8
 66
     7
 43
1.0
 76
     1
 77
     6
 78
     2
 67
     7
 79
     5
170
     0
171
     0
290
     0
174
     0
 93
       13
 44
0.0
173
     0
291
     1
 45
0.0
1001
ACAD
1000
AcDbSavedByObjectVersion
1070
     0
  0
VISUALSTYLE
  5
298
102
{ACAD_REACTORS
330
296
102
}
330
296
100
AcDbVisualStyle
  2
FlatWithEdges
 70
     1
 71
     2
 72
     1
 73
     1
 90
        2
 40
-0.6
 41
30.0
 62
     5
 63
     7
 74
     1
 91
        4
 64
     7
 65
   257
 75
     1
175
     1
 42
1.0
 92
        0
 66
   257
 43
1.0
 76
     1
 77
     6
 78
     2
 67
     7
 79
     5
170
     0
171
     0
290
     0
174
     0
 93
       13
 44
0.0
173
     0
291
     1
 45
0.0
1001
ACAD
1000
AcDbSavedByObjectVersion
1070
     0
  0
VISUALSTYLE
  5
299
102
{ACAD_REACTORS
330
296
102
}
330
296
100
AcDbVisualStyle
  2
Gouraud
 70
     2
 71
     2
 72
     2
 73
     1
 90
        2
 40
-0.6
 41
30.0
 62
     5
 63
     7
 74
     0
 91
        4
 64
     7
 65
   257
 75
     1
175
     1
 42
1.0
 92
        0
 66
     7
 43
1.0
 76
     1
 77
     6
 78
     2
 67
     7
 79
     5
170
     0
171
     0
290
     0
174
     0
 93
       13
 44
0.0
173
     0
291
     1
 45
0.0
1001
ACAD
1000
AcDbSavedByObjectVersion
1070
     0
  0
VISUALSTYLE
  5
29A
102
{ACAD_REACTORS
330
296
102
}
330
296
100
AcDbVisualStyle
  2
GouraudWithEdges
 70
     3
 71
     2
 72
     2
 73
     1
 90
        2
 40
-0.6
 41
30.0
 62
     5
 63
     7
 74
     1
 91
        4
 64
     7
 65
   257
 75
     1
175
     1
 42
1.0
 92
        0
 66
   257
 43
1.0
 76
     1
 77
     6
 78
     2
 67
     7
 79
     5
170
     0
171
     0
290
     0
174
     0
 93
       13
 44
0.0
173
     0
291
     1
 45
0.0
1001
ACAD
1000
AcDbSavedByObjectVersion
1070
     0
  0
VISUALSTYLE
  5
2A4
102
{ACAD_REACTORS
330
296
102
}
330
296
100
AcDbVisualStyle
  2
Linepattern
 70
    14
 71
     2
 72
     2
 73
     0
 90
        0
 40
-0.6
 41
-30.0
 62
     5
 63
     7
 74
     1
 91
        4
 64
     7
 65
   257
 75
     7
175
     7
 42
1.0
 92
        8
 66
     7
 43
1.0
 76
     1
 77
     6
 78
     2
 67
     7
 79
     5
170
     0
171
     0
290
     0
174
     0
 93
        1
 44
0.0
173
     0
291
     1
 45
0.0
1001
ACAD
1000
AcDbSavedByObjectVersion
1070
     0
  0
VISUALSTYLE
  5
2A0
102
{ACAD_REACTORS
330
296
102
}
330
296
100
AcDbVisualStyle
  2
Realistic
 70
     8
 71
     2
 72
     2
 73
     0
 90
        0
 40
-0.6
 41
-30.0
 62
     5
 63
     7
 74
     1
 91
        0
 64
     7
 65
   257
 75
     1
175
     1
 42
1.0
 92
        8
 66
     8
 43
1.0
 76
     1
 77
     6
 78
     2
 67
     7
 79
     5
170
     0
171
     0
290
     0
174
     0
 93
       13
 44
0.0
173
     0
291
     0
 45
0.0
1001
ACAD
1000
AcDbSavedByObjectVersion
1070
     0
  0
VISUALSTYLE
  5
2A3
102
{ACAD_REACTORS
330
296
102
}
330
296
100
AcDbVisualStyle
  2
Thicken
 70
    13
 71
     2
 72
     2
 73
     0
 90
        0
 40
-0.6
 41
-30.0
 62
     5
 63
     7
 74
     1
 91
        4
 64
     7
 65
   257
 75
     1
175
     1
 42
1.0
 92
       12
 66
     7
 43
1.0
 76
     1
 77
     6
 78
     2
 67
     7
 79
     5
170
     0
171
     0
290
     0
174
     0
 93
        1
 44
0.0
173
     0
291
     1
 45
0.0
1001
ACAD
1000
AcDbSavedByObjectVersion
1070
     0
  0
DICTIONARYVAR
  5
310
102
{ACAD_REACTORS
330
9E
102
}
330
9E
100
DictionaryVariables
280
     0
  1
1:1
  0
DICTIONARYVAR
  5
30E
102
{ACAD_REACTORS
330
9E
102
}
330
9E
100
DictionaryVariables
280
     0
  1
STANDARD
  0
DICTIONARYVAR
  5
144
102
{ACAD_REACTORS
330
9E
102
}
330
9E
100
DictionaryVariables
280
     0
  1
STANDARD
  0
DICTIONARYVAR
  5
A0
102
{ACAD_REACTORS
330
9E
102
}
330
9E
100
DictionaryVariables
280
     0
  1
2
  0
DICTIONARYVAR
  5
9F
102
{ACAD_REACTORS
330
9E
102
}
330
9E
100
DictionaryVariables
280
     0
  1
0
  0
DICTIONARYVAR
  5
36B
102
{ACAD_REACTORS
330
9E
102
}
330
9E
100
DictionaryVariables
280
     0
  1
1
  0
DICTIONARYVAR
  5
36C
102
{ACAD_REACTORS
330
9E
102
}
330
9E
100
DictionaryVariables
280
     0
  1
15
  0
DICTIONARYVAR
  5
311
102
{ACAD_REACTORS
330
9E
102
}
330
9E
100
DictionaryVariables
280
     0
  1
0
  0
DICTIONARYVAR
  5
30F
102
{ACAD_REACTORS
330
9E
102
}
330
9E
100
DictionaryVariables
280
     0
  1
0
  0
DICTIONARYVAR
  5
B83
102
{ACAD_REACTORS
330
9E
102
}
330
9E
100
DictionaryVariables
280
     0
  1
127
  0
DICTIONARY
  5
69
102
{ACAD_REACTORS
330
63
102
}
330
63
100
AcDbDictionary
281
     1
  0
XRECORD
  5
12C
102
{ACAD_REACTORS
330
63
102
}
330
63
100
AcDbXrecord
280
     1
 90
-1023410169
  0
DICTIONARY
  5
B8B
330
1E
100
AcDbDictionary
280
     1
281
     1
  3
ACAD_XREC_ROUNDTRIP
360
B8C
  0
DICTIONARY
  5
B8F
330
26
100
AcDbDictionary
280
     1
281
     1
  3
ACAD_XREC_ROUNDTRIP
360
B90
  0
DICTIONARY
  5
B8D
330
22
100
AcDbDictionary
280
     1
281
     1
  3
ACAD_XREC_ROUNDTRIP
360
B8E
  0
DICTIONARY
  5
B99
330
294
100
AcDbDictionary
280
     1
281
     1
  3
ACAD_XREC_ROUNDTRIP
360
B9A
  0
DICTIONARY
  5
B97
330
293
100
AcDbDictionary
280
     1
281
     1
  3
ACAD_XREC_ROUNDTRIP
360
B98
  0
DICTIONARY
  5
B9B
330
295
100
AcDbDictionary
280
     1
281
     1
  3
ACAD_XREC_ROUNDTRIP
360
B9C
  0
DICTIONARY
  5
30B
330
124
100
AcDbDictionary
280
     1
281
     1
  3
ACAD_ROUNDTRIP_2008_TABLESTYLE_CELLSTYLEMAP
360
B84
  3
ACAD_XREC_ROUNDTRIP
360
B96
  0
XRECORD
  5
B8C
102
{ACAD_REACTORS
330
B8B
102
}
330
B8B
100
AcDbXrecord
280
     1
102
SHADEPLOT
 70
     0
102
SHADEPLOTRESLEVEL
 70
     2
102
SHADEPLOTCUSTOMDPI
 70
   300
  0
XRECORD
  5
B90
102
{ACAD_REACTORS
330
B8F
102
}
330
B8F
100
AcDbXrecord
280
     1
102
SHADEPLOT
 70
     0
102
SHADEPLOTRESLEVEL
 70
     2
102
SHADEPLOTCUSTOMDPI
 70
   300
  0
XRECORD
  5
B8E
102
{ACAD_REACTORS
330
B8D
102
}
330
B8D
100
AcDbXrecord
280
     1
102
SHADEPLOT
 70
     0
102
SHADEPLOTRESLEVEL
 70
     2
102
SHADEPLOTCUSTOMDPI
 70
   300
  0
XRECORD
  5
B9A
102
{ACAD_REACTORS
330
B99
102
}
330
B99
100
AcDbXrecord
280
     1
102
MATERIAL
148
0.0
149
0.0
149
0.0
 93
        0
 94
       63
282
     0
 72
     1
 77
     1
171
     1
175
     1
179
     1
273
     0
  0
XRECORD
  5
B98
102
{ACAD_REACTORS
330
B97
102
}
330
B97
100
AcDbXrecord
280
     1
102
MATERIAL
148
0.0
149
0.0
149
0.0
 93
        0
 94
       63
282
     0
 72
     1
 77
     1
171
     1
175
     1
179
     1
273
     0
  0
XRECORD
  5
B9C
102
{ACAD_REACTORS
330
B9B
102
}
330
B9B
100
AcDbXrecord
280
     1
102
MATERIAL
148
0.0
149
0.0
149
0.0
 93
        0
 94
       63
282
     0
 72
     1
 77
     1
171
     1
175
     1
179
     1
273
     0
  0
CELLSTYLEMAP
  5
B84
102
{ACAD_REACTORS
330
30B
102
}
330
30B
100
AcDbCellStyleMap
 90
        3
300
CELLSTYLE
  1
TABLEFORMAT_BEGIN
 90
        5
170
     1
 91
        0
 92
    32768
 62
   257
 93
        1
300
CONTENTFORMAT
  1
CONTENTFORMAT_BEGIN
 90
        0
 91
        0
 92
      512
 93
        0
300

 40
0.0
140
1.0
 94
        5
 62
     0
340
11
144
0.25
309
CONTENTFORMAT_END
171
     0
 94
        6
 95
        1
302
GRIDFORMAT
  1
GRIDFORMAT_BEGIN
 90
        0
 91
        1
 62
     0
 92
       -2
340
0
 93
        0
 40
0.045
309
GRIDFORMAT_END
 95
        2
302
GRIDFORMAT
  1
GRIDFORMAT_BEGIN
 90
        0
 91
        1
 62
     0
 92
       -2
340
0
 93
        0
 40
0.045
309
GRIDFORMAT_END
 95
        4
302
GRIDFORMAT
  1
GRIDFORMAT_BEGIN
 90
        0
 91
        1
 62
     0
 92
       -2
340
0
 93
        0
 40
0.045
309
GRIDFORMAT_END
 95
        8
302
GRIDFORMAT
  1
GRIDFORMAT_BEGIN
 90
        0
 91
        1
 62
     0
 92
       -2
340
0
 93
        0
 40
0.045
309
GRIDFORMAT_END
 95
       16
302
GRIDFORMAT
  1
GRIDFORMAT_BEGIN
 90
        0
 91
        1
 62
     0
 92
       -2
340
0
 93
        0
 40
0.045
309
GRIDFORMAT_END
 95
       32
302
GRIDFORMAT
  1
GRIDFORMAT_BEGIN
 90
        0
 91
        1
 62
     0
 92
       -2
340
0
 93
        0
 40
0.045
309
GRIDFORMAT_END
309
TABLEFORMAT_END
  1
CELLSTYLE_BEGIN
 90
        1
 91
        1
300
_TITLE
309
CELLSTYLE_END
300
CELLSTYLE
  1
TABLEFORMAT_BEGIN
 90
        5
170
     1
 91
        0
 92
        0
 62
   257
 93
        1
300
CONTENTFORMAT
  1
CONTENTFORMAT_BEGIN
 90
        0
 91
        0
 92
      512
 93
        0
300

 40
0.0
140
1.0
 94
        5
 62
     0
340
11
144
0.18
309
CONTENTFORMAT_END
171
     0
 94
        6
 95
        1
302
GRIDFORMAT
  1
GRIDFORMAT_BEGIN
 90
        0
 91
        1
 62
     0
 92
       -2
340
0
 93
        0
 40
0.045
309
GRIDFORMAT_END
 95
        2
302
GRIDFORMAT
  1
GRIDFORMAT_BEGIN
 90
        0
 91
        1
 62
     0
 92
       -2
340
0
 93
        0
 40
0.045
309
GRIDFORMAT_END
 95
        4
302
GRIDFORMAT
  1
GRIDFORMAT_BEGIN
 90
        0
 91
        1
 62
     0
 92
       -2
340
0
 93
        0
 40
0.045
309
GRIDFORMAT_END
 95
        8
302
GRIDFORMAT
  1
GRIDFORMAT_BEGIN
 90
        0
 91
        1
 62
     0
 92
       -2
340
0
 93
        0
 40
0.045
309
GRIDFORMAT_END
 95
       16
302
GRIDFORMAT
  1
GRIDFORMAT_BEGIN
 90
        0
 91
        1
 62
     0
 92
       -2
340
0
 93
        0
 40
0.045
309
GRIDFORMAT_END
 95
       32
302
GRIDFORMAT
  1
GRIDFORMAT_BEGIN
 90
        0
 91
        1
 62
     0
 92
       -2
340
0
 93
        0
 40
0.045
309
GRIDFORMAT_END
309
TABLEFORMAT_END
  1
CELLSTYLE_BEGIN
 90
        2
 91
        1
300
_HEADER
309
CELLSTYLE_END
300
CELLSTYLE
  1
TABLEFORMAT_BEGIN
 90
        5
170
     1
 91
        0
 92
        0
 62
   257
 93
        1
300
CONTENTFORMAT
  1
CONTENTFORMAT_BEGIN
 90
        0
 91
        0
 92
      512
 93
        0
300

 40
0.0
140
1.0
 94
        2
 62
     0
340
11
144
0.18
309
CONTENTFORMAT_END
171
     0
 94
        6
 95
        1
302
GRIDFORMAT
  1
GRIDFORMAT_BEGIN
 90
        0
 91
        1
 62
     0
 92
       -2
340
0
 93
        0
 40
0.045
309
GRIDFORMAT_END
 95
        2
302
GRIDFORMAT
  1
GRIDFORMAT_BEGIN
 90
        0
 91
        1
 62
     0
 92
       -2
340
0
 93
        0
 40
0.045
309
GRIDFORMAT_END
 95
        4
302
GRIDFORMAT
  1
GRIDFORMAT_BEGIN
 90
        0
 91
        1
 62
     0
 92
       -2
340
0
 93
        0
 40
0.045
309
GRIDFORMAT_END
 95
        8
302
GRIDFORMAT
  1
GRIDFORMAT_BEGIN
 90
        0
 91
        1
 62
     0
 92
       -2
340
0
 93
        0
 40
0.045
309
GRIDFORMAT_END
 95
       16
302
GRIDFORMAT
  1
GRIDFORMAT_BEGIN
 90
        0
 91
        1
 62
     0
 92
       -2
340
0
 93
        0
 40
0.045
309
GRIDFORMAT_END
 95
       32
302
GRIDFORMAT
  1
GRIDFORMAT_BEGIN
 90
        0
 91
        1
 62
     0
 92
       -2
340
0
 93
        0
 40
0.045
309
GRIDFORMAT_END
309
TABLEFORMAT_END
  1
CELLSTYLE_BEGIN
 90
        3
 91
        2
300
_DATA
309
CELLSTYLE_END
  0
XRECORD
  5
B96
102
{ACAD_REACTORS
330
30B
102
}
330
30B
100
AcDbXrecord
280
     1
102
ACAD_ROUNDTRIP_PRE2007_TABLESTYLE
 90
      512
 91
        0
  1

 92
      512
 93
        0
  2

 94
      512
 95
        0
  3

  0
ENDSEC
  0
EOF
