  0
SECTION
  2
HEADER
  9
$ACADVER
  1
AC1009
  9
$INSBASE
 10
2830.211880651888805
 20
143.8399582174768057
 30
0.0
  9
$EXTMIN
 10
2820.823952969200036
 20
143.8399582174768057
 30
0.0
  9
$EXTMAX
 10
2835.1421898550388505
 20
181.2602269345181014
 30
0.0
  9
$LIMMIN
 10
0.0
 20
0.0
  9
$LIMMAX
 10
11.6929133858000007
 20
8.2677165353999982
  9
$ORTHOMODE
 70
     1
  9
$REGENMODE
 70
     1
  9
$FILLMODE
 70
     1
  9
$QTEXTMODE
 70
     0
  9
$MIRRTEXT
 70
     0
  9
$DRAGMODE
 70
     2
  9
$LTSCALE
 40
0.6431102362
  9
$OSMODE
 70
  4095
  9
$ATTMODE
 70
     1
  9
$TEXTSIZE
 40
0.2
  9
$TRACEWID
 40
0.05
  9
$TEXTSTYLE
  7
STANDARD
  9
$CLAYER
  8
0
  9
$CELTYPE
  6
BYLAYER
  9
$CECOLOR
 62
   256
  9
$DIMSCALE
 40
1.0
  9
$DIMASZ
 40
0.1875
  9
$DIMEXO
 40
0.0625
  9
$DIMDLI
 40
0.4443307087
  9
$DIMRND
 40
0.0
  9
$DIMDLE
 40
0.0
  9
$DIMEXE
 40
0.125
  9
$DIMTP
 40
0.01
  9
$DIMTM
 40
0.01
  9
$DIMTXT
 40
2.0
  9
$DIMCEN
 40
0.1052362205
  9
$DIMTSZ
 40
0.0
  9
$DIMTOL
 70
     1
  9
$DIMLIM
 70
     0
  9
$DIMTIH
 70
     1
  9
$DIMTOH
 70
     1
  9
$DIMSE1
 70
     0
  9
$DIMSE2
 70
     0
  9
$DIMTAD
 70
     0
  9
$DIMZIN
 70
     0
  9
$DIMBLK
  1

  9
$DIMASO
 70
     1
  9
$DIMSHO
 70
     1
  9
$DIMPOST
  1
\X
  9
$DIMAPOST
  1

  9
$DIMALT
 70
     1
  9
$DIMALTD
 70
     2
  9
$DIMALTF
 40
25.3999999999999986
  9
$DIMLFAC
 40
1.0
  9
$DIMTOFL
 70
     0
  9
$DIMTVP
 40
0.0
  9
$DIMTIX
 70
     0
  9
$DIMSOXD
 70
     0
  9
$DIMSAH
 70
     0
  9
$DIMBLK1
  1

  9
$DIMBLK2
  1

  9
$DIMSTYLE
  2
STANDARD
  9
$DIMCLRD
 70
     0
  9
$DIMCLRE
 70
     0
  9
$DIMCLRT
 70
     0
  9
$DIMTFAC
 40
1.0
  9
$DIMGAP
 40
0.09
  9
$LUNITS
 70
     2
  9
$LUPREC
 70
     4
  9
$SKETCHINC
 40
0.1
  9
$FILLETRAD
 40
0.0
  9
$AUNITS
 70
     0
  9
$AUPREC
 70
     0
  9
$MENU
  1
.
  9
$ELEVATION
 40
0.0
  9
$PELEVATION
 40
0.0
  9
$THICKNESS
 40
0.0
  9
$LIMCHECK
 70
     0
  9
$BLIPMODE
 70
     0
  9
$CHAMFERA
 40
0.0
  9
$CHAMFERB
 40
0.0
  9
$SKPOLY
 70
     0
  9
$TDCREATE
 40
2458060.468368056230247
  9
$TDUPDATE
 40
2459381.6532291672192514
  9
$TDINDWG
 40
0.6775302083
  9
$TDUSRTIMER
 40
0.6775302083
  9
$USRTIMER
 70
     1
  9
$ANGBASE
 50
0.0
  9
$ANGDIR
 70
     0
  9
$PDMODE
 70
     0
  9
$PDSIZE
 40
0.3125
  9
$PLINEWID
 40
0.0
  9
$COORDS
 70
     1
  9
$SPLFRAME
 70
     0
  9
$SPLINETYPE
 70
     6
  9
$SPLINESEGS
 70
     8
  9
$ATTDIA
 70
     1
  9
$ATTREQ
 70
     1
  9
$HANDLING
 70
     1
  9
$HANDSEED
  5
3704F
  9
$SURFTAB1
 70
     6
  9
$SURFTAB2
 70
     6
  9
$SURFTYPE
 70
     6
  9
$SURFU
 70
     6
  9
$SURFV
 70
     6
  9
$UCSNAME
  2

  9
$UCSORG
 10
0.0
 20
0.0
 30
0.0
  9
$UCSXDIR
 10
1.0
 20
0.0
 30
0.0
  9
$UCSYDIR
 10
0.0
 20
1.0
 30
0.0
  9
$PUCSNAME
  2

  9
$PUCSORG
 10
0.0
 20
0.0
 30
0.0
  9
$PUCSXDIR
 10
1.0
 20
0.0
 30
0.0
  9
$PUCSYDIR
 10
0.0
 20
1.0
 30
0.0
  9
$USERI1
 70
     0
  9
$USERI2
 70
     0
  9
$USERI3
 70
     0
  9
$USERI4
 70
     0
  9
$USERI5
 70
     0
  9
$USERR1
 40
0.0
  9
$USERR2
 40
0.0
  9
$USERR3
 40
0.0
  9
$USERR4
 40
0.0
  9
$USERR5
 40
0.0
  9
$WORLDVIEW
 70
     1
  9
$SHADEDGE
 70
     3
  9
$SHADEDIF
 70
    70
  9
$TILEMODE
 70
     1
  9
$MAXACTVP
 70
    64
  9
$PLIMCHECK
 70
     0
  9
$PEXTMIN
 10
1.0000000000000000E+20
 20
1.0000000000000000E+20
 30
1.0000000000000000E+20
  9
$PEXTMAX
 10
-1.0000000000000000E+20
 20
-1.0000000000000000E+20
 30
-1.0000000000000000E+20
  9
$PLIMMIN
 10
0.0
 20
0.0
  9
$PLIMMAX
 10
12.0
 20
9.0
  9
$UNITMODE
 70
     0
  9
$VISRETAIN
 70
     1
  9
$PLINEGEN
 70
     0
  9
$PSLTSCALE
 70
     1
  0
ENDSEC
  0
SECTION
  2
TABLES
  0
TABLE
  2
VPORT
 70
     1
  0
VPORT
  2
*ACTIVE
 70
     0
 10
0.0
 20
0.0
 11
1.0
 21
1.0
 12
-475.6242758374827986
 22
-31.3190874713389888
 13
0.0
 23
0.0
 14
1.0
 24
1.0
 15
0.0
 25
0.0
 16
0.0
 26
0.0
 36
96.5995694866707311
 17
3303.693115234375
 27
195.2615115758877096
 37
0.0
 40
38.2324874892312607
 41
2.6159122085048012
 42
50.0
 43
0.0
 44
0.0
 50
0.0
 51
0.0
 71
     0
 72
   100
 73
     1
 74
     1
 75
     0
 76
     0
 77
     0
 78
     0
  0
ENDTAB
  0
TABLE
  2
LTYPE
 70
     2
  0
LTYPE
  2
CONTINUOUS
 70
     0
  3
Solid line
 72
    65
 73
     0
 40
0.0
  0
LTYPE
  2
PHANTOM2
 70
     0
  3
___ _ _ ___ _ _ ___ _ _ ___ _ _
 72
    65
 73
     6
 40
1.25
 49
0.625
 49
-0.125
 49
0.125
 49
-0.125
 49
0.125
 49
-0.125
  0
ENDTAB
  0
TABLE
  2
LAYER
 70
     2
  0
LAYER
  2
0
 70
     0
 62
   255
  6
CONTINUOUS
  0
LAYER
  2
DEFPOINTS
 70
     0
 62
     7
  6
CONTINUOUS
  0
ENDTAB
  0
TABLE
  2
STYLE
 70
     1
  0
STYLE
  2
STANDARD
 70
     0
 40
0.0
 41
0.8
 50
0.0
 71
     0
 42
0.2
  3
txt
  4

  0
ENDTAB
  0
TABLE
  2
VIEW
 70
     0
  0
ENDTAB
  0
TABLE
  2
UCS
 70
     0
  0
ENDTAB
  0
TABLE
  2
APPID
 70
     9
  0
APPID
  2
ACAD
 70
     0
  0
APPID
  2
ACAD_MLEADERVER
 70
     0
  0
APPID
  2
ACAD_EXEMPT_FROM_CAD_STANDARDS
 70
     0
  0
APPID
  2
ACAD_NAV_VCDISPLAY
 70
     0
  0
APPID
  2
ACAECLAYERSTANDARD
 70
     0
  0
APPID
  2
ACCMTRANSPARENCY
 70
     0
  0
APPID
  2
ACAD_DSTYLE_DIMJAG
 70
     0
  0
APPID
  2
ACAD_DSTYLE_DIMTALN
 70
     0
  0
APPID
  2
ACDBATTR
 70
     0
  0
ENDTAB
  0
TABLE
  2
DIMSTYLE
 70
     1
  0
DIMSTYLE
  2
STANDARD
 70
     0
  3

  4

  5

  6

  7

 40
1.0
 41
0.1875
 42
0.0625
 43
0.38
 44
0.125
 45
0.0
 46
0.0
 47
0.01
 48
0.01
140
0.15625
141
0.09
142
0.0
143
25.3999999999999986
144
1.0
145
0.0
146
1.0
147
0.09
 71
     1
 72
     0
 73
     1
 74
     1
 75
     0
 76
     0
 77
     0
 78
     4
170
     0
171
     2
172
     0
173
     0
174
     0
175
     0
176
     0
177
     0
178
     0
  0
ENDTAB
  0
ENDSEC
  0
SECTION
  2
BLOCKS
  0
BLOCK
  8
0
  2
$MODEL_SPACE
 70
     0
 10
0.0
 20
0.0
 30
0.0
  3
$MODEL_SPACE
  1

  0
ENDBLK
  5
21
  8
0
  0
BLOCK
 67
     1
  8
0
  2
$PAPER_SPACE
 70
     0
 10
0.0
 20
0.0
 30
0.0
  3
$PAPER_SPACE
  1

  0
ENDBLK
  5
1D
 67
     1
  8
0
  0
BLOCK
  8
0
  2
_FILLED
 70
     0
 10
0.0
 20
0.0
 30
0.0
  3
_FILLED
  1

  0
SOLID
  5
3542B
  8
0
  6
BYBLOCK
 62
     0
 10
0.0
 20
0.0
 30
0.0
 11
-1.0
 21
0.1666666667
 31
0.0
 12
-1.0
 22
-0.1666666667
 32
0.0
 13
-1.0
 23
-0.1666666667
 33
0.0
  0
ENDBLK
  5
3542C
  8
0
  6
BYBLOCK
 62
     0
  0
ENDSEC
  0
SECTION
  2
ENTITIES
  0
ATTDEF
  5
32158
  8
DEFPOINTS
 10
2830.2124805037738042
 20
143.8444060998577072
 30
0.0
 40
0.001
  1
K-33073T-4E
  3

  2
MODELNUMBER
 70
     0
1001
ACDBATTR
1070
     0
1070
     1
  0
ATTDEF
  5
32159
  8
DEFPOINTS
 10
2830.2124805037738042
 20
143.8427394331910989
 30
0.0
 40
0.001
  1

  3

  2
TRADENAME
 70
     0
1001
ACDBATTR
1070
     0
1070
     1
  0
ATTDEF
  5
3215A
  8
DEFPOINTS
 10
2830.2124805037738042
 20
143.8410727665244053
 30
0.0
 40
0.001
  1
BATH FILLER
  3

  2
PRODUCT
 70
     0
1001
ACDBATTR
1070
     0
1070
     1
  0
LINE
  5
36860
  8
0
 10
2832.7610076826581462
 20
143.8399582174768057
 30
0.0
 11
2827.662753621119009
 21
143.8399582174768057
 31
0.0
  0
ARC
  5
36861
  8
0
 10
2827.6627536209489335
 20
143.8498007370060918
 30
0.0
 40
0.0098425195292826
 50
179.9999995883700024
 51
270.0000009937415939
  0
LINE
  5
36862
  8
0
 10
2827.6529111014187947
 20
143.849800737076805
 30
0.0
 11
2827.6592874435928024
 21
144.5805001269625905
 31
0.0
  0
ARC
  5
36863
  8
0
 10
2827.7065299883079206
 20
144.5801156835044878
 30
0.0
 40
0.0472441089225785
 50
89.9954311544537546
 51
179.53375709235101
  0
LINE
  5
36864
  8
0
 10
2827.706533755619148
 20
144.6273597922767919
 30
0.0
 11
2832.7172299185199336
 21
144.6273597922767919
 31
0.0
  0
ARC
  5
36865
  8
0
 10
2832.7172299185122029
 20
144.5801156977599931
 30
0.0
 40
0.0472440945168306
 50
0.4999999380758307
 51
89.9999999916102382
  0
LINE
  5
36866
  8
0
 10
2832.7644722141189959
 20
144.5805279749768033
 30
0.0
 11
2832.7708484245440559
 21
143.8498866284157032
 31
0.0
  0
ARC
  5
36867
  8
0
 10
2832.7610062796197781
 20
143.849800737076805
 30
0.0
 40
0.0098425197000036
 50
270.0081674378615162
 51
0.4999999995013184
  0
LINE
  5
36868
  8
0
 10
2829.2866830999191734
 20
144.6273597922767919
 30
0.0
 11
2829.2866830999191734
 21
151.8733056126654901
 31
0.0
  0
LINE
  5
36869
  8
0
 10
2829.2866830999191734
 20
152.4175879393147
 30
0.0
 11
2829.2866830999191734
 21
170.6903519181769013
 31
0.0
  0
LINE
  5
3686A
  8
0
 10
2831.1370768007191145
 20
144.6273597922767919
 30
0.0
 11
2831.1370768007191145
 21
152.2292449569814892
 31
0.0
  0
LINE
  5
3686B
  8
0
 10
2831.1370768007191145
 20
152.818333134460687
 30
0.0
 11
2831.1370768007191145
 21
170.6903519181769013
 31
0.0
  0
LINE
  5
3686C
  8
0
 10
2829.2866830999191734
 20
170.650981839476799
 30
0.0
 11
2831.1370768007191145
 21
170.650981839476799
 31
0.0
  0
LINE
  5
3686D
  8
0
 10
2829.2866830999191734
 20
170.6903519181769013
 30
0.0
 11
2833.2479294724189458
 21
170.6903519181769013
 31
0.0
  0
ARC
  5
3686E
  8
0
 10
2833.2479294724189458
 20
170.7100383136234996
 30
0.0
 40
0.0196863954467048
 50
270.0
 51
359.9960533276275783
  0
LINE
  5
3686F
  8
0
 10
2833.2676158678200409
 20
170.71003695757679
 30
0.0
 11
2833.2676158678200409
 21
171.851769241076795
 31
0.0
  0
ARC
  5
36870
  8
0
 10
2833.2479308299339209
 20
171.8517692411845132
 30
0.0
 40
0.0196850378850435
 50
359.9999996864984837
 51
90.0152004959734029
  0
LINE
  5
36871
  8
0
 10
2833.2479245193098905
 20
171.8714542794959073
 30
0.0
 11
2829.2866830999191734
 21
171.8714542804767973
 31
0.0
  0
ARC
  5
36872
  8
0
 10
2829.3064733028081719
 20
171.8517212616237089
 30
0.0
 40
0.0197902610497491
 50
94.3588787404880662
 51
179.8610921374344969
  0
LINE
  5
36873
  8
0
 10
2829.2866830999191734
 20
171.851769241076795
 30
0.0
 11
2829.2866830999191734
 21
170.71003695757679
 31
0.0
  0
ARC
  5
36874
  8
0
 10
2829.3063753610172171
 20
170.7100379527715859
 30
0.0
 40
0.0196922611224982
 50
180.0028955769311096
 51
268.5591318345792047
  0
LINE
  5
36875
  8
0
 10
2829.2866830999191734
 20
171.8714542804767973
 30
0.0
 11
2829.2866830999191734
 21
171.9108243591768996
 31
0.0
  0
LINE
  5
36876
  8
0
 10
2829.2866830999191734
 20
171.9108243591768996
 30
0.0
 11
2831.1370691603201522
 21
171.9108243591768996
 31
0.0
  0
LINE
  5
36877
  8
0
 10
2831.1370691603201522
 20
171.9108243591768996
 30
0.0
 11
2831.1370691603201522
 21
171.8714542804767973
 31
0.0
  0
ARC
  5
36878
  8
0
 10
2829.2965512548989864
 20
171.9207382477117108
 30
0.0
 40
0.0099237028826838
 50
181.0158449365503088
 51
272.54839811453121
  0
ARC
  5
36879
  8
0
 10
885317.3006018257001415
 20
10553.5446016504702129
 30
0.0
 40
882549.0767788492375985
 50
180.6737396644439002
 51
180.6739987343599978
  0
ARC
  5
3687A
  8
0
 10
2826.7596371008380629
 20
175.9451287079201052
 30
0.0
 40
2.480296205499751
 50
359.2079058803371936
 51
9.7261373416928478
  0
ARC
  5
3687B
  8
0
 10
2828.4858191414559769
 20
176.2410009332093068
 30
0.0
 40
0.7289410698836042
 50
9.7261373416928478
 51
46.1437142462384671
  0
ARC
  5
3687C
  8
0
 10
2828.5555673270218904
 20
176.2669448371973999
 30
0.0
 40
0.6626968173100697
 50
48.9390527086816718
 51
78.843344970649099
  0
ARC
  5
3687D
  8
0
 10
2828.2442907323838881
 20
174.8080527892603016
 30
0.0
 40
2.1543719965230288
 50
78.2287249468307948
 51
85.0194521096090767
  0
ARC
  5
3687E
  8
0
 10
3477.9951529246100108
 20
6218.1932594521540523
 30
0.0
 40
6076.059697220963244
 50
263.8505088179567792
 51
263.8630418527354209
  0
ARC
  5
3687F
  8
0
 10
2827.1492618685638263
 20
177.6749983868178902
 30
0.0
 40
0.5798160248892213
 50
241.8267598704667876
 51
266.1040570473168145
  0
ARC
  5
36880
  8
0
 10
2847.5637223513199388
 20
212.6220230572527043
 30
0.0
 40
41.0521906889970865
 50
239.4769844605966966
 51
239.7383843048033043
  0
ARC
  5
36881
  8
0
 10
2826.392529328873934
 20
176.7562537784791914
 30
0.0
 40
0.5964028484666125
 50
57.3886088949215605
 51
108.3623353323501988
  0
ARC
  5
36882
  8
0
 10
2826.7822165051288721
 20
175.3452966393284953
 30
0.0
 40
2.059633349401838
 50
106.2851653801344014
 51
110.3311307954173941
  0
ARC
  5
36883
  8
0
 10
2825.770618690136871
 20
178.07544113674399
 30
0.0
 40
0.8518987414507458
 50
280.8757017272384928
 51
290.3311307954173799
  0
ARC
  5
36884
  8
0
 10
2825.8661989680222177
 20
177.5779636914105026
 30
0.0
 40
0.345322589094282
 50
263.5374629388580274
 51
280.8757017272384928
  0
ARC
  5
36885
  8
0
 10
2824.6824438606658987
 20
167.1275316949875105
 30
0.0
 40
10.17193965286077
 50
83.5374629388580274
 51
83.8918628408988667
  0
ARC
  5
36886
  8
0
 10
3024.5123843194069195
 20
2034.8607454034990951
 30
0.0
 40
1868.2208208482320515
 50
263.7731312150788199
 51
263.8931267883767191
  0
LINE
  5
36887
  8
0
 10
2821.8747860655671502
 20
177.6620378805914982
 30
0.0
 11
2820.8576805347188383
 21
178.0322340188768067
 31
0.0
  0
ARC
  5
36888
  8
0
 10
2821.5095690821790413
 20
178.2182222809418874
 30
0.0
 40
0.6779014028130771
 50
190.2514038694214946
 51
195.9238105849657074
  0
ARC
  5
36889
  8
0
 10
2822.4347974379561492
 20
178.3412480946142864
 30
0.0
 40
1.610844468755835
 50
178.3450489018457858
 51
188.7004563361313956
  0
ARC
  5
3688A
  8
0
 10
2824.6144532463758878
 20
178.3116343551415071
 30
0.0
 40
3.7905930372587711
 50
175.2343107962765885
 51
178.8491157588607052
  0
ARC
  5
3688B
  8
0
 10
2820.8763322260419955
 20
178.6232708925782049
 30
0.0
 40
0.039504383555844
 50
90.1606662398570933
 51
175.2226604417716089
  0
ARC
  5
3688C
  8
0
 10
-5023.6807077161920461
 20
-89551.1025392688461579
 30
0.0
 40
90072.0148369646049105
 50
84.9987797360731037
 51
85.0036629299493853
  0
ARC
  5
3688D
  8
0
 10
2843.185017175585017
 20
344.1920928586191053
 30
0.0
 40
166.8436481989648996
 50
264.9586421943089931
 51
265.0942660591870776
  0
ARC
  5
3688E
  8
0
 10
2828.9360639209148758
 20
178.2352637012974981
 30
0.0
 40
0.2762787989380204
 50
266.066197970539406
 51
0.4880797168059193
  0
LINE
  5
3688F
  8
0
 10
2829.2123324011190562
 20
178.2376175721769016
 30
0.0
 11
2829.2031784038190381
 21
179.0154922534767934
 31
0.0
  0
ARC
  5
36890
  8
0
 10
2829.2229929440381966
 20
179.0151603223619077
 30
0.0
 40
0.0198173202612138
 50
85.358278526101131
 51
179.0402768340705109
  0
LINE
  5
36891
  8
0
 10
2829.2245966554191909
 20
179.0349126460768048
 30
0.0
 11
2831.1903476159700404
 21
178.862931721741603
 31
0.0
  0
ARC
  5
36892
  8
0
 10
2831.188934834281099
 20
178.8430946094466947
 30
0.0
 40
0.0198873571975378
 50
359.9412380250794854
 51
85.9263231404968764
  0
ARC
  5
36893
  8
0
 10
1363604.9229790018871427
 20
-13898.9075808438101376
 30
0.0
 40
1360846.5322010619565845
 50
179.4072732923187914
 51
179.407564766166189
  0
ARC
  5
36894
  8
0
 10
2831.1273735297259009
 20
171.9206678764059006
 30
0.0
 40
0.0098506645155757
 50
272.1827385838984128
 51
359.4628208506196074
  0
ARC
  5
36895
  8
0
 10
2826.2464489340550244
 20
180.9113274115692036
 30
0.0
 40
0.0395082553741311
 50
90.0020035614914775
 51
172.8959157428097058
  0
ARC
  5
36896
  8
0
 10
2826.0514700516459925
 20
178.0345315726054878
 30
0.0
 40
2.922814704416083
 50
82.0108859696928931
 51
86.1750260504597065
  0
ARC
  5
36897
  8
0
 10
2825.9546946892651249
 20
177.4555484933268872
 30
0.0
 40
3.5096624171478541
 50
76.8667981485936025
 51
81.7600300229313035
  0
ARC
  5
36898
  8
0
 10
-3287.6426523676000215
 20
-27411.2301305753899214
 30
0.0
 40
28261.457884225568705
 50
77.4982616127543196
 51
77.5052001697304433
  0
ARC
  5
36899
  8
0
 10
2749.2700138845498259
 20
-184.7060449872340087
 30
0.0
 40
373.684076327128821
 50
77.4504329347530813
 51
77.5088776807922102
  0
ARC
  5
3689A
  8
0
 10
2828.4850119678390001
 20
171.1525405987528075
 30
0.0
 40
9.1153600930082881
 50
74.6746574710204669
 51
77.4504329347530813
  0
ARC
  5
3689B
  8
0
 10
2828.9391575538029429
 20
173.1323374831667081
 30
0.0
 40
7.0864460108780101
 50
71.5478443993788034
 51
73.9852654955503937
  0
ARC
  5
3689C
  8
0
 10
2831.1689464113101167
 20
179.8165394503587891
 30
0.0
 40
0.0401368273128759
 50
0.7825626530047158
 51
70.8584524238940787
  0
LINE
  5
3689D
  8
0
 10
2831.2090794949381234
 20
179.8170876339383142
 30
0.0
 11
2831.2090801007198024
 21
179.4042108879314128
 31
0.0
  0
ARC
  5
3689E
  8
0
 10
2831.1894696347721947
 20
179.4041630076222873
 30
0.0
 40
0.0196105243986874
 50
291.4310457245829866
 51
0.1398913309867198
  0
LINE
  5
3689F
  8
0
 10
2831.1966349521699158
 20
179.3859083946767896
 30
0.0
 11
2830.2500043374138841
 21
179.0782467384057099
 31
0.0
  0
ARC
  5
368A0
  8
0
 10
2830.1891393142518609
 20
179.2654514485300012
 30
0.0
 40
0.1968505893750031
 50
265.0000091464835918
 51
288.0106651030050102
  0
LINE
  5
368A1
  8
0
 10
2830.1719826862299669
 20
179.0693499323396054
 30
0.0
 11
2829.2208949052978824
 21
179.1525591781987998
 31
0.0
  0
ARC
  5
368A2
  8
0
 10
2829.2226105648378507
 20
179.1721692925422929
 30
0.0
 40
0.0196850215195599
 50
179.9996049272502034
 51
265.0000091464835918
  0
LINE
  5
368A3
  8
0
 10
2829.2029255433199069
 20
179.1721694282767885
 30
0.0
 11
2829.2029273518392074
 21
179.4344515892055938
 31
0.0
  0
LINE
  5
368A4
  8
0
 10
2829.2029255433199069
 20
179.4344458538768095
 30
0.0
 11
2829.2068631508191174
 21
179.4661284503768002
 31
0.0
  0
LINE
  5
368A5
  8
0
 10
2829.2068631508191174
 20
179.4661284503768002
 30
0.0
 11
2829.2068665380188577
 21
179.6311508264768122
 31
0.0
  0
LINE
  5
368A6
  8
0
 10
2829.2068665380188577
 20
179.6311508264768122
 30
0.0
 11
2829.1962709210702087
 21
179.6940989937768052
 31
0.0
  0
ARC
  5
368A7
  8
0
 10
2828.7089570253410784
 20
179.6709024454715973
 30
0.0
 40
0.4878656708802292
 50
2.725269843157236
 51
48.6063823809296025
  0
ARC
  5
368A8
  8
0
 10
2828.5911329531641059
 20
179.4909671601695038
 30
0.0
 40
0.7014262695085555
 50
51.1057854689964515
 51
72.4164920377903627
  0
ARC
  5
368A9
  8
0
 10
2828.0413585561927903
 20
177.8554287839598942
 30
0.0
 40
2.426818268308284
 50
71.7082184595881245
 51
76.938201066851434
  0
LINE
  5
368AA
  8
0
 10
2828.5898240322781021
 20
180.2194576604622966
 30
0.0
 11
2826.8684386411191554
 21
180.6464528478769012
 31
0.0
  0
ARC
  5
368AB
  8
0
 10
2847.623905637542066
 20
264.9174463963723269
 30
0.0
 40
86.789341303469655
 50
255.7971033921249955
 51
256.163760567103111
  0
ARC
  5
368AC
  8
0
 10
2826.3866876871697968
 20
181.0066166685807048
 30
0.0
 40
0.2327310886625075
 50
227.1775511739660942
 51
255.7971033921249955
  0
ARC
  5
368AD
  8
0
 10
2826.3332879700387821
 20
180.9066097202534991
 30
0.0
 40
0.1264093353570284
 50
175.6428383469475989
 51
214.0030782907620051
  0
LINE
  5
368AE
  8
0
 10
2831.1173917614191851
 20
178.869314531951602
 30
0.0
 11
2831.1173917614191851
 21
178.8793282961767943
 31
0.0
  0
ARC
  5
368AF
  8
0
 10
2831.1095177426300324
 20
178.8793282961767943
 30
0.0
 40
0.0078740187890531
 50
0.000000000014656
 51
90.0507519175971538
  0
LINE
  5
368B0
  8
0
 10
2831.1095107679198009
 20
178.8872023118767913
 30
0.0
 11
2831.0701476822619043
 21
178.887167444516308
 31
0.0
  0
ARC
  5
368B1
  8
0
 10
2831.0701407136148191
 20
178.895034614511502
 30
0.0
 40
0.0078671730815735
 50
179.6962060579706986
 51
270.050751917597097
  0
LINE
  5
368B2
  8
0
 10
2831.0622736511190851
 20
178.8950763276768043
 30
0.0
 11
2831.0622736511190851
 21
179.017123571776807
 31
0.0
  0
ARC
  5
368B3
  8
0
 10
2830.8654232574190246
 20
179.017123571776807
 30
0.0
 40
0.196850393700057
 50
0.0000000000032569
 51
24.8831214841000303
  0
LINE
  5
368B4
  8
0
 10
2831.0439996365630577
 20
179.0999520349515137
 30
0.0
 11
2830.9487601693358556
 21
179.3052862709974136
 31
0.0
  0
ARC
  5
368B5
  8
0
 10
2829.5583366426881184
 20
179.0171235718289893
 30
0.0
 40
0.1968503931672246
 50
155.1168784005031966
 51
178.310050715484806
  0
LINE
  5
368B6
  8
0
 10
2829.3797602641948288
 20
179.099952035139097
 30
0.0
 11
2829.3970140843712215
 21
179.1371508989003871
 31
0.0
  0
LINE
  5
368B7
  8
0
 10
2826.2117252115199335
 20
179.0464165224769033
 30
0.0
 11
2826.6644784274189988
 21
179.0464165224769033
 31
0.0
  0
ARC
  5
368B8
  8
0
 10
2826.6644784274189988
 20
179.0267287933930902
 30
0.0
 40
0.0196877290837314
 50
0.0078275928078196
 51
90.0
  0
LINE
  5
368B9
  8
0
 10
2826.6841661563198613
 20
179.026731483076901
 30
0.0
 11
2826.6841661564199057
 21
178.631062191776806
 31
0.0
  0
ARC
  5
368BA
  8
0
 10
2826.6743236370980412
 20
178.6310621912984971
 30
0.0
 40
0.0098425192216531
 50
269.9999977975880938
 51
0.0000027846050374
  0
LINE
  5
368BB
  8
0
 10
2826.6743236367201462
 20
178.6212196720767906
 30
0.0
 11
2826.2018855653191167
 21
178.6212196902370124
 31
0.0
  0
ARC
  5
368BC
  8
0
 10
2826.2018855656979213
 20
178.6310650842403049
 30
0.0
 40
0.0098453940033281
 50
180.0168328411247956
 51
269.9999977975620027
  0
LINE
  5
368BD
  8
0
 10
2826.1920401721190501
 20
178.631062191776806
 30
0.0
 11
2826.1920401721190501
 21
179.0267314660013938
 31
0.0
  0
ARC
  5
368BE
  8
0
 10
2826.2117252114589974
 20
179.0267314831363876
 30
0.0
 40
0.0196850393404233
 50
89.9999998265772234
 51
180.0000498736133068
  0
ARC
  5
368BF
  8
0
 10
2826.2806053881718071
 20
178.6015213596236038
 30
0.0
 40
0.0197025049187977
 50
0.0385986448861962
 51
88.8201281156309079
  0
LINE
  5
368C0
  8
0
 10
2826.3003078886190451
 20
178.6015346326767883
 30
0.0
 11
2826.3003078886190451
 21
178.4105897941057037
 31
0.0
  0
ARC
  5
368C1
  8
0
 10
2826.3101504083188047
 20
178.4105897507770067
 30
0.0
 40
0.0098425197001711
 50
179.9997477729978925
 51
269.9999999995570761
  0
LINE
  5
368C2
  8
0
 10
2826.3101504083188047
 20
178.400747231076906
 30
0.0
 11
2826.5660556898201321
 21
178.400747231076906
 31
0.0
  0
ARC
  5
368C3
  8
0
 10
2826.566055920114195
 20
178.4105897507793941
 30
0.0
 40
0.009842519705264
 50
269.9986593965591055
 51
359.9999999850264771
  0
LINE
  5
368C4
  8
0
 10
2826.5758984398198663
 20
178.4105897507768077
 30
0.0
 11
2826.575898439868979
 21
178.6015346326767883
 31
0.0
  0
ARC
  5
368C5
  8
0
 10
2826.5955834792748647
 20
178.6015346326717008
 30
0.0
 40
0.0196850394051431
 50
90.0000001602128492
 51
179.9999999850263919
  0
LINE
  5
368C6
  8
0
 10
2826.3593630067198319
 20
178.400747231076906
 30
0.0
 11
2826.3593630067198319
 21
178.1832266460914127
 31
0.0
  0
LINE
  5
368C7
  8
0
 10
2826.5168433217190795
 20
178.400747231076906
 30
0.0
 11
2826.5168433217190795
 21
178.1694489045636089
 31
0.0
  0
LINE
  5
368C8
  8
0
 10
2821.022311722305858
 20
177.9723131670052112
 30
0.0
 11
2821.0293708460199014
 21
177.9571748272769014
 31
0.0
  0
LINE
  5
368C9
  8
0
 10
2821.0293708460199014
 20
177.9571748272769014
 30
0.0
 11
2821.0214830207942214
 21
177.9355032055862864
 31
0.0
  0
ARC
  5
368CA
  8
0
 10
2821.0584787933080406
 20
177.9220378455931098
 30
0.0
 40
0.0393700787872432
 50
159.9999999942515956
 51
205.0000001108660115
  0
LINE
  5
368CB
  8
0
 10
2821.0227973843589098
 20
177.9053993312624016
 30
0.0
 11
2821.0276719816520199
 21
177.8949457236861065
 31
0.0
  0
LINE
  5
368CC
  8
0
 10
2821.0276719816520199
 20
177.8949457236861065
 30
0.0
 11
2821.6565988243191896
 21
177.6660373690768893
 31
0.0
  0
LINE
  5
368CD
  8
0
 10
2821.6565988243191896
 20
177.666037369076804
 30
0.0
 11
2821.6670496670358261
 21
177.670910677070907
 31
0.0
  0
ARC
  5
368CE
  8
0
 10
2821.6504111526851375
 20
177.7065920862339112
 30
0.0
 40
0.0393700789896275
 50
295.000000005410925
 51
339.9999996929996087
  0
LINE
  5
368CF
  8
0
 10
2821.68740692531901
 20
177.6931267259768958
 30
0.0
 11
2821.6952947506911187
 21
177.7147983477142077
 31
0.0
  0
LINE
  5
368D0
  8
0
 10
2821.6952947506911187
 20
177.7147983477142077
 30
0.0
 11
2821.7104330902830043
 21
177.7218574715064108
 31
0.0
  0
LINE
  5
368D1
  8
0
 10
2821.6952947507538738
 20
177.7147983478863011
 30
0.0
 11
2821.0293708458229958
 21
177.9571748267358089
 31
0.0
  0
LINE
  5
368D2
  8
0
 10
2821.2940402541230469
 20
177.7979978967877912
 30
0.0
 11
2821.2777040292330639
 21
177.7530893898554041
 31
0.0
  0
ARC
  5
368D3
  8
0
 10
2821.522080439147885
 20
178.2784324434830978
 30
0.0
 40
0.5793899422962117
 50
234.4385739416640888
 51
245.0532406310018985
  0
ARC
  5
368D4
  8
0
 10
2821.5030943348879191
 20
178.2590838426179971
 30
0.0
 40
0.5526240518278254
 50
225.9828188138374117
 51
234.8732421779544097
  0
LINE
  5
368D5
  8
0
 10
2821.2493406013641106
 20
177.7672517649359918
 30
0.0
 11
2821.263222168502125
 21
177.8053910571921108
 31
0.0
  0
LINE
  5
368D6
  8
0
 10
2821.263222168502125
 20
177.8053910571921108
 30
0.0
 11
2821.2625356139938049
 21
177.805980412460201
 31
0.0
  0
LINE
  5
368D7
  8
0
 10
2821.2625356139938049
 20
177.805980412460201
 30
0.0
 11
2821.2462044883318413
 21
177.8109548051544948
 31
0.0
  0
LINE
  5
368D8
  8
0
 10
2821.2462044883318413
 20
177.8109548051544948
 30
0.0
 11
2821.2438124830769084
 21
177.8043791497977963
 31
0.0
  0
LINE
  5
368D9
  8
0
 10
2821.2438124830769084
 20
177.8043791497977963
 30
0.0
 11
2821.2577738215591125
 21
177.792890179972602
 31
0.0
  0
LINE
  5
368DA
  8
0
 10
2821.2577738215591125
 20
177.792890179972602
 30
0.0
 11
2821.2585765959452146
 21
177.7926274514917111
 31
0.0
  0
LINE
  5
368DB
  8
0
 10
2821.2568112922917862
 20
177.7877887681798939
 30
0.0
 11
2821.2561115511530261
 21
177.7883205751948879
 31
0.0
  0
LINE
  5
368DC
  8
0
 10
2821.2561115511530261
 20
177.7883205751948879
 30
0.0
 11
2821.2401235246279612
 21
177.7942381521818049
 31
0.0
  0
LINE
  5
368DD
  8
0
 10
2821.2401235246279612
 20
177.7942381521818049
 30
0.0
 11
2821.2384655005312197
 21
177.7896802212652005
 31
0.0
  0
LINE
  5
368DE
  8
0
 10
2821.2384655005312197
 20
177.7896802212652005
 30
0.0
 11
2821.2528066088848391
 21
177.7792352434910867
 31
0.0
  0
LINE
  5
368DF
  8
0
 10
2821.2528066088848391
 20
177.7792352434910867
 30
0.0
 11
2821.2535974629918201
 21
177.7789473961364024
 31
0.0
  0
LINE
  5
368E0
  8
0
 10
2821.2335838418289313
 20
177.7762604742769952
 30
0.0
 11
2821.2339061840611976
 21
177.7771465975932017
 31
0.0
  0
LINE
  5
368E1
  8
0
 10
2821.2339061840611976
 20
177.7771465975932017
 30
0.0
 11
2821.2492511728091813
 21
177.7694613008696933
 31
0.0
  0
LINE
  5
368E2
  8
0
 10
2821.2492511728091813
 20
177.7694613008696933
 30
0.0
 11
2821.2499859176828068
 21
177.7690247569516941
 31
0.0
  0
LINE
  5
368E3
  8
0
 10
2821.25055122406593
 20
177.770577923471393
 30
0.0
 11
2821.2497845816151312
 21
177.770927649098013
 31
0.0
  0
LINE
  5
368E4
  8
0
 10
2821.2497845816151312
 20
177.770927649098013
 30
0.0
 11
2821.2350894262222027
 21
177.7803993464667087
 31
0.0
  0
LINE
  5
368E5
  8
0
 10
2821.2350894262222027
 20
177.7803993464667087
 30
0.0
 11
2821.2360654550998333
 21
177.7830824633934981
 31
0.0
  0
LINE
  5
368E6
  8
0
 10
2821.2360654550998333
 20
177.7830824633934981
 30
0.0
 11
2821.2517283283200413
 21
177.7762710355978868
 31
0.0
  0
LINE
  5
368E7
  8
0
 10
2821.2517283283200413
 20
177.7762710355978868
 30
0.0
 11
2821.2524474633519276
 21
177.7757877980932903
 31
0.0
  0
LINE
  5
368E8
  8
0
 10
2821.2485921046641124
 20
177.7676518289960086
 30
0.0
 11
2821.2492507716870023
 21
177.7694615017655906
 31
0.0
  0
LINE
  5
368E9
  8
0
 10
2821.2497844391068611
 20
177.7709277409514925
 30
0.0
 11
2821.2517290602881985
 21
177.7762705437367003
 31
0.0
  0
LINE
  5
368EA
  8
0
 10
2821.2528079456628802
 20
177.7792347569435947
 30
0.0
 11
2821.2561141845990278
 21
177.7883185737615861
 31
0.0
  0
LINE
  5
368EB
  8
0
 10
2821.2577776563839507
 20
177.7928889249280076
 30
0.0
 11
2821.2625409126499108
 21
177.8059758639633117
 31
0.0
  0
LINE
  5
368EC
  8
0
 10
2821.242055204018925
 20
177.7812461447414876
 30
0.0
 11
2821.2433649122817769
 21
177.7848465507765923
 31
0.0
  0
LINE
  5
368ED
  8
0
 10
2821.2433649122817769
 20
177.7848465507765923
 30
0.0
 11
2821.2291476730679278
 21
177.7956320463262045
 31
0.0
  0
LINE
  5
368EE
  8
0
 10
2821.2291476730679278
 20
177.7956320463262045
 30
0.0
 11
2821.2136130866410895
 21
177.8027961365841065
 31
0.0
  0
LINE
  5
368EF
  8
0
 10
2821.2136130866410895
 20
177.8027961365841065
 30
0.0
 11
2821.2122879186149476
 21
177.7991532313563141
 31
0.0
  0
LINE
  5
368F0
  8
0
 10
2821.2122879186149476
 20
177.7991532313563141
 30
0.0
 11
2821.2265128874119
 21
177.7883889843502914
 31
0.0
  0
LINE
  5
368F1
  8
0
 10
2821.2265128874119
 20
177.7883889843502914
 30
0.0
 11
2821.242055204018925
 21
177.7812461447414876
 31
0.0
  0
LINE
  5
368F2
  8
0
 10
2821.2396275147548295
 20
177.7745723935668991
 30
0.0
 11
2821.2402732577820643
 21
177.7763475501143944
 31
0.0
  0
LINE
  5
368F3
  8
0
 10
2821.2402732577820643
 20
177.7763475501143944
 30
0.0
 11
2821.2257015538120868
 21
177.7861586171515
 31
0.0
  0
LINE
  5
368F4
  8
0
 10
2821.2257015538120868
 20
177.7861586171515
 30
0.0
 11
2821.2104852723978183
 21
177.7941977320851947
 31
0.0
  0
LINE
  5
368F5
  8
0
 10
2821.2104852723978183
 20
177.7941977320851947
 30
0.0
 11
2821.2098321213429699
 21
177.7924022107901862
 31
0.0
  0
LINE
  5
368F6
  8
0
 10
2821.2098321213429699
 20
177.7924022107901862
 30
0.0
 11
2821.2244027177580392
 21
177.7825880989855989
 31
0.0
  0
LINE
  5
368F7
  8
0
 10
2821.2244027177580392
 20
177.7825880989855989
 30
0.0
 11
2821.2396275147548295
 21
177.7745723935668991
 31
0.0
  0
LINE
  5
368F8
  8
0
 10
2821.2463918517219099
 20
177.7931676490360928
 30
0.0
 11
2821.248404660126198
 21
177.7987008868834948
 31
0.0
  0
LINE
  5
368F9
  8
0
 10
2821.248404660126198
 20
177.7987008868834948
 30
0.0
 11
2821.2345766246608036
 21
177.8105563088248005
 31
0.0
  0
LINE
  5
368FA
  8
0
 10
2821.2345766246608036
 20
177.8105563088248005
 30
0.0
 11
2821.2187143497230863
 21
177.8168195788070136
 31
0.0
  0
LINE
  5
368FB
  8
0
 10
2821.2187143497230863
 20
177.8168195788070136
 30
0.0
 11
2821.2166765783322262
 21
177.8112177172110933
 31
0.0
  0
LINE
  5
368FC
  8
0
 10
2821.2166765783322262
 20
177.8112177172110933
 30
0.0
 11
2821.2305261025189793
 21
177.7994213680929079
 31
0.0
  0
LINE
  5
368FD
  8
0
 10
2821.2305261025189793
 20
177.7994213680929079
 30
0.0
 11
2821.2463918517219099
 21
177.7931676490360928
 31
0.0
  0
LINE
  5
368FE
  8
0
 10
2821.2535123275338265
 20
177.8127419350936975
 30
0.0
 11
2821.2527712723731383
 21
177.8107047642427858
 31
0.0
  0
LINE
  5
368FF
  8
0
 10
2821.2527712723731383
 20
177.8107047642427858
 30
0.0
 11
2821.236565694905039
 21
177.8160242901909101
 31
0.0
  0
LINE
  5
36900
  8
0
 10
2821.236565694905039
 20
177.8160242901909101
 30
0.0
 11
2821.231567619625821
 21
177.8207236348237927
 31
0.0
  0
LINE
  5
36901
  8
0
 10
2821.2244027177580392
 20
177.7825880989855989
 30
0.0
 11
2821.2257021629570772
 21
177.786158295326004
 31
0.0
  0
LINE
  5
36902
  8
0
 10
2821.2265138125580961
 20
177.7883882842783123
 30
0.0
 11
2821.2291497522369355
 21
177.7956304690245872
 31
0.0
  0
LINE
  5
36903
  8
0
 10
2821.2305290970512033
 20
177.7994201877538956
 30
0.0
 11
2821.2345809606172224
 21
177.8105525914074008
 31
0.0
  0
LINE
  5
36904
  8
0
 10
2821.2365717702568872
 20
177.8160222959398027
 30
0.0
 11
2821.237498104423139
 21
177.8185673781464118
 31
0.0
  0
LINE
  5
36905
  8
0
 10
2821.2162358910381954
 20
177.791704041226609
 30
0.0
 11
2821.2172190725609653
 21
177.7944068206874135
 31
0.0
  0
LINE
  5
36906
  8
0
 10
2821.2172190725609653
 20
177.7944068206874135
 30
0.0
 11
2821.2031234014439178
 21
177.8055265086759107
 31
0.0
  0
LINE
  5
36907
  8
0
 10
2821.2031234014439178
 20
177.8055265086759107
 30
0.0
 11
2821.1880441344510473
 21
177.813942278145305
 31
0.0
  0
LINE
  5
36908
  8
0
 10
2821.1880441344510473
 20
177.813942278145305
 30
0.0
 11
2821.1870463540631135
 21
177.8111993662301131
 31
0.0
  0
LINE
  5
36909
  8
0
 10
2821.1870463540631135
 20
177.8111993662301131
 30
0.0
 11
2821.2011425816408519
 21
177.8000812078410036
 31
0.0
  0
LINE
  5
3690A
  8
0
 10
2821.2011425816408519
 20
177.8000812078410036
 30
0.0
 11
2821.2162358910409239
 21
177.7917040412361871
 31
0.0
  0
LINE
  5
3690B
  8
0
 10
2821.2196370155152181
 20
177.8010537792266064
 30
0.0
 11
2821.2213076676671335
 21
177.8056464248867883
 31
0.0
  0
LINE
  5
3690C
  8
0
 10
2821.2213076676671335
 20
177.8056464248867883
 30
0.0
 11
2821.2075930578780572
 21
177.8178136557037021
 31
0.0
  0
LINE
  5
3690D
  8
0
 10
2821.2075930578780572
 20
177.8178136557037021
 30
0.0
 11
2821.192195090444784
 21
177.8253533131918118
 31
0.0
  0
LINE
  5
3690E
  8
0
 10
2821.192195090444784
 20
177.8253533131918118
 30
0.0
 11
2821.1904986293970978
 21
177.8206897185357036
 31
0.0
  0
LINE
  5
3690F
  8
0
 10
2821.1904986293970978
 20
177.8206897185357036
 30
0.0
 11
2821.2042261425981451
 21
177.8085579591991063
 31
0.0
  0
LINE
  5
36910
  8
0
 10
2821.2042261425981451
 20
177.8085579591991063
 30
0.0
 11
2821.2196370155152181
 21
177.8010537791921877
 31
0.0
  0
LINE
  5
36911
  8
0
 10
2821.2147194127219336
 20
177.7875352213733038
 30
0.0
 11
2821.2150440732439165
 21
177.7884277177986121
 31
0.0
  0
LINE
  5
36912
  8
0
 10
2821.2150440732439165
 20
177.7884277177986121
 30
0.0
 11
2821.2005991294481646
 21
177.7985872494967907
 31
0.0
  0
LINE
  5
36913
  8
0
 10
2821.2005991294481646
 20
177.7985872494967907
 30
0.0
 11
2821.185837039137823
 21
177.8078749426128979
 31
0.0
  0
LINE
  5
36914
  8
0
 10
2821.185837039137823
 20
177.8078749426128979
 30
0.0
 11
2821.1855076495407957
 21
177.8069694461080985
 31
0.0
  0
LINE
  5
36915
  8
0
 10
2821.1855076495407957
 20
177.8069694461080985
 30
0.0
 11
2821.1974702769571195
 21
177.7985147965511032
 31
0.0
  0
LINE
  5
36916
  8
0
 10
2821.2147194126569048
 20
177.7875352213659141
 30
0.0
 11
2821.2077521301548586
 21
177.791718544565299
 31
0.0
  0
LINE
  5
36917
  8
0
 10
2821.2250255284448031
 20
177.8158668753972051
 30
0.0
 11
2821.2273506561300564
 21
177.822258683260003
 31
0.0
  0
LINE
  5
36918
  8
0
 10
2821.2250255284711784
 20
177.8158668754130929
 30
0.0
 11
2821.2092891780971513
 21
177.8224763139033939
 31
0.0
  0
LINE
  5
36919
  8
0
 10
2821.2092891780971513
 20
177.8224763139033939
 30
0.0
 11
2821.1990857884989055
 21
177.8325399351483043
 31
0.0
  0
LINE
  5
3691A
  8
0
 10
2821.2113299696329705
 20
177.8280864774787915
 30
0.0
 11
2821.2092883384880224
 21
177.8224771420111097
 31
0.0
  0
LINE
  5
3691B
  8
0
 10
2821.2075912843588412
 20
177.8178145241122934
 30
0.0
 11
2821.2042231370310219
 21
177.8085606153836125
 31
0.0
  0
LINE
  5
3691C
  8
0
 10
2821.2031195872818898
 20
177.8055286373671038
 30
0.0
 11
2821.2011381556681044
 21
177.8000846987509931
 31
0.0
  0
LINE
  5
3691D
  8
0
 10
2821.2005942468122157
 20
177.7985903214488133
 30
0.0
 11
2821.1999577803539978
 21
177.7968416442290902
 31
0.0
  0
LINE
  5
3691E
  8
0
 10
2821.139440095916143
 20
177.8432001934374966
 30
0.0
 11
2821.1397804461521446
 21
177.844135820879103
 31
0.0
  0
LINE
  5
3691F
  8
0
 10
2821.1397804461521446
 20
177.844135820879103
 30
0.0
 11
2821.1539157843749308
 21
177.8331251784516951
 31
0.0
  0
LINE
  5
36920
  8
0
 10
2821.1539157843749308
 20
177.8331251784516951
 30
0.0
 11
2821.1677359576901836
 21
177.8212481432323955
 31
0.0
  0
LINE
  5
36921
  8
0
 10
2821.1677359576901836
 20
177.8212481432323955
 30
0.0
 11
2821.1674028346951673
 21
177.8203323833159004
 31
0.0
  0
LINE
  5
36922
  8
0
 10
2821.1674028346951673
 20
177.8203323833159004
 30
0.0
 11
2821.1599554453700875
 21
177.8258990723876991
 31
0.0
  0
LINE
  5
36923
  8
0
 10
2821.1394400959370614
 20
177.8432001934968127
 30
0.0
 11
2821.1447447373648174
 21
177.8383952302050943
 31
0.0
  0
LINE
  5
36924
  8
0
 10
2821.1544754260680747
 20
177.8346636409766859
 30
0.0
 11
2821.1410303389811816
 21
177.8475717934601903
 31
0.0
  0
LINE
  5
36925
  8
0
 10
2821.1410303389811816
 20
177.8475717934601903
 30
0.0
 11
2821.1420620037551998
 21
177.8504078542237039
 31
0.0
  0
LINE
  5
36926
  8
0
 10
2821.1420620037551998
 20
177.8504078542237039
 30
0.0
 11
2821.1565160609720806
 21
177.8402733745575119
 31
0.0
  0
LINE
  5
36927
  8
0
 10
2821.1565160609720806
 20
177.8402733745575119
 30
0.0
 11
2821.1699684056989099
 21
177.8273851732622859
 31
0.0
  0
LINE
  5
36928
  8
0
 10
2821.1699684056989099
 20
177.8273851732622859
 30
0.0
 11
2821.1689590909250001
 21
177.8246105530965053
 31
0.0
  0
LINE
  5
36929
  8
0
 10
2821.1689590909250001
 20
177.8246105530965053
 30
0.0
 11
2821.1544754260680747
 21
177.8346636409766859
 31
0.0
  0
LINE
  5
3692A
  8
0
 10
2821.1627543210470321
 20
177.8258557759617986
 30
0.0
 11
2821.1634254552500352
 21
177.8277007331465995
 31
0.0
  0
LINE
  5
3692B
  8
0
 10
2821.1634254552500352
 20
177.8277007331465995
 30
0.0
 11
2821.1780407550959353
 21
177.8180095097164894
 31
0.0
  0
LINE
  5
3692C
  8
0
 10
2821.1780407550959353
 20
177.8180095097164894
 30
0.0
 11
2821.1920048261317788
 21
177.8065280533805037
 31
0.0
  0
LINE
  5
3692D
  8
0
 10
2821.1920048261317788
 20
177.8065280533805037
 30
0.0
 11
2821.191345629314128
 21
177.8047159122716891
 31
0.0
  0
LINE
  5
3692E
  8
0
 10
2821.191345629314128
 20
177.8047159122716891
 30
0.0
 11
2821.176710578230086
 21
177.8143528372206958
 31
0.0
  0
LINE
  5
3692F
  8
0
 10
2821.176710578230086
 20
177.8143528372206958
 30
0.0
 11
2821.1627543210470321
 21
177.8258557759617986
 31
0.0
  0
LINE
  5
36930
  8
0
 10
2821.1666411495930333
 20
177.8365407212723142
 30
0.0
 11
2821.1652783883519078
 21
177.8327944719723064
 31
0.0
  0
LINE
  5
36931
  8
0
 10
2821.1652783883519078
 20
177.8327944719723064
 30
0.0
 11
2821.1788718839029571
 21
177.8202942963172006
 31
0.0
  0
LINE
  5
36932
  8
0
 10
2821.1788718839029571
 20
177.8202942963172006
 30
0.0
 11
2821.193824372267045
 21
177.8115300106038035
 31
0.0
  0
LINE
  5
36933
  8
0
 10
2821.193824372267045
 20
177.8115300106038035
 30
0.0
 11
2821.1951621684538623
 21
177.8152076307920026
 31
0.0
  0
LINE
  5
36934
  8
0
 10
2821.1951621684538623
 20
177.8152076307920026
 30
0.0
 11
2821.1815721464517992
 21
177.8277173552820898
 31
0.0
  0
LINE
  5
36935
  8
0
 10
2821.1815721464517992
 20
177.8277173552820898
 30
0.0
 11
2821.1666411495862121
 21
177.8365407212201887
 31
0.0
  0
LINE
  5
36936
  8
0
 10
2821.1788718839029571
 20
177.8202942963172006
 30
0.0
 11
2821.1815721464517992
 21
177.8277173552820898
 31
0.0
  0
LINE
  5
36937
  8
0
 10
2821.176710578230086
 20
177.8143528372206958
 30
0.0
 11
2821.1780407550959353
 21
177.8180095097164894
 31
0.0
  0
LINE
  5
36938
  8
0
 10
2821.1544754260680747
 20
177.8346636409766859
 30
0.0
 11
2821.1565160609720806
 21
177.8402733745575119
 31
0.0
  0
LINE
  5
36939
  8
0
 10
2821.1539157843749308
 20
177.8331251784516951
 30
0.0
 11
2821.1532479809488905
 21
177.8312982309736014
 31
0.0
  0
LINE
  5
3693A
  8
0
 10
2821.2858721416791923
 20
177.7755436433216119
 30
0.0
 11
2821.3820695535791856
 21
177.7405568038475963
 31
0.0
  0
LINE
  5
3693B
  8
0
 10
2821.3902373262649235
 20
177.762985025902907
 30
0.0
 11
2821.3738849687370021
 21
177.7180823907706895
 31
0.0
  0
ARC
  5
3693C
  8
0
 10
2821.5243657836172133
 20
178.2776006461209874
 30
0.0
 40
0.5793899422962117
 50
254.9467593671267025
 51
265.5614260564532856
  0
ARC
  5
3693D
  8
0
 10
2821.5264729423811332
 20
178.2505747253717061
 30
0.0
 40
0.5526240518278254
 50
265.1267578201678248
 51
274.0085113604679918
  0
LINE
  5
3693E
  8
0
 10
2821.40471601426907
 20
177.710699739499006
 30
0.0
 11
2821.4185975814070844
 21
177.7488390317550966
 31
0.0
  0
LINE
  5
3693F
  8
0
 10
2821.4185975814070844
 20
177.7488390317550966
 30
0.0
 11
2821.419502342936994
 21
177.7488491953521077
 31
0.0
  0
LINE
  5
36940
  8
0
 10
2821.419502342936994
 20
177.7488491953521077
 30
0.0
 11
2821.4352101889890037
 21
177.7421623560047976
 31
0.0
  0
LINE
  5
36941
  8
0
 10
2821.4352101889890037
 20
177.7421623560047976
 30
0.0
 11
2821.4328158215339499
 21
177.7355875604189066
 31
0.0
  0
LINE
  5
36942
  8
0
 10
2821.4328158215339499
 20
177.7355875604189066
 30
0.0
 11
2821.4147358483191965
 21
177.7357606743188967
 31
0.0
  0
LINE
  5
36943
  8
0
 10
2821.4147358483191965
 20
177.7357606743188967
 30
0.0
 11
2821.413952008850174
 21
177.7360754260546969
 31
0.0
  0
LINE
  5
36944
  8
0
 10
2821.4121940642230584
 20
177.7312340642760944
 30
0.0
 11
2821.413071935995049
 21
177.7311916671505116
 31
0.0
  0
LINE
  5
36945
  8
0
 10
2821.413071935995049
 20
177.7311916671505116
 30
0.0
 11
2821.4291232200371269
 21
177.7254478887641937
 31
0.0
  0
LINE
  5
36946
  8
0
 10
2821.4291232200371269
 20
177.7254478887641937
 30
0.0
 11
2821.4274635586630211
 21
177.7208905537675037
 31
0.0
  0
LINE
  5
36947
  8
0
 10
2821.4274635586630211
 20
177.7208905537675037
 30
0.0
 11
2821.4097637300042152
 21
177.7221075233447891
 31
0.0
  0
LINE
  5
36948
  8
0
 10
2821.4097637300042152
 20
177.7221075233447891
 30
0.0
 11
2821.4089728758967794
 21
177.7223953706993882
 31
0.0
  0
LINE
  5
36949
  8
0
 10
2821.422577079095845
 20
177.7074725614311035
 30
0.0
 11
2821.4228997397081002
 21
177.7083585688662026
 31
0.0
  0
LINE
  5
3694A
  8
0
 10
2821.4228997397081002
 20
177.7083585688662026
 30
0.0
 11
2821.4062047828379036
 21
177.7123348586557086
 31
0.0
  0
LINE
  5
3694B
  8
0
 10
2821.4062047828379036
 20
177.7123348586557086
 30
0.0
 11
2821.4053613305882209
 21
177.7124727315147084
 31
0.0
  0
LINE
  5
3694C
  8
0
 10
2821.4059266369699799
 20
177.7140258980344072
 30
0.0
 11
2821.4067387184582003
 21
177.7138010151392962
 31
0.0
  0
LINE
  5
3694D
  8
0
 10
2821.4067387184582003
 20
177.7138010151392962
 30
0.0
 11
2821.424084150300132
 21
177.7116108924651883
 31
0.0
  0
LINE
  5
3694E
  8
0
 10
2821.424084150300132
 20
177.7116108924651883
 30
0.0
 11
2821.4250611431180005
 21
177.7142936585468078
 31
0.0
  0
LINE
  5
3694F
  8
0
 10
2821.4250611431180005
 20
177.7142936585468078
 30
0.0
 11
2821.4086843847330783
 21
177.7191437029727012
 31
0.0
  0
LINE
  5
36950
  8
0
 10
2821.4086843847330783
 20
177.7191437029727012
 30
0.0
 11
2821.407822876256887
 21
177.7192357726563046
 31
0.0
  0
LINE
  5
36951
  8
0
 10
2821.4055465522269515
 20
177.7105250819446951
 30
0.0
 11
2821.4062052192489318
 21
177.7123347547143055
 31
0.0
  0
LINE
  5
36952
  8
0
 10
2821.4067388866687907
 20
177.7138009939002075
 30
0.0
 11
2821.4086835078501281
 21
177.7191437966853869
 31
0.0
  0
LINE
  5
36953
  8
0
 10
2821.409762393226174
 20
177.7221080098921959
 30
0.0
 11
2821.4130686321609573
 21
177.731191826710301
 31
0.0
  0
LINE
  5
36954
  8
0
 10
2821.4147321039458802
 20
177.7357621778766941
 30
0.0
 11
2821.4194953602132045
 21
177.7488491169119982
 31
0.0
  0
LINE
  5
36955
  8
0
 10
2821.4192923663658803
 20
177.7167370932380948
 30
0.0
 11
2821.4206033680179644
 21
177.7203370285178892
 31
0.0
  0
LINE
  5
36956
  8
0
 10
2821.4206033680179644
 20
177.7203370285178892
 30
0.0
 11
2821.4384271880180677
 21
177.7194605322387133
 31
0.0
  0
LINE
  5
36957
  8
0
 10
2821.4384271880180677
 20
177.7194605322387133
 30
0.0
 11
2821.4549323600790558
 21
177.7149631040934139
 31
0.0
  0
LINE
  5
36958
  8
0
 10
2821.4549323600790558
 20
177.7149631040934139
 30
0.0
 11
2821.4536058833377865
 21
177.7113206751990049
 31
0.0
  0
LINE
  5
36959
  8
0
 10
2821.4536058833377865
 20
177.7113206751990049
 30
0.0
 11
2821.4357898004341223
 21
177.7122184172874029
 31
0.0
  0
LINE
  5
3695A
  8
0
 10
2821.4357898004341223
 20
177.7122184172874029
 30
0.0
 11
2821.4192923663658803
 21
177.7167370932380948
 31
0.0
  0
LINE
  5
3695B
  8
0
 10
2821.4168622796710224
 20
177.710064214657109
 30
0.0
 11
2821.4175086604468561
 21
177.7118391390827128
 31
0.0
  0
LINE
  5
3695C
  8
0
 10
2821.4175086604468561
 20
177.7118391390827128
 30
0.0
 11
2821.4349776656290487
 21
177.7099883417031094
 31
0.0
  0
LINE
  5
3695D
  8
0
 10
2821.4349776656290487
 20
177.7099883417031094
 30
0.0
 11
2821.4518014569239313
 21
177.7063658238666903
 31
0.0
  0
LINE
  5
3695E
  8
0
 10
2821.4518014569239313
 20
177.7063658238666903
 30
0.0
 11
2821.4511476608181511
 21
177.7045705373508895
 31
0.0
  0
LINE
  5
3695F
  8
0
 10
2821.4511476608181511
 20
177.7045705373508895
 30
0.0
 11
2821.4336775469328131
 21
177.7064182903810092
 31
0.0
  0
LINE
  5
36960
  8
0
 10
2821.4336775469328131
 20
177.7064182903810092
 30
0.0
 11
2821.4168622796710224
 21
177.710064214657109
 31
0.0
  0
LINE
  5
36961
  8
0
 10
2821.4236332967398084
 20
177.7286570387678069
 30
0.0
 11
2821.4256480927770099
 21
177.734189553176094
 31
0.0
  0
LINE
  5
36962
  8
0
 10
2821.4256480927770099
 20
177.734189553176094
 30
0.0
 11
2821.4438615008361921
 21
177.7343828434113107
 31
0.0
  0
LINE
  5
36963
  8
0
 10
2821.4438615008361921
 20
177.7343828434113107
 30
0.0
 11
2821.4600386607480687
 21
177.7289847127846087
 31
0.0
  0
LINE
  5
36964
  8
0
 10
2821.4600386607480687
 20
177.7289847127846087
 30
0.0
 11
2821.4579988769728516
 21
177.7233835836366893
 31
0.0
  0
LINE
  5
36965
  8
0
 10
2821.4579988769728516
 20
177.7233835836366893
 30
0.0
 11
2821.4398069788780958
 21
177.7232493584932911
 31
0.0
  0
LINE
  5
36966
  8
0
 10
2821.4398069788780958
 20
177.7232493584932911
 30
0.0
 11
2821.4236332967398084
 21
177.7286570387678069
 31
0.0
  0
LINE
  5
36967
  8
0
 10
2821.4307608043600339
 20
177.748228765456588
 30
0.0
 11
2821.4300190173648843
 21
177.7461918609714928
 31
0.0
  0
LINE
  5
36968
  8
0
 10
2821.4300190173648843
 20
177.7461918609714928
 30
0.0
 11
2821.4458525353020377
 21
177.7398501098593044
 31
0.0
  0
LINE
  5
36969
  8
0
 10
2821.4458525353020377
 20
177.7398501098593044
 30
0.0
 11
2821.4527019635979741
 21
177.7402373158400053
 31
0.0
  0
LINE
  5
3696A
  8
0
 10
2821.4336775469328131
 20
177.7064182903810092
 30
0.0
 11
2821.4349769921309417
 21
177.7099884867213859
 31
0.0
  0
LINE
  5
3696B
  8
0
 10
2821.43578864173287
 20
177.712218475673609
 30
0.0
 11
2821.4384245814121641
 21
177.7194606604199976
 31
0.0
  0
LINE
  5
3696C
  8
0
 10
2821.4398039262259772
 20
177.7232503791493059
 30
0.0
 11
2821.4438557897919964
 21
177.7343827828028111
 31
0.0
  0
LINE
  5
3696D
  8
0
 10
2821.4458465994321159
 20
177.7398524873350993
 30
0.0
 11
2821.4467729335979129
 21
177.7423975695417084
 31
0.0
  0
LINE
  5
3696E
  8
0
 10
2821.4457933138828594
 20
177.7081519722520113
 30
0.0
 11
2821.4467774662898591
 21
177.7108543983395919
 31
0.0
  0
LINE
  5
3696F
  8
0
 10
2821.4467774662898591
 20
177.7108543983395919
 30
0.0
 11
2821.4647229744841752
 21
177.7103120507875076
 31
0.0
  0
LINE
  5
36970
  8
0
 10
2821.4647229744841752
 20
177.7103120507875076
 30
0.0
 11
2821.4816839155109847
 21
177.7070661382375931
 31
0.0
  0
LINE
  5
36971
  8
0
 10
2821.4816839155109847
 20
177.7070661382375931
 30
0.0
 11
2821.4806851498387914
 21
177.7043235849365033
 31
0.0
  0
LINE
  5
36972
  8
0
 10
2821.4806851498387914
 20
177.7043235849365033
 30
0.0
 11
2821.4627401985790129
 21
177.7048674619157111
 31
0.0
  0
LINE
  5
36973
  8
0
 10
2821.4627401985790129
 20
177.7048674619157111
 30
0.0
 11
2821.4457933138869521
 21
177.7081519722615042
 31
0.0
  0
LINE
  5
36974
  8
0
 10
2821.449197797117904
 20
177.7175004877641129
 30
0.0
 11
2821.4508700990468242
 21
177.7220925329546901
 31
0.0
  0
LINE
  5
36975
  8
0
 10
2821.4508700990468242
 20
177.7220925329546901
 30
0.0
 11
2821.4691970448780012
 21
177.7225975912656111
 31
0.0
  0
LINE
  5
36976
  8
0
 10
2821.4691970448780012
 20
177.7225975912656111
 30
0.0
 11
2821.4858389706801063
 21
177.7184756813065007
 31
0.0
  0
LINE
  5
36977
  8
0
 10
2821.4858389706801063
 20
177.7184756813065007
 30
0.0
 11
2821.4841408343768308
 21
177.7138126963930063
 31
0.0
  0
LINE
  5
36978
  8
0
 10
2821.4841408343768308
 20
177.7138126963930063
 30
0.0
 11
2821.4658268045868681
 21
177.713343104965702
 31
0.0
  0
LINE
  5
36979
  8
0
 10
2821.4658268045868681
 20
177.713343104965702
 30
0.0
 11
2821.4491977970960761
 21
177.7175004877379081
 31
0.0
  0
LINE
  5
3697A
  8
0
 10
2821.4442753379212263
 20
177.703983697497307
 30
0.0
 11
2821.4446003191769705
 21
177.704876077185105
 31
0.0
  0
LINE
  5
3697B
  8
0
 10
2821.4446003191769705
 20
177.704876077185105
 30
0.0
 11
2821.4621962091978276
 21
177.7033736990921113
 31
0.0
  0
LINE
  5
3697C
  8
0
 10
2821.4621962091978276
 20
177.7033736990921113
 30
0.0
 11
2821.4794746405059414
 21
177.7009995960480921
 31
0.0
  0
LINE
  5
3697D
  8
0
 10
2821.4794746405059414
 20
177.7009995960480921
 30
0.0
 11
2821.4791449256431406
 21
177.7000942179303991
 31
0.0
  0
LINE
  5
3697E
  8
0
 10
2821.4791449256431406
 20
177.7000942179303991
 30
0.0
 11
2821.4645464774071115
 21
177.701307009301587
 31
0.0
  0
LINE
  5
3697F
  8
0
 10
2821.4442753379671558
 20
177.7039836974495017
 30
0.0
 11
2821.4523015743311589
 21
177.7027098260743116
 31
0.0
  0
LINE
  5
36980
  8
0
 10
2821.454591631410949
 20
177.7323116471166031
 30
0.0
 11
2821.4569190551669635
 21
177.7387026192783992
 31
0.0
  0
LINE
  5
36981
  8
0
 10
2821.4545916314018541
 20
177.7323116471453943
 30
0.0
 11
2821.4708948403290378
 21
177.7272596397305904
 31
0.0
  0
LINE
  5
36982
  8
0
 10
2821.4708948403290378
 20
177.7272596397305904
 30
0.0
 11
2821.4851798612771745
 21
177.7284102084520043
 31
0.0
  0
LINE
  5
36983
  8
0
 10
2821.4729376469481394
 20
177.7328690698755054
 30
0.0
 11
2821.4708960158041009
 21
177.7272597344077099
 31
0.0
  0
LINE
  5
36984
  8
0
 10
2821.4691989616749197
 20
177.7225971165090073
 30
0.0
 11
2821.4658308143471004
 21
177.7133432077802979
 31
0.0
  0
LINE
  5
36985
  8
0
 10
2821.4647272645979683
 20
177.7103112297637892
 30
0.0
 11
2821.4627458329850924
 21
177.704867291147707
 31
0.0
  0
LINE
  5
36986
  8
0
 10
2821.46220192412693
 20
177.7033729138454134
 30
0.0
 11
2821.4615654576700763
 21
177.7016242366258041
 31
0.0
  0
LINE
  5
36987
  8
0
 10
2821.5377233945791886
 20
177.6982369279110969
 30
0.0
 11
2821.5380640808989483
 21
177.6991724330285081
 31
0.0
  0
LINE
  5
36988
  8
0
 10
2821.5380640808989483
 20
177.6991724330285081
 30
0.0
 11
2821.5201582790741668
 21
177.6998238118509903
 31
0.0
  0
LINE
  5
36989
  8
0
 10
2821.5201582790741668
 20
177.6998238118509903
 30
0.0
 11
2821.5019370010240891
 21
177.6996089111920014
 31
0.0
  0
LINE
  5
3698A
  8
0
 10
2821.5019370010240891
 20
177.6996089111920014
 30
0.0
 11
2821.5016035489161368
 21
177.6986932710628935
 31
0.0
  0
LINE
  5
3698B
  8
0
 10
2821.5016035489161368
 20
177.6986932710628935
 30
0.0
 11
2821.5108867788858333
 21
177.6981705127103055
 31
0.0
  0
LINE
  5
3698C
  8
0
 10
2821.5377233946010165
 20
177.698236927970413
 30
0.0
 11
2821.5305712326430694
 21
177.6979658703255041
 31
0.0
  0
LINE
  5
3698D
  8
0
 10
2821.5207184733149006
 20
177.701362073265301
 30
0.0
 11
2821.5393152080450818
 21
177.7026079563545977
 31
0.0
  0
LINE
  5
3698E
  8
0
 10
2821.5393152080450818
 20
177.7026079563545977
 30
0.0
 11
2821.5403478916969107
 21
177.7054436462771889
 31
0.0
  0
LINE
  5
3698F
  8
0
 10
2821.5403478916969107
 20
177.7054436462771889
 30
0.0
 11
2821.5227611235259246
 21
177.7069710733341026
 31
0.0
  0
LINE
  5
36990
  8
0
 10
2821.5227611235259246
 20
177.7069710733341026
 30
0.0
 11
2821.5041716534969964
 21
177.7057451388625111
 31
0.0
  0
LINE
  5
36991
  8
0
 10
2821.5041716534969964
 20
177.7057451388625111
 30
0.0
 11
2821.5031613420060239
 21
177.7029708814719129
 31
0.0
  0
LINE
  5
36992
  8
0
 10
2821.5031613420060239
 20
177.7029708814719129
 30
0.0
 11
2821.5207184733149006
 21
177.701362073265301
 31
0.0
  0
LINE
  5
36993
  8
0
 10
2821.5087148853208419
 20
177.6999364283296075
 30
0.0
 11
2821.5093866823131066
 21
177.7017811442792095
 31
0.0
  0
LINE
  5
36994
  8
0
 10
2821.5093866823131066
 20
177.7017811442792095
 30
0.0
 11
2821.4919613147380915
 21
177.7037517700769058
 31
0.0
  0
LINE
  5
36995
  8
0
 10
2821.4919613147380915
 20
177.7037517700769058
 30
0.0
 11
2821.473884077843195
 21
177.703932396095297
 31
0.0
  0
LINE
  5
36996
  8
0
 10
2821.473884077843195
 20
177.703932396095297
 30
0.0
 11
2821.4732242300510734
 21
177.7021204919217894
 31
0.0
  0
LINE
  5
36997
  8
0
 10
2821.4732242300510734
 20
177.7021204919217894
 30
0.0
 11
2821.4906298255609727
 21
177.7000955752230027
 31
0.0
  0
LINE
  5
36998
  8
0
 10
2821.4906298255609727
 20
177.7000955752230027
 30
0.0
 11
2821.5087148853208419
 21
177.6999364283296075
 31
0.0
  0
LINE
  5
36999
  8
0
 10
2821.512605552369223
 20
177.7106199765399026
 30
0.0
 11
2821.5112414454110876
 21
177.7068742170409053
 31
0.0
  0
LINE
  5
3699A
  8
0
 10
2821.5112414454110876
 20
177.7068742170409053
 30
0.0
 11
2821.4927932656510166
 21
177.7060362574553949
 31
0.0
  0
LINE
  5
3699B
  8
0
 10
2821.4927932656510166
 20
177.7060362574553949
 30
0.0
 11
2821.4757054207648252
 21
177.7089336993412871
 31
0.0
  0
LINE
  5
3699C
  8
0
 10
2821.4757054207648252
 20
177.7089336993412871
 30
0.0
 11
2821.4770445381200261
 21
177.7126108386636929
 31
0.0
  0
LINE
  5
3699D
  8
0
 10
2821.4770445381200261
 20
177.7126108386636929
 30
0.0
 11
2821.4954961948601522
 21
177.7134583458353916
 31
0.0
  0
LINE
  5
3699E
  8
0
 10
2821.4954961948601522
 20
177.7134583458353916
 30
0.0
 11
2821.5126055523392097
 21
177.7106199764961048
 31
0.0
  0
LINE
  5
3699F
  8
0
 10
2821.4927932656510166
 20
177.7060362574553949
 30
0.0
 11
2821.4954961948601522
 21
177.7134583458353916
 31
0.0
  0
LINE
  5
369A0
  8
0
 10
2821.4906298255609727
 20
177.7000955752230027
 30
0.0
 11
2821.4919613147380915
 21
177.7037517700769058
 31
0.0
  0
LINE
  5
369A1
  8
0
 10
2821.5207184733149006
 20
177.701362073265301
 30
0.0
 11
2821.5227611235259246
 21
177.7069710733341026
 31
0.0
  0
LINE
  5
369A2
  8
0
 10
2821.5201582790741668
 20
177.6998238118509903
 30
0.0
 11
2821.5201372189389986
 21
177.6979869936338901
 31
0.0
  0
LINE
  5
369A3
  8
0
 10
2821.1295583986998281
 20
177.8578624725014095
 30
0.0
 11
2821.132451992379174
 21
177.8555570722853076
 31
0.0
  0
LINE
  5
369A4
  8
0
 10
2821.132451992379174
 20
177.8555570722853076
 30
0.0
 11
2821.1457486059198345
 21
177.842244949076786
 31
0.0
  0
LINE
  5
369A5
  8
0
 10
2821.1457486059198345
 20
177.842244949076786
 30
0.0
 11
2821.1450678916189645
 21
177.8403747018768968
 31
0.0
  0
LINE
  5
369A6
  8
0
 10
2821.1450678916189645
 20
177.8403747018768968
 30
0.0
 11
2821.1310731848279829
 21
177.8517688293543131
 31
0.0
  0
LINE
  5
369A7
  8
0
 10
2821.1310731848279829
 20
177.8517688293543131
 30
0.0
 11
2821.1222642390330293
 21
177.860517302879714
 31
0.0
  0
LINE
  5
369A8
  8
0
 10
2821.1221751485190907
 20
177.8588727583768048
 30
0.0
 11
2821.1191613682390198
 21
177.8616466441636135
 31
0.0
  0
LINE
  5
369A9
  8
0
 10
2821.1215945893450225
 20
177.8607610329889894
 30
0.0
 11
2821.122521201219115
 21
177.8598235301768113
 31
0.0
  0
LINE
  5
369AA
  8
0
 10
2821.122521201219115
 20
177.8598235301768113
 30
0.0
 11
2821.1221751485309142
 21
177.8588727583305058
 31
0.0
  0
LINE
  5
369AB
  8
0
 10
2821.1310731845192095
 20
177.8517688296767858
 30
0.0
 11
2821.1324519921331557
 21
177.8555570724805079
 31
0.0
  0
LINE
  5
369AC
  8
0
 10
2821.1369172569420698
 20
177.8551840940035049
 30
0.0
 11
2821.1476283376491665
 21
177.8474094694583982
 31
0.0
  0
LINE
  5
369AD
  8
0
 10
2821.1476283376491665
 20
177.8474094694583982
 30
0.0
 11
2821.1488741094099169
 21
177.8508321992536025
 31
0.0
  0
LINE
  5
369AE
  8
0
 10
2821.1514932674840566
 20
177.8498789132360969
 30
0.0
 11
2821.1576603937060099
 21
177.8434212352539987
 31
0.0
  0
LINE
  5
369AF
  8
0
 10
2821.1576603937060099
 20
177.8434212352539987
 30
0.0
 11
2821.1724578822490912
 21
177.8342327314634872
 31
0.0
  0
LINE
  5
369B0
  8
0
 10
2821.1724578822490912
 20
177.8342327314634872
 30
0.0
 11
2821.1741756148599052
 21
177.8389521630984973
 31
0.0
  0
LINE
  5
369B1
  8
0
 10
2821.1741756148599052
 20
177.8389521630984973
 30
0.0
 11
2821.1702226735937984
 21
177.8430620352710037
 31
0.0
  0
LINE
  5
369B2
  8
0
 10
2821.1726436688700232
 20
177.8421808738901859
 30
0.0
 11
2821.1829911886829905
 21
177.8316216710124138
 31
0.0
  0
LINE
  5
369B3
  8
0
 10
2821.1829911886829905
 20
177.8316216710124138
 30
0.0
 11
2821.1982597343198904
 21
177.8237273864768042
 31
0.0
  0
LINE
  5
369B4
  8
0
 10
2821.1982597343198904
 20
177.8237273864768042
 30
0.0
 11
2821.2003189457777808
 21
177.8293850233480953
 31
0.0
  0
LINE
  5
369B5
  8
0
 10
2821.2003189457777808
 20
177.8293850233480953
 30
0.0
 11
2821.1960571488939422
 21
177.8336591495425125
 31
0.0
  0
LINE
  5
369B6
  8
0
 10
2821.1829911886829905
 20
177.8316216710124138
 30
0.0
 11
2821.1851744165592208
 21
177.8376201004570021
 31
0.0
  0
LINE
  5
369B7
  8
0
 10
2821.1576603937060099
 20
177.8434212352539987
 30
0.0
 11
2821.1596860475119684
 21
177.8468970150746884
 31
0.0
  0
LINE
  5
369B8
  8
0
 10
2821.2923137966631657
 20
177.7932518414795879
 30
0.0
 11
2821.3028140754190645
 21
177.7854066731767944
 31
0.0
  0
LINE
  5
369B9
  8
0
 10
2821.3028140754190645
 20
177.7854066731767944
 30
0.0
 11
2821.311636110706786
 21
177.7818430394625011
 31
0.0
  0
ARC
  5
369BA
  8
0
 10
2821.3959692092439582
 20
178.2480444000121054
 30
0.0
 40
0.4737676435628291
 50
259.7464108336412778
 51
259.9037922912904151
  0
LINE
  5
369BB
  8
0
 10
2821.3129170006191089
 20
177.7816131502769963
 30
0.0
 11
2821.313807261754846
 21
177.7809813431942132
 31
0.0
  0
LINE
  5
369BC
  8
0
 10
2821.313807261754846
 20
177.7809813431942132
 30
0.0
 11
2821.3228832996219353
 21
177.7774442501770977
 31
0.0
  0
LINE
  5
369BD
  8
0
 10
2821.3228832996219353
 20
177.7774442501770977
 30
0.0
 11
2821.3254256439190613
 21
177.7844292836769
 31
0.0
  0
LINE
  5
369BE
  8
0
 10
2821.3254256439190613
 20
177.7844292836769
 30
0.0
 11
2821.3345491680429404
 21
177.7832526824003025
 31
0.0
  0
LINE
  5
369BF
  8
0
 10
2821.3231451647520771
 20
177.7781637187991919
 30
0.0
 11
2821.3408113619188953
 21
177.7768569269755119
 31
0.0
  0
LINE
  5
369C0
  8
0
 10
2821.3408113619188953
 20
177.7768569269755119
 30
0.0
 11
2821.3551844435860403
 21
177.7665023750030002
 31
0.0
  0
LINE
  5
369C1
  8
0
 10
2821.3574649227198279
 20
177.7727679398768998
 30
0.0
 11
2821.3549225784190639
 21
177.7657829063768986
 31
0.0
  0
LINE
  5
369C2
  8
0
 10
2821.3549225784190639
 20
177.7657829063768986
 30
0.0
 11
2821.3641488267198838
 21
177.7626585120769107
 31
0.0
  0
LINE
  5
369C3
  8
0
 10
2821.3641488267198838
 20
177.7626585120769107
 30
0.0
 11
2821.3652369238261599
 21
177.7626585120769107
 31
0.0
  0
LINE
  5
369C4
  8
0
 10
2821.3652369238261599
 20
177.7626585120769107
 30
0.0
 11
2821.3661063965441826
 21
177.7620713881183008
 31
0.0
  0
LINE
  5
369C5
  8
0
 10
2821.3661063965441826
 20
177.7620713881183008
 30
0.0
 11
2821.3754146429191678
 21
177.7589822275768086
 31
0.0
  0
LINE
  5
369C6
  8
0
 10
2821.3754146429191678
 20
177.7589822275768086
 30
0.0
 11
2821.3781246981188815
 21
177.7664280429769121
 31
0.0
  0
LINE
  5
369C7
  8
0
 10
2821.3781246981188815
 20
177.7664280429769121
 30
0.0
 11
2821.3810838190211143
 21
177.7663156244387039
 31
0.0
  0
LINE
  5
369C8
  8
0
 10
2821.3754650880327972
 20
177.7591208240937988
 30
0.0
 11
2821.388505497296137
 21
177.7582295229626936
 31
0.0
  0
LINE
  5
369C9
  8
0
 10
2821.3675112791697757
 20
177.7688189958724081
 30
0.0
 11
2821.3575342149820244
 21
177.7748868933792039
 31
0.0
  0
LINE
  5
369CA
  8
0
 10
2821.3675112791697757
 20
177.7688189958724081
 30
0.0
 11
2821.3754366530479274
 21
177.7683710041482072
 31
0.0
  0
LINE
  5
369CB
  8
0
 10
2821.3574649227198279
 20
177.7727679398768998
 30
0.0
 11
2821.3495420464901144
 21
177.7777957756451883
 31
0.0
  0
LINE
  5
369CC
  8
0
 10
2821.3408113625941951
 20
177.7768569264896996
 30
0.0
 11
2821.3421343859217814
 21
177.7804919165585034
 31
0.0
  0
LINE
  5
369CD
  8
0
 10
2821.3088541601550787
 20
177.7926048066510134
 30
0.0
 11
2821.3151913560491266
 21
177.7878618905824908
 31
0.0
  0
LINE
  5
369CE
  8
0
 10
2821.3151913560491266
 20
177.7878618905824908
 30
0.0
 11
2821.3268259992091771
 21
177.7860636577796924
 31
0.0
  0
LINE
  5
369CF
  8
0
 10
2821.3151913575838989
 20
177.7878618903453116
 30
0.0
 11
2821.3159743956780403
 21
177.7900132788493011
 31
0.0
  0
LINE
  5
369D0
  8
0
 10
2821.3028140754190645
 20
177.7854066731767944
 30
0.0
 11
2821.3055241305751224
 21
177.7928524885184913
 31
0.0
  0
LINE
  5
369D1
  8
0
 10
2821.3055241305751224
 20
177.7928524885184913
 30
0.0
 11
2821.3031827801210056
 21
177.7946689994693941
 31
0.0
  0
LINE
  5
369D2
  8
0
 10
2821.5322687125199081
 20
177.7015631352768139
 30
0.0
 11
2821.5315879982190381
 21
177.6996928880768962
 31
0.0
  0
LINE
  5
369D3
  8
0
 10
2821.5315879982190381
 20
177.6996928880768962
 30
0.0
 11
2821.549632570007816
 21
177.6994256720147973
 31
0.0
  0
LINE
  5
369D4
  8
0
 10
2821.549632570007816
 20
177.6994256720147973
 30
0.0
 11
2821.5620088626060351
 21
177.7004652995765071
 31
0.0
  0
LINE
  5
369D5
  8
0
 10
2821.5623298500458986
 20
177.7001899061480117
 30
0.0
 11
2821.5613612310189637
 21
177.7000988217768054
 31
0.0
  0
LINE
  5
369D6
  8
0
 10
2821.5613612310189637
 20
177.7000988217768054
 30
0.0
 11
2821.5610151784189839
 21
177.6991480498768112
 31
0.0
  0
LINE
  5
369D7
  8
0
 10
2821.5610151784189839
 20
177.6991480498768112
 30
0.0
 11
2821.5630281568751343
 21
177.6992357955803072
 31
0.0
  0
LINE
  5
369D8
  8
0
 10
2821.5547288037901126
 20
177.7031146524768985
 30
0.0
 11
2821.5510113776408616
 21
177.7032139148402052
 31
0.0
  0
LINE
  5
369D9
  8
0
 10
2821.5510113776408616
 20
177.7032139148402052
 30
0.0
 11
2821.5322687125431003
 21
177.7015631353025071
 31
0.0
  0
LINE
  5
369DA
  8
0
 10
2821.5474282173540814
 20
177.7057718219840865
 30
0.0
 11
2821.5341484442610636
 21
177.7067276556502975
 31
0.0
  0
LINE
  5
369DB
  8
0
 10
2821.5341484442610636
 20
177.7067276556502975
 30
0.0
 11
2821.5353946693849139
 21
177.7101516313337868
 31
0.0
  0
LINE
  5
369DC
  8
0
 10
2821.5327823096331485
 20
177.7111024429891017
 30
0.0
 11
2821.5238998562449524
 21
177.7101209724565933
 31
0.0
  0
LINE
  5
369DD
  8
0
 10
2821.5238998562449524
 20
177.7101209724565933
 30
0.0
 11
2821.5066580656821316
 21
177.7125938123801916
 31
0.0
  0
LINE
  5
369DE
  8
0
 10
2821.5066580656821316
 20
177.7125938123801916
 30
0.0
 11
2821.5083757983161377
 21
177.7173132440678955
 31
0.0
  0
LINE
  5
369DF
  8
0
 10
2821.5083757983161377
 20
177.7173132440678955
 30
0.0
 11
2821.514041140721929
 21
177.7179236022207931
 31
0.0
  0
LINE
  5
369E0
  8
0
 10
2821.5117019777908354
 20
177.7187749793627063
 30
0.0
 11
2821.4969107276351679
 21
177.7173643029537971
 31
0.0
  0
LINE
  5
369E1
  8
0
 10
2821.4969107276351679
 20
177.7173643029537971
 30
0.0
 11
2821.4801399946909441
 21
177.7211313621112083
 31
0.0
  0
LINE
  5
369E2
  8
0
 10
2821.4801399946909441
 20
177.7211313621112083
 30
0.0
 11
2821.4821992060101365
 21
177.7267889989508092
 31
0.0
  0
LINE
  5
369E3
  8
0
 10
2821.4821992060101365
 20
177.7267889989508944
 30
0.0
 11
2821.4881942166748559
 21
177.7273310188772939
 31
0.0
  0
LINE
  5
369E4
  8
0
 10
2821.5510113776408616
 20
177.7032139148402052
 30
0.0
 11
2821.549632570007816
 21
177.6994256720147973
 31
0.0
  0
LINE
  5
369E5
  8
0
 10
2821.5238998562449524
 20
177.7101209724565933
 30
0.0
 11
2821.5261336943999595
 21
177.7135223167649087
 31
0.0
  0
LINE
  5
369E6
  8
0
 10
2821.4969107276351679
 20
177.7173643029537971
 30
0.0
 11
2821.4990943237498868
 21
177.7233637441381973
 31
0.0
  0
ARC
  5
369E7
  8
0
 10
2825.76445006560607
 20
177.1862727553728121
 30
0.0
 40
0.0561514586532537
 50
42.5968651541089187
 51
73.1077717583330866
  0
ARC
  5
369E8
  8
0
 10
2825.5658680882529552
 20
177.025562522747407
 30
0.0
 40
0.3115253211444848
 50
2.5721741891227992
 51
39.6338630912858321
  0
LINE
  5
369E9
  8
0
 10
2825.8770795422201445
 20
177.0395431033769
 30
0.0
 11
2825.8770795422201445
 21
176.995235391176891
 31
0.0
  0
LINE
  5
369EA
  8
0
 10
2825.8770795422201445
 20
176.995235391176891
 30
0.0
 11
2826.9991267863188114
 21
176.995235391176891
 31
0.0
  0
LINE
  5
369EB
  8
0
 10
2826.9991267863188114
 20
176.995235391176891
 30
0.0
 11
2826.9993253600691787
 21
177.0423364880269048
 31
0.0
  0
ARC
  5
369EC
  8
0
 10
2827.0321723952511093
 20
177.0384455658607123
 30
0.0
 40
0.0330766835626252
 50
138.4894122299070887
 51
173.2444620497936114
  0
ARC
  5
369ED
  8
0
 10
2827.081688070923974
 20
176.9837426925028012
 30
0.0
 40
0.1067218331861752
 50
104.899796444998799
 51
134.1115942354803963
  0
ARC
  5
369EE
  8
0
 10
2827.1189531560657997
 20
176.8817910413877996
 30
0.0
 40
0.2150508023171003
 50
92.7200765711340011
 51
107.5110010145958057
  0
LINE
  5
369EF
  8
0
 10
2825.9755047390190157
 20
176.995235391176891
 30
0.0
 11
2825.9755047390190157
 21
176.829881032176786
 31
0.0
  0
LINE
  5
369F0
  8
0
 10
2825.9755047390190157
 20
176.829881032176786
 30
0.0
 11
2825.9951897236192053
 21
176.8101960284249969
 31
0.0
  0
LINE
  5
369F1
  8
0
 10
2825.9951897236192053
 20
176.8101960284249969
 30
0.0
 11
2826.8810165564191266
 21
176.8101960284249969
 31
0.0
  0
LINE
  5
369F2
  8
0
 10
2826.8810165564191266
 20
176.8101960284249969
 30
0.0
 11
2826.9007015894189863
 21
176.8298811332768139
 31
0.0
  0
LINE
  5
369F3
  8
0
 10
2826.9007015894189863
 20
176.8298811332768139
 30
0.0
 11
2826.9007015894189863
 21
176.995235391176891
 31
0.0
  0
ARC
  5
369F4
  8
0
 10
2826.0680244609097826
 20
176.8003535455162023
 30
0.0
 40
0.0098424829088455
 50
359.9999112872466185
 51
90.0002141714172268
  0
LINE
  5
369F5
  8
0
 10
2826.0778669438191173
 20
176.8003535302767943
 30
0.0
 11
2826.0778669438191173
 21
176.7393056486216949
 31
0.0
  0
LINE
  5
369F6
  8
0
 10
2826.8713280062202102
 20
176.7393056486216949
 30
0.0
 11
2826.0091248078201716
 21
176.7393056486216949
 31
0.0
  0
ARC
  5
369F7
  8
0
 10
2826.0091248078979334
 20
176.7274938144819885
 30
0.0
 40
0.0118118341396247
 50
90.0000003813946137
 51
179.3015343586035044
  0
LINE
  5
369F8
  8
0
 10
2825.997313851420131
 20
176.7276378033768083
 30
0.0
 11
2825.997313851420131
 21
176.6809664222768106
 31
0.0
  0
LINE
  5
369F9
  8
0
 10
2825.989439828219929
 20
176.6809664002769011
 30
0.0
 11
2826.8910099117188111
 21
176.6809664222768106
 31
0.0
  0
LINE
  5
369FA
  8
0
 10
2826.8910099117188111
 20
176.2842596827769057
 30
0.0
 11
2825.9894429024197962
 21
176.2842596827769057
 31
0.0
  0
LINE
  5
369FB
  8
0
 10
2825.997313851420131
 20
176.2842596827769057
 30
0.0
 11
2825.997313851420131
 21
176.2375883016767943
 31
0.0
  0
ARC
  5
369FC
  8
0
 10
2826.0100182922260501
 20
176.2386367337126956
 30
0.0
 40
0.0127476282485937
 50
184.7176352445434873
 51
265.9808198393156999
  0
LINE
  5
369FD
  8
0
 10
2826.0091248057201483
 20
176.2259204564340962
 30
0.0
 11
2826.8713280084198232
 21
176.2259204564340962
 31
0.0
  0
ARC
  5
369FE
  8
0
 10
2826.8699937678011338
 20
176.2390828936717071
 30
0.0
 40
0.0132298885884882
 50
275.7881470089369031
 51
353.5133983921995764
  0
LINE
  5
369FF
  8
0
 10
2826.8831389626197961
 20
176.2375883016767943
 30
0.0
 11
2826.8831389626197961
 21
176.2842596827769057
 31
0.0
  0
LINE
  5
36A00
  8
0
 10
2826.1548160799188736
 20
176.2259204564340962
 30
0.0
 11
2826.1548160799188736
 21
155.0797936969456998
 31
0.0
  0
ARC
  5
36A01
  8
0
 10
2829.3744135240572177
 20
155.1467944136655035
 30
0.0
 40
3.2202945204340212
 50
181.1921690028505054
 51
221.9326099787778048
  0
ARC
  5
36A02
  8
0
 10
2829.840326492800159
 20
155.9481607650550075
 30
0.0
 40
4.1122944349153379
 50
225.904023239011309
 51
266.852872611101418
  0
ARC
  5
36A03
  8
0
 10
2829.4490278282360123
 20
155.6801273125111891
 30
0.0
 40
3.8416270466054812
 50
272.4696024854121106
 51
323.7335458693224837
  0
ARC
  5
36A04
  8
0
 10
2829.8512257519241757
 20
155.1425359895632994
 30
0.0
 40
3.2053069810898638
 50
327.2308659288216859
 51
0.5860932258685252
  0
LINE
  5
36A05
  8
0
 10
2826.7256522833190502
 20
176.2259204564340962
 30
0.0
 11
2826.7256522833190502
 21
155.6989741809655072
 31
0.0
  0
ARC
  5
36A06
  8
0
 10
2833.1372329114128661
 20
155.4520558950206066
 30
0.0
 40
6.4163334382251982
 50
177.7945550993649135
 51
187.1263422266866883
  0
ARC
  5
36A07
  8
0
 10
2829.3834456394351946
 20
155.1432613546527932
 30
0.0
 40
2.6580123136070308
 50
190.5617574421073073
 51
214.7980607962597901
  0
ARC
  5
36A08
  8
0
 10
2833.2475670024728061
 20
171.9019312928448926
 30
0.0
 40
0.0304791102390943
 50
270.6720890298774975
 51
10.2638516227584908
  0
LINE
  5
36A09
  8
0
 10
2833.2775583753200408
 20
171.9073621045494065
 30
0.0
 11
2833.2801145723478839
 21
176.1715612645872966
 31
0.0
  0
ARC
  5
36A0A
  8
0
 10
2833.2505965703849142
 20
176.1716162713618132
 30
0.0
 40
0.0295180532150475
 50
359.8932294814507031
 51
44.4554049420775215
  0
LINE
  5
36A0B
  8
0
 10
2832.4104411619241546
 20
177.2828259427519981
 30
0.0
 11
2832.4119544873551604
 21
172.8267880396668943
 31
0.0
  0
ARC
  5
36A0C
  8
0
 10
2831.9208546252198175
 20
172.8179112066956975
 30
0.0
 40
0.4911800817952289
 50
344.8891284381116975
 51
1.0355321273295961
  0
ARC
  5
36A0D
  8
0
 10
2831.9768733483638243
 20
172.8027847914910922
 30
0.0
 40
0.4331550373777925
 50
313.2723616057165827
 51
344.8891284381116975
  0
ARC
  5
36A0E
  8
0
 10
2832.293612140921141
 20
172.466344740285308
 30
0.0
 40
0.0289221972548578
 50
133.2723616057166112
 51
180.4780543237750976
  0
LINE
  5
36A0F
  8
0
 10
2832.2646909503841925
 20
172.466103427205212
 30
0.0
 11
2832.2643495277279726
 21
171.9055990421406932
 31
0.0
  0
ARC
  5
36A10
  8
0
 10
2832.2989363144561139
 20
171.9056691156185082
 30
0.0
 40
0.0345868577135095
 50
180.1160821636813125
 51
261.5888314526425233
  0
LINE
  5
36A11
  8
0
 10
2832.4855020075201537
 20
170.6903519181769013
 30
0.0
 11
2832.4855041285991319
 21
155.6776020713664082
 31
0.0
  0
ARC
  5
36A12
  8
0
 10
2828.0589504735899027
 20
155.422723019084998
 30
0.0
 40
4.4338854960376892
 50
345.3203177186455264
 51
3.2954276184524152
  0
ARC
  5
36A13
  8
0
 10
2829.7732531964820737
 20
155.1709832144780137
 30
0.0
 40
2.718458625799749
 50
306.7092759339320764
 51
341.2933288465009127
  0
ARC
  5
36A14
  8
0
 10
2829.6110952290778187
 20
155.4010058690780056
 30
0.0
 40
2.9998030287210038
 50
269.2988139263517269
 51
306.5660544158134257
  0
ARC
  5
36A15
  8
0
 10
2829.5980893173082222
 20
155.3924641272207054
 30
0.0
 40
2.9911305831738102
 50
231.455733707532687
 51
269.5459248836290271
  0
ARC
  5
36A16
  8
0
 10
2829.5935649054581518
 20
155.3179332976638136
 30
0.0
 40
2.930332850679898
 50
215.2580032770167975
 51
230.6168378944230142
  0
LINE
  5
36A17
  8
0
 10
2833.0563572061828381
 20
155.1753727109953047
 30
0.0
 11
2833.0563572061828381
 21
170.6903519181769013
 31
0.0
  0
LINE
  5
36A18
  8
0
 10
2826.4315818994191432
 20
176.6692985769768995
 30
0.0
 11
2826.4315818994191432
 21
176.2959275679768893
 31
0.0
  0
LINE
  5
36A19
  8
0
 10
2826.9027438728198831
 20
176.6692985769768995
 30
0.0
 11
2826.9012114539768845
 21
176.6692985769768995
 31
0.0
  0
ARC
  5
36A1A
  8
0
 10
2826.8446453329711403
 20
176.6121839997751124
 30
0.0
 40
0.080385328105247
 50
45.2764231919478135
 51
49.3464060643851212
  0
ARC
  5
36A1B
  8
0
 10
2826.9413802858889539
 20
176.7103984611719909
 30
0.0
 40
0.0584191989039024
 50
219.5889890707456118
 51
224.7112177773547899
  0
ARC
  5
36A1C
  8
0
 10
2826.8696224867858291
 20
176.641235224606902
 30
0.0
 40
0.039638937711122
 50
45.0703434429210219
 51
53.6705840978023829
  0
ARC
  5
36A1D
  8
0
 10
2826.9150228742651052
 20
176.6888714347786049
 30
0.0
 40
0.0280495576353084
 50
214.0419157250532862
 51
224.2504108743787867
  0
ARC
  5
36A1E
  8
0
 10
2826.8431633386389876
 20
176.6175935713264948
 30
0.0
 40
0.0705742175897159
 50
47.107590132295833
 51
50.8837718807371218
  0
ARC
  5
36A1F
  8
0
 10
2826.883541358597995
 20
176.667249971091195
 30
0.0
 40
0.0065731040568554
 50
50.883771880742259
 51
64.2291231140401777
  0
ARC
  5
36A20
  8
0
 10
2826.8995503425621791
 20
176.659460393290999
 30
0.0
 40
0.0203672347567969
 50
137.694232650673996
 51
138.1231334188680933
  0
ARC
  5
36A21
  8
0
 10
2826.8982011818970932
 20
176.6804340378045879
 30
0.0
 40
0.0156624363234086
 50
208.1027798981463093
 51
225.3135720403535913
  0
ARC
  5
36A22
  8
0
 10
2826.8509373027081892
 20
176.6362165650654106
 30
0.0
 40
0.0453746847124258
 50
46.8097594078526598
 51
53.6604858925108772
  0
ARC
  5
36A23
  8
0
 10
2826.8764935700201022
 20
176.6710107992005021
 30
0.0
 40
0.0022036229502762
 50
52.8310422781575397
 51
78.3870417327315891
  0
ARC
  5
36A24
  8
0
 10
2826.8876663717201154
 20
176.6607874091832002
 30
0.0
 40
0.0181412792116438
 50
136.958608547503502
 51
137.8175210910926012
  0
ARC
  5
36A25
  8
0
 10
2826.8886273001489826
 20
176.6799647075596056
 30
0.0
 40
0.0160127113919696
 50
205.9046018959556932
 51
221.7670745729641908
  0
ARC
  5
36A26
  8
0
 10
2826.8131494270451185
 20
176.605124875087796
 30
0.0
 40
0.0857738881710687
 50
48.4323590111207665
 51
51.5975627376415673
  0
ARC
  5
36A27
  8
0
 10
2826.863633677091002
 20
176.6688145807787862
 30
0.0
 40
0.0045025025931619
 50
51.5975627376436066
 51
75.2803094249874789
  0
ARC
  5
36A28
  8
0
 10
2826.86174616397102
 20
176.672785224855005
 30
0.0
 40
0.0003971293205711
 50
104.7237508119762026
 51
169.4952823290836079
  0
ARC
  5
36A29
  8
0
 10
2826.8635697326280933
 20
176.6731293018750932
 30
0.0
 40
0.002230647631936
 50
186.9955032503027041
 51
211.0005262956399008
  0
ARC
  5
36A2A
  8
0
 10
2826.9077717540180856
 20
176.7014461116320945
 30
0.0
 40
0.054724151408264
 50
212.577535346889988
 51
215.9760430415489054
  0
ARC
  5
36A2B
  8
0
 10
2826.796383056464947
 20
176.6021686210054895
 30
0.0
 40
0.089431198914942
 50
48.6451885388969814
 51
51.5230966545885494
  0
ARC
  5
36A2C
  8
0
 10
2826.8487856909309812
 20
176.6681022996230013
 30
0.0
 40
0.00520955042078
 50
51.5230966545549904
 51
76.5662869712434855
  0
ARC
  5
36A2D
  8
0
 10
2826.8462526990929291
 20
176.6727771863226053
 30
0.0
 40
0.0003938812831777
 50
95.4094412278470543
 51
179.9999999989659045
  0
ARC
  5
36A2E
  8
0
 10
2826.8622272904499368
 20
176.678282540590601
 30
0.0
 40
0.0172695055578298
 50
198.5897950650472126
 51
204.2528077698966911
  0
ARC
  5
36A2F
  8
0
 10
2825.9610901431501588
 20
176.1129318457217892
 30
0.0
 40
1.0466945866131969
 50
32.1099979784550769
 51
32.2322403304923313
  0
ARC
  5
36A30
  8
0
 10
2826.7978439629619061
 20
176.6236165015681934
 30
0.0
 40
0.0610336244811353
 50
48.458355423454023
 51
53.0580039296308499
  0
ARC
  5
36A31
  8
0
 10
2826.8320795472100144
 20
176.669144479515495
 30
0.0
 40
0.0040698464747044
 50
53.058003929628903
 51
81.4706379869724344
  0
ARC
  5
36A32
  8
0
 10
2826.8285050679969572
 20
176.6725082954498873
 30
0.0
 40
0.0006694343573511
 50
99.0949894980114721
 51
175.452692367032995
  0
LINE
  5
36A33
  8
0
 10
2826.8278377408769302
 20
176.672561369676913
 30
0.0
 11
2826.8282997845772115
 21
176.6711886098767934
 31
0.0
  0
LINE
  5
36A34
  8
0
 10
2826.8282997845772115
 20
176.6711886098767934
 30
0.0
 11
2826.8293421375769867
 21
176.6692985769768995
 31
0.0
  0
LINE
  5
36A35
  8
0
 10
2826.8187076147769403
 20
176.6692985769768995
 30
0.0
 11
2826.8165479157769369
 21
176.671176352476806
 31
0.0
  0
ARC
  5
36A36
  8
0
 10
2826.8100796079729662
 20
176.6637369126210046
 30
0.0
 40
0.0098582083164551
 50
48.9942915875638505
 51
73.0986641382987017
  0
ARC
  5
36A37
  8
0
 10
2826.8080841164619414
 20
176.6724742408063094
 30
0.0
 40
0.0006968788256986
 50
85.8644015582979563
 51
85.8739394571766184
  0
ARC
  5
36A38
  8
0
 10
2826.8080841164619414
 20
176.6724742408063094
 30
0.0
 40
0.0006968788256986
 50
94.1260605428233816
 51
187.7116646447371124
  0
LINE
  5
36A39
  8
0
 10
2826.8073935402771895
 20
176.6723807280768028
 30
0.0
 11
2826.8077198856772156
 21
176.6711887550767983
 31
0.0
  0
LINE
  5
36A3A
  8
0
 10
2826.8077198856772156
 20
176.6711887550767983
 30
0.0
 11
2826.8086076953768497
 21
176.6692985769768995
 31
0.0
  0
LINE
  5
36A3B
  8
0
 10
2826.7967561004770687
 20
176.6692985769768995
 30
0.0
 11
2826.7946220439771423
 21
176.6711766010768088
 31
0.0
  0
ARC
  5
36A3C
  8
0
 10
2826.7884988700188842
 20
176.6642186503322023
 30
0.0
 40
0.0092685671967645
 50
48.6513999715356817
 51
74.9502738051771473
  0
ARC
  5
36A3D
  8
0
 10
2826.7855512868159167
 20
176.6722708758485965
 30
0.0
 40
0.0009002774499453
 50
93.6636707252204843
 51
185.6592624204442075
  0
LINE
  5
36A3E
  8
0
 10
2826.7846553973768096
 20
176.6721820974769059
 30
0.0
 11
2826.7855976200771693
 21
176.6692985769768995
 31
0.0
  0
LINE
  5
36A3F
  8
0
 10
2826.7726039566769032
 20
176.6692985769768995
 30
0.0
 11
2826.7705067782771948
 21
176.6711763298768005
 31
0.0
  0
ARC
  5
36A40
  8
0
 10
2826.7646692231678571
 20
176.664656625135791
 30
0.0
 40
0.0087512056065706
 50
48.1596541046679505
 51
76.5922776561160106
  0
ARC
  5
36A41
  8
0
 10
2826.7608375594018071
 20
176.6720907703937087
 30
0.0
 40
0.001081010143276
 50
93.8716765580195585
 51
186.488157259578287
  0
ARC
  5
36A42
  8
0
 10
2826.7781145704889241
 20
176.675284395939201
 30
0.0
 40
0.0186482482581409
 50
190.2420131594383008
 51
198.7225396346439084
  0
LINE
  5
36A43
  8
0
 10
2826.4843481159768999
 20
176.6692985769768995
 30
0.0
 11
2826.4831212711769695
 21
176.6711765992768051
 31
0.0
  0
ARC
  5
36A44
  8
0
 10
2826.4794099630148594
 20
176.6687521343918092
 30
0.0
 40
0.0044330393921746
 50
33.1551490885634479
 51
85.1518863220042448
  0
ARC
  5
36A45
  8
0
 10
2826.4714452381767842
 20
176.6694598649719126
 30
0.0
 40
0.0037104946212881
 50
91.3606015178817756
 51
152.2280612087400016
  0
LINE
  5
36A46
  8
0
 10
2826.4681621580771207
 20
176.6711887823769018
 30
0.0
 11
2826.4672166085770186
 21
176.6692985769768995
 31
0.0
  0
LINE
  5
36A47
  8
0
 10
2826.5033523273768878
 20
176.6692985769768995
 30
0.0
 11
2826.5041482323767923
 21
176.6711887533768106
 31
0.0
  0
ARC
  5
36A48
  8
0
 10
2826.5071337873550874
 20
176.6699316124376082
 30
0.0
 40
0.0032394354242416
 50
91.8749968659665228
 51
157.1652836695679127
  0
ARC
  5
36A49
  8
0
 10
2826.5150983410658228
 20
176.6684242919116059
 30
0.0
 40
0.0047498420590404
 50
35.4083717823941129
 51
87.418438327106827
  0
LINE
  5
36A4A
  8
0
 10
2826.518969667276906
 20
176.6711763516769054
 30
0.0
 11
2826.5203336501617741
 21
176.6692986736559021
 31
0.0
  0
LINE
  5
36A4B
  8
0
 10
2826.5391102029770991
 20
176.6692985769768995
 30
0.0
 11
2826.5397352614768351
 21
176.6711886104768041
 31
0.0
  0
ARC
  5
36A4C
  8
0
 10
2826.5424802648531113
 20
176.6702808023912894
 30
0.0
 40
0.0028912210325376
 50
92.4809316194360633
 51
161.7002819330631098
  0
ARC
  5
36A4D
  8
0
 10
2826.5502219804047854
 20
176.6679705052920895
 30
0.0
 40
0.0052090896013472
 50
37.9854862682334087
 51
86.3995600460828825
  0
LINE
  5
36A4E
  8
0
 10
2826.5543276112762214
 20
176.6711765011768875
 30
0.0
 11
2826.5558199105771564
 21
176.6692985769768995
 31
0.0
  0
LINE
  5
36A4F
  8
0
 10
2826.5742450546767941
 20
176.6692985769768995
 30
0.0
 11
2826.5747039712769038
 21
176.6711888589767909
 31
0.0
  0
ARC
  5
36A50
  8
0
 10
2826.5772269754088484
 20
176.6705763321274958
 30
0.0
 40
0.0025962933172468
 50
92.8943619522976576
 51
166.353928303022002
  0
ARC
  5
36A51
  8
0
 10
2826.5846715616098663
 20
176.667607598830898
 30
0.0
 40
0.0055926357492501
 50
39.6553325684521667
 51
83.9722190715132371
  0
ARC
  5
36A52
  8
0
 10
2826.5846715616098663
 20
176.667607598830898
 30
0.0
 40
0.0055926357492501
 50
85.4236947965614348
 51
85.4248178268987033
  0
LINE
  5
36A53
  8
0
 10
2826.5889773167768908
 20
176.6711766389076956
 30
0.0
 11
2826.5905888288771166
 21
176.6692985769768995
 31
0.0
  0
LINE
  5
36A54
  8
0
 10
2826.6085496882769803
 20
176.6692985769768995
 30
0.0
 11
2826.6088390574768709
 21
176.6711889898768106
 31
0.0
  0
ARC
  5
36A55
  8
0
 10
2826.6111486028062245
 20
176.6708354632561111
 30
0.0
 40
0.0023364461689332
 50
92.7011680715273059
 51
171.2971754233826118
  0
ARC
  5
36A56
  8
0
 10
2826.6182036327550122
 20
176.6672140988939077
 30
0.0
 40
0.0059973695301994
 50
41.3554765140762584
 51
83.202699997218275
  0
LINE
  5
36A57
  8
0
 10
2826.6227054066771416
 20
176.6711767334768126
 30
0.0
 11
2826.6244246441688119
 21
176.6693004401419955
 31
0.0
  0
LINE
  5
36A58
  8
0
 10
2826.641811115577184
 20
176.6692985769768995
 30
0.0
 11
2826.6419292049768046
 21
176.6711887829767988
 31
0.0
  0
ARC
  5
36A59
  8
0
 10
2826.6440385030259677
 20
176.6710570059424867
 30
0.0
 40
0.0021134103833464
 50
91.8511055306997548
 51
176.425129280553989
  0
ARC
  5
36A5A
  8
0
 10
2826.6508020359419788
 20
176.667207328297593
 30
0.0
 40
0.0060012047898638
 50
41.4089502907481588
 51
83.4459901410894247
  0
LINE
  5
36A5B
  8
0
 10
2826.6553029860770039
 20
176.6711766993824142
 30
0.0
 11
2826.6571222232769287
 21
176.6692985769768995
 31
0.0
  0
LINE
  5
36A5C
  8
0
 10
2826.6738248217770888
 20
176.6692985769768995
 30
0.0
 11
2826.6737712999770338
 21
176.6711887546769049
 31
0.0
  0
ARC
  5
36A5D
  8
0
 10
2826.6756978599701142
 20
176.6712433066687993
 30
0.0
 40
0.0019273321783721
 50
92.1250050933606559
 51
181.6219396047191026
  0
ARC
  5
36A5E
  8
0
 10
2826.6821004384610205
 20
176.6672682937185073
 30
0.0
 40
0.0059373926887517
 50
41.1635934668381367
 51
83.6547153585469943
  0
LINE
  5
36A5F
  8
0
 10
2826.6865703053767902
 20
176.6711763522768024
 30
0.0
 11
2826.6884772411772246
 21
176.6692985769768995
 31
0.0
  0
LINE
  5
36A60
  8
0
 10
2826.70439444847716
 20
176.6692985769768995
 30
0.0
 11
2826.7041588834767936
 21
176.6713480956769047
 31
0.0
  0
ARC
  5
36A61
  8
0
 10
2826.7057833922890495
 20
176.6715348114254027
 30
0.0
 40
0.0016352038561051
 50
91.6787607106928277
 51
186.5566192092231859
  0
ARC
  5
36A62
  8
0
 10
2826.7113626536010997
 20
176.6663315010547137
 30
0.0
 40
0.0069271983262531
 50
44.3802340622151732
 51
80.785716928181273
  0
LINE
  5
36A63
  8
0
 10
2826.7163136192771162
 20
176.6711765000767969
 30
0.0
 11
2826.7182961330768194
 21
176.6692985769768995
 31
0.0
  0
LINE
  5
36A64
  8
0
 10
2826.7333288432769223
 20
176.6692985769768995
 30
0.0
 11
2826.7329034635768039
 21
176.6714657237768051
 31
0.0
  0
ARC
  5
36A65
  8
0
 10
2826.7343069160870073
 20
176.6717412012883983
 30
0.0
 40
0.0014302331305538
 50
93.1207340636222938
 51
191.105152736799198
  0
ARC
  5
36A66
  8
0
 10
2826.7396288229629135
 20
176.6667967245575142
 30
0.0
 40
0.0064401383071426
 50
42.8523177679349132
 51
81.6942048345524654
  0
LINE
  5
36A67
  8
0
 10
2826.7443501472771459
 20
176.6711767334768126
 30
0.0
 11
2826.7463958376770279
 21
176.6692985769768995
 31
0.0
  0
LINE
  5
36A68
  8
0
 10
2826.9027438728198831
 20
176.6692985769768995
 30
0.0
 11
2826.9012106871768992
 21
176.6692985769768995
 31
0.0
  0
LINE
  5
36A69
  8
0
 10
2826.6738255284772094
 20
176.6692985769768995
 30
0.0
 11
2826.6571221629769752
 21
176.6692985769768995
 31
0.0
  0
LINE
  5
36A6A
  8
0
 10
2826.8766846032772264
 20
176.6692985769768995
 30
0.0
 11
2826.8700606806769429
 21
176.6692985769768995
 31
0.0
  0
LINE
  5
36A6B
  8
0
 10
2826.7855894306771916
 20
176.6692985769768995
 30
0.0
 11
2826.7726039566769032
 21
176.6692985769768995
 31
0.0
  0
LINE
  5
36A6C
  8
0
 10
2826.8476719674767992
 20
176.6692985769768995
 30
0.0
 11
2826.8383192801770747
 21
176.6692985769768995
 31
0.0
  0
LINE
  5
36A6D
  8
0
 10
2826.8634858221757895
 20
176.6692985769768995
 30
0.0
 11
2826.8554720431770875
 21
176.6692985769768995
 31
0.0
  0
LINE
  5
36A6E
  8
0
 10
2826.8998648775768743
 20
176.6692985769768995
 30
0.0
 11
2826.8976170154769534
 21
176.6692985769768995
 31
0.0
  0
LINE
  5
36A6F
  8
0
 10
2826.8949310936768597
 20
176.6692985769768995
 30
0.0
 11
2826.8911981450769417
 21
176.6692985769768995
 31
0.0
  0
LINE
  5
36A70
  8
0
 10
2826.8871877486772064
 20
176.6692985769768995
 30
0.0
 11
2826.8819927772769915
 21
176.6692985769768995
 31
0.0
  0
LINE
  5
36A71
  8
0
 10
2826.8086076953768497
 20
176.6692985769768995
 30
0.0
 11
2826.7967564034770476
 21
176.6692985769768995
 31
0.0
  0
LINE
  5
36A72
  8
0
 10
2826.7604533866769998
 20
176.6692985769768995
 30
0.0
 11
2826.7463958376770279
 21
176.6692985769768995
 31
0.0
  0
LINE
  5
36A73
  8
0
 10
2826.8293421757771284
 20
176.6692985769768995
 30
0.0
 11
2826.8187076147769403
 21
176.6692985769768995
 31
0.0
  0
LINE
  5
36A74
  8
0
 10
2826.7043944946772172
 20
176.6692985769768995
 30
0.0
 11
2826.6884773432770999
 21
176.6692985769768995
 31
0.0
  0
LINE
  5
36A75
  8
0
 10
2826.7333297503769245
 20
176.6692985769768995
 30
0.0
 11
2826.7182961022767813
 21
176.6692985769768995
 31
0.0
  0
LINE
  5
36A76
  8
0
 10
2826.5742457893770734
 20
176.6692985769768995
 30
0.0
 11
2826.5558199105771564
 21
176.6692985769768995
 31
0.0
  0
LINE
  5
36A77
  8
0
 10
2826.60854989977679
 20
176.6692985769768995
 30
0.0
 11
2826.5905886986770383
 21
176.6692985769768995
 31
0.0
  0
LINE
  5
36A78
  8
0
 10
2826.641811576776945
 20
176.6692985769768995
 30
0.0
 11
2826.6244263513772239
 21
176.6692985769768995
 31
0.0
  0
LINE
  5
36A79
  8
0
 10
2826.5391102029770991
 20
176.6692985769768995
 30
0.0
 11
2826.5203337203770388
 21
176.6692985769768995
 31
0.0
  0
LINE
  5
36A7A
  8
0
 10
2826.4672166085770186
 20
176.6692985769768995
 30
0.0
 11
2826.4487672834188743
 21
176.6692985769768995
 31
0.0
  0
LINE
  5
36A7B
  8
0
 10
2826.5033606184770179
 20
176.6692985769768995
 30
0.0
 11
2826.4843481159768999
 21
176.6692985769768995
 31
0.0
  0
LINE
  5
36A7C
  8
0
 10
2826.4487672834188743
 20
176.6692985769768995
 30
0.0
 11
2826.4487671743531791
 21
176.2959273402811107
 31
0.0
  0
LINE
  5
36A7D
  8
0
 10
2826.4672166085770186
 20
176.6692985769768995
 30
0.0
 11
2826.4672166085770186
 21
176.2959275679768893
 31
0.0
  0
LINE
  5
36A7E
  8
0
 10
2826.4843481159768999
 20
176.6692985769768995
 30
0.0
 11
2826.4843481159768999
 21
176.2959275679768893
 31
0.0
  0
LINE
  5
36A7F
  8
0
 10
2826.5033523273768878
 20
176.6692985769768995
 30
0.0
 11
2826.5033523273768878
 21
176.2959275679768893
 31
0.0
  0
LINE
  5
36A80
  8
0
 10
2826.5203336501617741
 20
176.6692985769768995
 30
0.0
 11
2826.5203336501617741
 21
176.2959275679768893
 31
0.0
  0
LINE
  5
36A81
  8
0
 10
2826.5391102029770991
 20
176.6692985769768995
 30
0.0
 11
2826.5391102029770991
 21
176.2959275679768893
 31
0.0
  0
LINE
  5
36A82
  8
0
 10
2826.5558199105771564
 20
176.6692985769768995
 30
0.0
 11
2826.5558199105771564
 21
176.2959275679768893
 31
0.0
  0
LINE
  5
36A83
  8
0
 10
2826.5742450546767941
 20
176.6692985769768995
 30
0.0
 11
2826.5742450546767941
 21
176.2959275679768893
 31
0.0
  0
LINE
  5
36A84
  8
0
 10
2826.5905886986770383
 20
176.6692985769768995
 30
0.0
 11
2826.5905886986770383
 21
176.2959275679768893
 31
0.0
  0
LINE
  5
36A85
  8
0
 10
2826.60854989977679
 20
176.6692985769768995
 30
0.0
 11
2826.60854989977679
 21
176.2959275679768893
 31
0.0
  0
LINE
  5
36A86
  8
0
 10
2826.6244263513772239
 20
176.6692985769768995
 30
0.0
 11
2826.6244263513772239
 21
176.2959275679768893
 31
0.0
  0
LINE
  5
36A87
  8
0
 10
2826.641811115577184
 20
176.6692985769768995
 30
0.0
 11
2826.641811115577184
 21
176.2959275679768893
 31
0.0
  0
LINE
  5
36A88
  8
0
 10
2826.6571221629769752
 20
176.6692985769768995
 30
0.0
 11
2826.6571221629769752
 21
176.2959275679768893
 31
0.0
  0
LINE
  5
36A89
  8
0
 10
2826.6738248217770888
 20
176.6692985769768995
 30
0.0
 11
2826.6738248217770888
 21
176.2959275679768893
 31
0.0
  0
LINE
  5
36A8A
  8
0
 10
2826.6884773432770999
 20
176.6692985769768995
 30
0.0
 11
2826.6884773432770999
 21
176.2959275679768893
 31
0.0
  0
LINE
  5
36A8B
  8
0
 10
2826.7043944946772172
 20
176.6692985769768995
 30
0.0
 11
2826.7043944946772172
 21
176.2959275679768893
 31
0.0
  0
LINE
  5
36A8C
  8
0
 10
2826.7182961022767813
 20
176.6692985769768995
 30
0.0
 11
2826.7182961022767813
 21
176.2959275679768893
 31
0.0
  0
LINE
  5
36A8D
  8
0
 10
2826.7333297503769245
 20
176.6692985769768995
 30
0.0
 11
2826.7333297503769245
 21
176.2959275679768893
 31
0.0
  0
LINE
  5
36A8E
  8
0
 10
2826.7463958376770279
 20
176.6692985769768995
 30
0.0
 11
2826.7463958376770279
 21
176.2959275679768893
 31
0.0
  0
LINE
  5
36A8F
  8
0
 10
2826.7604531114770907
 20
176.6692985769768995
 30
0.0
 11
2826.7604531114770907
 21
176.2959275679768893
 31
0.0
  0
LINE
  5
36A90
  8
0
 10
2826.7726039566769032
 20
176.6692985769768995
 30
0.0
 11
2826.7726039566769032
 21
176.2959275679768893
 31
0.0
  0
LINE
  5
36A91
  8
0
 10
2826.7855894306771916
 20
176.6692985769768995
 30
0.0
 11
2826.7855894306771916
 21
176.2959275679768893
 31
0.0
  0
LINE
  5
36A92
  8
0
 10
2826.7967561004770687
 20
176.6692985769768995
 30
0.0
 11
2826.7967561004770687
 21
176.2959275679768893
 31
0.0
  0
LINE
  5
36A93
  8
0
 10
2826.8086076953768497
 20
176.6692985769768995
 30
0.0
 11
2826.8086076953768497
 21
176.2959275679768893
 31
0.0
  0
LINE
  5
36A94
  8
0
 10
2826.8187076147769403
 20
176.6692985769768995
 30
0.0
 11
2826.8187076147769403
 21
176.2959275679768893
 31
0.0
  0
LINE
  5
36A95
  8
0
 10
2826.8293421757771284
 20
176.6692985769768995
 30
0.0
 11
2826.8293421757771284
 21
176.2959275679768893
 31
0.0
  0
LINE
  5
36A96
  8
0
 10
2826.8383192801770747
 20
176.6692985769768995
 30
0.0
 11
2826.8383192801770747
 21
176.2959275679768893
 31
0.0
  0
LINE
  5
36A97
  8
0
 10
2826.8476710012769217
 20
176.6692985769768995
 30
0.0
 11
2826.8476710012769217
 21
176.2959275679768893
 31
0.0
  0
LINE
  5
36A98
  8
0
 10
2826.8554720431770875
 20
176.6692985769768995
 30
0.0
 11
2826.8554720431770875
 21
176.2959275679768893
 31
0.0
  0
LINE
  5
36A99
  8
0
 10
2826.8634855398768195
 20
176.6692985769768995
 30
0.0
 11
2826.8634855398768195
 21
176.2959275679768893
 31
0.0
  0
LINE
  5
36A9A
  8
0
 10
2826.8700607253767885
 20
176.6692985769768995
 30
0.0
 11
2826.8700607253767885
 21
176.2959275679768893
 31
0.0
  0
LINE
  5
36A9B
  8
0
 10
2826.87668407677711
 20
176.6692985769768995
 30
0.0
 11
2826.87668407677711
 21
176.2959275679768893
 31
0.0
  0
LINE
  5
36A9C
  8
0
 10
2826.8819927772769915
 20
176.6692985769768995
 30
0.0
 11
2826.8819927772769915
 21
176.2959275679768893
 31
0.0
  0
LINE
  5
36A9D
  8
0
 10
2826.8871869445770244
 20
176.6692985769768995
 30
0.0
 11
2826.8871869445770244
 21
176.2959275679768893
 31
0.0
  0
LINE
  5
36A9E
  8
0
 10
2826.8911978322757932
 20
176.6692985769768995
 30
0.0
 11
2826.8911978322757932
 21
176.2959275679768893
 31
0.0
  0
LINE
  5
36A9F
  8
0
 10
2826.8949310619768767
 20
176.6692985769768995
 30
0.0
 11
2826.8949310619768767
 21
176.2959275679768893
 31
0.0
  0
LINE
  5
36AA0
  8
0
 10
2826.8976170154769534
 20
176.6692985769768995
 30
0.0
 11
2826.8976170154769534
 21
176.2959275679768893
 31
0.0
  0
LINE
  5
36AA1
  8
0
 10
2826.8998648775768743
 20
176.6692985769768995
 30
0.0
 11
2826.8998648775768743
 21
176.2959275679768893
 31
0.0
  0
LINE
  5
36AA2
  8
0
 10
2826.9012106871768992
 20
176.6692985769768995
 30
0.0
 11
2826.9012106871768992
 21
176.2959275679768893
 31
0.0
  0
LINE
  5
36AA3
  8
0
 10
2826.8910099117188111
 20
176.6809664222768106
 30
0.0
 11
2826.9027438728198831
 21
176.6692985769768995
 31
0.0
  0
LINE
  5
36AA4
  8
0
 10
2826.9027438728198831
 20
176.6692985769768995
 30
0.0
 11
2826.9027438728198831
 21
176.295927528076902
 31
0.0
  0
LINE
  5
36AA5
  8
0
 10
2826.4487672834188743
 20
176.6692985769768995
 30
0.0
 11
2826.4476694051190862
 21
176.6711885852768091
 31
0.0
  0
ARC
  5
36AA6
  8
0
 10
2826.4442268848438289
 20
176.6691888753769888
 30
0.0
 40
0.0039811789126098
 50
30.1516801654014905
 51
88.8946355542762348
  0
ARC
  5
36AA7
  8
0
 10
2826.4362018559490934
 20
176.6690632781680108
 30
0.0
 40
0.004120291179346
 50
94.7675637256293584
 51
149.1402500826675066
  0
LINE
  5
36AA8
  8
0
 10
2826.4326648931191812
 20
176.6711767334768126
 30
0.0
 11
2826.4315818994191432
 21
176.6692985769768995
 31
0.0
  0
ARC
  5
36AA9
  8
0
 10
2826.8713210011460433
 20
176.7274867235678926
 30
0.0
 40
0.0118189271297314
 50
0.7324244481552568
 51
89.9660408118382975
  0
LINE
  5
36AAA
  8
0
 10
2826.8831389626197961
 20
176.7276378033768083
 30
0.0
 11
2826.8831389637580287
 21
176.6809664220847935
 31
0.0
  0
ARC
  5
36AAB
  8
0
 10
2826.808181867627809
 20
176.8003535455162023
 30
0.0
 40
0.0098424829088563
 50
89.9997858286088359
 51
180.0000887126915075
  0
LINE
  5
36AAC
  8
0
 10
2826.7983393847189291
 20
176.8003535302767943
 30
0.0
 11
2826.7983393847189291
 21
176.7393056486216949
 31
0.0
  0
LINE
  5
36AAD
  8
0
 10
2826.8931056584988255
 20
176.6731693134333909
 30
0.0
 11
2826.8917802180308172
 21
176.6731693134333909
 31
0.0
  0
LINE
  5
36AAE
  8
0
 10
2826.8863991695047844
 20
176.6731693134333909
 30
0.0
 11
2826.8844874822711972
 21
176.6731693134333909
 31
0.0
  0
LINE
  5
36AAF
  8
0
 10
2826.8769371581320229
 20
176.6731693134333909
 30
0.0
 11
2826.8744076214547931
 21
176.6731693134333909
 31
0.0
  0
LINE
  5
36AB0
  8
0
 10
2826.8647777195328672
 20
176.6731693134333909
 30
0.0
 11
2826.8616452300248056
 21
176.6731693134333909
 31
0.0
  0
LINE
  5
36AB1
  8
0
 10
2826.8499959746300192
 20
176.6731693134333909
 30
0.0
 11
2826.8462155669740241
 21
176.6731693134333909
 31
0.0
  0
LINE
  5
36AB2
  8
0
 10
2826.8326831714812215
 20
176.6731693134333909
 30
0.0
 11
2826.8283992493588812
 21
176.6731693134333909
 31
0.0
  0
LINE
  5
36AB3
  8
0
 10
2826.8129456306751308
 20
176.6731693134333909
 30
0.0
 11
2826.8080339752541477
 21
176.6731693134333909
 31
0.0
  0
LINE
  5
36AB4
  8
0
 10
2826.7909055207901474
 20
176.6731693134333909
 30
0.0
 11
2826.7854937594911462
 21
176.6731693134333909
 31
0.0
  0
LINE
  5
36AB5
  8
0
 10
2826.7666984440811575
 20
176.6731693134333909
 30
0.0
 11
2826.7607645673388106
 21
176.6731693134333909
 31
0.0
  0
LINE
  5
36AB6
  8
0
 10
2826.7405591414208175
 20
176.6731693134333909
 30
0.0
 11
2826.7342290539700116
 21
176.6731693134333909
 31
0.0
  0
LINE
  5
36AB7
  8
0
 10
2826.7124718869058597
 20
176.6731693134333909
 30
0.0
 11
2826.7057354878320439
 21
176.6731693134333909
 31
0.0
  0
LINE
  5
36AB8
  8
0
 10
2826.682756638328101
 20
176.6731693134333909
 30
0.0
 11
2826.6756263948141168
 21
176.6731693134333909
 31
0.0
  0
LINE
  5
36AB9
  8
0
 10
2826.6514870119781335
 20
176.6731693134333909
 30
0.0
 11
2826.643970235082179
 21
176.6731693134333909
 31
0.0
  0
LINE
  5
36ABA
  8
0
 10
2826.6189134644750993
 20
176.6731693134333909
 30
0.0
 11
2826.6110384935400361
 21
176.6731693134333909
 31
0.0
  0
LINE
  5
36ABB
  8
0
 10
2826.5852588480011036
 20
176.6731693134333909
 30
0.0
 11
2826.5770958764519492
 21
176.6731693134333909
 31
0.0
  0
LINE
  5
36ABC
  8
0
 10
2826.550549101766137
 20
176.6731693134333909
 30
0.0
 11
2826.5423551128701547
 21
176.6731693134333909
 31
0.0
  0
LINE
  5
36ABD
  8
0
 10
2826.5153122811129833
 20
176.6731693134333909
 30
0.0
 11
2826.5070277961772263
 21
176.6731693134333909
 31
0.0
  0
LINE
  5
36ABE
  8
0
 10
2826.479784619613838
 20
176.6731693134333909
 30
0.0
 11
2826.4713571334300468
 21
176.6731693134333909
 31
0.0
  0
LINE
  5
36ABF
  8
0
 10
2826.8963603640850124
 20
176.6731693134333909
 30
0.0
 11
2826.8970150999421094
 21
176.6731693134333909
 31
0.0
  0
LINE
  5
36AC0
  8
0
 10
2826.9027438728198831
 20
176.2959275679768893
 30
0.0
 11
2826.9012114539768845
 21
176.2959275679768893
 31
0.0
  0
ARC
  5
36AC1
  8
0
 10
2826.8446453329711403
 20
176.3530421451785912
 30
0.0
 40
0.080385328105247
 50
310.6535939356148788
 51
314.7235768080522007
  0
ARC
  5
36AC2
  8
0
 10
2826.9413802858889539
 20
176.2548276837817127
 30
0.0
 40
0.0584191989039024
 50
135.2887822226450965
 51
140.4110109292543882
  0
ARC
  5
36AC3
  8
0
 10
2826.8696224867858291
 20
176.3239909203468017
 30
0.0
 40
0.039638937711122
 50
306.3294159021975815
 51
314.9296565570788857
  0
ARC
  5
36AC4
  8
0
 10
2826.9150228742651052
 20
176.2763547101750135
 30
0.0
 40
0.0280495576353084
 50
135.7495891256212133
 51
145.9580842749466001
  0
ARC
  5
36AC5
  8
0
 10
2826.8431633386389876
 20
176.3476325736270951
 30
0.0
 40
0.0705742175897159
 50
309.116228119262928
 51
312.8924098677042025
  0
ARC
  5
36AC6
  8
0
 10
2826.883541358597995
 20
176.2979761738625086
 30
0.0
 40
0.0065731040568554
 50
295.7708768859598081
 51
309.1162281192576984
  0
ARC
  5
36AC7
  8
0
 10
2826.8995503425621791
 20
176.3057657516627046
 30
0.0
 40
0.0203672347567969
 50
221.8768665811317931
 51
222.305767349326004
  0
ARC
  5
36AC8
  8
0
 10
2826.8982011818970932
 20
176.284792107149002
 30
0.0
 40
0.0156624363234086
 50
134.6864279596451865
 51
151.8972201018536907
  0
ARC
  5
36AC9
  8
0
 10
2826.8509373027081892
 20
176.3290095798882078
 30
0.0
 40
0.0453746847124258
 50
306.3395141074890944
 51
313.1902405921472905
  0
ARC
  5
36ACA
  8
0
 10
2826.8764935700201022
 20
176.2942153457532015
 30
0.0
 40
0.0022036229502762
 50
281.6129582672680272
 51
307.1689577218425029
  0
ARC
  5
36ACB
  8
0
 10
2826.8876663717201154
 20
176.3044387357705034
 30
0.0
 40
0.0181412792116438
 50
222.1824789089073988
 51
223.041391452496498
  0
ARC
  5
36ACC
  8
0
 10
2826.8886273001489826
 20
176.2852614373940128
 30
0.0
 40
0.0160127113919696
 50
138.2329254270356955
 51
154.0953981040443068
  0
ARC
  5
36ACD
  8
0
 10
2826.8131494270451185
 20
176.3601012698659076
 30
0.0
 40
0.0857738881710687
 50
308.4024372623583758
 51
311.5676409888791909
  0
ARC
  5
36ACE
  8
0
 10
2826.863633677091002
 20
176.2964115641748037
 30
0.0
 40
0.0045025025931619
 50
284.7196905750125211
 51
308.4024372623574095
  0
ARC
  5
36ACF
  8
0
 10
2826.86174616397102
 20
176.2924409200986133
 30
0.0
 40
0.0003971293205711
 50
190.5047176709163921
 51
255.2762491880237974
  0
ARC
  5
36AD0
  8
0
 10
2826.8635697326280933
 20
176.2920968430786104
 30
0.0
 40
0.002230647631936
 50
148.9994737043600992
 51
173.0044967496972106
  0
ARC
  5
36AD1
  8
0
 10
2826.9077717540180856
 20
176.2637800333216092
 30
0.0
 40
0.054724151408264
 50
144.0239569584510946
 51
147.422464653110012
  0
ARC
  5
36AD2
  8
0
 10
2826.796383056464947
 20
176.3630575239482141
 30
0.0
 40
0.089431198914942
 50
308.4769033454114151
 51
311.3548114611029973
  0
ARC
  5
36AD3
  8
0
 10
2826.8487856909309812
 20
176.2971238453307024
 30
0.0
 40
0.00520955042078
 50
283.4337130287564719
 51
308.4769033454450096
  0
ARC
  5
36AD4
  8
0
 10
2826.8462526990929291
 20
176.2924489586310983
 30
0.0
 40
0.0003938812831777
 50
180.0000000010340102
 51
264.5905587721529173
  0
ARC
  5
36AD5
  8
0
 10
2826.8622272904499368
 20
176.2869436043631026
 30
0.0
 40
0.0172695055578298
 50
155.7471922301033089
 51
161.4102049349527022
  0
ARC
  5
36AD6
  8
0
 10
2825.9610901431501588
 20
176.852294299231886
 30
0.0
 40
1.0466945866131969
 50
327.7677596695077114
 51
327.8900020215448876
  0
ARC
  5
36AD7
  8
0
 10
2826.7978439629619061
 20
176.3416096433855103
 30
0.0
 40
0.0610336244811353
 50
306.9419960703692141
 51
311.5416445765459912
  0
ARC
  5
36AD8
  8
0
 10
2826.8320795472100144
 20
176.2960816654380949
 30
0.0
 40
0.0040698464747044
 50
278.5293620130274803
 51
306.9419960703710899
  0
ARC
  5
36AD9
  8
0
 10
2826.8285050679969572
 20
176.2927178495037879
 30
0.0
 40
0.0006694343573511
 50
184.5473076329668913
 51
260.9050105019884995
  0
LINE
  5
36ADA
  8
0
 10
2826.8278377408769302
 20
176.2926647752767906
 30
0.0
 11
2826.8282997845772115
 21
176.2940375350767965
 31
0.0
  0
LINE
  5
36ADB
  8
0
 10
2826.8282997845772115
 20
176.2940375350767965
 30
0.0
 11
2826.8293421375769867
 21
176.2959275679768893
 31
0.0
  0
LINE
  5
36ADC
  8
0
 10
2826.8187076147769403
 20
176.2959275679768893
 30
0.0
 11
2826.8165479157769369
 21
176.2940497924768124
 31
0.0
  0
ARC
  5
36ADD
  8
0
 10
2826.8100796079729662
 20
176.301489232332699
 30
0.0
 40
0.0098582083164551
 50
286.9013358617012841
 51
311.0057084124360927
  0
ARC
  5
36ADE
  8
0
 10
2826.8080841164619414
 20
176.2927519041473943
 30
0.0
 40
0.0006968788256986
 50
274.1260605428233816
 51
274.1355984417019727
  0
ARC
  5
36ADF
  8
0
 10
2826.8080841164619414
 20
176.2927519041473943
 30
0.0
 40
0.0006968788256986
 50
172.2883353552628023
 51
265.8739394571766184
  0
LINE
  5
36AE0
  8
0
 10
2826.8073935402771895
 20
176.2928454168767871
 30
0.0
 11
2826.8077198856772156
 21
176.2940373898767916
 31
0.0
  0
LINE
  5
36AE1
  8
0
 10
2826.8077198856772156
 20
176.2940373898767916
 30
0.0
 11
2826.8086076953768497
 21
176.2959275679768893
 31
0.0
  0
LINE
  5
36AE2
  8
0
 10
2826.7967561004770687
 20
176.2959275679768893
 30
0.0
 11
2826.7946220439771423
 21
176.2940495438768096
 31
0.0
  0
ARC
  5
36AE3
  8
0
 10
2826.7884988700188842
 20
176.3010074946215013
 30
0.0
 40
0.0092685671967645
 50
285.0497261948228811
 51
311.3486000284643183
  0
ARC
  5
36AE4
  8
0
 10
2826.7855512868159167
 20
176.2929552691051072
 30
0.0
 40
0.0009002774499453
 50
174.3407375795557925
 51
266.3363292747794731
  0
LINE
  5
36AE5
  8
0
 10
2826.7846553973768096
 20
176.2930440474767977
 30
0.0
 11
2826.7855976200771693
 21
176.2959275679768893
 31
0.0
  0
LINE
  5
36AE6
  8
0
 10
2826.7726039566769032
 20
176.2959275679768893
 30
0.0
 11
2826.7705067782771948
 21
176.2940498150767894
 31
0.0
  0
ARC
  5
36AE7
  8
0
 10
2826.7646692231678571
 20
176.3005695198179126
 30
0.0
 40
0.0087512056065706
 50
283.4077223438840178
 51
311.8403458953320069
  0
ARC
  5
36AE8
  8
0
 10
2826.7608375594018071
 20
176.2931353745599949
 30
0.0
 40
0.001081010143276
 50
173.5118427404215993
 51
266.1283234419803989
  0
ARC
  5
36AE9
  8
0
 10
2826.7781145704889241
 20
176.2899417490145026
 30
0.0
 40
0.0186482482581409
 50
161.2774603653560064
 51
169.7579868405599939
  0
LINE
  5
36AEA
  8
0
 10
2826.4843481159768999
 20
176.2959275679768893
 30
0.0
 11
2826.4831212711769695
 21
176.2940495456768133
 31
0.0
  0
ARC
  5
36AEB
  8
0
 10
2826.4794099630148594
 20
176.2964740105618944
 30
0.0
 40
0.0044330393921746
 50
274.8481136779956842
 51
326.8448509114365947
  0
ARC
  5
36AEC
  8
0
 10
2826.4714452381767842
 20
176.2957662799817911
 30
0.0
 40
0.0037104946212881
 50
207.7719387912599984
 51
268.6393984821182244
  0
LINE
  5
36AED
  8
0
 10
2826.4681621580771207
 20
176.2940373625768018
 30
0.0
 11
2826.4672166085770186
 21
176.2959275679768893
 31
0.0
  0
LINE
  5
36AEE
  8
0
 10
2826.5033523273768878
 20
176.2959275679768893
 30
0.0
 11
2826.5041482323767923
 21
176.2940373915768077
 31
0.0
  0
ARC
  5
36AEF
  8
0
 10
2826.5071337873550874
 20
176.2952945325160954
 30
0.0
 40
0.0032394354242416
 50
202.8347163304320873
 51
268.1250031340334772
  0
ARC
  5
36AF0
  8
0
 10
2826.5150983410658228
 20
176.2968018530420977
 30
0.0
 40
0.0047498420590404
 50
272.5815616728932014
 51
324.5916282176058871
  0
LINE
  5
36AF1
  8
0
 10
2826.518969667276906
 20
176.2940497932769119
 30
0.0
 11
2826.5203336501617741
 21
176.2959274712978015
 31
0.0
  0
LINE
  5
36AF2
  8
0
 10
2826.5391102029770991
 20
176.2959275679768893
 30
0.0
 11
2826.5397352614768351
 21
176.2940375344767858
 31
0.0
  0
ARC
  5
36AF3
  8
0
 10
2826.5424802648531113
 20
176.2949453425623858
 30
0.0
 40
0.0028912210325376
 50
198.2997180669368049
 51
267.5190683805639082
  0
ARC
  5
36AF4
  8
0
 10
2826.5502219804047854
 20
176.2972556396615005
 30
0.0
 40
0.0052090896013472
 50
273.600439953917089
 51
322.0145137317666126
  0
LINE
  5
36AF5
  8
0
 10
2826.5543276112762214
 20
176.2940496437769013
 30
0.0
 11
2826.5558199105771564
 21
176.2959275679768893
 31
0.0
  0
LINE
  5
36AF6
  8
0
 10
2826.5742450546767941
 20
176.2959275679768893
 30
0.0
 11
2826.5747039712769038
 21
176.294037285976799
 31
0.0
  0
ARC
  5
36AF7
  8
0
 10
2826.5772269754088484
 20
176.2946498128262078
 30
0.0
 40
0.0025962933172468
 50
193.646071696977998
 51
267.1056380477024277
  0
ARC
  5
36AF8
  8
0
 10
2826.5846715616098663
 20
176.2976185461228056
 30
0.0
 40
0.0055926357492501
 50
276.0277809284867772
 51
320.3446674315478049
  0
ARC
  5
36AF9
  8
0
 10
2826.5846715616098663
 20
176.2976185461228056
 30
0.0
 40
0.0055926357492501
 50
274.5751821731013251
 51
274.5763052034386078
  0
LINE
  5
36AFA
  8
0
 10
2826.5889773167768908
 20
176.294049506046008
 30
0.0
 11
2826.5905888288771166
 21
176.2959275679768893
 31
0.0
  0
LINE
  5
36AFB
  8
0
 10
2826.6085496882769803
 20
176.2959275679768893
 30
0.0
 11
2826.6088390574768709
 21
176.294037155076893
 31
0.0
  0
ARC
  5
36AFC
  8
0
 10
2826.6111486028062245
 20
176.2943906816975925
 30
0.0
 40
0.0023364461689332
 50
188.7028245766173882
 51
267.2988319284726799
  0
ARC
  5
36AFD
  8
0
 10
2826.6182036327550122
 20
176.2980120460597959
 30
0.0
 40
0.0059973695301994
 50
276.7973000027818102
 51
318.6445234859224911
  0
LINE
  5
36AFE
  8
0
 10
2826.6227054066771416
 20
176.2940494114768057
 30
0.0
 11
2826.6244246441688119
 21
176.2959257048117081
 31
0.0
  0
LINE
  5
36AFF
  8
0
 10
2826.641811115577184
 20
176.2959275679768893
 30
0.0
 11
2826.6419292049768046
 21
176.2940373619767911
 31
0.0
  0
ARC
  5
36B00
  8
0
 10
2826.6440385030259677
 20
176.2941691390111885
 30
0.0
 40
0.0021134103833464
 50
183.5748707194458973
 51
268.1488944693002736
  0
ARC
  5
36B01
  8
0
 10
2826.6508020359419788
 20
176.2980188166561106
 30
0.0
 40
0.0060012047898638
 50
276.55400985891049
 51
318.5910497092518199
  0
LINE
  5
36B02
  8
0
 10
2826.6553029860770039
 20
176.2940494455712894
 30
0.0
 11
2826.6571222232769287
 21
176.2959275679768893
 31
0.0
  0
LINE
  5
36B03
  8
0
 10
2826.6738248217770888
 20
176.2959275679768893
 30
0.0
 11
2826.6737712999770338
 21
176.2940373902767988
 31
0.0
  0
ARC
  5
36B04
  8
0
 10
2826.6756978599701142
 20
176.2939828382849043
 30
0.0
 40
0.0019273321783721
 50
178.3780603952808121
 51
267.8749949066394151
  0
ARC
  5
36B05
  8
0
 10
2826.6821004384610205
 20
176.2979578512351964
 30
0.0
 40
0.0059373926887517
 50
276.34528464145302
 51
318.8364065331618917
  0
LINE
  5
36B06
  8
0
 10
2826.6865703053767902
 20
176.2940497926767875
 30
0.0
 11
2826.6884772411772246
 21
176.2959275679768893
 31
0.0
  0
LINE
  5
36B07
  8
0
 10
2826.70439444847716
 20
176.2959275679768893
 30
0.0
 11
2826.7041588834767936
 21
176.2938780492767989
 31
0.0
  0
ARC
  5
36B08
  8
0
 10
2826.7057833922890495
 20
176.2936913335281872
 30
0.0
 40
0.0016352038561051
 50
173.4433807907751088
 51
268.3212392893071865
  0
ARC
  5
36B09
  8
0
 10
2826.7113626536010997
 20
176.2988946438989046
 30
0.0
 40
0.0069271983262531
 50
279.214283071818727
 51
315.6197659377847913
  0
LINE
  5
36B0A
  8
0
 10
2826.7163136192771162
 20
176.2940496448767931
 30
0.0
 11
2826.7182961330768194
 21
176.2959275679768893
 31
0.0
  0
LINE
  5
36B0B
  8
0
 10
2826.7333288432769223
 20
176.2959275679768893
 30
0.0
 11
2826.7329034635768039
 21
176.2937604211768985
 31
0.0
  0
ARC
  5
36B0C
  8
0
 10
2826.7343069160870073
 20
176.2934849436651916
 30
0.0
 40
0.0014302331305538
 50
168.894847263200802
 51
266.879265936377692
  0
ARC
  5
36B0D
  8
0
 10
2826.7396288229629135
 20
176.2984294203961895
 30
0.0
 40
0.0064401383071426
 50
278.3057951654475914
 51
317.1476822320651081
  0
LINE
  5
36B0E
  8
0
 10
2826.7443501472771459
 20
176.2940494114768057
 30
0.0
 11
2826.7463958376770279
 21
176.2959275679768893
 31
0.0
  0
LINE
  5
36B0F
  8
0
 10
2826.9027438728198831
 20
176.2959275679768893
 30
0.0
 11
2826.9012106871768992
 21
176.2959275679768893
 31
0.0
  0
LINE
  5
36B10
  8
0
 10
2826.6738255284772094
 20
176.2959275679768893
 30
0.0
 11
2826.6571221629769752
 21
176.2959275679768893
 31
0.0
  0
LINE
  5
36B11
  8
0
 10
2826.8766846032772264
 20
176.2959275679768893
 30
0.0
 11
2826.8700606806769429
 21
176.2959275679768893
 31
0.0
  0
LINE
  5
36B12
  8
0
 10
2826.7855894306771916
 20
176.2959275679768893
 30
0.0
 11
2826.7726039566769032
 21
176.2959275679768893
 31
0.0
  0
LINE
  5
36B13
  8
0
 10
2826.8476719674767992
 20
176.2959275679768893
 30
0.0
 11
2826.8383192801770747
 21
176.2959275679768893
 31
0.0
  0
LINE
  5
36B14
  8
0
 10
2826.8634858221757895
 20
176.2959275679768893
 30
0.0
 11
2826.8554720431770875
 21
176.2959275679768893
 31
0.0
  0
LINE
  5
36B15
  8
0
 10
2826.8998648775768743
 20
176.2959275679768893
 30
0.0
 11
2826.8976170154769534
 21
176.2959275679768893
 31
0.0
  0
LINE
  5
36B16
  8
0
 10
2826.8949310936768597
 20
176.2959275679768893
 30
0.0
 11
2826.8911981450769417
 21
176.2959275679768893
 31
0.0
  0
LINE
  5
36B17
  8
0
 10
2826.8871877486772064
 20
176.2959275679768893
 30
0.0
 11
2826.8819927772769915
 21
176.2959275679768893
 31
0.0
  0
LINE
  5
36B18
  8
0
 10
2826.8086076953768497
 20
176.2959275679768893
 30
0.0
 11
2826.7967564034770476
 21
176.2959275679768893
 31
0.0
  0
LINE
  5
36B19
  8
0
 10
2826.7604533866769998
 20
176.2959275679768893
 30
0.0
 11
2826.7463958376770279
 21
176.2959275679768893
 31
0.0
  0
LINE
  5
36B1A
  8
0
 10
2826.8293421757771284
 20
176.2959275679768893
 30
0.0
 11
2826.8187076147769403
 21
176.2959275679768893
 31
0.0
  0
LINE
  5
36B1B
  8
0
 10
2826.7043944946772172
 20
176.2959275679768893
 30
0.0
 11
2826.6884773432770999
 21
176.2959275679768893
 31
0.0
  0
LINE
  5
36B1C
  8
0
 10
2826.7333297503769245
 20
176.2959275679768893
 30
0.0
 11
2826.7182961022767813
 21
176.2959275679768893
 31
0.0
  0
LINE
  5
36B1D
  8
0
 10
2826.5742457893770734
 20
176.2959275679768893
 30
0.0
 11
2826.5558199105771564
 21
176.2959275679768893
 31
0.0
  0
LINE
  5
36B1E
  8
0
 10
2826.60854989977679
 20
176.2959275679768893
 30
0.0
 11
2826.5905886986770383
 21
176.2959275679768893
 31
0.0
  0
LINE
  5
36B1F
  8
0
 10
2826.641811576776945
 20
176.2959275679768893
 30
0.0
 11
2826.6244263513772239
 21
176.2959275679768893
 31
0.0
  0
LINE
  5
36B20
  8
0
 10
2826.5391102029770991
 20
176.2959275679768893
 30
0.0
 11
2826.5203337203770388
 21
176.2959275679768893
 31
0.0
  0
LINE
  5
36B21
  8
0
 10
2826.4672166085770186
 20
176.2959275679768893
 30
0.0
 11
2826.4487672834188743
 21
176.2959275679768893
 31
0.0
  0
LINE
  5
36B22
  8
0
 10
2826.5033606184770179
 20
176.2959275679768893
 30
0.0
 11
2826.4843481159768999
 21
176.2959275679768893
 31
0.0
  0
LINE
  5
36B23
  8
0
 10
2826.8910099117188111
 20
176.2842597226768078
 30
0.0
 11
2826.9027438728198831
 21
176.2959275679768893
 31
0.0
  0
LINE
  5
36B24
  8
0
 10
2826.4487672834188743
 20
176.2959275679768893
 30
0.0
 11
2826.4476694051190862
 21
176.2940375596768945
 31
0.0
  0
ARC
  5
36B25
  8
0
 10
2826.4442268848438289
 20
176.2960372695766864
 30
0.0
 40
0.0039811789126098
 50
271.1053644457236942
 51
329.8483198345984988
  0
ARC
  5
36B26
  8
0
 10
2826.4362018559490934
 20
176.2961628667856928
 30
0.0
 40
0.004120291179346
 50
210.8597499173324934
 51
265.2324362743706274
  0
LINE
  5
36B27
  8
0
 10
2826.4326648931191812
 20
176.2940494114768057
 30
0.0
 11
2826.4315818994191432
 21
176.2959275679768893
 31
0.0
  0
LINE
  5
36B28
  8
0
 10
2826.8931056584988255
 20
176.2920568315203127
 30
0.0
 11
2826.8917802180308172
 21
176.2920568315203127
 31
0.0
  0
LINE
  5
36B29
  8
0
 10
2826.8863991695047844
 20
176.2920568315203127
 30
0.0
 11
2826.8844874822711972
 21
176.2920568315203127
 31
0.0
  0
LINE
  5
36B2A
  8
0
 10
2826.8769371581320229
 20
176.2920568315203127
 30
0.0
 11
2826.8744076214547931
 21
176.2920568315203127
 31
0.0
  0
LINE
  5
36B2B
  8
0
 10
2826.8647777195328672
 20
176.2920568315203127
 30
0.0
 11
2826.8616452300248056
 21
176.2920568315203127
 31
0.0
  0
LINE
  5
36B2C
  8
0
 10
2826.8499959746300192
 20
176.2920568315203127
 30
0.0
 11
2826.8462155669740241
 21
176.2920568315203127
 31
0.0
  0
LINE
  5
36B2D
  8
0
 10
2826.8326831714812215
 20
176.2920568315203127
 30
0.0
 11
2826.8283992493588812
 21
176.2920568315203127
 31
0.0
  0
LINE
  5
36B2E
  8
0
 10
2826.8129456306751308
 20
176.2920568315203127
 30
0.0
 11
2826.8080339752541477
 21
176.2920568315203127
 31
0.0
  0
LINE
  5
36B2F
  8
0
 10
2826.7909055207901474
 20
176.2920568315203127
 30
0.0
 11
2826.7854937594911462
 21
176.2920568315203127
 31
0.0
  0
LINE
  5
36B30
  8
0
 10
2826.7666984440811575
 20
176.2920568315203127
 30
0.0
 11
2826.7607645673388106
 21
176.2920568315203127
 31
0.0
  0
LINE
  5
36B31
  8
0
 10
2826.7405591414208175
 20
176.2920568315203127
 30
0.0
 11
2826.7342290539700116
 21
176.2920568315203127
 31
0.0
  0
LINE
  5
36B32
  8
0
 10
2826.7124718869058597
 20
176.2920568315203127
 30
0.0
 11
2826.7057354878320439
 21
176.2920568315203127
 31
0.0
  0
LINE
  5
36B33
  8
0
 10
2826.682756638328101
 20
176.2920568315203127
 30
0.0
 11
2826.6756263948141168
 21
176.2920568315203127
 31
0.0
  0
LINE
  5
36B34
  8
0
 10
2826.6514870119781335
 20
176.2920568315203127
 30
0.0
 11
2826.643970235082179
 21
176.2920568315203127
 31
0.0
  0
LINE
  5
36B35
  8
0
 10
2826.6189134644750993
 20
176.2920568315203127
 30
0.0
 11
2826.6110384935400361
 21
176.2920568315203127
 31
0.0
  0
LINE
  5
36B36
  8
0
 10
2826.5852588480011036
 20
176.2920568315203127
 30
0.0
 11
2826.5770958764519492
 21
176.2920568315203127
 31
0.0
  0
LINE
  5
36B37
  8
0
 10
2826.550549101766137
 20
176.2920568315203127
 30
0.0
 11
2826.5423551128701547
 21
176.2920568315203127
 31
0.0
  0
LINE
  5
36B38
  8
0
 10
2826.5153122811129833
 20
176.2920568315203127
 30
0.0
 11
2826.5070277961772263
 21
176.2920568315203127
 31
0.0
  0
LINE
  5
36B39
  8
0
 10
2826.479784619613838
 20
176.2920568315203127
 30
0.0
 11
2826.4713571334300468
 21
176.2920568315203127
 31
0.0
  0
LINE
  5
36B3A
  8
0
 10
2826.8963603640850124
 20
176.2920568315203127
 30
0.0
 11
2826.8970150999421094
 21
176.2920568315203127
 31
0.0
  0
LINE
  5
36B3B
  8
0
 10
2825.9777089413191788
 20
176.6692985769768995
 30
0.0
 11
2825.9792413601621774
 21
176.6692985769768995
 31
0.0
  0
ARC
  5
36B3C
  8
0
 10
2826.0358074811679217
 20
176.6121839997751124
 30
0.0
 40
0.080385328105247
 50
130.6535939356149072
 51
134.7235768080522007
  0
ARC
  5
36B3D
  8
0
 10
2825.939072528250108
 20
176.7103984611719909
 30
0.0
 40
0.0584191989039024
 50
315.2887822226451817
 51
320.4110109292544166
  0
ARC
  5
36B3E
  8
0
 10
2826.0108303273518686
 20
176.641235224606902
 30
0.0
 40
0.039638937711122
 50
126.329415902196601
 51
134.9296565570789994
  0
ARC
  5
36B3F
  8
0
 10
2825.9654299398739568
 20
176.6888714347786049
 30
0.0
 40
0.0280495576353084
 50
315.7495891256211848
 51
325.9580842749466001
  0
ARC
  5
36B40
  8
0
 10
2826.0372894755000743
 20
176.6175935713264948
 30
0.0
 40
0.0705742175897159
 50
129.1162281192628996
 51
132.8924098677042025
  0
ARC
  5
36B41
  8
0
 10
2825.996911455541067
 20
176.667249971091195
 30
0.0
 40
0.0065731040568554
 50
115.7708768859597939
 51
129.1162281192576984
  0
ARC
  5
36B42
  8
0
 10
2825.9809024715759733
 20
176.659460393290999
 30
0.0
 40
0.0203672347567969
 50
41.8768665811318499
 51
42.3057673493260111
  0
ARC
  5
36B43
  8
0
 10
2825.9822516322419688
 20
176.6804340378045879
 30
0.0
 40
0.0156624363234086
 50
314.6864279596463803
 51
331.8972201018536907
  0
ARC
  5
36B44
  8
0
 10
2826.0295155114299632
 20
176.6362165650654106
 30
0.0
 40
0.0453746847124258
 50
126.3395141074890944
 51
133.1902405921472905
  0
ARC
  5
36B45
  8
0
 10
2826.0039592441189598
 20
176.6710107992005021
 30
0.0
 40
0.0022036229502762
 50
101.6129582672683966
 51
127.1689577218424034
  0
ARC
  5
36B46
  8
0
 10
2825.992786442419856
 20
176.6607874091832002
 30
0.0
 40
0.0181412792116438
 50
42.1824789089073633
 51
43.0413914524965122
  0
ARC
  5
36B47
  8
0
 10
2825.9918255139900793
 20
176.6799647075596056
 30
0.0
 40
0.0160127113919696
 50
318.2329254270356955
 51
334.0953981040443068
  0
ARC
  5
36B48
  8
0
 10
2826.0673033870939435
 20
176.605124875087796
 30
0.0
 40
0.0857738881710687
 50
128.4024372623584043
 51
131.5676409888791909
  0
ARC
  5
36B49
  8
0
 10
2826.0168191370471504
 20
176.6688145807787862
 30
0.0
 40
0.0045025025931619
 50
104.7196905750125069
 51
128.4024372623563863
  0
ARC
  5
36B4A
  8
0
 10
2826.0187066501689515
 20
176.672785224855005
 30
0.0
 40
0.0003971293205711
 50
10.5047176709163992
 51
75.2762491880237974
  0
ARC
  5
36B4B
  8
0
 10
2826.0168830815100591
 20
176.6731293018750932
 30
0.0
 40
0.002230647631936
 50
328.9994737043601845
 51
353.0044967496955906
  0
ARC
  5
36B4C
  8
0
 10
2825.9726810601200668
 20
176.7014461116320945
 30
0.0
 40
0.054724151408264
 50
324.0239569584509809
 51
327.422464653110012
  0
ARC
  5
36B4D
  8
0
 10
2826.084069757674115
 20
176.6021686210054895
 30
0.0
 40
0.089431198914942
 50
128.4769033454113867
 51
131.3548114611029973
  0
ARC
  5
36B4E
  8
0
 10
2826.0316671232071712
 20
176.6681022996230013
 30
0.0
 40
0.00520955042078
 50
103.4337130287565003
 51
128.4769033454450096
  0
ARC
  5
36B4F
  8
0
 10
2826.0342001150461329
 20
176.6727771863226053
 30
0.0
 40
0.0003938812831777
 50
0.0000000010340619
 51
84.5905587721529457
  0
ARC
  5
36B50
  8
0
 10
2826.0182255236891251
 20
176.678282540590601
 30
0.0
 40
0.0172695055578298
 50
335.7471922301032805
 51
341.4102049349526737
  0
ARC
  5
36B51
  8
0
 10
2826.9193626709889031
 20
176.1129318457217892
 30
0.0
 40
1.0466945866131969
 50
147.7677596695075977
 51
147.8900020215448876
  0
ARC
  5
36B52
  8
0
 10
2826.0826088511771559
 20
176.6236165015681934
 30
0.0
 40
0.0610336244811353
 50
126.9419960703691004
 51
131.5416445765459912
  0
ARC
  5
36B53
  8
0
 10
2826.0483732669290475
 20
176.669144479515495
 30
0.0
 40
0.0040698464747044
 50
98.5293620130533441
 51
126.9419960703711041
  0
ARC
  5
36B54
  8
0
 10
2826.0519477461421047
 20
176.6725082954498873
 30
0.0
 40
0.0006694343573511
 50
4.5473076329669579
 51
80.9050105019885422
  0
LINE
  5
36B55
  8
0
 10
2826.0526150732621318
 20
176.672561369676913
 30
0.0
 11
2826.0521530295618504
 21
176.6711886098767934
 31
0.0
  0
LINE
  5
36B56
  8
0
 10
2826.0521530295618504
 20
176.6711886098767934
 30
0.0
 11
2826.0511106765620752
 21
176.6692985769768995
 31
0.0
  0
LINE
  5
36B57
  8
0
 10
2826.0617451993621216
 20
176.6692985769768995
 30
0.0
 11
2826.0639048983621251
 21
176.671176352476806
 31
0.0
  0
ARC
  5
36B58
  8
0
 10
2826.0703732061660958
 20
176.6637369126210046
 30
0.0
 40
0.0098582083164551
 50
106.9013358617012983
 51
131.0057084124360927
  0
ARC
  5
36B59
  8
0
 10
2826.0723686976771205
 20
176.6724742408063094
 30
0.0
 40
0.0006968788256986
 50
94.1260605428233816
 51
94.1355984417020437
  0
ARC
  5
36B5A
  8
0
 10
2826.0723686976771205
 20
176.6724742408063094
 30
0.0
 40
0.0006968788256986
 50
352.288335355262916
 51
85.8739394571766184
  0
LINE
  5
36B5B
  8
0
 10
2826.073059273860963
 20
176.6723807280768028
 30
0.0
 11
2826.0727329284618463
 21
176.6711887550767983
 31
0.0
  0
LINE
  5
36B5C
  8
0
 10
2826.0727329284618463
 20
176.6711887550767983
 30
0.0
 11
2826.0718451187622122
 21
176.6692985769768995
 31
0.0
  0
LINE
  5
36B5D
  8
0
 10
2826.0836967136610838
 20
176.6692985769768995
 30
0.0
 11
2826.0858307701610102
 21
176.6711766010768088
 31
0.0
  0
ARC
  5
36B5E
  8
0
 10
2826.0919539441201778
 20
176.6642186503322023
 30
0.0
 40
0.0092685671967645
 50
105.0497261948227958
 51
131.3486000284642898
  0
ARC
  5
36B5F
  8
0
 10
2826.094901527321781
 20
176.6722708758485965
 30
0.0
 40
0.0009002774499453
 50
354.3407375795557073
 51
86.3363292747795157
  0
LINE
  5
36B60
  8
0
 10
2826.0957974167617976
 20
176.6721820974769059
 30
0.0
 11
2826.0948551940618927
 21
176.6692985769768995
 31
0.0
  0
LINE
  5
36B61
  8
0
 10
2826.1078488574621588
 20
176.6692985769768995
 30
0.0
 11
2826.1099460358618671
 21
176.6711763298768005
 31
0.0
  0
ARC
  5
36B62
  8
0
 10
2826.1157835909712048
 20
176.664656625135791
 30
0.0
 40
0.0087512056065706
 50
103.4077223438840036
 51
131.8403458953320069
  0
ARC
  5
36B63
  8
0
 10
2826.1196152547358906
 20
176.6720907703937087
 30
0.0
 40
0.001081010143276
 50
353.5118427404216277
 51
86.1283234419804273
  0
ARC
  5
36B64
  8
0
 10
2826.1023382436487736
 20
176.675284395939201
 30
0.0
 40
0.0186482482581409
 50
341.277460365355978
 51
349.7579868405616139
  0
LINE
  5
36B65
  8
0
 10
2826.3961046981621621
 20
176.6692985769768995
 30
0.0
 11
2826.3973315429620925
 21
176.6711765992768051
 31
0.0
  0
ARC
  5
36B66
  8
0
 10
2826.4010428511242026
 20
176.6687521343918092
 30
0.0
 40
0.0044330393921746
 50
94.848113677995741
 51
146.8448509114365947
  0
ARC
  5
36B67
  8
0
 10
2826.409007575961823
 20
176.6694598649719126
 30
0.0
 40
0.0037104946212881
 50
27.7719387912599984
 51
88.6393984821182244
  0
LINE
  5
36B68
  8
0
 10
2826.4122906560619413
 20
176.6711887823769018
 30
0.0
 11
2826.4132362055620433
 21
176.6692985769768995
 31
0.0
  0
LINE
  5
36B69
  8
0
 10
2826.3771004867621741
 20
176.6692985769768995
 30
0.0
 11
2826.3763045817618149
 21
176.6711887533768106
 31
0.0
  0
ARC
  5
36B6A
  8
0
 10
2826.3733190267839746
 20
176.6699316124376082
 30
0.0
 40
0.0032394354242416
 50
22.8347163304320802
 51
88.125003134033463
  0
ARC
  5
36B6B
  8
0
 10
2826.3653544730727845
 20
176.6684242919116059
 30
0.0
 40
0.0047498420590404
 50
92.581561672893173
 51
144.5916282176058871
  0
LINE
  5
36B6C
  8
0
 10
2826.361483146862156
 20
176.6711763516769054
 30
0.0
 11
2826.3601191639768331
 21
176.6692986736559021
 31
0.0
  0
LINE
  5
36B6D
  8
0
 10
2826.3413426111619629
 20
176.6692985769768995
 30
0.0
 11
2826.3407175526622268
 21
176.6711886104768041
 31
0.0
  0
ARC
  5
36B6E
  8
0
 10
2826.3379725492850412
 20
176.6702808023912894
 30
0.0
 40
0.0028912210325376
 50
18.2997180669368298
 51
87.5190683805639367
  0
ARC
  5
36B6F
  8
0
 10
2826.330230833735186
 20
176.6679705052920895
 30
0.0
 40
0.0052090896013472
 50
93.6004399539171033
 51
142.0145137317666126
  0
LINE
  5
36B70
  8
0
 10
2826.326125202861931
 20
176.6711765011768875
 30
0.0
 11
2826.3246329035619056
 21
176.6692985769768995
 31
0.0
  0
LINE
  5
36B71
  8
0
 10
2826.3062077594618131
 20
176.6692985769768995
 30
0.0
 11
2826.3057488428621582
 21
176.6711888589767909
 31
0.0
  0
ARC
  5
36B72
  8
0
 10
2826.3032258387302136
 20
176.6705763321274958
 30
0.0
 40
0.0025962933172468
 50
13.6460716969779998
 51
87.1056380477283767
  0
ARC
  5
36B73
  8
0
 10
2826.2957812525278314
 20
176.667607598830898
 30
0.0
 40
0.0055926357492501
 50
96.0277809284867772
 51
140.3446674315478049
  0
ARC
  5
36B74
  8
0
 10
2826.2957812525278314
 20
176.667607598830898
 30
0.0
 40
0.0055926357492501
 50
94.5751821731012967
 51
94.5763052034385936
  0
LINE
  5
36B75
  8
0
 10
2826.2914754973621712
 20
176.6711766389076956
 30
0.0
 11
2826.2898639852619453
 21
176.6692985769768995
 31
0.0
  0
LINE
  5
36B76
  8
0
 10
2826.2719031258620817
 20
176.6692985769768995
 30
0.0
 11
2826.271613756662191
 21
176.6711889898768106
 31
0.0
  0
ARC
  5
36B77
  8
0
 10
2826.2693042113328374
 20
176.6708354632561111
 30
0.0
 40
0.0023364461689332
 50
8.7028245766173722
 51
87.2988319284727083
  0
ARC
  5
36B78
  8
0
 10
2826.2622491813840497
 20
176.6672140988939077
 30
0.0
 40
0.0059973695301994
 50
96.7973000027817392
 51
138.6445234859237132
  0
LINE
  5
36B79
  8
0
 10
2826.2577474074619204
 20
176.6711767334768126
 30
0.0
 11
2826.2560281699697953
 21
176.6693004401419955
 31
0.0
  0
LINE
  5
36B7A
  8
0
 10
2826.2386416985609685
 20
176.6692985769768995
 30
0.0
 11
2826.2385236091618026
 21
176.6711887829767988
 31
0.0
  0
ARC
  5
36B7B
  8
0
 10
2826.2364143111121848
 20
176.6710570059424867
 30
0.0
 40
0.0021134103833464
 50
3.5748707194459448
 51
88.1488944693002452
  0
ARC
  5
36B7C
  8
0
 10
2826.2296507781970831
 20
176.667207328297593
 30
0.0
 40
0.0060012047898638
 50
96.5540098589105895
 51
138.5910497092517915
  0
LINE
  5
36B7D
  8
0
 10
2826.2251498280620581
 20
176.6711766993824142
 30
0.0
 11
2826.2233305908621332
 21
176.6692985769768995
 31
0.0
  0
LINE
  5
36B7E
  8
0
 10
2826.2066279923619732
 20
176.6692985769768995
 30
0.0
 11
2826.2066815141611187
 21
176.6711887546769049
 31
0.0
  0
ARC
  5
36B7F
  8
0
 10
2826.2047549541689477
 20
176.6712433066687993
 30
0.0
 40
0.0019273321783721
 50
358.3780603952808974
 51
87.8749949066393583
  0
ARC
  5
36B80
  8
0
 10
2826.1983523756780414
 20
176.6672682937185073
 30
0.0
 40
0.0059373926887517
 50
96.3452846414529915
 51
138.8364065331618065
  0
LINE
  5
36B81
  8
0
 10
2826.193882508761817
 20
176.6711763522768024
 30
0.0
 11
2826.1919755729618373
 21
176.6692985769768995
 31
0.0
  0
LINE
  5
36B82
  8
0
 10
2826.1760583656609924
 20
176.6692985769768995
 30
0.0
 11
2826.1762939306618136
 21
176.6713480956769047
 31
0.0
  0
ARC
  5
36B83
  8
0
 10
2826.1746694218491029
 20
176.6715348114254027
 30
0.0
 40
0.0016352038561051
 50
353.4433807907768141
 51
88.3212392893071865
  0
ARC
  5
36B84
  8
0
 10
2826.1690901605379622
 20
176.6663315010547137
 30
0.0
 40
0.0069271983262531
 50
99.214283071818727
 51
135.6197659377847913
  0
LINE
  5
36B85
  8
0
 10
2826.1641391948619457
 20
176.6711765000767969
 30
0.0
 11
2826.1621566810617878
 21
176.6692985769768995
 31
0.0
  0
LINE
  5
36B86
  8
0
 10
2826.1471239708621397
 20
176.6692985769768995
 30
0.0
 11
2826.1475493505618033
 21
176.6714657237768051
 31
0.0
  0
ARC
  5
36B87
  8
0
 10
2826.1461458980520547
 20
176.6717412012883983
 30
0.0
 40
0.0014302331305538
 50
348.8948472632006883
 51
86.8792659363777204
  0
ARC
  5
36B88
  8
0
 10
2826.1408239911761484
 20
176.6667967245575142
 30
0.0
 40
0.0064401383071426
 50
98.305795165447563
 51
137.1476822320651081
  0
LINE
  5
36B89
  8
0
 10
2826.1361026668619161
 20
176.6711767334768126
 30
0.0
 11
2826.1340569764620341
 21
176.6692985769768995
 31
0.0
  0
LINE
  5
36B8A
  8
0
 10
2825.9777089413191788
 20
176.6692985769768995
 30
0.0
 11
2825.9792421269621627
 21
176.6692985769768995
 31
0.0
  0
LINE
  5
36B8B
  8
0
 10
2826.2066272856618525
 20
176.6692985769768995
 30
0.0
 11
2826.2233306511620867
 21
176.6692985769768995
 31
0.0
  0
LINE
  5
36B8C
  8
0
 10
2826.0037682108618355
 20
176.6692985769768995
 30
0.0
 11
2826.0103921334621191
 21
176.6692985769768995
 31
0.0
  0
LINE
  5
36B8D
  8
0
 10
2826.0948633834618704
 20
176.6692985769768995
 30
0.0
 11
2826.1078488574621588
 21
176.6692985769768995
 31
0.0
  0
LINE
  5
36B8E
  8
0
 10
2826.032780846661808
 20
176.6692985769768995
 30
0.0
 11
2826.0421335339619873
 21
176.6692985769768995
 31
0.0
  0
LINE
  5
36B8F
  8
0
 10
2826.0169669919619082
 20
176.6692985769768995
 30
0.0
 11
2826.0249807709619745
 21
176.6692985769768995
 31
0.0
  0
LINE
  5
36B90
  8
0
 10
2825.9805879365621877
 20
176.6692985769768995
 30
0.0
 11
2825.9828357986621086
 21
176.6692985769768995
 31
0.0
  0
LINE
  5
36B91
  8
0
 10
2825.9855217204622022
 20
176.6692985769768995
 30
0.0
 11
2825.9892546690621202
 21
176.6692985769768995
 31
0.0
  0
LINE
  5
36B92
  8
0
 10
2825.9932650654618556
 20
176.6692985769768995
 30
0.0
 11
2825.9984600368620704
 21
176.6692985769768995
 31
0.0
  0
LINE
  5
36B93
  8
0
 10
2826.0718451187622122
 20
176.6692985769768995
 30
0.0
 11
2826.0836964106620144
 21
176.6692985769768995
 31
0.0
  0
LINE
  5
36B94
  8
0
 10
2826.1199994274620622
 20
176.6692985769768995
 30
0.0
 11
2826.1340569764620341
 21
176.6692985769768995
 31
0.0
  0
LINE
  5
36B95
  8
0
 10
2826.0511106383619335
 20
176.6692985769768995
 30
0.0
 11
2826.0617451993621216
 21
176.6692985769768995
 31
0.0
  0
LINE
  5
36B96
  8
0
 10
2826.1760583194618448
 20
176.6692985769768995
 30
0.0
 11
2826.1919754708610526
 21
176.6692985769768995
 31
0.0
  0
LINE
  5
36B97
  8
0
 10
2826.1471230637621375
 20
176.6692985769768995
 30
0.0
 11
2826.1621567118618259
 21
176.6692985769768995
 31
0.0
  0
LINE
  5
36B98
  8
0
 10
2826.3062070247619886
 20
176.6692985769768995
 30
0.0
 11
2826.3246329035619056
 21
176.6692985769768995
 31
0.0
  0
LINE
  5
36B99
  8
0
 10
2826.2719029143618172
 20
176.6692985769768995
 30
0.0
 11
2826.2898641154620236
 21
176.6692985769768995
 31
0.0
  0
LINE
  5
36B9A
  8
0
 10
2826.238641237362117
 20
176.6692985769768995
 30
0.0
 11
2826.256026462761838
 21
176.6692985769768995
 31
0.0
  0
LINE
  5
36B9B
  8
0
 10
2826.3413426111619629
 20
176.6692985769768995
 30
0.0
 11
2826.3601190937620231
 21
176.6692985769768995
 31
0.0
  0
LINE
  5
36B9C
  8
0
 10
2826.3770921956620441
 20
176.6692985769768995
 30
0.0
 11
2826.3961046981621621
 21
176.6692985769768995
 31
0.0
  0
LINE
  5
36B9D
  8
0
 10
2826.4132362055620433
 20
176.6692985769768995
 30
0.0
 11
2826.4132362055620433
 21
176.2959275679768893
 31
0.0
  0
LINE
  5
36B9E
  8
0
 10
2826.3961046981621621
 20
176.6692985769768995
 30
0.0
 11
2826.3961046981621621
 21
176.2959275679768893
 31
0.0
  0
LINE
  5
36B9F
  8
0
 10
2826.3771004867621741
 20
176.6692985769768995
 30
0.0
 11
2826.3771004867621741
 21
176.2959275679768893
 31
0.0
  0
LINE
  5
36BA0
  8
0
 10
2826.3601191639768331
 20
176.6692985769768995
 30
0.0
 11
2826.3601191639768331
 21
176.2959275679768893
 31
0.0
  0
LINE
  5
36BA1
  8
0
 10
2826.3413426111619629
 20
176.6692985769768995
 30
0.0
 11
2826.3413426111619629
 21
176.2959275679768893
 31
0.0
  0
LINE
  5
36BA2
  8
0
 10
2826.3246329035619056
 20
176.6692985769768995
 30
0.0
 11
2826.3246329035619056
 21
176.2959275679768893
 31
0.0
  0
LINE
  5
36BA3
  8
0
 10
2826.3062077594618131
 20
176.6692985769768995
 30
0.0
 11
2826.3062077594618131
 21
176.2959275679768893
 31
0.0
  0
LINE
  5
36BA4
  8
0
 10
2826.2898641154620236
 20
176.6692985769768995
 30
0.0
 11
2826.2898641154620236
 21
176.2959275679768893
 31
0.0
  0
LINE
  5
36BA5
  8
0
 10
2826.2719029143618172
 20
176.6692985769768995
 30
0.0
 11
2826.2719029143618172
 21
176.2959275679768893
 31
0.0
  0
LINE
  5
36BA6
  8
0
 10
2826.256026462761838
 20
176.6692985769768995
 30
0.0
 11
2826.256026462761838
 21
176.2959275679768893
 31
0.0
  0
LINE
  5
36BA7
  8
0
 10
2826.2386416985609685
 20
176.6692985769768995
 30
0.0
 11
2826.2386416985609685
 21
176.2959275679768893
 31
0.0
  0
LINE
  5
36BA8
  8
0
 10
2826.2233306511620867
 20
176.6692985769768995
 30
0.0
 11
2826.2233306511620867
 21
176.2959275679768893
 31
0.0
  0
LINE
  5
36BA9
  8
0
 10
2826.2066279923619732
 20
176.6692985769768995
 30
0.0
 11
2826.2066279923619732
 21
176.2959275679768893
 31
0.0
  0
LINE
  5
36BAA
  8
0
 10
2826.1919754708610526
 20
176.6692985769768995
 30
0.0
 11
2826.1919754708610526
 21
176.2959275679768893
 31
0.0
  0
LINE
  5
36BAB
  8
0
 10
2826.1760583194618448
 20
176.6692985769768995
 30
0.0
 11
2826.1760583194618448
 21
176.2959275679768893
 31
0.0
  0
LINE
  5
36BAC
  8
0
 10
2826.1621567118618259
 20
176.6692985769768995
 30
0.0
 11
2826.1621567118618259
 21
176.2959275679768893
 31
0.0
  0
LINE
  5
36BAD
  8
0
 10
2826.1471230637621375
 20
176.6692985769768995
 30
0.0
 11
2826.1471230637621375
 21
176.2959275679768893
 31
0.0
  0
LINE
  5
36BAE
  8
0
 10
2826.1340569764620341
 20
176.6692985769768995
 30
0.0
 11
2826.1340569764620341
 21
176.2959275679768893
 31
0.0
  0
LINE
  5
36BAF
  8
0
 10
2826.1199997026619712
 20
176.6692985769768995
 30
0.0
 11
2826.1199997026619712
 21
176.2959275679768893
 31
0.0
  0
LINE
  5
36BB0
  8
0
 10
2826.1078488574621588
 20
176.6692985769768995
 30
0.0
 11
2826.1078488574621588
 21
176.2959275679768893
 31
0.0
  0
LINE
  5
36BB1
  8
0
 10
2826.0948633834618704
 20
176.6692985769768995
 30
0.0
 11
2826.0948633834618704
 21
176.2959275679768893
 31
0.0
  0
LINE
  5
36BB2
  8
0
 10
2826.0836967136610838
 20
176.6692985769768995
 30
0.0
 11
2826.0836967136610838
 21
176.2959275679768893
 31
0.0
  0
LINE
  5
36BB3
  8
0
 10
2826.0718451187622122
 20
176.6692985769768995
 30
0.0
 11
2826.0718451187622122
 21
176.2959275679768893
 31
0.0
  0
LINE
  5
36BB4
  8
0
 10
2826.0617451993621216
 20
176.6692985769768995
 30
0.0
 11
2826.0617451993621216
 21
176.2959275679768893
 31
0.0
  0
LINE
  5
36BB5
  8
0
 10
2826.0511106383619335
 20
176.6692985769768995
 30
0.0
 11
2826.0511106383619335
 21
176.2959275679768893
 31
0.0
  0
LINE
  5
36BB6
  8
0
 10
2826.0421335339619873
 20
176.6692985769768995
 30
0.0
 11
2826.0421335339619873
 21
176.2959275679768893
 31
0.0
  0
LINE
  5
36BB7
  8
0
 10
2826.0327818128621402
 20
176.6692985769768995
 30
0.0
 11
2826.0327818128621402
 21
176.2959275679768893
 31
0.0
  0
LINE
  5
36BB8
  8
0
 10
2826.0249807709619745
 20
176.6692985769768995
 30
0.0
 11
2826.0249807709619745
 21
176.2959275679768893
 31
0.0
  0
LINE
  5
36BB9
  8
0
 10
2826.0169672742617877
 20
176.6692985769768995
 30
0.0
 11
2826.0169672742617877
 21
176.2959275679768893
 31
0.0
  0
LINE
  5
36BBA
  8
0
 10
2826.0103920887618187
 20
176.6692985769768995
 30
0.0
 11
2826.0103920887618187
 21
176.2959275679768893
 31
0.0
  0
LINE
  5
36BBB
  8
0
 10
2826.0037687373619519
 20
176.6692985769768995
 30
0.0
 11
2826.0037687373619519
 21
176.2959275679768893
 31
0.0
  0
LINE
  5
36BBC
  8
0
 10
2825.9984600368620704
 20
176.6692985769768995
 30
0.0
 11
2825.9984600368620704
 21
176.2959275679768893
 31
0.0
  0
LINE
  5
36BBD
  8
0
 10
2825.9932658695620376
 20
176.6692985769768995
 30
0.0
 11
2825.9932658695620376
 21
176.2959275679768893
 31
0.0
  0
LINE
  5
36BBE
  8
0
 10
2825.9892549818619045
 20
176.6692985769768995
 30
0.0
 11
2825.9892549818619045
 21
176.2959275679768893
 31
0.0
  0
LINE
  5
36BBF
  8
0
 10
2825.9855217521621853
 20
176.6692985769768995
 30
0.0
 11
2825.9855217521621853
 21
176.2959275679768893
 31
0.0
  0
LINE
  5
36BC0
  8
0
 10
2825.9828357986621086
 20
176.6692985769768995
 30
0.0
 11
2825.9828357986621086
 21
176.2959275679768893
 31
0.0
  0
LINE
  5
36BC1
  8
0
 10
2825.9805879365621877
 20
176.6692985769768995
 30
0.0
 11
2825.9805879365621877
 21
176.2959275679768893
 31
0.0
  0
LINE
  5
36BC2
  8
0
 10
2825.9792421269621627
 20
176.6692985769768995
 30
0.0
 11
2825.9792421269621627
 21
176.2959275679768893
 31
0.0
  0
LINE
  5
36BC3
  8
0
 10
2825.9894429024197962
 20
176.6809664222768106
 30
0.0
 11
2825.9777089413191788
 21
176.6692985769768995
 31
0.0
  0
LINE
  5
36BC4
  8
0
 10
2825.9777089413191788
 20
176.6692985769768995
 30
0.0
 11
2825.9777089413191788
 21
176.295927528076902
 31
0.0
  0
LINE
  5
36BC5
  8
0
 10
2825.9873471556397817
 20
176.6731693134333909
 30
0.0
 11
2825.9886725961068805
 21
176.6731693134333909
 31
0.0
  0
LINE
  5
36BC6
  8
0
 10
2825.9940536446338228
 20
176.6731693134333909
 30
0.0
 11
2825.9959653318678647
 21
176.6731693134333909
 31
0.0
  0
LINE
  5
36BC7
  8
0
 10
2826.0035156560070391
 20
176.6731693134333909
 30
0.0
 11
2826.0060451926838141
 21
176.6731693134333909
 31
0.0
  0
LINE
  5
36BC8
  8
0
 10
2826.0156750946048305
 20
176.6731693134333909
 30
0.0
 11
2826.0188075841138016
 21
176.6731693134333909
 31
0.0
  0
LINE
  5
36BC9
  8
0
 10
2826.0304568395081333
 20
176.6731693134333909
 30
0.0
 11
2826.0342372471650378
 21
176.6731693134333909
 31
0.0
  0
LINE
  5
36BCA
  8
0
 10
2826.047769642656931
 20
176.6731693134333909
 30
0.0
 11
2826.0520535647801807
 21
176.6731693134333909
 31
0.0
  0
LINE
  5
36BCB
  8
0
 10
2826.0675071834639311
 20
176.6731693134333909
 30
0.0
 11
2826.0724188388849143
 21
176.6731693134333909
 31
0.0
  0
LINE
  5
36BCC
  8
0
 10
2826.0895472933489145
 20
176.6731693134333909
 30
0.0
 11
2826.0949590546479158
 21
176.6731693134333909
 31
0.0
  0
LINE
  5
36BCD
  8
0
 10
2826.113754370056995
 20
176.6731693134333909
 30
0.0
 11
2826.1196882467997966
 21
176.6731693134333909
 31
0.0
  0
LINE
  5
36BCE
  8
0
 10
2826.1398936727177897
 20
176.6731693134333909
 30
0.0
 11
2826.1462237601681409
 21
176.6731693134333909
 31
0.0
  0
LINE
  5
36BCF
  8
0
 10
2826.1679809272332022
 20
176.6731693134333909
 30
0.0
 11
2826.1747173263070181
 21
176.6731693134333909
 31
0.0
  0
LINE
  5
36BD0
  8
0
 10
2826.197696175810961
 20
176.6731693134333909
 30
0.0
 11
2826.2048264193249452
 21
176.6731693134333909
 31
0.0
  0
LINE
  5
36BD1
  8
0
 10
2826.2289658021600189
 20
176.6731693134333909
 30
0.0
 11
2826.236482579056883
 21
176.6731693134333909
 31
0.0
  0
LINE
  5
36BD2
  8
0
 10
2826.2615393496639626
 20
176.6731693134333909
 30
0.0
 11
2826.2694143205981163
 21
176.6731693134333909
 31
0.0
  0
LINE
  5
36BD3
  8
0
 10
2826.2951939661379583
 20
176.6731693134333909
 30
0.0
 11
2826.3033569376871128
 21
176.6731693134333909
 31
0.0
  0
LINE
  5
36BD4
  8
0
 10
2826.3299037123720154
 20
176.6731693134333909
 30
0.0
 11
2826.3380977012679978
 21
176.6731693134333909
 31
0.0
  0
LINE
  5
36BD5
  8
0
 10
2826.3651405330260786
 20
176.6731693134333909
 30
0.0
 11
2826.3734250179618357
 21
176.6731693134333909
 31
0.0
  0
LINE
  5
36BD6
  8
0
 10
2826.400668194525224
 20
176.6731693134333909
 30
0.0
 11
2826.4090956807090151
 21
176.6731693134333909
 31
0.0
  0
LINE
  5
36BD7
  8
0
 10
2825.9840924500540496
 20
176.6731693134333909
 30
0.0
 11
2825.9834377141969526
 21
176.6731693134333909
 31
0.0
  0
LINE
  5
36BD8
  8
0
 10
2825.9777089413191788
 20
176.2959275679768893
 30
0.0
 11
2825.9792421269621627
 21
176.2959275679768893
 31
0.0
  0
ARC
  5
36BD9
  8
0
 10
2826.0358074811679217
 20
176.3530421451785912
 30
0.0
 40
0.080385328105247
 50
225.2764231919477993
 51
229.3464060643850928
  0
ARC
  5
36BDA
  8
0
 10
2825.939072528250108
 20
176.2548276837817127
 30
0.0
 40
0.0584191989039024
 50
39.5889890707455905
 51
44.7112177773548183
  0
ARC
  5
36BDB
  8
0
 10
2826.0108303273518686
 20
176.3239909203468017
 30
0.0
 40
0.039638937711122
 50
225.0703434429210006
 51
233.6705840978034132
  0
ARC
  5
36BDC
  8
0
 10
2825.9654299398739568
 20
176.2763547101750135
 30
0.0
 40
0.0280495576353084
 50
34.0419157250533928
 51
44.2504108743787867
  0
ARC
  5
36BDD
  8
0
 10
2826.0372894755000743
 20
176.3476325736270951
 30
0.0
 40
0.0705742175897159
 50
227.1075901322957975
 51
230.8837718807371004
  0
ARC
  5
36BDE
  8
0
 10
2825.996911455541067
 20
176.2979761738625086
 30
0.0
 40
0.0065731040568554
 50
230.8837718807423016
 51
244.2291231140401919
  0
ARC
  5
36BDF
  8
0
 10
2825.9809024715759733
 20
176.3057657516627046
 30
0.0
 40
0.0203672347567969
 50
317.694232650673996
 51
318.1231334188681785
  0
ARC
  5
36BE0
  8
0
 10
2825.9822516322419688
 20
176.284792107149002
 30
0.0
 40
0.0156624363234086
 50
28.1027798981463093
 51
45.3135720403535984
  0
ARC
  5
36BE1
  8
0
 10
2826.0295155114299632
 20
176.3290095798882078
 30
0.0
 40
0.0453746847124258
 50
226.8097594078525958
 51
233.6604858925109056
  0
ARC
  5
36BE2
  8
0
 10
2826.0039592441189598
 20
176.2942153457532015
 30
0.0
 40
0.0022036229502762
 50
232.8310422781576108
 51
258.3870417327315749
  0
ARC
  5
36BE3
  8
0
 10
2825.992786442419856
 20
176.3044387357705034
 30
0.0
 40
0.0181412792116438
 50
316.958608547503502
 51
317.8175210910926012
  0
ARC
  5
36BE4
  8
0
 10
2825.9918255139900793
 20
176.2852614373940128
 30
0.0
 40
0.0160127113919696
 50
25.9046018959557109
 51
41.7670745729642192
  0
ARC
  5
36BE5
  8
0
 10
2826.0673033870939435
 20
176.3601012698659076
 30
0.0
 40
0.0857738881710687
 50
228.4323590111208091
 51
231.5975627376415957
  0
ARC
  5
36BE6
  8
0
 10
2826.0168191370471504
 20
176.2964115641748037
 30
0.0
 40
0.0045025025931619
 50
231.5975627376425905
 51
255.2803094249875073
  0
ARC
  5
36BE7
  8
0
 10
2826.0187066501689515
 20
176.2924409200986133
 30
0.0
 40
0.0003971293205711
 50
284.7237508119757194
 51
349.4952823290835795
  0
ARC
  5
36BE8
  8
0
 10
2826.0168830815100591
 20
176.2920968430786104
 30
0.0
 40
0.002230647631936
 50
6.9955032503043606
 51
31.0005262956398511
  0
ARC
  5
36BE9
  8
0
 10
2825.9726810601200668
 20
176.2637800333216092
 30
0.0
 40
0.054724151408264
 50
32.5775353468900235
 51
35.9760430415489196
  0
ARC
  5
36BEA
  8
0
 10
2826.084069757674115
 20
176.3630575239482141
 30
0.0
 40
0.089431198914942
 50
228.6451885388970027
 51
231.5230966545886133
  0
ARC
  5
36BEB
  8
0
 10
2826.0316671232071712
 20
176.2971238453307024
 30
0.0
 40
0.00520955042078
 50
231.5230966545549904
 51
256.5662869712435281
  0
ARC
  5
36BEC
  8
0
 10
2826.0342001150461329
 20
176.2924489586310983
 30
0.0
 40
0.0003938812831777
 50
275.4094412278470827
 51
359.9999999989659045
  0
ARC
  5
36BED
  8
0
 10
2826.0182255236891251
 20
176.2869436043631026
 30
0.0
 40
0.0172695055578298
 50
18.5897950650472517
 51
24.2528077698967195
  0
ARC
  5
36BEE
  8
0
 10
2826.9193626709889031
 20
176.852294299231886
 30
0.0
 40
1.0466945866131969
 50
212.1099979784551124
 51
212.2322403304922886
  0
ARC
  5
36BEF
  8
0
 10
2826.0826088511771559
 20
176.3416096433855103
 30
0.0
 40
0.0610336244811353
 50
228.4583554234540088
 51
233.0580039296308996
  0
ARC
  5
36BF0
  8
0
 10
2826.0483732669290475
 20
176.2960816654380949
 30
0.0
 40
0.0040698464747044
 50
233.0580039296289101
 51
261.4706379869465991
  0
ARC
  5
36BF1
  8
0
 10
2826.0519477461421047
 20
176.2927178495037879
 30
0.0
 40
0.0006694343573511
 50
279.0949894980113868
 51
355.4526923670330234
  0
LINE
  5
36BF2
  8
0
 10
2826.0526150732621318
 20
176.2926647752767906
 30
0.0
 11
2826.0521530295618504
 21
176.2940375350767965
 31
0.0
  0
LINE
  5
36BF3
  8
0
 10
2826.0521530295618504
 20
176.2940375350767965
 30
0.0
 11
2826.0511106765620752
 21
176.2959275679768893
 31
0.0
  0
LINE
  5
36BF4
  8
0
 10
2826.0617451993621216
 20
176.2959275679768893
 30
0.0
 11
2826.0639048983621251
 21
176.2940497924768124
 31
0.0
  0
ARC
  5
36BF5
  8
0
 10
2826.0703732061660958
 20
176.301489232332699
 30
0.0
 40
0.0098582083164551
 50
228.9942915875637937
 51
253.0986641382986875
  0
ARC
  5
36BF6
  8
0
 10
2826.0723686976771205
 20
176.2927519041473943
 30
0.0
 40
0.0006968788256986
 50
265.8644015582980273
 51
265.8739394571766184
  0
ARC
  5
36BF7
  8
0
 10
2826.0723686976771205
 20
176.2927519041473943
 30
0.0
 40
0.0006968788256986
 50
274.1260605428233816
 51
7.7116646447371311
  0
LINE
  5
36BF8
  8
0
 10
2826.073059273860963
 20
176.2928454168767871
 30
0.0
 11
2826.0727329284618463
 21
176.2940373898767916
 31
0.0
  0
LINE
  5
36BF9
  8
0
 10
2826.0727329284618463
 20
176.2940373898767916
 30
0.0
 11
2826.0718451187622122
 21
176.2959275679768893
 31
0.0
  0
LINE
  5
36BFA
  8
0
 10
2826.0836967136610838
 20
176.2959275679768893
 30
0.0
 11
2826.0858307701610102
 21
176.2940495438768096
 31
0.0
  0
ARC
  5
36BFB
  8
0
 10
2826.0919539441201778
 20
176.3010074946215013
 30
0.0
 40
0.0092685671967645
 50
228.6513999715357102
 51
254.9502738051770905
  0
ARC
  5
36BFC
  8
0
 10
2826.094901527321781
 20
176.2929552691051072
 30
0.0
 40
0.0009002774499453
 50
273.6636707252205269
 51
5.6592624204442181
  0
LINE
  5
36BFD
  8
0
 10
2826.0957974167617976
 20
176.2930440474767977
 30
0.0
 11
2826.0948551940618927
 21
176.2959275679768893
 31
0.0
  0
LINE
  5
36BFE
  8
0
 10
2826.1078488574621588
 20
176.2959275679768893
 30
0.0
 11
2826.1099460358618671
 21
176.2940498150767894
 31
0.0
  0
ARC
  5
36BFF
  8
0
 10
2826.1157835909712048
 20
176.3005695198179126
 30
0.0
 40
0.0087512056065706
 50
228.1596541046679079
 51
256.5922776561159822
  0
ARC
  5
36C00
  8
0
 10
2826.1196152547358906
 20
176.2931353745599949
 30
0.0
 40
0.001081010143276
 50
273.8716765580194874
 51
6.4881572595783812
  0
ARC
  5
36C01
  8
0
 10
2826.1023382436487736
 20
176.2899417490145026
 30
0.0
 40
0.0186482482581409
 50
10.2420131594399493
 51
18.7225396346439616
  0
LINE
  5
36C02
  8
0
 10
2826.3961046981621621
 20
176.2959275679768893
 30
0.0
 11
2826.3973315429620925
 21
176.2940495456768133
 31
0.0
  0
ARC
  5
36C03
  8
0
 10
2826.4010428511242026
 20
176.2964740105618944
 30
0.0
 40
0.0044330393921746
 50
213.1551490885634053
 51
265.1518863220043158
  0
ARC
  5
36C04
  8
0
 10
2826.409007575961823
 20
176.2957662799817911
 30
0.0
 40
0.0037104946212881
 50
271.3606015178817756
 51
332.2280612087399732
  0
LINE
  5
36C05
  8
0
 10
2826.4122906560619413
 20
176.2940373625768018
 30
0.0
 11
2826.4132362055620433
 21
176.2959275679768893
 31
0.0
  0
LINE
  5
36C06
  8
0
 10
2826.3771004867621741
 20
176.2959275679768893
 30
0.0
 11
2826.3763045817618149
 21
176.2940373915768077
 31
0.0
  0
ARC
  5
36C07
  8
0
 10
2826.3733190267839746
 20
176.2952945325160954
 30
0.0
 40
0.0032394354242416
 50
271.8749968659665228
 51
337.1652836695678843
  0
ARC
  5
36C08
  8
0
 10
2826.3653544730727845
 20
176.2968018530420977
 30
0.0
 40
0.0047498420590404
 50
215.4083717823941129
 51
267.4184383271067986
  0
LINE
  5
36C09
  8
0
 10
2826.361483146862156
 20
176.2940497932769119
 30
0.0
 11
2826.3601191639768331
 21
176.2959274712978015
 31
0.0
  0
LINE
  5
36C0A
  8
0
 10
2826.3413426111619629
 20
176.2959275679768893
 30
0.0
 11
2826.3407175526622268
 21
176.2940375344767858
 31
0.0
  0
ARC
  5
36C0B
  8
0
 10
2826.3379725492850412
 20
176.2949453425623858
 30
0.0
 40
0.0028912210325376
 50
272.4809316194360918
 51
341.7002819330631951
  0
ARC
  5
36C0C
  8
0
 10
2826.330230833735186
 20
176.2972556396615005
 30
0.0
 40
0.0052090896013472
 50
217.9854862682333874
 51
266.399560046082911
  0
LINE
  5
36C0D
  8
0
 10
2826.326125202861931
 20
176.2940496437769013
 30
0.0
 11
2826.3246329035619056
 21
176.2959275679768893
 31
0.0
  0
LINE
  5
36C0E
  8
0
 10
2826.3062077594618131
 20
176.2959275679768893
 30
0.0
 11
2826.3057488428621582
 21
176.294037285976799
 31
0.0
  0
ARC
  5
36C0F
  8
0
 10
2826.3032258387302136
 20
176.2946498128262078
 30
0.0
 40
0.0025962933172468
 50
272.8943619522715949
 51
346.3539283030219735
  0
ARC
  5
36C10
  8
0
 10
2826.2957812525278314
 20
176.2976185461228056
 30
0.0
 40
0.0055926357492501
 50
219.6553325684521951
 51
263.9722190715132228
  0
ARC
  5
36C11
  8
0
 10
2826.2957812525278314
 20
176.2976185461228056
 30
0.0
 40
0.0055926357492501
 50
265.4236947965613922
 51
265.4248178268986749
  0
LINE
  5
36C12
  8
0
 10
2826.2914754973621712
 20
176.294049506046008
 30
0.0
 11
2826.2898639852619453
 21
176.2959275679768893
 31
0.0
  0
LINE
  5
36C13
  8
0
 10
2826.2719031258620817
 20
176.2959275679768893
 30
0.0
 11
2826.271613756662191
 21
176.294037155076893
 31
0.0
  0
ARC
  5
36C14
  8
0
 10
2826.2693042113328374
 20
176.2943906816975925
 30
0.0
 40
0.0023364461689332
 50
272.7011680715273201
 51
351.2971754233827255
  0
ARC
  5
36C15
  8
0
 10
2826.2622491813840497
 20
176.2980120460597959
 30
0.0
 40
0.0059973695301994
 50
221.3554765140762015
 51
263.2026999972183035
  0
LINE
  5
36C16
  8
0
 10
2826.2577474074619204
 20
176.2940494114768057
 30
0.0
 11
2826.2560281699697953
 21
176.2959257048117081
 31
0.0
  0
LINE
  5
36C17
  8
0
 10
2826.2386416985609685
 20
176.2959275679768893
 30
0.0
 11
2826.2385236091618026
 21
176.2940373619767911
 31
0.0
  0
ARC
  5
36C18
  8
0
 10
2826.2364143111121848
 20
176.2941691390111885
 30
0.0
 40
0.0021134103833464
 50
271.8511055306997264
 51
356.4251292805540743
  0
ARC
  5
36C19
  8
0
 10
2826.2296507781970831
 20
176.2980188166561106
 30
0.0
 40
0.0060012047898638
 50
221.4089502907480949
 51
263.4459901410893963
  0
LINE
  5
36C1A
  8
0
 10
2826.2251498280620581
 20
176.2940494455712894
 30
0.0
 11
2826.2233305908621332
 21
176.2959275679768893
 31
0.0
  0
LINE
  5
36C1B
  8
0
 10
2826.2066279923619732
 20
176.2959275679768893
 30
0.0
 11
2826.2066815141611187
 21
176.2940373902767988
 31
0.0
  0
ARC
  5
36C1C
  8
0
 10
2826.2047549541689477
 20
176.2939828382849043
 30
0.0
 40
0.0019273321783721
 50
272.1250050933606985
 51
1.621939604719143
  0
ARC
  5
36C1D
  8
0
 10
2826.1983523756780414
 20
176.2979578512351964
 30
0.0
 40
0.0059373926887517
 50
221.1635934668381935
 51
263.65471535854698
  0
LINE
  5
36C1E
  8
0
 10
2826.193882508761817
 20
176.2940497926767875
 30
0.0
 11
2826.1919755729618373
 21
176.2959275679768893
 31
0.0
  0
LINE
  5
36C1F
  8
0
 10
2826.1760583656609924
 20
176.2959275679768893
 30
0.0
 11
2826.1762939306618136
 21
176.2938780492767989
 31
0.0
  0
ARC
  5
36C20
  8
0
 10
2826.1746694218491029
 20
176.2936913335281872
 30
0.0
 40
0.0016352038561051
 50
271.6787607106928135
 51
6.556619209224861
  0
ARC
  5
36C21
  8
0
 10
2826.1690901605379622
 20
176.2988946438989046
 30
0.0
 40
0.0069271983262531
 50
224.380234062215095
 51
260.785716928181273
  0
LINE
  5
36C22
  8
0
 10
2826.1641391948619457
 20
176.2940496448767931
 30
0.0
 11
2826.1621566810617878
 21
176.2959275679768893
 31
0.0
  0
LINE
  5
36C23
  8
0
 10
2826.1471239708621397
 20
176.2959275679768893
 30
0.0
 11
2826.1475493505618033
 21
176.2937604211768985
 31
0.0
  0
ARC
  5
36C24
  8
0
 10
2826.1461458980520547
 20
176.2934849436651916
 30
0.0
 40
0.0014302331305538
 50
273.120734063622308
 51
11.10515273679923
  0
ARC
  5
36C25
  8
0
 10
2826.1408239911761484
 20
176.2984294203961895
 30
0.0
 40
0.0064401383071426
 50
222.8523177679336982
 51
261.6942048345525222
  0
LINE
  5
36C26
  8
0
 10
2826.1361026668619161
 20
176.2940494114768057
 30
0.0
 11
2826.1340569764620341
 21
176.2959275679768893
 31
0.0
  0
LINE
  5
36C27
  8
0
 10
2825.9777089413191788
 20
176.2959275679768893
 30
0.0
 11
2825.9792421269621627
 21
176.2959275679768893
 31
0.0
  0
LINE
  5
36C28
  8
0
 10
2826.2066272856618525
 20
176.2959275679768893
 30
0.0
 11
2826.2233306511620867
 21
176.2959275679768893
 31
0.0
  0
LINE
  5
36C29
  8
0
 10
2826.0037682108618355
 20
176.2959275679768893
 30
0.0
 11
2826.0103921334621191
 21
176.2959275679768893
 31
0.0
  0
LINE
  5
36C2A
  8
0
 10
2826.0948633834618704
 20
176.2959275679768893
 30
0.0
 11
2826.1078488574621588
 21
176.2959275679768893
 31
0.0
  0
LINE
  5
36C2B
  8
0
 10
2826.032780846661808
 20
176.2959275679768893
 30
0.0
 11
2826.0421335339619873
 21
176.2959275679768893
 31
0.0
  0
LINE
  5
36C2C
  8
0
 10
2826.0169669919619082
 20
176.2959275679768893
 30
0.0
 11
2826.0249807709619745
 21
176.2959275679768893
 31
0.0
  0
LINE
  5
36C2D
  8
0
 10
2825.9805879365621877
 20
176.2959275679768893
 30
0.0
 11
2825.9828357986621086
 21
176.2959275679768893
 31
0.0
  0
LINE
  5
36C2E
  8
0
 10
2825.9855217204622022
 20
176.2959275679768893
 30
0.0
 11
2825.9892546690621202
 21
176.2959275679768893
 31
0.0
  0
LINE
  5
36C2F
  8
0
 10
2825.9932650654618556
 20
176.2959275679768893
 30
0.0
 11
2825.9984600368620704
 21
176.2959275679768893
 31
0.0
  0
LINE
  5
36C30
  8
0
 10
2826.0718451187622122
 20
176.2959275679768893
 30
0.0
 11
2826.0836964106620144
 21
176.2959275679768893
 31
0.0
  0
LINE
  5
36C31
  8
0
 10
2826.1199994274620622
 20
176.2959275679768893
 30
0.0
 11
2826.1340569764620341
 21
176.2959275679768893
 31
0.0
  0
LINE
  5
36C32
  8
0
 10
2826.0511106383619335
 20
176.2959275679768893
 30
0.0
 11
2826.0617451993621216
 21
176.2959275679768893
 31
0.0
  0
LINE
  5
36C33
  8
0
 10
2826.1760583194618448
 20
176.2959275679768893
 30
0.0
 11
2826.1919754708610526
 21
176.2959275679768893
 31
0.0
  0
LINE
  5
36C34
  8
0
 10
2826.1471230637621375
 20
176.2959275679768893
 30
0.0
 11
2826.1621567118618259
 21
176.2959275679768893
 31
0.0
  0
LINE
  5
36C35
  8
0
 10
2826.3062070247619886
 20
176.2959275679768893
 30
0.0
 11
2826.3246329035619056
 21
176.2959275679768893
 31
0.0
  0
LINE
  5
36C36
  8
0
 10
2826.2719029143618172
 20
176.2959275679768893
 30
0.0
 11
2826.2898641154620236
 21
176.2959275679768893
 31
0.0
  0
LINE
  5
36C37
  8
0
 10
2826.238641237362117
 20
176.2959275679768893
 30
0.0
 11
2826.256026462761838
 21
176.2959275679768893
 31
0.0
  0
LINE
  5
36C38
  8
0
 10
2826.3413426111619629
 20
176.2959275679768893
 30
0.0
 11
2826.3601190937620231
 21
176.2959275679768893
 31
0.0
  0
LINE
  5
36C39
  8
0
 10
2826.3770921956620441
 20
176.2959275679768893
 30
0.0
 11
2826.3961046981621621
 21
176.2959275679768893
 31
0.0
  0
LINE
  5
36C3A
  8
0
 10
2825.9894429024197962
 20
176.2842597226768078
 30
0.0
 11
2825.9777089413191788
 21
176.2959275679768893
 31
0.0
  0
LINE
  5
36C3B
  8
0
 10
2825.9873471556397817
 20
176.2920568315203127
 30
0.0
 11
2825.9886725961068805
 21
176.2920568315203127
 31
0.0
  0
LINE
  5
36C3C
  8
0
 10
2825.9940536446338228
 20
176.2920568315203127
 30
0.0
 11
2825.9959653318678647
 21
176.2920568315203127
 31
0.0
  0
LINE
  5
36C3D
  8
0
 10
2826.0035156560070391
 20
176.2920568315203127
 30
0.0
 11
2826.0060451926838141
 21
176.2920568315203127
 31
0.0
  0
LINE
  5
36C3E
  8
0
 10
2826.0156750946048305
 20
176.2920568315203127
 30
0.0
 11
2826.0188075841138016
 21
176.2920568315203127
 31
0.0
  0
LINE
  5
36C3F
  8
0
 10
2826.0304568395081333
 20
176.2920568315203127
 30
0.0
 11
2826.0342372471650378
 21
176.2920568315203127
 31
0.0
  0
LINE
  5
36C40
  8
0
 10
2826.047769642656931
 20
176.2920568315203127
 30
0.0
 11
2826.0520535647801807
 21
176.2920568315203127
 31
0.0
  0
LINE
  5
36C41
  8
0
 10
2826.0675071834639311
 20
176.2920568315203127
 30
0.0
 11
2826.0724188388849143
 21
176.2920568315203127
 31
0.0
  0
LINE
  5
36C42
  8
0
 10
2826.0895472933489145
 20
176.2920568315203127
 30
0.0
 11
2826.0949590546479158
 21
176.2920568315203127
 31
0.0
  0
LINE
  5
36C43
  8
0
 10
2826.113754370056995
 20
176.2920568315203127
 30
0.0
 11
2826.1196882467997966
 21
176.2920568315203127
 31
0.0
  0
LINE
  5
36C44
  8
0
 10
2826.1398936727177897
 20
176.2920568315203127
 30
0.0
 11
2826.1462237601681409
 21
176.2920568315203127
 31
0.0
  0
LINE
  5
36C45
  8
0
 10
2826.1679809272332022
 20
176.2920568315203127
 30
0.0
 11
2826.1747173263070181
 21
176.2920568315203127
 31
0.0
  0
LINE
  5
36C46
  8
0
 10
2826.197696175810961
 20
176.2920568315203127
 30
0.0
 11
2826.2048264193249452
 21
176.2920568315203127
 31
0.0
  0
LINE
  5
36C47
  8
0
 10
2826.2289658021600189
 20
176.2920568315203127
 30
0.0
 11
2826.236482579056883
 21
176.2920568315203127
 31
0.0
  0
LINE
  5
36C48
  8
0
 10
2826.2615393496639626
 20
176.2920568315203127
 30
0.0
 11
2826.2694143205981163
 21
176.2920568315203127
 31
0.0
  0
LINE
  5
36C49
  8
0
 10
2826.2951939661379583
 20
176.2920568315203127
 30
0.0
 11
2826.3033569376871128
 21
176.2920568315203127
 31
0.0
  0
LINE
  5
36C4A
  8
0
 10
2826.3299037123720154
 20
176.2920568315203127
 30
0.0
 11
2826.3380977012679978
 21
176.2920568315203127
 31
0.0
  0
LINE
  5
36C4B
  8
0
 10
2826.3651405330260786
 20
176.2920568315203127
 30
0.0
 11
2826.3734250179618357
 21
176.2920568315203127
 31
0.0
  0
LINE
  5
36C4C
  8
0
 10
2826.400668194525224
 20
176.2920568315203127
 30
0.0
 11
2826.4090956807090151
 21
176.2920568315203127
 31
0.0
  0
LINE
  5
36C4D
  8
0
 10
2825.9840924500540496
 20
176.2920568315203127
 30
0.0
 11
2825.9834377141969526
 21
176.2920568315203127
 31
0.0
  0
LINE
  5
36C4E
  8
0
 10
2826.4132362055620433
 20
176.6692985769768995
 30
0.0
 11
2826.4316855307201877
 21
176.6692985769768995
 31
0.0
  0
LINE
  5
36C4F
  8
0
 10
2826.4132362055620433
 20
176.2959275679768893
 30
0.0
 11
2826.4316855307201877
 21
176.2959275679768893
 31
0.0
  0
LINE
  5
36C50
  8
0
 10
2826.4358594033219561
 20
176.2920568315203127
 30
0.0
 11
2826.444303685973864
 21
176.2920568315203127
 31
0.0
  0
LINE
  5
36C51
  8
0
 10
2826.4358594033219561
 20
176.6731693134333909
 30
0.0
 11
2826.444303685973864
 21
176.6731693134333909
 31
0.0
  0
ARC
  5
36C52
  8
0
 10
2833.5950345356418438
 20
176.5027256426176052
 30
0.0
 40
0.4482606596305444
 50
177.9513444992084885
 51
223.8311287918857886
  0
LINE
  5
36C53
  8
0
 10
2833.1470603907469012
 20
176.5187501388186035
 30
0.0
 11
2833.1475587229278972
 21
176.8109073584635098
 31
0.0
  0
ARC
  5
36C54
  8
0
 10
2833.7389210956780516
 20
176.8030279716020914
 30
0.0
 40
0.5914183832420306
 50
152.1334688535621922
 51
179.2366443692745008
  0
ARC
  5
36C55
  8
0
 10
2833.1989261669609732
 20
177.2846420268980978
 30
0.0
 40
0.7885804260668282
 50
163.9861768122956107
 51
180.1291223826976022
  0
ARC
  5
36C56
  8
0
 10
2833.1942837441388292
 20
177.2860393398962913
 30
0.0
 40
0.7837326784623575
 50
155.7956280935717075
 51
163.990737822676806
  0
ARC
  5
36C57
  8
0
 10
2868.6720346216498001
 20
161.338451913618087
 30
0.0
 40
39.680986463857792
 50
149.8880432942139862
 51
155.7956280935717075
  0
ARC
  5
36C58
  8
0
 10
2834.3718440910997742
 20
181.2298048422480861
 30
0.0
 40
0.0304221804431191
 50
90.1379464656985903
 51
147.7102984341036063
  0
LINE
  5
36C59
  8
0
 10
2834.3850628302720907
 20
181.2570645861250966
 30
0.0
 11
2835.1262265196551198
 21
180.8874713492614887
 31
0.0
  0
ARC
  5
36C5A
  8
0
 10
2835.1126358986361993
 20
180.8612276574592101
 30
0.0
 40
0.0295539564035486
 50
333.1218265145491273
 51
62.6220600615636087
  0
LINE
  5
36C5B
  8
0
 10
2835.1389971357330069
 20
180.8478664629845127
 30
0.0
 11
2833.2160842880371092
 21
177.0794649022263911
 31
0.0
  0
ARC
  5
36C5C
  8
0
 10
2833.2169622452029216
 20
177.0884741853882929
 30
0.0
 40
0.0196112237513971
 50
339.0627218996147008
 51
53.2382197084357429
  0
ARC
  5
36C5D
  8
0
 10
2833.1886748811989492
 20
176.7288875798589061
 30
0.0
 40
0.0123227001848545
 50
181.9858741213226949
 51
268.0585381040081074
  0
ARC
  5
36C5E
  8
0
 10
2821.2525308233798569
 20
176.8716587521803092
 30
0.0
 40
11.9246885907987004
 50
359.3119443594022755
 51
359.6085296743594881
  0
ARC
  5
36C5F
  8
0
 10
2833.8640008243928605
 20
176.80408869130531
 30
0.0
 40
0.6872004925757467
 50
156.1948071736659074
 51
181.1595653899651097
  0
LINE
  5
36C60
  8
0
 10
2833.188255680408929
 20
176.7165720120628976
 30
0.0
 11
2833.494867207335119
 21
176.7190692170339901
 31
0.0
  0
ARC
  5
36C61
  8
0
 10
2833.4946931175550162
 20
176.7404442879607132
 30
0.0
 40
0.0213757798541778
 50
270.4666365395303274
 51
355.0310715943036257
  0
ARC
  5
36C62
  8
0
 10
2830.8395489515942245
 20
176.7750178541147079
 30
0.0
 40
2.6766874637592748
 50
359.2202804778090126
 51
0.3167580215154458
  0
ARC
  5
36C63
  8
0
 10
3722523.20126709388569
 20
-2038.8826329550900027
 30
0.0
 40
3719690.3449658742174506
 50
179.9658607215530139
 51
179.9658711678048917
  0
LINE
  5
36C64
  8
0
 10
2834.1636853454228913
 20
178.8625173849713121
 30
0.0
 11
2834.2145854824962043
 21
178.8376547453462138
 31
0.0
  0
ARC
  5
36C65
  8
0
 10
2834.2204188466339474
 20
178.8510482278090024
 30
0.0
 40
0.0146086792577323
 50
246.4650676339828124
 51
316.4663681440430878
  0
ARC
  5
36C66
  8
0
 10
2834.1068824250610305
 20
178.9527683091887127
 30
0.0
 40
0.1670414706796838
 50
317.995527151222916
 51
331.9086162120332801
  0
ARC
  5
36C67
  8
0
 10
2833.2508748816098887
 20
179.4316849698230101
 30
0.0
 40
1.147885586779678
 50
330.9390863461758272
 51
332.1673985611391231
  0
ARC
  5
36C68
  8
0
 10
2834.3398620870661944
 20
178.8580423154151049
 30
0.0
 40
0.0936227085401176
 50
138.3536784589593083
 51
167.5780550198535082
  0
ARC
  5
36C69
  8
0
 10
2834.1736774666601377
 20
178.9428423518035061
 30
0.0
 40
0.0988389488983995
 50
319.1406203963704229
 51
346.7911130824484758
  0
ARC
  5
36C6A
  8
0
 10
2834.4313502007062198
 20
178.8108802789344054
 30
0.0
 40
0.2037096013587786
 50
133.9888407695972887
 51
171.8481254320944913
  0
ARC
  5
36C6B
  8
0
 10
2833.7977037341897812
 20
179.1338838993688114
 30
0.0
 40
0.5253376164026353
 50
333.0444429444274874
 51
335.9218918450276874
  0
ARC
  5
36C6C
  8
0
 10
2834.034300494136005
 20
179.0281575243141958
 30
0.0
 40
0.2661926893847207
 50
335.9218918450276874
 51
342.3577366753160049
  0
ARC
  5
36C6D
  8
0
 10
2834.2475346074461413
 20
178.9603425222450994
 30
0.0
 40
0.0424346468814043
 50
342.3577366753175966
 51
356.0836834703540035
  0
ARC
  5
36C6E
  8
0
 10
2834.2744238080490504
 20
178.9585017072830055
 30
0.0
 40
0.0154825095120481
 50
356.0836834703425211
 51
54.7081990203304116
  0
LINE
  5
36C6F
  8
0
 10
2834.2833686859330555
 20
178.971138845425088
 30
0.0
 11
2834.2327546024071125
 21
178.9981225915252026
 31
0.0
  0
ARC
  5
36C70
  8
0
 10
2834.0367757995149987
 20
178.9757272205256129
 30
0.0
 40
0.1836802287757034
 50
315.8794534402913996
 51
319.4557708540158956
  0
ARC
  5
36C71
  8
0
 10
2834.1487444366298405
 20
178.8671441760511982
 30
0.0
 40
0.0277082657670691
 50
301.7887097795078262
 51
315.8794534402936733
  0
ARC
  5
36C72
  8
0
 10
2834.1621465449898096
 20
178.8455192745269073
 30
0.0
 40
0.0022671008094316
 50
197.2958669637006039
 51
301.7887097794745159
  0
ARC
  5
36C73
  8
0
 10
2834.2123699098970064
 20
178.843090894828606
 30
0.0
 40
0.052417319058186
 50
158.2466309781976008
 51
178.0820074253581993
  0
ARC
  5
36C74
  8
0
 10
2834.4178736298940748
 20
178.7964117993618061
 30
0.0
 40
0.2626435462961052
 50
148.7214621776188892
 51
165.4222723488043982
  0
ARC
  5
36C75
  8
0
 10
2834.0667129964049309
 20
179.0343959992952136
 30
0.0
 40
0.1836802287757034
 50
346.4760826690334738
 51
350.0524000827580835
  0
ARC
  5
36C76
  8
0
 10
2834.2203401005940577
 20
179.007452241142488
 30
0.0
 40
0.0277082657670691
 50
350.0524000827549003
 51
4.143143743546954
  0
ARC
  5
36C77
  8
0
 10
2834.2457147792028991
 20
179.0092903270796114
 30
0.0
 40
0.0022671008094316
 50
4.143143743587558
 51
108.6359865593509966
  0
ARC
  5
36C78
  8
0
 10
2834.2771532819060667
 20
178.9700487170426868
 30
0.0
 40
0.052417319058186
 50
127.8498460976939981
 51
147.6852225448610056
  0
ARC
  5
36C79
  8
0
 10
2834.4355442989549374
 20
178.8310415136155882
 30
0.0
 40
0.2626435462961052
 50
140.5095811742502008
 51
157.2103913454394046
  0
LINE
  5
36C7A
  8
0
 10
2834.1061016326580102
 20
178.6263342619969876
 30
0.0
 11
2834.1538674903990795
 21
178.602535388743604
 31
0.0
  0
ARC
  5
36C7B
  8
0
 10
2834.1595147205498506
 20
178.6138697401283082
 30
0.0
 40
0.0126632827374753
 50
243.5156662476250062
 51
323.6775094781506823
  0
ARC
  5
36C7C
  8
0
 10
2833.9435814400999334
 20
178.7726190394328967
 30
0.0
 40
0.2806717184925598
 50
323.6775094781506823
 51
333.5770166033943269
  0
ARC
  5
36C7D
  8
0
 10
2834.0102530620461039
 20
178.7510228759832103
 30
0.0
 40
0.2116070984319716
 50
330.779331900649197
 51
342.3994445371990878
  0
ARC
  5
36C7E
  8
0
 10
2834.19958142546011
 20
178.6896571184402944
 30
0.0
 40
0.012647243243166
 50
348.0449061740462753
 51
61.7608886351259088
  0
ARC
  5
36C7F
  8
0
 10
2730.3981593176868046
 20
-20.3373903552461606
 30
0.0
 40
224.4820195370606086
 50
62.4559243980176007
 51
62.4691600284245112
  0
ARC
  5
36C80
  8
0
 10
2834.3649947632811745
 20
178.4932564057523905
 30
0.0
 40
0.2910934023745386
 50
149.0879937476516091
 51
152.7956479160044125
  0
ARC
  5
36C81
  8
0
 10
2834.3003414687432269
 20
178.5851948355629872
 30
0.0
 40
0.1938484803016477
 50
140.5155029698954934
 51
162.7134009309893941
  0
ARC
  5
36C82
  8
0
 10
2834.2964290260688358
 20
178.6399530954199975
 30
0.0
 40
0.1610001665477177
 50
148.2091797025348967
 51
154.8182784893537871
  0
ARC
  5
36C83
  8
0
 10
2834.1843759284902262
 20
178.7098068919187028
 30
0.0
 40
0.0289592716938169
 50
109.8432506994218016
 51
148.886548038645202
  0
ARC
  5
36C84
  8
0
 10
2833.9724895776430458
 20
178.7861245542125914
 30
0.0
 40
0.2079310857391999
 50
341.3448876752972865
 51
346.3476887889701175
  0
ARC
  5
36C85
  8
0
 10
2833.3558815652359044
 20
179.2393165285606926
 30
0.0
 40
0.9801638673875078
 50
319.8003912083855766
 51
320.8992193865184959
  0
ARC
  5
36C86
  8
0
 10
2834.126627208418995
 20
178.6147990501403058
 30
0.0
 40
0.0235448587350603
 50
150.6643563767472074
 51
200.2044496487922061
  0
LINE
  5
36C87
  8
0
 10
2833.9199480306169789
 20
178.4109357160849072
 30
0.0
 11
2833.9693029099557862
 21
178.3868492995927966
 31
0.0
  0
ARC
  5
36C88
  8
0
 10
2833.975031365337145
 20
178.3985873356027128
 30
0.0
 40
0.0130612668000524
 50
243.9864658020312049
 51
301.0733948882217987
  0
ARC
  5
36C89
  8
0
 10
2833.9649414374662229
 20
178.4153311740855088
 30
0.0
 40
0.032610250701367
 50
301.0733948882217987
 51
321.4467693076620094
  0
ARC
  5
36C8A
  8
0
 10
2833.6597709097950428
 20
178.6446379311290116
 30
0.0
 40
0.4143186967641443
 50
322.9501836285356831
 51
338.686381236648117
  0
ARC
  5
36C8B
  8
0
 10
2834.0074055938180209
 20
178.5078577562678106
 30
0.0
 40
0.0407587103438336
 50
340.1897955575357742
 51
359.4258124623856929
  0
ARC
  5
36C8C
  8
0
 10
2834.0346824986959291
 20
178.5066406166544084
 30
0.0
 40
0.0135039945104355
 50
3.43320265659665
 51
60.7989321183366798
  0
LINE
  5
36C8D
  8
0
 10
2834.0412707725567998
 20
178.5184284288033041
 30
0.0
 11
2833.9924878707429343
 21
178.5444049571283074
 31
0.0
  0
ARC
  5
36C8E
  8
0
 10
2834.4800699298230029
 20
178.180656419025695
 30
0.0
 40
0.6056113412279781
 50
146.0379422601756119
 51
157.6512825736892012
  0
ARC
  5
36C8F
  8
0
 10
2834.3082614821510106
 20
178.3446726607888877
 30
0.0
 40
0.3736388146600585
 50
147.6859358025184861
 51
152.1922656680760895
  0
ARC
  5
36C90
  8
0
 10
2834.0152912616108551
 20
178.5332041933536118
 30
0.0
 40
0.0254057422916932
 50
110.3268523252062039
 51
153.8402592104091866
  0
ARC
  5
36C91
  8
0
 10
2833.932114330505101
 20
178.5593634391719036
 30
0.0
 40
0.0743882825711291
 50
343.7341981462374747
 51
358.2007534228530972
  0
ARC
  5
36C92
  8
0
 10
2833.9518402281310046
 20
178.3936269735444
 30
0.0
 40
0.0362864276361933
 50
151.5101407003739951
 51
183.5210092874642953
  0
ARC
  5
36C93
  8
0
 10
2833.8736886525211958
 20
178.450323290847507
 30
0.0
 40
0.0723226538458629
 50
305.4374196215949837
 51
321.9282134745752728
  0
LINE
  5
36C94
  8
0
 10
2833.8516130617281306
 20
178.1797447979477056
 30
0.0
 11
2833.9008650977179968
 21
178.155735206472599
 31
0.0
  0
ARC
  5
36C95
  8
0
 10
2833.9062167012921236
 20
178.166713209662305
 30
0.0
 40
0.0122129527486128
 50
244.0114958771847
 51
307.949956898355822
  0
ARC
  5
36C96
  8
0
 10
2833.6544248292348129
 20
178.360061034334592
 30
0.0
 40
0.3292992432727727
 50
321.9466642849808977
 51
338.1583955114659261
  0
ARC
  5
36C97
  8
0
 10
2833.9450139203768231
 20
178.2396245041186091
 30
0.0
 40
0.0152140943506678
 50
352.1551028981082823
 51
54.6590640619198922
  0
LINE
  5
36C98
  8
0
 10
2833.9538143699401189
 20
178.2520350139554068
 30
0.0
 11
2833.9079967759189458
 21
178.2765997486426954
 31
0.0
  0
ARC
  5
36C99
  8
0
 10
2834.4281045762559188
 20
177.9089818658493982
 30
0.0
 40
0.6369105366698992
 50
144.746912228311686
 51
154.8417879771359082
  0
ARC
  5
36C9A
  8
0
 10
2833.9258133235130117
 20
178.1448948826636069
 30
0.0
 40
0.0819767982068868
 50
154.8417879771344019
 51
171.6169802612344881
  0
ARC
  5
36C9B
  8
0
 10
2833.7486607652981547
 20
178.2731648468493972
 30
0.0
 40
0.1508506827395002
 50
309.548649742138025
 51
319.0831201619374156
  0
ARC
  5
36C9C
  8
0
 10
2833.9464165977460652
 20
178.2518085080328092
 30
0.0
 40
0.045724045317531
 50
116.7880838301205983
 51
147.1669738903368057
  0
ARC
  5
36C9D
  8
0
 10
2830.9155515307679707
 20
178.9010111283490119
 30
0.0
 40
3.0711205832956239
 50
348.136312013499321
 51
348.5741841686294151
  0
LINE
  5
36C9E
  8
0
 10
2833.9158878911771353
 20
178.1472124513045969
 30
0.0
 11
2833.9579395577970899
 21
178.1262149754240056
 31
0.0
  0
ARC
  5
36C9F
  8
0
 10
2833.9632630940432136
 20
178.1368764269601002
 30
0.0
 40
0.0119166516701125
 50
243.4658669646570104
 51
325.453890755155328
  0
ARC
  5
36CA0
  8
0
 10
2832.521606829961911
 20
178.9874423775615924
 30
0.0
 40
1.6857560842542609
 50
329.4314323780542964
 51
332.5188658650938009
  0
ARC
  5
36CA1
  8
0
 10
2834.0057931398850997
 20
178.2129378074714054
 30
0.0
 40
0.0118515618840219
 50
343.3358499889989162
 51
62.6497088283735479
  0
LINE
  5
36CA2
  8
0
 10
2834.01123809535693
 20
178.2234645343604029
 30
0.0
 11
2833.9733655879649632
 21
178.2432243702814105
 31
0.0
  0
ARC
  5
36CA3
  8
0
 10
2835.7020775575920197
 20
177.1431175225471009
 30
0.0
 40
2.049068117551303
 50
147.5283969417118044
 51
150.6577648269094993
  0
ARC
  5
36CA4
  8
0
 10
2833.9779499116789339
 20
178.1123246892562975
 30
0.0
 40
0.0711958589356371
 50
150.6577648269094993
 51
164.8788849664049962
  0
ARC
  5
36CA5
  8
0
 10
2833.8171620913208244
 20
178.2286802166389066
 30
0.0
 40
0.1342984622469894
 50
313.2722530044304108
 51
321.090263578943393
  0
ARC
  5
36CA6
  8
0
 10
2834.0137272460419808
 20
178.2221242776450083
 30
0.0
 40
0.0455442351127306
 50
129.28882564066231
 51
152.400526535676704
  0
ARC
  5
36CA7
  8
0
 10
2833.9571744123609278
 20
178.2574361769108862
 30
0.0
 40
0.0277129305150369
 50
321.824897954723383
 51
359.8711683086456219
  0
ARC
  5
36CA8
  8
0
 10
2834.0765178976148491
 20
178.1203804160915922
 30
0.0
 40
0.1609396836381773
 50
142.122412368718102
 51
159.00089026069341
  0
ARC
  5
36CA9
  8
0
 10
2833.8079426236608924
 20
178.2719517290200031
 30
0.0
 40
0.1510545078805246
 50
321.5657002712756025
 51
339.5576023581214145
  0
ARC
  5
36CAA
  8
0
 10
2834.4895230305669429
 20
177.8933524172666978
 30
0.0
 40
0.5668592791490621
 50
148.4138060970109905
 51
153.1903811271112943
  0
ARC
  5
36CAB
  8
0
 10
2837.5914105953997932
 20
176.1597801797620946
 30
0.0
 40
4.1198800311348993
 50
150.4719458880099126
 51
151.128973332127714
  0
LINE
  5
36CAC
  8
0
 10
2833.3346936923971953
 20
177.2688977601935107
 30
0.0
 11
2833.3816654718962127
 21
177.2461615101036045
 31
0.0
  0
ARC
  5
36CAD
  8
0
 10
2833.3864912207300222
 20
177.2576528073848863
 30
0.0
 40
0.012463457185388
 50
247.220120486895695
 51
321.9827042280682008
  0
ARC
  5
36CAE
  8
0
 10
2832.3785858439559888
 20
178.0085258797024892
 30
0.0
 40
1.269314776672813
 50
323.3014143753621283
 51
329.0979133518046069
  0
ARC
  5
36CAF
  8
0
 10
2833.4569090174099983
 20
177.3623424196632072
 30
0.0
 40
0.012219353008829
 50
332.1853584272619173
 51
61.0353784667426567
  0
LINE
  5
36CB0
  8
0
 10
2833.4628264770872192
 20
177.3730333625092044
 30
0.0
 11
2833.4183188687020447
 21
177.396733039375988
 31
0.0
  0
ARC
  5
36CB1
  8
0
 10
2833.5643007379990195
 20
177.2865112152620952
 30
0.0
 40
0.1829195360206249
 50
142.9458173557297016
 51
152.2512088506441046
  0
ARC
  5
36CB2
  8
0
 10
2833.8335226757390046
 20
177.0420040425235868
 30
0.0
 40
0.5427121967396634
 50
142.5942224606131958
 51
152.5498563790590083
  0
ARC
  5
36CB3
  8
0
 10
2834.4147754928371796
 20
176.4881372902690941
 30
0.0
 40
1.3327278818423991
 50
142.8928699890300891
 51
144.1379019969012916
  0
ARC
  5
36CB4
  8
0
 10
2833.4165699843301809
 20
177.209711713230007
 30
0.0
 40
0.1010282897799495
 50
144.137901996902599
 51
154.9388152815847093
  0
ARC
  5
36CB5
  8
0
 10
2833.2733505342248463
 20
177.3137057246555912
 30
0.0
 40
0.08011590222613
 50
310.1915230200966107
 51
324.3937312268823803
  0
ARC
  5
36CB6
  8
0
 10
2833.4424492909170112
 20
177.3797013135913119
 30
0.0
 40
0.0295356894001315
 50
110.1527552677891038
 51
144.7847968789170068
  0
ARC
  5
36CB7
  8
0
 10
2833.3852034650940368
 20
177.4181126188472888
 30
0.0
 40
0.0482670979217804
 50
328.0373009144159937
 51
347.2110861152322059
  0
LINE
  5
36CB8
  8
0
 10
2833.4587445051001851
 20
177.4932186649087953
 30
0.0
 11
2833.5085548944070979
 21
177.4688888194608012
 31
0.0
  0
ARC
  5
36CB9
  8
0
 10
2833.5138257272469673
 20
177.4796797731596882
 30
0.0
 40
0.0120094279862908
 50
243.9668402032550034
 51
283.3541485395243171
  0
ARC
  5
36CBA
  8
0
 10
2833.5132278470018719
 20
177.4821983504496075
 30
0.0
 40
0.0145979975437076
 50
283.354148539524715
 51
317.1039715858120189
  0
ARC
  5
36CBB
  8
0
 10
2832.9804276800368825
 20
177.9063894704646032
 30
0.0
 40
0.6955954350766236
 50
321.383161928136019
 51
331.5111748957883151
  0
ARC
  5
36CBC
  8
0
 10
2833.458654045124149
 20
177.6344614386609919
 30
0.0
 40
0.1459781364320223
 50
335.7903652381039024
 51
338.4719149069854893
  0
ARC
  5
36CBD
  8
0
 10
2833.5828768496689918
 20
177.5854584216338878
 30
0.0
 40
0.0124393748418546
 50
338.4719149069669015
 51
63.2206463316574911
  0
LINE
  5
36CBE
  8
0
 10
2833.5884814830387768
 20
177.5965636515389861
 30
0.0
 11
2833.5431513550638556
 21
177.6209265029146991
 31
0.0
  0
ARC
  5
36CBF
  8
0
 10
2834.2003838140171865
 20
177.0977072425320102
 30
0.0
 40
0.8400671994176246
 50
141.4768901203900953
 51
150.9197453627693903
  0
ARC
  5
36CC0
  8
0
 10
2833.5244471131791215
 20
177.4634161228613038
 30
0.0
 40
0.0721458538017101
 50
143.8169406280539135
 51
172.0258074591758088
  0
ARC
  5
36CC1
  8
0
 10
2833.4037895064711847
 20
177.5413924599859001
 30
0.0
 40
0.083911718947734
 50
305.9049259403955148
 51
320.7695496237562907
  0
ARC
  5
36CC2
  8
0
 10
2833.4146343122069993
 20
177.6622873503904998
 30
0.0
 40
0.1447856730306418
 50
341.4473188389587222
 51
348.0072834027143927
  0
ARC
  5
36CC3
  8
0
 10
2833.5855534981819801
 20
177.5848916513189977
 30
0.0
 40
0.0556457749561852
 50
121.7645558699199029
 51
139.6409316594321126
  0
LINE
  5
36CC4
  8
0
 10
2833.5299242006522036
 20
177.4798843906224022
 30
0.0
 11
2833.5492658950738587
 21
177.4705701922731009
 31
0.0
  0
ARC
  5
36CC5
  8
0
 10
2833.5543945276449449
 20
177.4812202171345916
 30
0.0
 40
0.0118205711198705
 50
244.2863653867320863
 51
328.1190383617454245
  0
LINE
  5
36CC6
  8
0
 10
2833.5644319328839629
 20
177.4749771091219088
 30
0.0
 11
2833.6102138874061893
 21
177.5485834009340067
 31
0.0
  0
ARC
  5
36CC7
  8
0
 10
2833.60042936335185
 20
177.5546692208314141
 30
0.0
 40
0.0115227650670803
 50
328.1190383617480961
 51
63.8397019191301425
  0
LINE
  5
36CC8
  8
0
 10
2833.6055095662250096
 20
177.5650116409331929
 30
0.0
 11
2833.5909731771657789
 21
177.5730919978734903
 31
0.0
  0
ARC
  5
36CC9
  8
0
 10
2833.7036085501340494
 20
177.4331584323190043
 30
0.0
 40
0.1741233839878113
 50
139.0823847445180945
 51
154.6760882482525119
  0
ARC
  5
36CCA
  8
0
 10
2833.3972239955201076
 20
177.633046263408886
 30
0.0
 40
0.1947474742943436
 50
319.9124252585014005
 51
333.8460477342604236
  0
LINE
  5
36CCB
  8
0
 10
2833.5686568281230393
 20
177.7257345598420955
 30
0.0
 11
2833.616452931861204
 21
177.7024666826351904
 31
0.0
  0
ARC
  5
36CCC
  8
0
 10
2833.622032217621836
 20
177.7151372315568096
 30
0.0
 40
0.0138445382580497
 50
246.2344281654104918
 51
316.0489199652200227
  0
ARC
  5
36CCD
  8
0
 10
2833.3504604807721989
 20
177.9568921031938942
 30
0.0
 40
0.3774225622634901
 50
318.2408783648501185
 51
337.8290350179473762
  0
ARC
  5
36CCE
  8
0
 10
2833.6876301535339735
 20
177.8194949856815867
 30
0.0
 40
0.0133327984262187
 50
337.8290350179344728
 51
60.6319052681715291
  0
LINE
  5
36CCF
  8
0
 10
2833.6941688050778794
 20
177.8311143466737008
 30
0.0
 11
2833.6463443780480702
 21
177.8565796025619932
 31
0.0
  0
ARC
  5
36CD0
  8
0
 10
2833.7669159403940284
 20
177.7587271846165038
 30
0.0
 40
0.1552823149772738
 50
140.938207713939704
 51
152.2447282671749065
  0
ARC
  5
36CD1
  8
0
 10
2834.3889128865330349
 20
177.322925528053986
 30
0.0
 40
0.9137233238595165
 50
146.2139044181145948
 51
153.8453769210188113
  0
ARC
  5
36CD2
  8
0
 10
2833.5969844715159525
 20
177.7079186997171121
 30
0.0
 40
0.0333637857396399
 50
147.8145530719758085
 51
180.7213479112926109
  0
ARC
  5
36CD3
  8
0
 10
2833.5382359114960309
 20
177.7430364816308099
 30
0.0
 40
0.0436744488273805
 50
305.5411612506044889
 51
331.1011155364250271
  0
ARC
  5
36CD4
  8
0
 10
2833.6795153980438045
 20
177.8290673146875918
 30
0.0
 40
0.0430957370481428
 50
116.1370887862089063
 51
140.3274382197153045
  0
ARC
  5
36CD5
  8
0
 10
2833.6265707252118773
 20
177.8724328239927104
 30
0.0
 40
0.034280620574341
 50
324.0863243140929058
 51
352.1591485910269057
  0
ARC
  5
36CD6
  8
0
 10
2833.7610610961987732
 20
177.7026106023513989
 30
0.0
 40
0.1144197166214087
 50
136.344812473579708
 51
160.1497997259749013
  0
ARC
  5
36CD7
  8
0
 10
2833.5535875741020391
 20
177.831012604259513
 30
0.0
 40
0.1341251597238271
 50
318.1136302044462241
 51
338.380981995112279
  0
LINE
  5
36CD8
  8
0
 10
2833.6378448116788604
 20
177.7122330815849978
 30
0.0
 11
2833.6846774583109436
 21
177.689162891248202
 31
0.0
  0
ARC
  5
36CD9
  8
0
 10
2833.6899939157519839
 20
177.6999553367818123
 30
0.0
 40
0.0120308603315097
 50
243.7747208576120954
 51
321.4464724962966784
  0
ARC
  5
36CDA
  8
0
 10
2832.945111146877025
 20
178.209717988733388
 30
0.0
 40
0.9146113975103828
 50
325.5593280526042008
 51
331.169430088874492
  0
ARC
  5
36CDB
  8
0
 10
2833.7348112997360658
 20
177.7739873275405955
 30
0.0
 40
0.0127091463308707
 50
335.2822856451812754
 51
59.2019352850184504
  0
LINE
  5
36CDC
  8
0
 10
2833.741318558697003
 20
177.7849041943655948
 30
0.0
 11
2833.6972445326528032
 21
177.8079336799110877
 31
0.0
  0
ARC
  5
36CDD
  8
0
 10
2833.3572665945939661
 20
177.95675652243429
 30
0.0
 40
0.4304804069723927
 50
325.2836901701655279
 51
331.5748107339748003
  0
ARC
  5
36CDE
  8
0
 10
2834.0895418236141268
 20
177.5067729617672967
 30
0.0
 40
0.4303007202764328
 50
145.2823753124046959
 51
151.5761255917246899
  0
LINE
  5
36CDF
  8
0
 10
2833.7546423307771875
 20
177.9410365476325069
 30
0.0
 11
2833.8314767611577736
 21
177.9023261606506026
 31
0.0
  0
ARC
  5
36CE0
  8
0
 10
2833.8367710779480149
 20
177.9128346015762929
 30
0.0
 40
0.011766780399039
 50
243.2603202753356868
 51
330.6706553700170161
  0
LINE
  5
36CE1
  8
0
 10
2833.847029574969838
 20
177.9070708909835901
 30
0.0
 11
2833.890196258656033
 21
177.9839007888336084
 31
0.0
  0
ARC
  5
36CE2
  8
0
 10
2833.8803071372381055
 20
177.9894569666774942
 30
0.0
 40
0.0113430963431456
 50
330.6706553700212226
 51
63.3214210366784229
  0
LINE
  5
36CE3
  8
0
 10
2833.8854000169480969
 20
177.9995924691766049
 30
0.0
 11
2833.8147258217500166
 21
178.0360106247482008
 31
0.0
  0
ARC
  5
36CE4
  8
0
 10
2833.8069304290997934
 20
177.9298714634032876
 30
0.0
 40
0.0136151610465946
 50
248.6354806925517948
 51
306.8255568720417727
  0
ARC
  5
36CE5
  8
0
 10
2833.4968098564418142
 20
178.16294989433419
 30
0.0
 40
0.40103324474815
 50
322.5282125402508768
 51
336.1500199265976221
  0
ARC
  5
36CE6
  8
0
 10
2833.8503666898209303
 20
178.0026890132913877
 30
0.0
 40
0.0133660038552679
 50
351.8526755948125242
 51
56.8181039636671201
  0
ARC
  5
36CE7
  8
0
 10
2834.0224898467358798
 20
177.8522133958909137
 30
0.0
 40
0.2132970648787965
 50
142.990598240469609
 51
155.7068604794361875
  0
ARC
  5
36CE8
  8
0
 10
2833.6632851386630136
 20
178.0651007997643092
 30
0.0
 40
0.2069208380200908
 50
322.788971991737526
 51
335.8987020090982014
  0
ARC
  5
36CE9
  8
0
 10
2829.5382609566067913
 20
182.2379646973550962
 30
0.0
 40
6.0300184234299046
 50
314.2942167110466016
 51
314.4900468217830962
  0
ARC
  5
36CEA
  8
0
 10
2833.8095945691170527
 20
177.9153242389286902
 30
0.0
 40
0.0606701847487096
 50
154.9249725264072026
 51
173.7780402820393988
  0
ARC
  5
36CEB
  8
0
 10
2833.8135622844338286
 20
177.9134677336404025
 30
0.0
 40
0.0650507528309887
 50
137.5857806619108032
 51
154.9249725264041899
  0
ARC
  5
36CEC
  8
0
 10
2833.9734647008890533
 20
177.8684698966110886
 30
0.0
 40
0.2261256902265548
 50
138.3508454915325103
 51
156.8569834118733013
  0
ARC
  5
36CED
  8
0
 10
2833.8690268025388832
 20
177.9921775474415142
 30
0.0
 40
0.0697849209052731
 50
141.0886843839491007
 51
157.6220482415085087
  0
ARC
  5
36CEE
  8
0
 10
2833.8652167026370989
 20
177.995253153094211
 30
0.0
 40
0.064888369937068
 50
125.5758466750292968
 51
141.0886843839464859
  0
ARC
  5
36CEF
  8
0
 10
2833.761335953381149
 20
178.0562489305183078
 30
0.0
 40
0.0666387869801998
 50
338.2663945744006924
 51
352.915228949087691
  0
LINE
  5
36CF0
  8
0
 10
2834.2669734850551322
 20
178.779732715116694
 30
0.0
 11
2834.3094522397750552
 21
178.7585935755228945
 31
0.0
  0
ARC
  5
36CF1
  8
0
 10
2834.3142564220552231
 20
178.7704830447127904
 30
0.0
 40
0.0128234022395342
 50
247.9978254212639115
 51
334.2744855372595225
  0
ARC
  5
36CF2
  8
0
 10
2832.8544495928199467
 20
179.6158001302146943
 30
0.0
 40
1.6996765029245511
 50
329.9593167091912278
 51
335.9659342174074936
  0
ARC
  5
36CF3
  8
0
 10
2834.3936585661008394
 20
178.929628539135706
 30
0.0
 40
0.0144492964733007
 50
335.150164404765917
 51
52.0613201506727421
  0
LINE
  5
36CF4
  8
0
 10
2834.4025422502418223
 20
178.9410242543243896
 30
0.0
 11
2834.3618682374758464
 21
178.9622984909624961
 31
0.0
  0
ARC
  5
36CF5
  8
0
 10
2834.933483572987825
 20
178.5322419863460084
 30
0.0
 40
0.7153269804472071
 50
143.0439174060342111
 51
146.8614170370364889
  0
ARC
  5
36CF6
  8
0
 10
2834.5363221931770568
 20
178.7081138258959072
 30
0.0
 40
0.2787077176191378
 50
155.3176733068924023
 51
165.1097863254759091
  0
ARC
  5
36CF7
  8
0
 10
2834.3361608066161352
 20
178.7613360457847023
 30
0.0
 40
0.0715913605629825
 50
165.1097863254643983
 51
178.7360073658896056
  0
ARC
  5
36CF8
  8
0
 10
2834.0140365982319963
 20
178.9616170712928067
 30
0.0
 40
0.3197777941827769
 50
321.5834176998446878
 51
324.5210216404159951
  0
LINE
  5
36CF9
  8
0
 10
2834.2675588420811437
 20
178.8322476288668099
 30
0.0
 11
2834.3094046833189168
 21
178.8113529267978947
 31
0.0
  0
ARC
  5
36CFA
  8
0
 10
2834.3147992963131401
 20
178.8221567237683018
 30
0.0
 40
0.0120757558081373
 50
243.4658668753392021
 51
324.5012544300565196
  0
ARC
  5
36CFB
  8
0
 10
2833.8565992701928735
 20
179.1035088533986084
 30
0.0
 40
0.5497337854899392
 50
328.361863880256692
 51
337.8941227838469104
  0
ARC
  5
36CFC
  8
0
 10
2834.3541253266462263
 20
178.8993495810090906
 30
0.0
 40
0.0121054711343823
 50
347.0338874852687923
 51
62.6010913502175725
  0
LINE
  5
36CFD
  8
0
 10
2834.3596960571430827
 20
178.9100971106377926
 30
0.0
 11
2834.3181345656639678
 21
178.9318206635743138
 31
0.0
  0
ARC
  5
36CFE
  8
0
 10
2834.6166475018890196
 20
178.7650412258500126
 30
0.0
 40
0.3419434952461333
 50
150.8078696007908093
 51
153.869508058028913
  0
ARC
  5
36CFF
  8
0
 10
2834.6447567866998725
 20
178.7023046150430901
 30
0.0
 40
0.3972482194299519
 50
147.5182906977620974
 51
152.9456613056040908
  0
ARC
  5
36D00
  8
0
 10
2834.5893407262428809
 20
178.728438771855707
 30
0.0
 40
0.3360148397171672
 50
152.6164381701584887
 51
158.9609938625912946
  0
ARC
  5
36D01
  8
0
 10
2834.5029386189848992
 20
178.7283619277224034
 30
0.0
 40
0.2572855967152901
 50
152.0204138082712859
 51
156.1855639537106981
  0
ARC
  5
36D02
  8
0
 10
2834.3484408808008084
 20
178.8052123017689041
 30
0.0
 40
0.0852807897402446
 50
161.5174729631117998
 51
174.2137442409855907
  0
ARC
  5
36D03
  8
0
 10
2834.2413947917648329
 20
178.8460676337641928
 30
0.0
 40
0.039158396951237
 50
304.5359655796426068
 51
332.4766608277375894
  0
ARC
  5
36D04
  8
0
 10
2834.5899290556399137
 20
178.7265314239051861
 30
0.0
 40
0.3406110930453178
 50
139.7978375461894132
 51
142.9358648917597066
  0
ARC
  5
36D05
  8
0
 10
2834.2544232186451154
 20
178.9529912162660139
 30
0.0
 40
0.0756452099256487
 50
340.5820111875212888
 51
354.9946784488172966
  0
ARC
  5
36D06
  8
0
 10
2834.8685938139587961
 20
179.8669202451175124
 30
0.0
 40
1.0877291119852079
 50
242.4713898186741119
 51
243.1785932691408902
  0
ARC
  5
36D07
  8
0
 10
2834.371735015070044
 20
178.884219485314901
 30
0.0
 40
0.0134382001660125
 50
2.2810101084818899
 51
63.178593269167159
  0
LINE
  5
36D08
  8
0
 10
2834.3193286628338683
 20
178.8109625861389134
 30
0.0
 11
2834.3312358296388993
 21
178.8049620512547051
 31
0.0
  0
ARC
  5
36D09
  8
0
 10
2834.3373934518140231
 20
178.8171809343668883
 30
0.0
 40
0.0136827415146949
 50
243.2544943743451995
 51
302.8531701283275765
  0
LINE
  5
36D0A
  8
0
 10
2834.3448161751321095
 20
178.8056865620964118
 30
0.0
 11
2834.385162567361931
 21
178.884754334029509
 31
0.0
  0
ARC
  5
36D0B
  8
0
 10
2834.9357783882669537
 20
178.5537736447793122
 30
0.0
 40
0.6398677285906835
 50
150.4825259381200908
 51
155.4187716648006017
  0
ARC
  5
36D0C
  8
0
 10
2833.9791481006532194
 20
179.042239495332808
 30
0.0
 40
0.4357210968819438
 50
329.3248462179295188
 51
336.5764501782916227
  0
ARC
  5
36D0D
  8
0
 10
2834.5730135899111701
 20
178.7390816779735871
 30
0.0
 40
0.2570149342071856
 50
147.6949187259741905
 51
158.2411913749612893
  0
ARC
  5
36D0E
  8
0
 10
2834.1048825826528628
 20
178.9779250400492003
 30
0.0
 40
0.2706421589677822
 50
327.9630309674453201
 51
337.9768997914113129
  0
LINE
  5
36D0F
  8
0
 10
2834.1463671510209679
 20
178.5523348323035009
 30
0.0
 11
2834.189376174147128
 21
178.5314650050976013
 31
0.0
  0
ARC
  5
36D10
  8
0
 10
2834.19420134753409
 20
178.543364911961902
 30
0.0
 40
0.0128409532974472
 50
247.9284333758133982
 51
333.9785768756012203
  0
ARC
  5
36D11
  8
0
 10
2831.7306157137081755
 20
179.9343372021976961
 30
0.0
 40
2.8419624872929812
 50
330.5658463100817244
 51
334.1657625298777816
  0
ARC
  5
36D12
  8
0
 10
2834.278483424885053
 20
178.7024492347991043
 30
0.0
 40
0.0120091783072385
 50
326.9399431278346242
 51
61.6501502612113228
  0
LINE
  5
36D13
  8
0
 10
2834.28418603222417
 20
178.7130180868254001
 30
0.0
 11
2834.2441227178728695
 21
178.733972915783994
 31
0.0
  0
ARC
  5
36D14
  8
0
 10
2834.3609808471401266
 20
178.6492148852495063
 30
0.0
 40
0.144356065661372
 50
144.0461404013798017
 51
160.8955604533680912
  0
ARC
  5
36D15
  8
0
 10
2834.4944579766870447
 20
178.4968312983232863
 30
0.0
 40
0.3356914652127372
 50
143.5099548927985893
 51
150.5037591804463091
  0
ARC
  5
36D16
  8
0
 10
2836.5101734485911038
 20
177.5901685427728864
 30
0.0
 40
2.5478401366001009
 50
156.0832840030844864
 51
156.6888257236936113
  0
ARC
  5
36D17
  8
0
 10
2834.5123379882870722
 20
178.3913839779146997
 30
0.0
 40
0.3997997389421978
 50
148.8133077897850001
 51
156.2605159891662936
  0
ARC
  5
36D18
  8
0
 10
2834.1851750590922165
 20
178.53515877967709
 30
0.0
 40
0.0424390211091161
 50
156.1262230191615004
 51
175.8853981680505001
  0
ARC
  5
36D19
  8
0
 10
2834.0855965674782055
 20
178.5962952620729993
 30
0.0
 40
0.0815600623778846
 50
314.5814635378960133
 51
324.9294991313074092
  0
ARC
  5
36D1A
  8
0
 10
2833.6606958627107815
 20
178.9239615258302933
 30
0.0
 40
0.6626136870153517
 50
330.0021274520204884
 51
334.7684433659463252
  0
ARC
  5
36D1B
  8
0
 10
2834.6395147907051069
 20
178.4119379416781896
 30
0.0
 40
0.4434681264922958
 50
148.8244146585450949
 51
155.9486080044133018
  0
ARC
  5
36D1C
  8
0
 10
2834.3386584078571104
 20
178.6662186862820931
 30
0.0
 40
0.1163046325900758
 50
136.1274368144945868
 51
144.3703725763841987
  0
ARC
  5
36D1D
  8
0
 10
2834.0248232592539352
 20
178.7977412743881018
 30
0.0
 40
0.2355617984985353
 50
343.4347024721013781
 51
347.5169479023028885
  0
ARC
  5
36D1E
  8
0
 10
2834.3164212574779413
 20
178.5792467494582922
 30
0.0
 40
0.1448968910487843
 50
142.630455211203099
 51
161.3947425370907922
  0
ARC
  5
36D1F
  8
0
 10
2834.0852640661228179
 20
178.7019856005526037
 30
0.0
 40
0.1211082505193665
 50
320.8098852686591158
 51
343.304075934996888
  0
LINE
  5
36D20
  8
0
 10
2834.0216576102538966
 20
178.3811131091835875
 30
0.0
 11
2834.065678196447152
 21
178.3591918453400069
 31
0.0
  0
ARC
  5
36D21
  8
0
 10
2834.0710808333578825
 20
178.3700410028299927
 30
0.0
 40
0.0121199300261386
 50
243.5277258873539097
 51
327.9300229136409257
  0
ARC
  5
36D22
  8
0
 10
2833.5220859853930051
 20
178.7140240805927078
 30
0.0
 40
0.6599777083071904
 50
327.9300229136409257
 51
335.7021649620998005
  0
ARC
  5
36D23
  8
0
 10
2834.1122976128499431
 20
178.4466226332878023
 30
0.0
 40
0.0120477338555068
 50
339.7692545097996799
 51
62.6716036831047987
  0
LINE
  5
36D24
  8
0
 10
2834.1178286058420781
 20
178.4573257173096863
 30
0.0
 11
2834.0771695679459299
 21
178.4785586160072057
 31
0.0
  0
ARC
  5
36D25
  8
0
 10
2834.2764059916148653
 20
178.348912407638295
 30
0.0
 40
0.2377042108119552
 50
146.9473269698899003
 51
151.3420713676866001
  0
ARC
  5
36D26
  8
0
 10
2834.4073144728731677
 20
178.2261950936014046
 30
0.0
 40
0.4138720088919833
 50
145.1134739589751064
 51
155.6209529188494116
  0
ARC
  5
36D27
  8
0
 10
2834.2561886386729384
 20
178.2634256731008122
 30
0.0
 40
0.2624026217543842
 50
149.3923555101291072
 51
153.3525479816387929
  0
ARC
  5
36D28
  8
0
 10
2834.0632733768611615
 20
178.3602303590176064
 30
0.0
 40
0.0465613711658152
 50
153.3525479816387929
 51
176.9398825566300104
  0
ARC
  5
36D29
  8
0
 10
2833.9803689176242187
 20
178.4120280577160997
 30
0.0
 40
0.0612970752389309
 50
306.4402368037806923
 51
324.8309085374750111
  0
ARC
  5
36D2A
  8
0
 10
2834.1181259237050654
 20
178.4533522204170026
 30
0.0
 40
0.0480914279303998
 50
127.9754702175715977
 51
148.3899717872162114
  0
ARC
  5
36D2B
  8
0
 10
2834.0620056984071198
 20
178.4867259833694106
 30
0.0
 40
0.0269133358355047
 50
331.9711303104916738
 51
9.7018712091721326
  0
ARC
  5
36D2C
  8
0
 10
2833.8294421217651688
 20
178.5497262248580057
 30
0.0
 40
0.3106760125561067
 50
327.354681216509789
 51
336.0758622096913086
  0
ARC
  5
36D2D
  8
0
 10
2834.3631077534569158
 20
178.2625603648695005
 30
0.0
 40
0.2971860471260591
 50
147.1563341766542123
 51
156.2742124440794953
  0
LINE
  5
36D2E
  8
0
 10
2834.0573196899531467
 20
178.3633631962175912
 30
0.0
 11
2833.9836914816978606
 21
178.2493831308109975
 31
0.0
  0
LINE
  5
36D2F
  8
0
 10
2834.0313647159910033
 20
178.3231836278164053
 30
0.0
 11
2834.0717545066158891
 21
178.3030840141317981
 31
0.0
  0
ARC
  5
36D30
  8
0
 10
2834.076920870882077
 20
178.3134657246594088
 30
0.0
 40
0.011596173213848
 50
243.5431818168947018
 51
326.7111162291004121
  0
LINE
  5
36D31
  8
0
 10
2834.0866142728427803
 20
178.30710104150711
 30
0.0
 11
2834.1476575417041204
 21
178.4201443257115898
 31
0.0
  0
ARC
  5
36D32
  8
0
 10
2834.1375842539641781
 20
178.428108921807592
 30
0.0
 40
0.0128415698754024
 50
248.3473041374246009
 51
321.6678116707010986
  0
LINE
  5
36D33
  8
0
 10
2834.1328459775791089
 20
178.4161734849170102
 30
0.0
 11
2834.1153771509380022
 21
178.4249286493781028
 31
0.0
  0
LINE
  5
36D34
  8
0
 10
2834.0752386600797763
 20
178.3586565757127005
 30
0.0
 11
2834.0958862608417803
 21
178.348251410443595
 31
0.0
  0
ARC
  5
36D35
  8
0
 10
2834.1020669727931818
 20
178.3605161721737034
 30
0.0
 40
0.0137341028291157
 50
243.254607768759314
 51
300.7182974341466775
  0
ARC
  5
36D36
  8
0
 10
2834.1356047657941417
 20
178.4301516348521091
 30
0.0
 40
0.0156657474563835
 50
320.2974623643676182
 51
331.936971052834906
  0
ARC
  5
36D37
  8
0
 10
2829.8714803386860694
 20
180.8050617443001045
 30
0.0
 40
4.8965395864252699
 50
330.8876855914310795
 51
332.9655114070907871
  0
ARC
  5
36D38
  8
0
 10
2834.2203040708109256
 20
178.5862226495326865
 30
0.0
 40
0.0143790842911852
 50
331.9162259456850279
 51
13.4863321227868909
  0
ARC
  5
36D39
  8
0
 10
2835.2564184229318016
 20
177.9336217403970863
 30
0.0
 40
1.2072584773381341
 50
150.6189731771945048
 51
153.2350704121421927
  0
ARC
  5
36D3A
  8
0
 10
2833.0297124577118666
 20
179.1212337800324974
 30
0.0
 40
1.316961518660468
 50
330.7275279880125254
 51
333.1256714549219851
  0
LINE
  5
36D3B
  8
0
 10
2834.1039218076439283
 20
178.4645881035494881
 30
0.0
 11
2834.1463949134858922
 21
178.5419297868369881
 31
0.0
  0
LINE
  5
36D3C
  8
0
 10
2834.1140280866547982
 20
178.4829911992258928
 30
0.0
 11
2834.1562805908120026
 21
178.4616974850744953
 31
0.0
  0
ARC
  5
36D3D
  8
0
 10
2834.1625940965591326
 20
178.4742251928254859
 30
0.0
 40
0.0140286783523177
 50
243.2535697334909059
 51
312.3613781718922269
  0
ARC
  5
36D3E
  8
0
 10
2834.2485690825878919
 20
178.7532570008565074
 30
0.0
 40
0.0098778796984042
 50
306.7847866346497199
 51
332.5982812020495771
  0
LINE
  5
36D3F
  8
0
 10
2834.2573386797848798
 20
178.7487109396668075
 30
0.0
 11
2834.2645871083241218
 21
178.7629159088286883
 31
0.0
  0
ARC
  5
36D40
  8
0
 10
2833.2292296598989196
 20
177.129335148812487
 30
0.0
 40
0.0362381248981134
 50
280.4720943163741822
 51
323.0631635470430183
  0
LINE
  5
36D41
  8
0
 10
2833.2581947377811957
 20
177.1075584190440964
 30
0.0
 11
2833.3565679079638358
 21
177.2583097509472054
 31
0.0
  0
LINE
  5
36D42
  8
0
 10
2833.4377820782310664
 20
177.3863693896105929
 30
0.0
 11
2833.4949433088868318
 21
177.4755373876932936
 31
0.0
  0
LINE
  5
36D43
  8
0
 10
2833.5789431274351955
 20
177.601690077391396
 30
0.0
 11
2833.6497258324511677
 21
177.7063803820194039
 31
0.0
  0
LINE
  5
36D44
  8
0
 10
2833.7108760716669167
 20
177.8007744012444959
 30
0.0
 11
2833.7922630153962018
 21
177.9222515747395903
 31
0.0
  0
LINE
  5
36D45
  8
0
 10
2833.8500629193490568
 20
178.0178015469624029
 30
0.0
 11
2833.9267106204410993
 21
178.1418083849515028
 31
0.0
  0
LINE
  5
36D46
  8
0
 10
2833.3313853445310997
 20
177.2640283081009045
 30
0.0
 11
2833.3050900086791444
 21
177.2321855087668041
 31
0.0
  0
ARC
  5
36D47
  8
0
 10
2834.2205604832188328
 20
176.4762028660813939
 30
0.0
 40
1.187264059001137
 50
140.4505849756532996
 51
141.3227330656442859
  0
ARC
  5
36D48
  8
0
 10
2833.2818372691290278
 20
177.2276506568819912
 30
0.0
 40
0.0151813888133327
 50
278.321194443411116
 51
321.3227330656429785
  0
LINE
  5
36D49
  8
0
 10
2833.4529988625008627
 20
177.4734247039826016
 30
0.0
 11
2833.3488661198498448
 21
177.3179910310801972
 31
0.0
  0
ARC
  5
36D4A
  8
0
 10
2831.4162367977260146
 20
178.6127554671355995
 30
0.0
 40
2.3262568735220608
 50
325.4606760674652151
 51
326.179903878135292
  0
ARC
  5
36D4B
  8
0
 10
2833.3203655495121893
 20
177.302158956042291
 30
0.0
 40
0.0146839202564333
 50
277.5342629008615063
 51
325.4606760674611223
  0
LINE
  5
36D4C
  8
0
 10
2833.4662156766048611
 20
177.5060086575998071
 30
0.0
 11
2833.4138431084770673
 21
177.4453426254916053
 31
0.0
  0
ARC
  5
36D4D
  8
0
 10
2833.3769206012889299
 20
177.4645918585567017
 30
0.0
 40
0.0416389782621849
 50
308.8906878738407045
 51
332.4651018737172876
  0
ARC
  5
36D4E
  8
0
 10
2833.3920968380161867
 20
177.4407010339901092
 30
0.0
 40
0.0138861855756446
 50
275.2056652392229239
 51
322.1596071565384136
  0
LINE
  5
36D4F
  8
0
 10
2833.6637609208792128
 20
177.8473057492732039
 30
0.0
 11
2833.7655339896109581
 21
177.9573412260963892
 31
0.0
  0
LINE
  5
36D50
  8
0
 10
2833.8044946928721401
 20
178.0187396446376908
 30
0.0
 11
2833.8646435487257804
 21
178.173392640859106
 31
0.0
  0
LINE
  5
36D51
  8
0
 10
2833.8995201884440576
 20
178.2643036589927021
 30
0.0
 11
2833.9380426488141893
 21
178.4021050894884866
 31
0.0
  0
LINE
  5
36D52
  8
0
 10
2833.9260489680518731
 20
178.2669874287450966
 30
0.0
 11
2834.0263074893869089
 21
178.3899554842386124
 31
0.0
  0
LINE
  5
36D53
  8
0
 10
2834.0345589620151259
 20
178.3746885255885104
 30
0.0
 11
2833.973365587958142
 21
178.2432243702847927
 31
0.0
  0
LINE
  5
36D54
  8
0
 10
2833.8282641327728015
 20
178.0290343823498063
 30
0.0
 11
2833.9112972088792048
 21
178.1373500271955947
 31
0.0
  0
LINE
  5
36D55
  8
0
 10
2833.8574580463427992
 20
178.191855635611887
 30
0.0
 11
2833.7071498933191833
 21
178.0281065953388975
 31
0.0
  0
ARC
  5
36D56
  8
0
 10
2833.7015024311381239
 20
178.0341332391309948
 30
0.0
 40
0.0082591927259902
 50
253.6760231152377969
 51
313.1396544796058947
  0
LINE
  5
36D57
  8
0
 10
2834.0063692852941131
 20
178.5570944339472987
 30
0.0
 11
2834.1605014084329923
 21
178.8439593797259022
 31
0.0
  0
LINE
  5
36D58
  8
0
 10
2834.1830662199608923
 20
178.8530506187310039
 30
0.0
 11
2834.150728705984875
 21
178.7084545385332035
 31
0.0
  0
LINE
  5
36D59
  8
0
 10
2834.1152490610038512
 20
178.6427972132271975
 30
0.0
 11
2834.0177098707240475
 21
178.5309749022017058
 31
0.0
  0
LINE
  5
36D5A
  8
0
 10
2834.1256203655270838
 20
178.6166393222308955
 30
0.0
 11
2834.0770520620899333
 21
178.4785585618749053
 31
0.0
  0
LINE
  5
36D5B
  8
0
 10
2834.1754577298602271
 20
178.7164953885597072
 30
0.0
 11
2834.272667534025004
 21
178.8431062985767142
 31
0.0
  0
LINE
  5
36D5C
  8
0
 10
2834.1693337602650899
 20
178.8813209603262919
 30
0.0
 11
2834.1034287516190489
 21
178.8049693918960088
 31
0.0
  0
ARC
  5
36D5D
  8
0
 10
2834.0955356439171737
 20
178.8117825503161953
 30
0.0
 40
0.0104269015941366
 50
265.5909529171373151
 51
319.199955845472914
  0
LINE
  5
36D5E
  8
0
 10
2833.9777712214117855
 20
178.5189774265807898
 30
0.0
 11
2833.9890774902528392
 21
178.5820584170955101
 31
0.0
  0
ARC
  5
36D5F
  8
0
 10
2833.9743225532010911
 20
178.5847030059589997
 30
0.0
 40
0.0149900639635396
 50
349.8385338365379766
 51
27.1674615916756004
  0
LINE
  5
36D60
  8
0
 10
2833.9199480306169789
 20
178.4109357160849072
 30
0.0
 11
2833.8782910209051806
 21
178.3671976012423954
 31
0.0
  0
ARC
  5
36D61
  8
0
 10
2833.8686334771459769
 20
178.3763956289944019
 30
0.0
 40
0.0133368611739952
 50
281.0685324378006271
 51
316.3960392235302947
  0
ARC
  5
36D62
  8
0
 10
2834.09964484751481
 20
178.4008943873596991
 30
0.0
 40
0.098754905165745
 50
137.1921592350151968
 51
164.8666527675437123
  0
ARC
  5
36D63
  8
0
 10
2833.9293002086251363
 20
178.4952037063578132
 30
0.0
 40
0.1016032521587595
 50
317.5874619306738964
 51
344.471350071895472
  0
LINE
  5
36D64
  8
0
 10
2833.6294996643191553
 20
177.8310415290729054
 30
0.0
 11
2833.6438226298391783
 21
177.8956019828139858
 31
0.0
  0
ARC
  5
36D65
  8
0
 10
2833.6252869595969059
 20
177.8997141869635072
 30
0.0
 40
0.0189863449427058
 50
347.4913234641625763
 51
36.9534124627067868
  0
LINE
  5
36D66
  8
0
 10
2833.5687477491478603
 20
177.7256902980911093
 30
0.0
 11
2833.5459819996149236
 21
177.7082298692390907
 31
0.0
  0
ARC
  5
36D67
  8
0
 10
2833.5252218067071226
 20
177.7352980103482878
 30
0.0
 40
0.0341126057737217
 50
284.7460572587705201
 51
307.4867783438297124
  0
LINE
  5
36D68
  8
0
 10
2833.5217824658147947
 20
177.5928972159312025
 30
0.0
 11
2833.5208870105388996
 21
177.6548803332725868
 31
0.0
  0
ARC
  5
36D69
  8
0
 10
2833.5037981266091265
 20
177.6546334542524903
 30
0.0
 40
0.0170906671380203
 50
0.8276808486502584
 51
45.436707226902513
  0
LINE
  5
36D6A
  8
0
 10
2834.3903038644812113
 20
179.1832934831838031
 30
0.0
 11
2834.4376042667709044
 21
179.1585824436039047
 31
0.0
  0
ARC
  5
36D6B
  8
0
 10
2834.4317405888441499
 20
179.1473585400555919
 30
0.0
 40
0.0126632827374753
 50
342.2543440448977776
 51
62.4161872754477116
  0
ARC
  5
36D6C
  8
0
 10
2834.176484286304003
 20
179.2290453911971895
 30
0.0
 40
0.2806717184925598
 50
332.3548369196585099
 51
342.254344044896186
  0
ARC
  5
36D6D
  8
0
 10
2834.2330954501280758
 20
179.1877334609687864
 30
0.0
 40
0.2116070984319716
 50
323.5324089858601724
 51
335.1525216224055725
  0
ARC
  5
36D6E
  8
0
 10
2834.3938864204969832
 20
179.0704421601836884
 30
0.0
 40
0.012647243243166
 50
244.1709648879485997
 51
317.8869473490090058
  0
ARC
  5
36D6F
  8
0
 10
2934.6361548887230128
 20
379.9136358960768121
 30
0.0
 40
224.4820195370606086
 50
243.4626934946342089
 51
243.4759291250350941
  0
ARC
  5
36D70
  8
0
 10
2834.6499834124069821
 20
179.051756791362493
 30
0.0
 40
0.2910934023745386
 50
153.1362056070454969
 51
156.8438597753984993
  0
ARC
  5
36D71
  8
0
 10
2834.5375994237952
 20
179.0501560183734
 30
0.0
 40
0.1938484803016477
 50
143.218452592059009
 51
165.416350553157713
  0
ARC
  5
36D72
  8
0
 10
2834.4909649010041903
 20
179.0211905990879018
 30
0.0
 40
0.1610001665477177
 50
151.1135750337045067
 51
157.7226738205199865
  0
ARC
  5
36D73
  8
0
 10
2834.3686479067559958
 20
179.0709299444853002
 30
0.0
 40
0.0289592716938169
 50
157.0453054844126939
 51
196.0886028236218124
  0
ARC
  5
36D74
  8
0
 10
2834.1825126100111447
 20
179.1977126821061859
 30
0.0
 40
0.2079310857391999
 50
319.5841647340823783
 51
324.5869658477527082
  0
ARC
  5
36D75
  8
0
 10
2833.453716511985931
 20
179.431046464659687
 30
0.0
 40
0.9801638673875078
 50
345.0326341365355916
 51
346.1314623146715803
  0
ARC
  5
36D76
  8
0
 10
2834.4116889764682128
 20
179.173442728991688
 30
0.0
 40
0.0235448587350603
 50
105.7274038742723974
 51
155.2674971463152076
  0
LINE
  5
36D77
  8
0
 10
2834.4554762683687841
 20
179.4604256807097045
 30
0.0
 11
2834.5039419726808774
 21
179.434596722549486
 31
0.0
  0
ARC
  5
36D78
  8
0
 10
2834.4977990898478311
 20
179.4230701584068868
 30
0.0
 40
0.0130612668000524
 50
4.8584586348425276
 51
61.9453877210265489
  0
ARC
  5
36D79
  8
0
 10
2834.4783203461411176
 20
179.4214144666588879
 30
0.0
 40
0.032610250701367
 50
344.4850842153963981
 51
4.8584586348425276
  0
ARC
  5
36D7A
  8
0
 10
2834.113566140731109
 20
179.5339533906858946
 30
0.0
 40
0.4143186967641443
 50
327.2454722864047199
 51
342.9816698945139137
  0
ARC
  5
36D7B
  8
0
 10
2834.4283190632968399
 20
179.3327338898735093
 30
0.0
 40
0.0407587103438336
 50
306.5060410606756136
 51
325.7420579655175743
  0
ARC
  5
36D7C
  8
0
 10
2834.4453113045879036
 20
179.3113616016377136
 30
0.0
 40
0.0135039945104355
 50
245.1329214047038079
 51
302.498650866466221
  0
LINE
  5
36D7D
  8
0
 10
2834.4396326781670723
 20
179.2991096193613032
 30
0.0
 11
2834.3899721703078285
 21
179.3233662780864108
 31
0.0
  0
ARC
  5
36D7E
  8
0
 10
2834.9706291832358147
 20
179.1420193822040119
 30
0.0
 40
0.6056113412279781
 50
148.2805709493659094
 51
159.8939112628767134
  0
ARC
  5
36D7F
  8
0
 10
2834.7370016050731465
 20
179.1848869104200048
 30
0.0
 40
0.3736388146600585
 50
153.7395878549793053
 51
158.2459177205313097
  0
ARC
  5
36D80
  8
0
 10
2834.4124231478940601
 20
179.3114748799484062
 30
0.0
 40
0.0254057422916932
 50
152.0915943126435934
 51
195.6050011978435066
  0
ARC
  5
36D81
  8
0
 10
2834.3424314968829094
 20
179.3634736953075048
 30
0.0
 40
0.0743882825711291
 50
307.7311001001996829
 51
322.1976553768113263
  0
ARC
  5
36D82
  8
0
 10
2834.4882064883890962
 20
179.4447592347802072
 30
0.0
 40
0.0362864276361933
 50
122.4108442355873052
 51
154.4217128226738964
  0
ARC
  5
36D83
  8
0
 10
2834.3964374888100792
 20
179.4747690978655044
 30
0.0
 40
0.0723226538458629
 50
344.0036400484739261
 51
0.4944339014591827
  0
LINE
  5
36D84
  8
0
 10
2834.6025746387372237
 20
179.6514256232159994
 30
0.0
 11
2834.6509177858370094
 21
179.6256348562548908
 31
0.0
  0
ARC
  5
36D85
  8
0
 10
2834.6451691682159435
 20
179.6148594393121982
 30
0.0
 40
0.0122129527486128
 50
357.981896624699516
 51
61.9203576458745388
  0
ARC
  5
36D86
  8
0
 10
2834.3408552704008798
 20
179.705278351799393
 30
0.0
 40
0.3292992432727727
 50
327.7734580115928225
 51
343.9851892380756908
  0
ARC
  5
36D87
  8
0
 10
2834.608898846628108
 20
179.5406587328471062
 30
0.0
 40
0.0152140943506678
 50
251.2727894611332999
 51
313.7767506249422809
  0
LINE
  5
36D88
  8
0
 10
2834.60401416693594
 20
179.5262501044869055
 30
0.0
 11
2834.557236919953084
 21
179.5489341798875955
 31
0.0
  0
ARC
  5
36D89
  8
0
 10
2835.1601138416440335
 20
179.3435213053784878
 30
0.0
 40
0.6369105366698992
 50
151.0900655459151096
 51
161.1849412947352107
  0
ARC
  5
36D8A
  8
0
 10
2834.6743355472121948
 20
179.6117952376638982
 30
0.0
 40
0.0819767982068868
 50
134.3148732618284953
 51
151.0900655459165023
  0
ARC
  5
36D8B
  8
0
 10
2834.466516239981047
 20
179.6799666989662967
 30
0.0
 40
0.1508506827395002
 50
346.8487333611229815
 51
356.3832037809185067
  0
ARC
  5
36D8C
  8
0
 10
2834.5998563923280926
 20
179.5323731142582062
 30
0.0
 40
0.045724045317531
 50
158.764879632717907
 51
189.1437696929336028
  0
ARC
  5
36D8D
  8
0
 10
2832.2956068110311207
 20
181.6055448301437139
 30
0.0
 40
3.0711205832956239
 50
317.3576693544206933
 51
317.7955415095598255
  0
LINE
  5
36D8E
  8
0
 10
2834.6666345078228915
 20
179.6184720126173886
 30
0.0
 11
2834.7083133586402255
 21
179.5967439189732886
 31
0.0
  0
ARC
  5
36D8F
  8
0
 10
2834.7028045872648363
 20
179.5861769882475869
 30
0.0
 40
0.0119166516701125
 50
340.4779627678993279
 51
62.4659865584110392
  0
ARC
  5
36D90
  8
0
 10
2833.1680916459099535
 20
180.2543771137536055
 30
0.0
 40
1.6857560842542609
 50
333.4129876579547158
 51
336.5004211449956983
  0
ARC
  5
36D91
  8
0
 10
2834.6661740992331033
 20
179.507105212302605
 30
0.0
 40
0.0118515618840219
 50
243.2821446946757078
 51
322.5960035340581271
  0
LINE
  5
36D92
  8
0
 10
2834.660845668042839
 20
179.4965190260139991
 30
0.0
 11
2834.6226213786280823
 21
179.5155894646701995
 31
0.0
  0
ARC
  5
36D93
  8
0
 10
2836.5278422355418115
 20
178.7613921186494963
 30
0.0
 40
2.049068117551303
 50
155.274088696152603
 51
158.4034565813460063
  0
ARC
  5
36D94
  8
0
 10
2834.7313030670070475
 20
179.5886923587812021
 30
0.0
 40
0.0711958589356371
 50
141.0529685566451974
 51
155.274088696152603
  0
ARC
  5
36D95
  8
0
 10
2834.542734262338854
 20
179.6506046986999934
 30
0.0
 40
0.1342984622469894
 50
344.8415899441143893
 51
352.6596005186270872
  0
ARC
  5
36D96
  8
0
 10
2834.6633915846050513
 20
179.4952900150080097
 30
0.0
 40
0.0455442351127306
 50
153.5313269873740012
 51
176.643027882389589
  0
ARC
  5
36D97
  8
0
 10
2834.6016125103092236
 20
179.5203599014517977
 30
0.0
 40
0.0277129305150369
 50
306.0606852144163099
 51
344.1069555683382077
  0
ARC
  5
36D98
  8
0
 10
2834.7826221424998039
 20
179.504153047944186
 30
0.0
 40
0.1609396836381773
 50
146.9309632623659923
 51
163.8094411543478941
  0
ARC
  5
36D99
  8
0
 10
2834.5022864550378472
 20
179.6326771430312021
 30
0.0
 40
0.1510545078805246
 50
326.3742511649322751
 51
344.3661532517756996
  0
ARC
  5
36D9A
  8
0
 10
2835.2088109862920646
 20
179.3029615433470099
 30
0.0
 40
0.5668592791490621
 50
152.7414723959425942
 51
157.5180474260467065
  0
ARC
  5
36D9B
  8
0
 10
2838.432769085874952
 20
177.8086144151162102
 30
0.0
 40
4.1198800311348993
 50
154.8028801909175911
 51
155.459907635048296
  0
LINE
  5
36D9C
  8
0
 10
2835.0367616512489803
 20
180.6044888943278011
 30
0.0
 11
2835.082735648004018
 21
180.579797260929297
 31
0.0
  0
ARC
  5
36D9D
  8
0
 10
2835.0762628247398425
 20
180.5691464241544111
 30
0.0
 40
0.012463457185388
 50
343.9491492949783833
 51
58.7117330361616894
  0
ARC
  5
36D9E
  8
0
 10
2833.8768075812208735
 20
180.9446337582376998
 30
0.0
 40
1.269314776672813
 50
336.83394017125039
 51
342.6304391476987234
  0
ARC
  5
36D9F
  8
0
 10
2835.0328167757461415
 20
180.4506938098519129
 30
0.0
 40
0.012219353008829
 50
244.8964750563208952
 51
333.7464950957947281
  0
LINE
  5
36DA0
  8
0
 10
2835.0276326524949582
 20
180.4396286639390041
 30
0.0
 11
2834.9823245854440756
 21
180.4617596591218103
 31
0.0
  0
ARC
  5
36DA1
  8
0
 10
2835.157238368552953
 20
180.4082365318517986
 30
0.0
 40
0.1829195360206249
 50
153.680644672408306
 51
162.986036167323789
  0
ARC
  5
36DA2
  8
0
 10
2835.5132051412037981
 20
180.3337256866736027
 30
0.0
 40
0.5427121967396634
 50
153.3819971439936012
 51
163.3376310624414032
  0
ARC
  5
36DA3
  8
0
 10
2836.3027719416882064
 20
180.1880977902656866
 30
0.0
 40
1.3327278818423991
 50
161.7939515261626866
 51
163.0389835340315869
  0
ARC
  5
36DA4
  8
0
 10
2835.1327323713258011
 20
180.5729241002717913
 30
0.0
 40
0.1010282897799495
 50
150.9930382414785015
 51
161.7939515261612087
  0
ARC
  5
36DA5
  8
0
 10
2834.9644823948538033
 20
180.6278650751256123
 30
0.0
 40
0.08011590222613
 50
341.5381222961793242
 51
355.7403305029582725
  0
ARC
  5
36DA6
  8
0
 10
2835.0102757154741084
 20
180.4522154834372998
 30
0.0
 40
0.0295356894001315
 50
161.1470566441371091
 51
195.7790982552772903
  0
ARC
  5
36DA7
  8
0
 10
2834.945580340583092
 20
180.4760276948688897
 30
0.0
 40
0.0482670979217804
 50
318.7207674078185846
 51
337.8945526086412769
  0
LINE
  5
36DA8
  8
0
 10
2834.9283130167641502
 20
180.3721978898605869
 30
0.0
 11
2834.9768514702141147
 21
180.3463515054048969
 31
0.0
  0
ARC
  5
36DA9
  8
0
 10
2834.9712069113761572
 20
180.3357512546488124
 30
0.0
 40
0.0120094279862908
 50
22.5777049835423611
 51
61.9650133198102111
  0
ARC
  5
36DAA
  8
0
 10
2834.9688167306057949
 20
180.3347574094709103
 30
0.0
 40
0.0145979975437076
 50
348.8278819372475823
 51
22.5777049835278483
  0
ARC
  5
36DAB
  8
0
 10
2834.3126834129097915
 20
180.5172490356530091
 30
0.0
 40
0.6955954350766236
 50
334.4206786272656018
 51
344.5486915949250033
  0
ARC
  5
36DAC
  8
0
 10
2834.8135018038801718
 20
180.2895952414608018
 30
0.0
 40
0.1459781364320223
 50
327.4599386160803078
 51
330.1414882849467745
  0
ARC
  5
36DAD
  8
0
 10
2834.9260770575169772
 20
180.2177661866465996
 30
0.0
 40
0.0124393748418546
 50
242.7112071913905993
 51
327.459938616088607
  0
LINE
  5
36DAE
  8
0
 10
2834.9203739060558291
 20
180.206711228037193
 30
0.0
 11
2834.8740461832198889
 21
180.2291190643055927
 31
0.0
  0
ARC
  5
36DAF
  8
0
 10
2835.6833838053908039
 20
180.0039846314103897
 30
0.0
 40
0.8400671994176246
 50
154.0036395633443078
 51
164.4549634026591889
  0
ARC
  5
36DB0
  8
0
 10
2834.9781886437849607
 20
180.3478758429486106
 30
0.0
 40
0.0554900003315156
 50
132.6724753121235949
 51
154.0036395633472068
  0
ARC
  5
36DB1
  8
0
 10
2834.8566654489040957
 20
180.3886348908006028
 30
0.0
 40
0.083911718947734
 50
345.1623038993010937
 51
0.0269275826564431
  0
ARC
  5
36DB2
  8
0
 10
2834.7651389567668048
 20
180.3089098284011982
 30
0.0
 40
0.1447856730306418
 50
317.9245701203399221
 51
324.4845346841004243
  0
ARC
  5
36DB3
  8
0
 10
2834.9281066980988726
 20
180.2159314564329122
 30
0.0
 40
0.0556457749561852
 50
166.2909218636181947
 51
184.167297653128287
  0
LINE
  5
36DB4
  8
0
 10
2834.9804881775858121
 20
180.3225959966954122
 30
0.0
 11
2834.9993801721261661
 21
180.3124005086611987
 31
0.0
  0
ARC
  5
36DB5
  8
0
 10
2834.9937662792240189
 20
180.3019980998979861
 30
0.0
 40
0.0118205711198705
 50
337.8128151613182126
 51
61.6454881363374199
  0
LINE
  5
36DB6
  8
0
 10
2835.0047115970069171
 20
180.2975342539976111
 30
0.0
 11
2834.9719773259362228
 21
180.2172700586692997
 31
0.0
  0
ARC
  5
36DB7
  8
0
 10
2834.9613077631779561
 20
180.2216214429707861
 30
0.0
 40
0.0115227650670803
 50
242.0921516039244068
 51
337.8128151613151999
  0
LINE
  5
36DB8
  8
0
 10
2834.9559145229818569
 20
180.2114387579134132
 30
0.0
 11
2834.9408414508061469
 21
180.2184673616403074
 31
0.0
  0
ARC
  5
36DB9
  8
0
 10
2835.1202448142148569
 20
180.2093809316546924
 30
0.0
 40
0.1741233839878113
 50
151.2557652748081978
 51
166.849468778543411
  0
ARC
  5
36DBA
  8
0
 10
2834.7785991513419503
 20
180.3401665629885997
 30
0.0
 40
0.1947474742943436
 50
332.0858057887896848
 51
346.0194282645476846
  0
LINE
  5
36DBB
  8
0
 10
2834.8041486608840387
 20
180.1469631495812962
 30
0.0
 11
2834.8510368564670898
 21
180.1219160188628905
 31
0.0
  0
ARC
  5
36DBC
  8
0
 10
2834.8440513673499481
 20
180.1099630200185118
 30
0.0
 40
0.0138445382580497
 50
349.8829335578286077
 51
59.6974253576520297
  0
ARC
  5
36DBD
  8
0
 10
2834.4889342603810292
 20
180.1879916465206009
 30
0.0
 40
0.3774225622634901
 50
328.102818505113305
 51
347.6909751582002173
  0
ARC
  5
36DBE
  8
0
 10
2834.7980456257878359
 20
179.9956078636625136
 30
0.0
 40
0.0133327984262187
 50
245.2999482548767958
 51
328.1028185051159767
  0
LINE
  5
36DBF
  8
0
 10
2834.7924742773848266
 20
179.9834949122945886
 30
0.0
 11
2834.7437902094270612
 21
180.0072755053340074
 31
0.0
  0
ARC
  5
36DC0
  8
0
 10
2834.8937769497711088
 20
179.9670688508408034
 30
0.0
 40
0.1552823149772738
 50
153.6871252558773904
 51
164.9936458091106033
  0
ARC
  5
36DC1
  8
0
 10
2835.611654185694988
 20
179.7191665333633068
 30
0.0
 40
0.9137233238595165
 50
152.0864766020291086
 51
159.7179491049348883
  0
ARC
  5
36DC2
  8
0
 10
2834.8351977409379288
 20
180.1344805665164017
 30
0.0
 40
0.0333637857396399
 50
125.2105056117707989
 51
158.1173004510866917
  0
ARC
  5
36DC3
  8
0
 10
2834.7722873446200538
 20
180.1614422791103038
 30
0.0
 40
0.0436744488273805
 50
334.8307379866282076
 51
0.3906922724433289
  0
ARC
  5
36DC4
  8
0
 10
2834.7855328404298234
 20
179.9965612480716004
 30
0.0
 40
0.0430957370481428
 50
165.604415303338186
 51
189.7947647368517039
  0
ARC
  5
36DC5
  8
0
 10
2834.7193499834338581
 20
180.0139835102241932
 30
0.0
 40
0.034280620574341
 50
313.772704932022009
 51
341.8455292089553836
  0
ARC
  5
36DC6
  8
0
 10
2834.9357796625467927
 20
180.0047400882124862
 30
0.0
 40
0.1144197166214087
 50
145.7820537970881105
 51
169.5870410494810017
  0
ARC
  5
36DC7
  8
0
 10
2834.710060415226053
 20
180.0973854218995882
 30
0.0
 40
0.1341251597238271
 50
327.5508715279480043
 51
347.8182233186109897
  0
LINE
  5
36DC8
  8
0
 10
2834.8556820903418156
 20
180.0988635380238065
 30
0.0
 11
2834.9018448373858519
 21
180.0744805263543924
 31
0.0
  0
ARC
  5
36DC9
  8
0
 10
2834.8962258441351878
 20
180.0638424572084944
 30
0.0
 40
0.0120308603315097
 50
344.4853810267609902
 51
62.1571326654544976
  0
ARC
  5
36DCA
  8
0
 10
2834.0463490632419052
 20
180.367845348628606
 30
0.0
 40
0.9146113975103828
 50
334.7624234341885767
 51
340.3725254704518761
  0
ARC
  5
36DCB
  8
0
 10
2834.8625808462202258
 20
179.98410947985181
 30
0.0
 40
0.0127091463308707
 50
246.7299182380276079
 51
330.6495678778805996
  0
LINE
  5
36DCC
  8
0
 10
2834.8575598963698212
 20
179.97243418700441
 30
0.0
 11
2834.8130489295549523
 21
179.9946073872555132
 31
0.0
  0
ARC
  5
36DCD
  8
0
 10
2834.4930380236878591
 20
180.1825601923677027
 30
0.0
 40
0.4304804069723927
 50
334.3570427890863925
 51
340.6481633528866837
  0
ARC
  5
36DCE
  8
0
 10
2835.287112357046226
 20
179.853686099425687
 30
0.0
 40
0.4303007202764328
 50
154.3557279313280048
 51
160.6494782106416892
  0
LINE
  5
36DCF
  8
0
 10
2834.7389557970850547
 20
179.8700237272275899
 30
0.0
 11
2834.8153883791019325
 21
179.8305258265442035
 31
0.0
  0
ARC
  5
36DD0
  8
0
 10
2834.8099863561551501
 20
179.82007234535169
 30
0.0
 40
0.011766780399039
 50
335.2611981530433241
 51
62.6715332477092417
  0
LINE
  5
36DD1
  8
0
 10
2834.8206732400631154
 20
179.8151481567583119
 30
0.0
 11
2834.783794065092934
 21
179.7351099019195999
 31
0.0
  0
ARC
  5
36DD2
  8
0
 10
2834.7734919816289221
 20
179.7398567862611003
 30
0.0
 40
0.0113430963431456
 50
242.6104324863640045
 51
335.2611981530264984
  0
LINE
  5
36DD3
  8
0
 10
2834.7682737248828744
 20
179.7297852604989998
 30
0.0
 11
2834.6973121634928248
 21
179.7656402563486893
 31
0.0
  0
ARC
  5
36DD4
  8
0
 10
2834.7786801773081606
 20
179.8342371662313042
 30
0.0
 40
0.0136151610465946
 50
359.1062966510160095
 51
57.2963728304832216
  0
ARC
  5
36DD5
  8
0
 10
2834.4079671907002194
 20
179.9485709150123967
 30
0.0
 40
0.40103324474815
 50
329.7818335964532821
 51
343.4036409828069054
  0
ARC
  5
36DD6
  8
0
 10
2834.7452080566617951
 20
179.7563351671770135
 30
0.0
 40
0.0133660038552679
 50
249.1137495593875997
 51
314.0791779282481002
  0
ARC
  5
36DD7
  8
0
 10
2834.9680562595967785
 20
179.7052668695019122
 30
0.0
 40
0.2132970648787965
 50
150.2249930436227885
 51
162.9412552825793057
  0
ARC
  5
36DD8
  8
0
 10
2834.5848885806599355
 20
179.871193355777109
 30
0.0
 40
0.2069208380200908
 50
330.0331515139608882
 51
343.1428815313080918
  0
ARC
  5
36DD9
  8
0
 10
2828.7853984627658974
 20
180.7625585911430903
 30
0.0
 40
6.0300184234299046
 50
351.4418067012774145
 51
351.637636812010328
  0
ARC
  5
36DDA
  8
0
 10
2834.7920226683631881
 20
179.8406166109087962
 30
0.0
 40
0.0606701847487096
 50
132.1538132410113064
 51
151.0068809966548997
  0
ARC
  5
36DDB
  8
0
 10
2834.7958542545611635
 20
179.8384933295033079
 30
0.0
 40
0.0650507528309887
 50
151.0068809966577135
 51
168.3460728611480874
  0
ARC
  5
36DDC
  8
0
 10
2834.9261240546920817
 20
179.7354236089279027
 30
0.0
 40
0.2261256902265548
 50
149.0748701111824062
 51
167.5810080315197865
  0
ARC
  5
36DDD
  8
0
 10
2834.764669529729872
 20
179.7473941500647072
 30
0.0
 40
0.0697849209052731
 50
148.3098052815410881
 51
164.8431691391020877
  0
ARC
  5
36DDE
  8
0
 10
2834.7599433113327905
 20
179.7486744121659115
 30
0.0
 40
0.064888369937068
 50
164.8431691391052141
 51
180.3560068480367136
  0
ARC
  5
36DDF
  8
0
 10
2834.6495945113802009
 20
179.7969945661268127
 30
0.0
 40
0.0666387869801998
 50
313.0166245739666806
 51
327.6654589486539066
  0
LINE
  5
36DE0
  8
0
 10
2834.4738510678312196
 20
179.1941144062649869
 30
0.0
 11
2834.5159883579772213
 21
179.1715362190685994
 31
0.0
  0
ARC
  5
36DE1
  8
0
 10
2834.5091843395061915
 20
179.1606460669013074
 30
0.0
 40
0.0128409532974472
 50
331.9532766474504797
 51
58.0034201472318074
  0
ARC
  5
36DE2
  8
0
 10
2831.9372047388751525
 20
180.3391956082143963
 30
0.0
 40
2.8419624872929812
 50
331.7660909931772153
 51
335.3660072129696914
  0
ARC
  5
36DE3
  8
0
 10
2834.4298299223828508
 20
178.9990472834334128
 30
0.0
 40
0.0120091783072385
 50
244.2817032618488895
 51
338.9919103952187243
  0
LINE
  5
36DE4
  8
0
 10
2834.424618577756064
 20
178.9882277524461074
 30
0.0
 11
2834.3841410688769429
 21
179.0083708725721863
 31
0.0
  0
ARC
  5
36DE5
  8
0
 10
2834.5213459539959331
 20
178.9634869599165938
 30
0.0
 40
0.144356065661372
 50
145.0362930696925048
 51
161.8857131216813912
  0
ARC
  5
36DE6
  8
0
 10
2834.7230607069100188
 20
178.9448305901275091
 30
0.0
 40
0.3356914652127372
 50
155.4280943426117005
 51
162.4218986302541055
  0
ARC
  5
36DE7
  8
0
 10
2836.6400670233551864
 20
177.8447246867347076
 30
0.0
 40
2.5478401366001009
 50
149.2430277993620109
 51
149.8485695199715053
  0
ARC
  5
36DE8
  8
0
 10
2834.8189354340570389
 20
178.9922317387463977
 30
0.0
 40
0.3997997389421978
 50
149.6713375338877086
 51
157.1185457332684905
  0
ARC
  5
36DE9
  8
0
 10
2834.510532142071952
 20
179.1727703367083109
 30
0.0
 40
0.0424390211091161
 50
130.0464553550123981
 51
149.8056305039029041
  0
ARC
  5
36DEA
  8
0
 10
2834.4025940731689843
 20
179.2175243170173076
 30
0.0
 40
0.0815600623778846
 50
341.002354391750373
 51
351.3503899851488086
  0
ARC
  5
36DEB
  8
0
 10
2833.8879362736570329
 20
179.3692910416845905
 30
0.0
 40
0.6626136870153517
 50
331.1634101571136739
 51
335.9297260710380897
  0
ARC
  5
36DEC
  8
0
 10
2834.8769227934039918
 20
178.8771931771437096
 30
0.0
 40
0.4434681264922958
 50
149.9832455186422919
 51
157.107438864518997
  0
ARC
  5
36DED
  8
0
 10
2834.4944784003300811
 20
178.9715835706340101
 30
0.0
 40
0.1163046325900758
 50
161.5614809466711961
 51
169.8044167085676008
  0
ARC
  5
36DEE
  8
0
 10
2834.2038169588881829
 20
179.1485203337416863
 30
0.0
 40
0.2355617984985353
 50
318.4149056207576223
 51
322.4971510509561199
  0
ARC
  5
36DEF
  8
0
 10
2834.5518516649999583
 20
179.0406264352392043
 30
0.0
 40
0.1448968910487843
 50
144.5371109859619025
 51
163.3013983118547117
  0
ARC
  5
36DF0
  8
0
 10
2834.3168198462399232
 20
179.1557720684766934
 30
0.0
 40
0.1211082505193665
 50
322.6277775880647027
 51
345.1219682543937779
  0
LINE
  5
36DF1
  8
0
 10
2834.5393095768531566
 20
179.3955704352717078
 30
0.0
 11
2834.582891839642798
 21
179.37279017654771
 31
0.0
  0
ARC
  5
36DF2
  8
0
 10
2834.5772774979009228
 20
179.3620490466886963
 30
0.0
 40
0.0121199300261386
 50
338.0018306094132754
 51
62.4041276356932713
  0
ARC
  5
36DF3
  8
0
 10
2833.9765864720880018
 20
179.6047216499771082
 30
0.0
 40
0.6599777083071904
 50
330.2296885609524111
 51
338.0018306094132754
  0
ARC
  5
36DF4
  8
0
 10
2834.5394551010281248
 20
179.2837353484611924
 30
0.0
 40
0.0120477338555068
 50
243.2602498399407978
 51
326.1625990132586139
  0
LINE
  5
36DF5
  8
0
 10
2834.5340343594912156
 20
179.2729760059050932
 30
0.0
 11
2834.4929821091827762
 21
179.2934383150241899
 31
0.0
  0
ARC
  5
36DF6
  8
0
 10
2834.7148750942101287
 20
179.2081928162718896
 30
0.0
 40
0.2377042108119552
 50
154.5897821553600977
 51
158.9845265531677114
  0
ARC
  5
36DF7
  8
0
 10
2834.8910612645900073
 20
179.1742074812524095
 30
0.0
 40
0.4138720088919833
 50
150.3109006042012084
 51
160.8183795640773042
  0
ARC
  5
36DF8
  8
0
 10
2834.7722310303329323
 20
179.2747286692626858
 30
0.0
 40
0.2624026217543842
 50
152.5793055414196999
 51
156.5394980129273108
  0
ARC
  5
36DF9
  8
0
 10
2834.5806397364967779
 20
179.3741279729904079
 30
0.0
 40
0.0465613711658152
 50
128.9919709664208085
 51
152.5793055414196999
  0
ARC
  5
36DFA
  8
0
 10
2834.4900481248751021
 20
179.4108609398680869
 30
0.0
 40
0.0612970752389309
 50
341.1009449855741877
 51
359.4916167192798753
  0
ARC
  5
36DFB
  8
0
 10
2834.5374262344457748
 20
179.2750670008256861
 30
0.0
 40
0.0480914279303998
 50
157.541881735841713
 51
177.9563833054876909
  0
ARC
  5
36DFC
  8
0
 10
2834.4774703635880542
 20
179.3009239397520105
 30
0.0
 40
0.0269133358355047
 50
296.2299823138779971
 51
333.9607232125667906
  0
ARC
  5
36DFD
  8
0
 10
2834.2899845256210938
 20
179.4522643116632992
 30
0.0
 40
0.3106760125561067
 50
329.8559913133630062
 51
338.5771723065424226
  0
ARC
  5
36DFE
  8
0
 10
2834.8356742376017792
 20
179.1886623848317015
 30
0.0
 40
0.2971860471260591
 50
149.657641078976809
 51
158.7755193463983119
  0
LINE
  5
36DFF
  8
0
 10
2834.5746092715098712
 20
179.3771103459984886
 30
0.0
 11
2834.6236940025178228
 21
179.5036143283182923
 31
0.0
  0
LINE
  5
36E00
  8
0
 10
2834.5919123262151516
 20
179.4217047704051993
 30
0.0
 11
2834.631888937669828
 21
179.4007954377148053
 31
0.0
  0
ARC
  5
36E01
  8
0
 10
2834.6265144448598221
 20
179.390519929929809
 30
0.0
 40
0.011596173213848
 50
339.2207372939504921
 51
62.3886717061592009
  0
LINE
  5
36E02
  8
0
 10
2834.637356335019831
 20
179.3864059718640931
 30
0.0
 11
2834.5816450033371439
 21
179.2706419347059921
 31
0.0
  0
ARC
  5
36E03
  8
0
 10
2834.5692847132690986
 20
179.2741246270977058
 30
0.0
 40
0.0128415698754024
 50
344.2640418523528751
 51
57.5845493856409689
  0
LINE
  5
36E04
  8
0
 10
2834.5761684940789564
 20
179.2849652672364869
 30
0.0
 11
2834.5588281991099393
 21
179.2939723188823109
 31
0.0
  0
LINE
  5
36E05
  8
0
 10
2834.5889355519698256
 20
179.3653630290627916
 30
0.0
 11
2834.6094772547230605
 21
179.3547503324477077
 31
0.0
  0
ARC
  5
36E06
  8
0
 10
2834.6031732682790789
 20
179.3425484745795018
 30
0.0
 40
0.0137341028291157
 50
5.2135560889088959
 51
62.6772457542833195
  0
ARC
  5
36E07
  8
0
 10
2834.5664690884000265
 20
179.2745287391992122
 30
0.0
 40
0.0156657474563835
 50
333.9948824702195225
 51
345.6343911586761806
  0
ARC
  5
36E08
  8
0
 10
2830.1411828924829024
 20
181.3336055328246061
 30
0.0
 40
4.8965395864252699
 50
332.9663421159639256
 51
335.0441679316219847
  0
ARC
  5
36E09
  8
0
 10
2834.4897994322918748
 20
179.1143603973644929
 30
0.0
 40
0.0143790842911852
 50
292.4455214002692856
 51
334.015627577371788
  0
ARC
  5
36E0A
  8
0
 10
2835.6262358443550511
 20
178.6583634910010119
 30
0.0
 40
1.2072584773381341
 50
152.6967831109091946
 51
155.3128803458540119
  0
ARC
  5
36E0B
  8
0
 10
2833.3579265401108387
 20
179.7644442803261882
 30
0.0
 40
1.316961518660468
 50
332.8061820681364793
 51
335.2043255350400273
  0
LINE
  5
36E0C
  8
0
 10
2834.5199930690391739
 20
179.2799748238385007
 30
0.0
 11
2834.4822924862978653
 21
179.2001978424806055
 31
0.0
  0
LINE
  5
36E0D
  8
0
 10
2834.5110223898182085
 20
179.2609922602543975
 30
0.0
 11
2834.5530589653681091
 21
179.2392753846540074
 31
0.0
  0
ARC
  5
36E0E
  8
0
 10
2834.5466199938509817
 20
179.2268116989183966
 30
0.0
 40
0.0140286783523177
 50
353.5704753511599279
 51
62.6782837895744365
  0
ARC
  5
36E0F
  8
0
 10
2834.3711356731978412
 20
178.9934542449535968
 30
0.0
 40
0.0098778796984042
 50
333.3335723210054198
 51
359.1470668884127235
  0
LINE
  5
36E10
  8
0
 10
2834.3799628874048722
 20
178.9890210974621994
 30
0.0
 11
2834.3653876764360575
 21
178.9604576748693887
 31
0.0
  0
LINE
  5
36E11
  8
0
 10
2835.0021376448980845
 20
180.4520816202359015
 30
0.0
 11
2834.9634804352040192
 21
180.3534714873339908
 31
0.0
  0
LINE
  5
36E12
  8
0
 10
2834.9106256367590504
 20
180.2114262800388076
 30
0.0
 11
2834.8673931636199086
 21
180.0926777875066875
 31
0.0
  0
LINE
  5
36E13
  8
0
 10
2834.8268452038919349
 20
179.9877709451010048
 30
0.0
 11
2834.7762429494769094
 21
179.8505851217151985
 31
0.0
  0
LINE
  5
36E14
  8
0
 10
2834.7327929441880769
 20
179.7477127584238872
 30
0.0
 11
2834.6773612864421921
 21
179.6128799090500081
 31
0.0
  0
LINE
  5
36E15
  8
0
 10
2835.0387631088710805
 20
180.6100252195224982
 30
0.0
 11
2835.0491160202050196
 21
180.6500030356700961
 31
0.0
  0
ARC
  5
36E16
  8
0
 10
2836.1984656717800135
 20
180.3523600881300126
 30
0.0
 40
1.187264059001137
 50
164.6091204574209996
 51
165.4812685473968941
  0
ARC
  5
36E17
  8
0
 10
2835.0391427269059932
 20
180.671492293427292
 30
0.0
 40
0.0151813888133327
 50
344.6091204574225912
 51
27.6385062515203792
  0
LINE
  5
36E18
  8
0
 10
2834.9405771585848015
 20
180.3886743272097988
 30
0.0
 11
2835.0053267686121217
 21
180.5642042185824891
 31
0.0
  0
ARC
  5
36E19
  8
0
 10
2832.8228253283409686
 20
181.3692871365637131
 30
0.0
 40
2.3262568735220608
 50
339.7519496449240251
 51
340.4711774555855754
  0
ARC
  5
36E1A
  8
0
 10
2835.001421466508873
 20
180.5965721923388116
 30
0.0
 40
0.0146839202564333
 50
340.4711774555901798
 51
28.4248726190491006
  0
LINE
  5
36E1B
  8
0
 10
2834.9219493508849155
 20
180.3588514670400116
 30
0.0
 11
2834.940338171750227
 21
180.4368585475602913
 31
0.0
  0
ARC
  5
36E1C
  8
0
 10
2834.9030848069901367
 20
180.4554593896054939
 30
0.0
 40
0.0416389782621849
 50
333.4667516493353219
 51
357.0411656492158272
  0
ARC
  5
36E1D
  8
0
 10
2834.9313353372940583
 20
180.4571906311327041
 30
0.0
 40
0.0138861855756446
 50
343.7722463665151054
 51
30.7519158055490607
  0
LINE
  5
36E1E
  8
0
 10
2834.7615198134690218
 20
179.9986151670308914
 30
0.0
 11
2834.7321451174880167
 21
179.8516366280709065
 31
0.0
  0
LINE
  5
36E1F
  8
0
 10
2834.7052928864441128
 20
179.7840595617983013
 30
0.0
 11
2834.615364663292894
 21
179.6446022250194119
 31
0.0
  0
LINE
  5
36E20
  8
0
 10
2834.5622190014378248
 20
179.5630134277357968
 30
0.0
 11
2834.473244894833897
 21
179.4509561988147084
 31
0.0
  0
LINE
  5
36E21
  8
0
 10
2834.5756135990432085
 20
179.5399577663366131
 30
0.0
 11
2834.5348784227171564
 21
179.3866164503710081
 31
0.0
  0
LINE
  5
36E22
  8
0
 10
2834.5520824668001296
 20
179.3888941013917133
 30
0.0
 11
2834.6226213786208064
 21
179.5155894646734964
 31
0.0
  0
LINE
  5
36E23
  8
0
 10
2834.7109055222299503
 20
179.7587718925254023
 30
0.0
 11
2834.6719263495529049
 21
179.627976652766904
 31
0.0
  0
LINE
  5
36E24
  8
0
 10
2834.5961982746071044
 20
179.6395859351050035
 30
0.0
 11
2834.6405841919349768
 21
179.8573844185677899
 31
0.0
  0
ARC
  5
36E25
  8
0
 10
2834.632390266423954
 20
179.8584206855308025
 30
0.0
 40
0.0082591927259902
 50
352.792199043450978
 51
52.2783737065442793
  0
LINE
  5
36E26
  8
0
 10
2834.3878432318460909
 20
179.3046798093756991
 30
0.0
 11
2834.2460124469121183
 21
179.0115378012208112
 31
0.0
  0
LINE
  5
36E27
  8
0
 10
2834.2518926711190943
 20
178.9879317784883028
 30
0.0
 11
2834.3499979774278472
 21
179.0989682143678863
 31
0.0
  0
LINE
  5
36E28
  8
0
 10
2834.3823414750850134
 20
179.1662258364908098
 30
0.0
 11
2834.4156475340500947
 21
179.3108246930551104
 31
0.0
  0
LINE
  5
36E29
  8
0
 10
2834.4096080414210519
 20
179.1731780720419067
 30
0.0
 11
2834.4929131979229169
 21
179.2935334931055138
 31
0.0
  0
LINE
  5
36E2A
  8
0
 10
2834.3579987266289208
 20
179.0742261873049017
 30
0.0
 11
2834.3125248182891482
 21
178.9212157555639067
 31
0.0
  0
LINE
  5
36E2B
  8
0
 10
2834.2209432189001745
 20
178.9824614886846064
 30
0.0
 11
2834.2440917199628529
 21
179.080630623675404
 31
0.0
  0
ARC
  5
36E2C
  8
0
 10
2834.2339431457889987
 20
179.0830236801087949
 30
0.0
 40
0.0104269015941366
 50
346.7318976775790134
 51
40.3438819401122828
  0
LINE
  5
36E2D
  8
0
 10
2834.4019251739459833
 20
179.3502040272711895
 30
0.0
 11
2834.3574822909340583
 21
179.3040318145349943
 31
0.0
  0
ARC
  5
36E2E
  8
0
 10
2834.3466823956428016
 20
179.3144272115611955
 30
0.0
 40
0.0149900639635396
 50
278.7585975393591866
 51
316.093319686519294
  0
LINE
  5
36E2F
  8
0
 10
2834.4554762683687841
 20
179.4604256807097045
 30
0.0
 11
2834.4664464237971515
 21
179.5198225226968134
 31
0.0
  0
ARC
  5
36E30
  8
0
 10
2834.4533313729389192
 20
179.522244775152501
 30
0.0
 40
0.0133368611739952
 50
349.5358142995258959
 51
24.8743609872983704
  0
ARC
  5
36E31
  8
0
 10
2834.5690570428100727
 20
179.3208148574796041
 30
0.0
 40
0.098754905165745
 50
141.0652007555069929
 51
168.7396942880332062
  0
ARC
  5
36E32
  8
0
 10
2834.3927312381038064
 20
179.4034027152031001
 30
0.0
 40
0.1016032521587595
 50
321.4605034511673125
 51
348.3443915923846248
  0
LINE
  5
36E33
  8
0
 10
2834.7545839251010875
 20
180.0359012503909923
 30
0.0
 11
2834.7107133635631726
 21
179.986418189058611
 31
0.0
  0
ARC
  5
36E34
  8
0
 10
2834.6965064976830035
 20
179.9990136746056919
 30
0.0
 40
0.0189863449427058
 50
268.9663773818867867
 51
318.4405300588969112
  0
LINE
  5
36E35
  8
0
 10
2834.8042378548238958
 20
180.1469155032123126
 30
0.0
 11
2834.8050163785787845
 21
180.1755954583769039
 31
0.0
  0
ARC
  5
36E36
  8
0
 10
2834.7709163340250598
 20
180.1765211116646128
 30
0.0
 40
0.0341126057737217
 50
358.4450751792231813
 51
21.1955214446661699
  0
LINE
  5
36E37
  8
0
 10
2834.8842021846521675
 20
180.2628700049064889
 30
0.0
 11
2834.8334880190241165
 21
180.2272219743838093
 31
0.0
  0
ARC
  5
36E38
  8
0
 10
2834.8236597773661742
 20
180.241203983150001
 30
0.0
 40
0.0170906671380203
 50
260.4795323686508937
 51
305.1041726744015818
  0
LINE
  5
36E39
  8
0
 10
2835.0494464137477735
 20
180.5975323502995877
 30
0.0
 11
2835.1073571446781898
 21
180.7721427070117954
 31
0.0
  0
ARC
  5
36E3A
  8
0
 10
2835.0869366724227802
 20
180.7754431727620101
 30
0.0
 40
0.0206854722285578
 50
350.8189456045295742
 51
22.3920641609958118
  0
ARC
  5
36E3B
  8
0
 10
2834.3717622624258183
 20
181.2306752474098914
 30
0.0
 40
0.0295516883548421
 50
63.2452344450989017
 51
89.9833576526629457
  0
ENDSEC
  0
EOF
