  0
SECTION
  2
HEADER
  9
$ACADVER
  1
AC1009
  9
$INSBASE
 10
2810.7096207359782056
 20
196.5496129273556107
 30
0.0
  9
$EXTMIN
 10
2807.9452793722448405
 20
187.1557938124551015
 30
-0.0000000000112498
  9
$EXTMAX
 10
2813.3114875558540007
 20
201.4830979160973925
 30
0.0000000000002956
  9
$LIMMIN
 10
0.0
 20
0.0
  9
$LIMMAX
 10
11.6929133858000007
 20
8.2677165353999982
  9
$ORTHOMODE
 70
     1
  9
$REGENMODE
 70
     1
  9
$FILLMODE
 70
     1
  9
$QTEXTMODE
 70
     0
  9
$MIRRTEXT
 70
     0
  9
$DRAGMODE
 70
     2
  9
$LTSCALE
 40
0.6431102362
  9
$OSMODE
 70
  4095
  9
$ATTMODE
 70
     1
  9
$TEXTSIZE
 40
0.2
  9
$TRACEWID
 40
0.05
  9
$TEXTSTYLE
  7
STANDARD
  9
$CLAYER
  8
0
  9
$CELTYPE
  6
BYLAYER
  9
$CECOLOR
 62
   256
  9
$DIMSCALE
 40
1.0
  9
$DIMASZ
 40
0.1875
  9
$DIMEXO
 40
0.0625
  9
$DIMDLI
 40
0.4443307087
  9
$DIMRND
 40
0.0
  9
$DIMDLE
 40
0.0
  9
$DIMEXE
 40
0.125
  9
$DIMTP
 40
0.01
  9
$DIMTM
 40
0.01
  9
$DIMTXT
 40
2.0
  9
$DIMCEN
 40
0.1052362205
  9
$DIMTSZ
 40
0.0
  9
$DIMTOL
 70
     1
  9
$DIMLIM
 70
     0
  9
$DIMTIH
 70
     1
  9
$DIMTOH
 70
     1
  9
$DIMSE1
 70
     0
  9
$DIMSE2
 70
     0
  9
$DIMTAD
 70
     0
  9
$DIMZIN
 70
     0
  9
$DIMBLK
  1

  9
$DIMASO
 70
     1
  9
$DIMSHO
 70
     1
  9
$DIMPOST
  1
\X
  9
$DIMAPOST
  1

  9
$DIMALT
 70
     1
  9
$DIMALTD
 70
     2
  9
$DIMALTF
 40
25.3999999999999986
  9
$DIMLFAC
 40
1.0
  9
$DIMTOFL
 70
     0
  9
$DIMTVP
 40
0.0
  9
$DIMTIX
 70
     0
  9
$DIMSOXD
 70
     0
  9
$DIMSAH
 70
     0
  9
$DIMBLK1
  1

  9
$DIMBLK2
  1

  9
$DIMSTYLE
  2
STANDARD
  9
$DIMCLRD
 70
     0
  9
$DIMCLRE
 70
     0
  9
$DIMCLRT
 70
     0
  9
$DIMTFAC
 40
1.0
  9
$DIMGAP
 40
0.09
  9
$LUNITS
 70
     2
  9
$LUPREC
 70
     4
  9
$SKETCHINC
 40
0.1
  9
$FILLETRAD
 40
0.0
  9
$AUNITS
 70
     0
  9
$AUPREC
 70
     0
  9
$MENU
  1
.
  9
$ELEVATION
 40
0.0
  9
$PELEVATION
 40
0.0
  9
$THICKNESS
 40
0.0
  9
$LIMCHECK
 70
     0
  9
$BLIPMODE
 70
     0
  9
$CHAMFERA
 40
0.0
  9
$CHAMFERB
 40
0.0
  9
$SKPOLY
 70
     0
  9
$TDCREATE
 40
2458060.468368056230247
  9
$TDUPDATE
 40
2459381.6519212969578803
  9
$TDINDWG
 40
0.677634375
  9
$TDUSRTIMER
 40
0.677634375
  9
$USRTIMER
 70
     1
  9
$ANGBASE
 50
0.0
  9
$ANGDIR
 70
     0
  9
$PDMODE
 70
     0
  9
$PDSIZE
 40
0.3125
  9
$PLINEWID
 40
0.0
  9
$COORDS
 70
     1
  9
$SPLFRAME
 70
     0
  9
$SPLINETYPE
 70
     6
  9
$SPLINESEGS
 70
     8
  9
$ATTDIA
 70
     1
  9
$ATTREQ
 70
     1
  9
$HANDLING
 70
     1
  9
$HANDSEED
  5
3598B
  9
$SURFTAB1
 70
     6
  9
$SURFTAB2
 70
     6
  9
$SURFTYPE
 70
     6
  9
$SURFU
 70
     6
  9
$SURFV
 70
     6
  9
$UCSNAME
  2

  9
$UCSORG
 10
0.0
 20
0.0
 30
0.0
  9
$UCSXDIR
 10
1.0
 20
0.0
 30
0.0
  9
$UCSYDIR
 10
0.0
 20
1.0
 30
0.0
  9
$PUCSNAME
  2

  9
$PUCSORG
 10
0.0
 20
0.0
 30
0.0
  9
$PUCSXDIR
 10
1.0
 20
0.0
 30
0.0
  9
$PUCSYDIR
 10
0.0
 20
1.0
 30
0.0
  9
$USERI1
 70
     0
  9
$USERI2
 70
     0
  9
$USERI3
 70
     0
  9
$USERI4
 70
     0
  9
$USERI5
 70
     0
  9
$USERR1
 40
0.0
  9
$USERR2
 40
0.0
  9
$USERR3
 40
0.0
  9
$USERR4
 40
0.0
  9
$USERR5
 40
0.0
  9
$WORLDVIEW
 70
     1
  9
$SHADEDGE
 70
     3
  9
$SHADEDIF
 70
    70
  9
$TILEMODE
 70
     1
  9
$MAXACTVP
 70
    64
  9
$PLIMCHECK
 70
     0
  9
$PEXTMIN
 10
1.0000000000000000E+20
 20
1.0000000000000000E+20
 30
1.0000000000000000E+20
  9
$PEXTMAX
 10
-1.0000000000000000E+20
 20
-1.0000000000000000E+20
 30
-1.0000000000000000E+20
  9
$PLIMMIN
 10
0.0
 20
0.0
  9
$PLIMMAX
 10
12.0
 20
9.0
  9
$UNITMODE
 70
     0
  9
$VISRETAIN
 70
     1
  9
$PLINEGEN
 70
     0
  9
$PSLTSCALE
 70
     1
  0
ENDSEC
  0
SECTION
  2
TABLES
  0
TABLE
  2
VPORT
 70
     1
  0
VPORT
  2
*ACTIVE
 70
     0
 10
0.0
 20
0.0
 11
1.0
 21
1.0
 12
-493.0647317703259773
 22
-0.9420657116114625
 13
0.0
 23
0.0
 14
1.0
 24
1.0
 15
0.0
 25
0.0
 16
0.0
 26
0.0
 36
96.5995694866707311
 17
3303.693115234375
 27
195.2615115758877096
 37
0.0
 40
14.4450627675078405
 41
2.6159122085048012
 42
50.0
 43
0.0
 44
0.0
 50
0.0
 51
0.0
 71
     0
 72
   100
 73
     1
 74
     1
 75
     0
 76
     0
 77
     0
 78
     0
  0
ENDTAB
  0
TABLE
  2
LTYPE
 70
     2
  0
LTYPE
  2
CONTINUOUS
 70
     0
  3
Solid line
 72
    65
 73
     0
 40
0.0
  0
LTYPE
  2
PHANTOM2
 70
     0
  3
___ _ _ ___ _ _ ___ _ _ ___ _ _
 72
    65
 73
     6
 40
1.25
 49
0.625
 49
-0.125
 49
0.125
 49
-0.125
 49
0.125
 49
-0.125
  0
ENDTAB
  0
TABLE
  2
LAYER
 70
     2
  0
LAYER
  2
0
 70
     0
 62
   255
  6
CONTINUOUS
  0
LAYER
  2
DEFPOINTS
 70
     0
 62
     7
  6
CONTINUOUS
  0
ENDTAB
  0
TABLE
  2
STYLE
 70
     1
  0
STYLE
  2
STANDARD
 70
     0
 40
0.0
 41
0.8
 50
0.0
 71
     0
 42
0.2
  3
txt
  4

  0
ENDTAB
  0
TABLE
  2
VIEW
 70
     0
  0
ENDTAB
  0
TABLE
  2
UCS
 70
     0
  0
ENDTAB
  0
TABLE
  2
APPID
 70
     9
  0
APPID
  2
ACAD
 70
     0
  0
APPID
  2
ACAD_MLEADERVER
 70
     0
  0
APPID
  2
ACAD_EXEMPT_FROM_CAD_STANDARDS
 70
     0
  0
APPID
  2
ACAD_NAV_VCDISPLAY
 70
     0
  0
APPID
  2
ACAECLAYERSTANDARD
 70
     0
  0
APPID
  2
ACCMTRANSPARENCY
 70
     0
  0
APPID
  2
ACAD_DSTYLE_DIMJAG
 70
     0
  0
APPID
  2
ACAD_DSTYLE_DIMTALN
 70
     0
  0
APPID
  2
ACDBATTR
 70
     0
  0
ENDTAB
  0
TABLE
  2
DIMSTYLE
 70
     1
  0
DIMSTYLE
  2
STANDARD
 70
     0
  3

  4

  5

  6

  7

 40
1.0
 41
0.1875
 42
0.0625
 43
0.38
 44
0.125
 45
0.0
 46
0.0
 47
0.01
 48
0.01
140
0.15625
141
0.09
142
0.0
143
25.3999999999999986
144
1.0
145
0.0
146
1.0
147
0.09
 71
     1
 72
     0
 73
     1
 74
     1
 75
     0
 76
     0
 77
     0
 78
     4
170
     0
171
     2
172
     0
173
     0
174
     0
175
     0
176
     0
177
     0
178
     0
  0
ENDTAB
  0
ENDSEC
  0
SECTION
  2
BLOCKS
  0
BLOCK
  8
0
  2
$MODEL_SPACE
 70
     0
 10
0.0
 20
0.0
 30
0.0
  3
$MODEL_SPACE
  1

  0
ENDBLK
  5
21
  8
0
  0
BLOCK
 67
     1
  8
0
  2
$PAPER_SPACE
 70
     0
 10
0.0
 20
0.0
 30
0.0
  3
$PAPER_SPACE
  1

  0
ENDBLK
  5
1D
 67
     1
  8
0
  0
BLOCK
  8
0
  2
_FILLED
 70
     0
 10
0.0
 20
0.0
 30
0.0
  3
_FILLED
  1

  0
SOLID
  5
335EC
  8
0
  6
BYBLOCK
 62
     0
 10
0.0
 20
0.0
 30
0.0
 11
-1.0
 21
0.1666666667
 31
0.0
 12
-1.0
 22
-0.1666666667
 32
0.0
 13
-1.0
 23
-0.1666666667
 33
0.0
  0
ENDBLK
  5
335ED
  8
0
  6
BYBLOCK
 62
     0
  0
ENDSEC
  0
SECTION
  2
ENTITIES
  0
ATTDEF
  5
35155
  8
DEFPOINTS
 10
2810.7101823128327851
 20
196.5538217665277898
 30
0.0
 40
0.001
  1
K-33073T-4E
  3

  2
MODELNUMBER
 70
     0
1001
ACDBATTR
1070
     0
1070
     1
  0
ATTDEF
  5
35156
  8
DEFPOINTS
 10
2810.7101823128327851
 20
196.5521550998612099
 30
0.0
 40
0.001
  1

  3

  2
TRADENAME
 70
     0
1001
ACDBATTR
1070
     0
1070
     1
  0
ATTDEF
  5
35157
  8
DEFPOINTS
 10
2810.7101823128327851
 20
196.5504884331944879
 30
0.0
 40
0.001
  1
BATH FILLER
  3

  2
PRODUCT
 70
     0
1001
ACDBATTR
1070
     0
1070
     1
  0
ARC
  5
35689
  8
0
 10
2810.7382758238782117
 20
196.1375709604818951
 30
0.0
 40
5.3424324985018048
 50
90.3073175882158665
 51
94.7911079371707928
  0
ARC
  5
3568A
  8
0
 10
2810.6089175711908865
 20
197.6809297825597866
 30
0.0
 40
3.7936620147877158
 50
94.7911079371707928
 51
109.1623750977920935
  0
ARC
  5
3568B
  8
0
 10
2810.0126398796141984
 20
199.3968333563223041
 30
0.0
 40
1.9771069894933779
 50
109.1623750977920935
 51
124.6633271383497004
  0
ARC
  5
3568C
  8
0
 10
2809.4408052113622034
 20
200.2237979239116896
 30
0.0
 40
0.971689024732203
 50
124.6633271383497004
 51
147.4448500657445038
  0
ARC
  5
3568D
  8
0
 10
2809.1389117901921963
 20
200.444412309959489
 30
0.0
 40
0.5989769706120536
 50
149.6931420019585062
 51
162.9413839100027985
  0
ARC
  5
3568E
  8
0
 10
2809.2968517284671179
 20
200.438912127602805
 30
0.0
 40
0.7527033246781089
 50
166.0694496204729944
 51
179.6302867411033048
  0
ARC
  5
3568F
  8
0
 10
2625.0222987839520101
 20
198.1104350569210055
 30
0.0
 40
183.5366979304097015
 50
0.5078742922948614
 51
0.7284308498239884
  0
ARC
  5
35690
  8
0
 10
2809.0845866140648468
 20
199.750846176736701
 30
0.0
 40
0.5329725039565583
 50
181.4566746769955046
 51
214.8844269828722986
  0
ARC
  5
35691
  8
0
 10
2809.6270707322350972
 20
200.1791728965949062
 30
0.0
 40
1.223636542357047
 50
216.8092839570705053
 51
245.6568509229308006
  0
ARC
  5
35692
  8
0
 10
2810.1716199660781967
 20
201.1831099107600949
 30
0.0
 40
2.3642134665979579
 50
243.6616585665254036
 51
250.3203951153184903
  0
ARC
  5
35693
  8
0
 10
2810.5122245070519966
 20
202.1712333044143008
 30
0.0
 40
3.4093443646640198
 50
250.5229111985231043
 51
259.8652920566792091
  0
ARC
  5
35694
  8
0
 10
2810.3889435510318435
 20
201.4886990594187068
 30
0.0
 40
2.7157672546389331
 50
259.8918020779186122
 51
264.3426680436145944
  0
ARC
  5
35695
  8
0
 10
2810.536472565744134
 20
203.00185402697619
 30
0.0
 40
4.2360959073354172
 50
264.3745130198744278
 51
265.7709546721412721
  0
ARC
  5
35696
  8
0
 10
2810.204860745429869
 20
198.0467553058705903
 30
0.0
 40
0.730789714756487
 50
79.5944041417365185
 51
88.4924453917718949
  0
ARC
  5
35697
  8
0
 10
2810.7096207427271111
 20
199.1085886938683984
 30
0.0
 40
0.5066043437000153
 50
222.6236742444087895
 51
269.9995368441074106
  0
ARC
  5
35698
  8
0
 10
2810.7096207427271111
 20
199.1085886938683984
 30
0.0
 40
0.5066043437000295
 50
269.9995368441074106
 51
316.427435951194127
  0
ARC
  5
35699
  8
0
 10
2811.1058142492570369
 20
198.7353892483735933
 30
0.0
 40
0.0377715737798596
 50
126.1772869531113059
 51
140.5290336631022967
  0
ARC
  5
3569A
  8
0
 10
2810.7105390129590887
 20
196.8899109249537958
 30
0.0
 40
4.5900157769993406
 50
81.5112450597627998
 51
90.0114625740671244
  0
ARC
  5
3569B
  8
0
 10
2810.9724473279247832
 20
198.3503636214688015
 30
0.0
 40
3.1072047423420379
 50
64.0509797732848227
 51
82.3125461802307257
  0
ARC
  5
3569C
  8
0
 10
2811.8218195100371304
 20
200.0727846681909909
 30
0.0
 40
1.186813528384391
 50
36.0408188053440668
 51
64.5366380265732715
  0
ARC
  5
3569D
  8
0
 10
2812.3290245904249787
 20
200.4650838244259887
 30
0.0
 40
0.5461981693058239
 50
2.5582321589946302
 51
34.0691205730842199
  0
LINE
  5
3569E
  8
0
 10
2812.8746784040781677
 20
200.4894632378291988
 30
0.0
 11
2812.8674547515279301
 21
199.7372979175684122
 31
0.0
  0
ARC
  5
3569F
  8
0
 10
2812.3506392837230123
 20
199.7478822108948862
 30
0.0
 40
0.5170221064027181
 50
329.5155184839825893
 51
358.8266836710001826
  0
ARC
  5
356A0
  8
0
 10
2811.9031229188321959
 20
200.0557718520888955
 30
0.0
 40
1.05956320986205
 50
297.9862897832294948
 51
327.4439047404030134
  0
ARC
  5
356A1
  8
0
 10
2811.1844668492822166
 20
201.300000368180406
 30
0.0
 40
2.4960442375789311
 50
284.8152906363317811
 51
299.1513028126259996
  0
ARC
  5
356A2
  8
0
 10
2810.9388818558891217
 20
202.0709152490614997
 30
0.0
 40
3.3043728955364688
 50
276.4104089467055019
 51
285.5139935503759148
  0
ARC
  5
356A3
  8
0
 10
2810.9181425619108268
 20
202.5716690069286869
 30
0.0
 40
3.804475060944998
 50
274.1760054516474838
 51
275.8787907960423809
  0
ARC
  5
356A4
  8
0
 10
2811.2116563327881522
 20
198.0643497479221935
 30
0.0
 40
0.713135059731825
 50
91.323365348014903
 51
100.3512843655095992
  0
ARC
  5
356A5
  8
0
 10
2810.707281056661941
 20
196.1114279901831026
 30
0.0
 40
4.572437795021667
 50
89.9706822132675654
 51
96.867783833762914
  0
ARC
  5
356A6
  8
0
 10
2810.614098317440039
 20
196.885097449547203
 30
0.0
 40
3.7931769559944111
 50
96.8677867537093249
 51
109.2281599313699019
  0
ARC
  5
356A7
  8
0
 10
2809.9771104744449985
 20
198.7113867712049
 30
0.0
 40
1.8589881858570501
 50
109.2281599313699019
 51
123.2117364954604994
  0
ARC
  5
356A8
  8
0
 10
2809.6483918993640145
 20
199.2134968976943128
 30
0.0
 40
1.2588461354004561
 50
123.2117364954604994
 51
135.7732593386060955
  0
ARC
  5
356A9
  8
0
 10
2809.197715303816949
 20
199.6521701685504127
 30
0.0
 40
0.62992353894046
 50
135.7732593386060955
 51
157.1495470153824101
  0
ARC
  5
356AA
  8
0
 10
2809.0523071212951436
 20
199.7134448637135051
 30
0.0
 40
0.4721321329272221
 50
157.1495470153824101
 51
185.4271058056426114
  0
ARC
  5
356AB
  8
0
 10
2809.0407185503490837
 20
199.7123438896142034
 30
0.0
 40
0.4604913803507995
 50
185.4271058056426114
 51
211.2892541606790076
  0
ARC
  5
356AC
  8
0
 10
2811.0278226771361005
 20
200.9200117410437088
 30
0.0
 40
2.7857966183942189
 50
211.2892541606790076
 51
214.2378503301750925
  0
ARC
  5
356AD
  8
0
 10
2810.7119604152931061
 20
196.1114279901821931
 30
0.0
 40
4.5724377950224913
 50
83.1322161662371144
 51
90.0293177867324346
  0
ARC
  5
356AE
  8
0
 10
2810.8051431545150081
 20
196.885097449547203
 30
0.0
 40
3.7931769559944111
 50
70.7718400686301123
 51
83.1322132462906751
  0
ARC
  5
356AF
  8
0
 10
2811.442130997510958
 20
198.7113867712049
 30
0.0
 40
1.8589881858570501
 50
56.7882635045394935
 51
70.7718400686301123
  0
ARC
  5
356B0
  8
0
 10
2811.7708495725910325
 20
199.2134968976943128
 30
0.0
 40
1.2588461354004561
 50
44.2267406613938689
 51
56.7882635045394935
  0
ARC
  5
356B1
  8
0
 10
2812.2215261681390075
 20
199.6521701685504127
 30
0.0
 40
0.62992353894046
 50
22.8504529846175899
 51
44.2267406613938689
  0
ARC
  5
356B2
  8
0
 10
2812.3669343506608129
 20
199.7134448637135051
 30
0.0
 40
0.4721321329272221
 50
354.5728941943573886
 51
22.8504529846175899
  0
ARC
  5
356B3
  8
0
 10
2812.3785229216077823
 20
199.7123438896142034
 30
0.0
 40
0.4604913803507995
 50
328.7107458393210209
 51
354.5728941943573886
  0
ARC
  5
356B4
  8
0
 10
2807.8125750344379412
 20
202.5331050572264076
 30
0.0
 40
5.8274693620311711
 50
326.915030727991109
 51
328.3259802203151025
  0
ARC
  5
356B5
  8
0
 10
2810.7096207360277731
 20
196.549514798068401
 30
0.0
 40
2.558968474199999
 50
286.1179948137314
 51
288.9499690212570044
  0
ARC
  5
356B6
  8
0
 10
2810.7096207360277731
 20
196.549514798068401
 30
0.0
 40
2.558968474199999
 50
304.5194406835238965
 51
63.7850376615763892
  0
ARC
  5
356B7
  8
0
 10
2810.7096207360277731
 20
196.549514798068401
 30
0.0
 40
2.558968474199999
 50
114.6690991533118051
 51
253.8806791936146965
  0
ARC
  5
356B8
  8
0
 10
2810.7118426445990735
 20
187.7475009357565909
 30
0.0
 40
0.5858199047530233
 50
210.4461829528206067
 51
269.782686981658685
  0
ARC
  5
356B9
  8
0
 10
2810.8675284393630136
 20
187.838718485410908
 30
0.0
 40
0.7662600880949363
 50
180.1702543222041015
 51
210.4273903217180077
  0
ARC
  5
356BA
  8
0
 10
2721.3837416878582189
 20
187.5728167657389918
 30
0.0
 40
88.717921726979128
 50
0.1702543222041252
 51
1.710742849638601
  0
ARC
  5
356BB
  8
0
 10
31282.6619459676403494
 20
655.4539335307333658
 30
0.0
 40
28476.4004428594817
 50
180.9283229784373077
 51
180.9361101765842932
  0
ARC
  5
356BC
  8
0
 10
2781.3869190518989853
 20
194.0144009788538142
 30
0.0
 40
28.6123361362238491
 50
0.1536903053830437
 51
1.711723503619095
  0
ARC
  5
356BD
  8
0
 10
2802.0328515643318497
 20
194.6313861392220872
 30
0.0
 40
7.9571866573150869
 50
1.711723503619095
 51
8.0051551143150874
  0
ARC
  5
356BE
  8
0
 10
2803.1232984144071452
 20
194.6550846541705937
 30
0.0
 40
6.8752642150578263
 50
9.0751733313389931
 51
12.11651267064431
  0
ARC
  5
356BF
  8
0
 10
2812.3108078031950754
 20
196.7150078977674923
 30
0.0
 40
2.5413927394432259
 50
183.7314720816168006
 51
194.0461106728739935
  0
ARC
  5
356C0
  8
0
 10
2810.8423178908278715
 20
196.5436440665503994
 30
0.0
 40
1.067531813924915
 50
150.2743923458110089
 51
179.679642039606307
  0
ARC
  5
356C1
  8
0
 10
2810.7489006045798305
 20
196.5969500159091012
 30
0.0
 40
0.9599757231829389
 50
118.9935482277571026
 51
150.272646712593712
  0
ARC
  5
356C2
  8
0
 10
2810.709408133172019
 20
196.6682152444572864
 30
0.0
 40
0.8784994192784665
 50
89.9861340334142454
 51
118.9935482277571026
  0
ARC
  5
356C3
  8
0
 10
2810.7093126131940153
 20
193.0018052003092919
 30
0.0
 40
0.4582574357285882
 50
254.0730646401694912
 51
270.0385244952661878
  0
ARC
  5
356C4
  8
0
 10
2810.7543318168031874
 20
193.1099067530892057
 30
0.0
 40
0.5747245772924945
 50
214.5655593888155011
 51
252.7144527807161865
  0
ARC
  5
356C5
  8
0
 10
2810.9688395565790415
 20
193.2656445012949007
 30
0.0
 40
0.8396041199746681
 50
182.253810170050599
 51
215.0191578741828948
  0
ARC
  5
356C6
  8
0
 10
2866.3170850923879698
 20
195.4439693416179864
 30
0.0
 40
56.230698918707553
 50
181.4068547262239974
 51
182.253810170050599
  0
ARC
  5
356C7
  8
0
 10
2748.2493885988728834
 20
192.5443231846203105
 30
0.0
 40
61.8725986775944676
 50
1.406854726224041
 51
2.2408506936631181
  0
ARC
  5
356C8
  8
0
 10
2806.5331768620708317
 20
194.8249780762185139
 30
0.0
 40
3.5442062683744111
 50
2.2408506936631181
 51
12.5006902745309301
  0
ARC
  5
356C9
  8
0
 10
2803.9529979089670633
 20
194.2529335609197005
 30
0.0
 40
6.1870377721837189
 50
12.5006902745309301
 51
17.8249112142344188
  0
ARC
  5
356CA
  8
0
 10
2812.9635541301431658
 20
197.0973047118611987
 30
0.0
 40
3.2620566622502101
 50
194.8060782274010876
 51
196.9399246470642026
  0
ARC
  5
356CB
  8
0
 10
2810.7096207360277731
 20
196.549514798068401
 30
0.0
 40
0.9823697337000005
 50
327.3532262527465946
 51
351.5003084204498123
  0
ARC
  5
356CC
  8
0
 10
2810.7096207360277731
 20
196.549514798068401
 30
0.0
 40
0.9823697337000005
 50
14.9816883959879501
 51
62.8773343149968511
  0
ARC
  5
356CD
  8
0
 10
2810.7096207360277731
 20
196.549514798068401
 30
0.0
 40
0.9823697337000005
 50
136.2947227285974918
 51
209.055917212824113
  0
ARC
  5
356CE
  8
0
 10
2810.707398827356883
 20
187.7475009357565909
 30
0.0
 40
0.5858199047529985
 50
270.217313018341315
 51
329.5538170471793933
  0
ARC
  5
356CF
  8
0
 10
2810.5517130325938524
 20
187.838718485410908
 30
0.0
 40
0.7662600880949363
 50
329.5726096782819923
 51
359.8297456777959269
  0
ARC
  5
356D0
  8
0
 10
2900.0354997840981923
 20
187.5728167657389918
 30
0.0
 40
88.717921726979128
 50
178.2892571503614079
 51
179.8297456777958985
  0
ARC
  5
356D1
  8
0
 10
-25661.2427044956893951
 20
655.4539335307333658
 30
0.0
 40
28476.4004428594817
 50
359.0638898234157068
 51
359.0716770215627207
  0
ARC
  5
356D2
  8
0
 10
2840.0323224200569712
 20
194.0144009788538142
 30
0.0
 40
28.6123361362238491
 50
178.2882764963808881
 51
179.846309694616906
  0
ARC
  5
356D3
  8
0
 10
2819.3863899076241069
 20
194.6313861392220872
 30
0.0
 40
7.9571866573150869
 50
171.9948448856848984
 51
178.2882764963808881
  0
ARC
  5
356D4
  8
0
 10
2818.2959430575488113
 20
194.6550846541705937
 30
0.0
 40
6.8752642150578263
 50
167.8834873293556882
 51
170.9248266686610123
  0
ARC
  5
356D5
  8
0
 10
2806.4744516347500394
 20
197.2929912688092031
 30
0.0
 40
5.237488124592165
 50
346.8134691123354969
 51
349.9871825341364229
  0
ARC
  5
356D6
  8
0
 10
2810.5771562349500527
 20
196.5437394635625026
 30
0.0
 40
1.067282473209453
 50
351.3030259938224731
 51
29.7273532874062809
  0
ARC
  5
356D7
  8
0
 10
2810.670340867376126
 20
196.5969500159091012
 30
0.0
 40
0.9599757231829389
 50
29.7273532874062809
 51
61.0064517722428477
  0
ARC
  5
356D8
  8
0
 10
2810.7098333387839375
 20
196.6682152444572864
 30
0.0
 40
0.8784994192784665
 50
61.0064517722428477
 51
90.0138659665857546
  0
ARC
  5
356D9
  8
0
 10
2810.7099288587610317
 20
193.0018052003092919
 30
0.0
 40
0.4582574357285882
 50
269.9614755047336985
 51
285.9269353598305088
  0
ARC
  5
356DA
  8
0
 10
2810.6649096551532239
 20
193.1099067530892057
 30
0.0
 40
0.5747245772924945
 50
287.2855472192837851
 51
325.4344406111845274
  0
ARC
  5
356DB
  8
0
 10
2810.450401915376915
 20
193.2656445012949007
 30
0.0
 40
0.8396041199746681
 50
324.9808421258171052
 51
357.7461898299476957
  0
ARC
  5
356DC
  8
0
 10
2755.1021563795679867
 20
195.4439693416179864
 30
0.0
 40
56.230698918707553
 50
357.7461898299492873
 51
358.5931452737759741
  0
ARC
  5
356DD
  8
0
 10
2873.1698528730830731
 20
192.5443231846203105
 30
0.0
 40
61.8725986775944676
 50
177.7591493063368944
 51
178.5931452737742973
  0
ARC
  5
356DE
  8
0
 10
2814.8860646098842153
 20
194.8249780762185139
 30
0.0
 40
3.5442062683744111
 50
167.4993097254690895
 51
177.7591493063368944
  0
ARC
  5
356DF
  8
0
 10
2817.4662435629888932
 20
194.2529335609197005
 30
0.0
 40
6.1870377721837189
 50
162.1750887857656096
 51
167.4993097254690895
  0
ARC
  5
356E0
  8
0
 10
2809.1067374471190305
 20
194.3684935602998962
 30
0.0
 40
2.436117692860059
 50
341.1168783014401242
 51
349.9682633577746742
  0
ARC
  5
356E1
  8
0
 10
2803.153694942428956
 20
195.6199679922254973
 30
0.0
 40
8.5183859607586339
 50
348.6541379984371929
 51
353.922109296820679
  0
ARC
  5
356E2
  8
0
 10
2799.3009232049430466
 20
195.9778208169992979
 30
0.0
 40
12.3874999043119196
 50
354.1630487687501159
 51
0.7788798675791958
  0
ARC
  5
356E3
  8
0
 10
2801.7250010699608538
 20
196.0407472097703021
 30
0.0
 40
9.9628356947917869
 50
0.6065314577703051
 51
11.4463032394361903
  0
ARC
  5
356E4
  8
0
 10
2807.5166206776239051
 20
197.2035278683686101
 30
0.0
 40
4.0556632832738453
 50
11.5831920900271701
 51
20.2835260293963913
  0
ARC
  5
356E5
  8
0
 10
2504.8859539729241988
 20
193.3406283443511029
 30
0.0
 40
306.4801260357886008
 50
0.9850502065951946
 51
1.0184878656556551
  0
ARC
  5
356E6
  8
0
 10
3857.000656389751839
 20
216.5889743912036067
 30
0.0
 40
1045.8344283803280632
 50
180.9850502065935132
 51
181.0150847937808862
  0
ARC
  5
356E7
  8
0
 10
2134.7964651955971931
 20
186.0742274258043949
 30
0.0
 40
676.6400782377160112
 50
0.9850502382340792
 51
1.0150847937809291
  0
ARC
  5
356E8
  8
0
 10
2812.9014621131068452
 20
197.7336081741347016
 30
0.0
 40
1.5651473422193889
 50
180.9850502382340949
 51
198.8584557732187079
  0
ARC
  5
356E9
  8
0
 10
2808.508132128547004
 20
197.7341868671610996
 30
0.0
 40
1.5748031495793151
 50
338.9715823580818892
 51
340.6127113531235864
  0
ARC
  5
356EA
  8
0
 10
2808.5081321284519618
 20
197.7341868671944098
 30
0.0
 40
1.5748031496796
 50
340.6127113531235864
 51
341.2614952773424193
  0
ARC
  5
356EB
  8
0
 10
2808.5081321285338163
 20
197.7341868671668124
 30
0.0
 40
1.574803149593631
 50
341.2614952773424193
 51
349.9706277842486202
  0
ARC
  5
356EC
  8
0
 10
2808.5081321285219929
 20
197.7341868671690008
 30
0.0
 40
1.574803149606242
 50
349.9706277842486202
 51
358.9999325006813251
  0
LINE
  5
356ED
  8
0
 10
2810.0826953956279795
 20
197.706700907558286
 30
0.0
 11
2810.0954834497329102
 21
198.4392785776684036
 31
0.0
  0
LINE
  5
356EE
  8
0
 10
2810.095483449727908
 20
198.4392785776684036
 30
0.0
 11
2810.1015739343019959
 21
198.7881786494328935
 31
0.0
  0
ARC
  5
356EF
  8
0
 10
2809.3287726549888248
 20
197.8265842900534892
 30
0.0
 40
2.7099989663143611
 50
18.7505670534939313
 51
23.0338001494154909
  0
ARC
  5
356F0
  8
0
 10
2806.9724960945250132
 20
197.0267101693644918
 30
0.0
 40
5.1983393446275681
 50
8.0861948821149436
 51
18.7505670534939313
  0
ARC
  5
356F1
  8
0
 10
2795.9771200882009907
 20
195.6196568766156076
 30
0.0
 40
16.2830388315773185
 50
0.8191235040312406
 51
7.545795126478529
  0
ARC
  5
356F2
  8
0
 10
2796.4075617848129696
 20
196.2523032665918095
 30
0.0
 40
15.8559759661225108
 50
352.4965881937981749
 51
358.5549276960263114
  0
ARC
  5
356F3
  8
0
 10
2806.3763075639849376
 20
195.0165648403811076
 30
0.0
 40
5.811727512624933
 50
340.7080510343744777
 51
351.7412552893625275
  0
ARC
  5
356F4
  8
0
 10
2810.5958262338281202
 20
193.5142483770632111
 30
0.0
 40
1.333022246363025
 50
320.712571126019327
 51
341.735605680214519
  0
ARC
  5
356F5
  8
0
 10
2811.2404049671008579
 20
192.9730282417320097
 30
0.0
 40
0.4915424767366162
 50
288.2530737366112135
 51
321.9644100996850966
  0
ENDSEC
  0
EOF
