  0
SECTION
  2
HEADER
  9
$ACADVER
  1
AC1009
  9
$INSBASE
 10
2790.7256506816811452
 20
135.007528351915596
 30
0.0
  9
$EXTMIN
 10
2785.8887768329918799
 20
135.007528351915596
 30
0.0
  9
$EXTMAX
 10
2792.3272315561789583
 20
139.6490293473785016
 30
0.0
  9
$LIMMIN
 10
0.0
 20
0.0
  9
$LIMMAX
 10
11.6929133858000007
 20
8.2677165353999982
  9
$ORTHOMODE
 70
     1
  9
$REGENMODE
 70
     1
  9
$FILLMODE
 70
     1
  9
$QTEXTMODE
 70
     0
  9
$MIRRTEXT
 70
     0
  9
$DRAGMODE
 70
     2
  9
$LTSCALE
 40
0.6431102362
  9
$OSMODE
 70
  4095
  9
$ATTMODE
 70
     1
  9
$TEXTSIZE
 40
0.2
  9
$TRACEWID
 40
0.05
  9
$TEXTSTYLE
  7
STANDARD
  9
$CLAYER
  8
0
  9
$CELTYPE
  6
BYLAYER
  9
$CECOLOR
 62
   256
  9
$DIMSCALE
 40
1.0
  9
$DIMASZ
 40
0.1875
  9
$DIMEXO
 40
0.0625
  9
$DIMDLI
 40
0.4443307087
  9
$DIMRND
 40
0.0
  9
$DIMDLE
 40
0.0
  9
$DIMEXE
 40
0.125
  9
$DIMTP
 40
0.01
  9
$DIMTM
 40
0.01
  9
$DIMTXT
 40
2.0
  9
$DIMCEN
 40
0.1052362205
  9
$DIMTSZ
 40
0.0
  9
$DIMTOL
 70
     1
  9
$DIMLIM
 70
     0
  9
$DIMTIH
 70
     1
  9
$DIMTOH
 70
     1
  9
$DIMSE1
 70
     0
  9
$DIMSE2
 70
     0
  9
$DIMTAD
 70
     0
  9
$DIMZIN
 70
     0
  9
$DIMBLK
  1

  9
$DIMASO
 70
     1
  9
$DIMSHO
 70
     1
  9
$DIMPOST
  1
\X
  9
$DIMAPOST
  1

  9
$DIMALT
 70
     1
  9
$DIMALTD
 70
     2
  9
$DIMALTF
 40
25.3999999999999986
  9
$DIMLFAC
 40
1.0
  9
$DIMTOFL
 70
     0
  9
$DIMTVP
 40
0.0
  9
$DIMTIX
 70
     0
  9
$DIMSOXD
 70
     0
  9
$DIMSAH
 70
     0
  9
$DIMBLK1
  1

  9
$DIMBLK2
  1

  9
$DIMSTYLE
  2
STANDARD
  9
$DIMCLRD
 70
     0
  9
$DIMCLRE
 70
     0
  9
$DIMCLRT
 70
     0
  9
$DIMTFAC
 40
1.0
  9
$DIMGAP
 40
0.09
  9
$LUNITS
 70
     2
  9
$LUPREC
 70
     4
  9
$SKETCHINC
 40
0.1
  9
$FILLETRAD
 40
0.0
  9
$AUNITS
 70
     0
  9
$AUPREC
 70
     0
  9
$MENU
  1
.
  9
$ELEVATION
 40
0.0
  9
$PELEVATION
 40
0.0
  9
$THICKNESS
 40
0.0
  9
$LIMCHECK
 70
     0
  9
$BLIPMODE
 70
     0
  9
$CHAMFERA
 40
0.0
  9
$CHAMFERB
 40
0.0
  9
$SKPOLY
 70
     0
  9
$TDCREATE
 40
2458060.468368056230247
  9
$TDUPDATE
 40
2459564.725868056062609
  9
$TDINDWG
 40
0.6741853009
  9
$TDUSRTIMER
 40
0.6741853009
  9
$USRTIMER
 70
     1
  9
$ANGBASE
 50
0.0
  9
$ANGDIR
 70
     0
  9
$PDMODE
 70
     0
  9
$PDSIZE
 40
0.3125
  9
$PLINEWID
 40
0.0
  9
$COORDS
 70
     1
  9
$SPLFRAME
 70
     0
  9
$SPLINETYPE
 70
     6
  9
$SPLINESEGS
 70
     8
  9
$ATTDIA
 70
     1
  9
$ATTREQ
 70
     1
  9
$HANDLING
 70
     1
  9
$HANDSEED
  5
36658
  9
$SURFTAB1
 70
     6
  9
$SURFTAB2
 70
     6
  9
$SURFTYPE
 70
     6
  9
$SURFU
 70
     6
  9
$SURFV
 70
     6
  9
$UCSNAME
  2

  9
$UCSORG
 10
0.0
 20
0.0
 30
0.0
  9
$UCSXDIR
 10
1.0
 20
0.0
 30
0.0
  9
$UCSYDIR
 10
0.0
 20
1.0
 30
0.0
  9
$PUCSNAME
  2

  9
$PUCSORG
 10
0.0
 20
0.0
 30
0.0
  9
$PUCSXDIR
 10
1.0
 20
0.0
 30
0.0
  9
$PUCSYDIR
 10
0.0
 20
1.0
 30
0.0
  9
$USERI1
 70
     0
  9
$USERI2
 70
     0
  9
$USERI3
 70
     0
  9
$USERI4
 70
     0
  9
$USERI5
 70
     0
  9
$USERR1
 40
0.0
  9
$USERR2
 40
0.0
  9
$USERR3
 40
0.0
  9
$USERR4
 40
0.0
  9
$USERR5
 40
0.0
  9
$WORLDVIEW
 70
     1
  9
$SHADEDGE
 70
     3
  9
$SHADEDIF
 70
    70
  9
$TILEMODE
 70
     1
  9
$MAXACTVP
 70
    64
  9
$PLIMCHECK
 70
     0
  9
$PEXTMIN
 10
1.0000000000000000E+20
 20
1.0000000000000000E+20
 30
1.0000000000000000E+20
  9
$PEXTMAX
 10
-1.0000000000000000E+20
 20
-1.0000000000000000E+20
 30
-1.0000000000000000E+20
  9
$PLIMMIN
 10
0.0
 20
0.0
  9
$PLIMMAX
 10
12.0
 20
9.0
  9
$UNITMODE
 70
     0
  9
$VISRETAIN
 70
     1
  9
$PLINEGEN
 70
     0
  9
$PSLTSCALE
 70
     1
  0
ENDSEC
  0
SECTION
  2
TABLES
  0
TABLE
  2
VPORT
 70
     1
  0
VPORT
  2
*ACTIVE
 70
     0
 10
0.0
 20
0.0
 11
1.0
 21
1.0
 12
-514.6042199209214232
 22
-57.9319144279059799
 13
0.0
 23
0.0
 14
1.0
 24
1.0
 15
0.0
 25
0.0
 16
0.0
 26
0.0
 36
96.5995694866707311
 17
3303.693115234375
 27
195.2615115758877096
 37
0.0
 40
4.6951635026287732
 41
1.67063492063492
 42
50.0
 43
0.0
 44
0.0
 50
0.0
 51
0.0
 71
     0
 72
   100
 73
     1
 74
     1
 75
     0
 76
     0
 77
     0
 78
     0
  0
ENDTAB
  0
TABLE
  2
LTYPE
 70
     2
  0
LTYPE
  2
CONTINUOUS
 70
     0
  3
Solid line
 72
    65
 73
     0
 40
0.0
  0
LTYPE
  2
PHANTOM2
 70
     0
  3
___ _ _ ___ _ _ ___ _ _ ___ _ _
 72
    65
 73
     6
 40
1.25
 49
0.625
 49
-0.125
 49
0.125
 49
-0.125
 49
0.125
 49
-0.125
  0
ENDTAB
  0
TABLE
  2
LAYER
 70
     2
  0
LAYER
  2
0
 70
     0
 62
   255
  6
CONTINUOUS
  0
LAYER
  2
DEFPOINTS
 70
     0
 62
     7
  6
CONTINUOUS
  0
ENDTAB
  0
TABLE
  2
STYLE
 70
     1
  0
STYLE
  2
STANDARD
 70
     0
 40
0.0
 41
0.8
 50
0.0
 71
     0
 42
0.2
  3
txt
  4

  0
ENDTAB
  0
TABLE
  2
VIEW
 70
     0
  0
ENDTAB
  0
TABLE
  2
UCS
 70
     0
  0
ENDTAB
  0
TABLE
  2
APPID
 70
     9
  0
APPID
  2
ACAD
 70
     0
  0
APPID
  2
ACAD_MLEADERVER
 70
     0
  0
APPID
  2
ACAD_EXEMPT_FROM_CAD_STANDARDS
 70
     0
  0
APPID
  2
ACAD_NAV_VCDISPLAY
 70
     0
  0
APPID
  2
ACAECLAYERSTANDARD
 70
     0
  0
APPID
  2
ACCMTRANSPARENCY
 70
     0
  0
APPID
  2
ACAD_DSTYLE_DIMJAG
 70
     0
  0
APPID
  2
ACAD_DSTYLE_DIMTALN
 70
     0
  0
APPID
  2
ACDBATTR
 70
     0
  0
ENDTAB
  0
TABLE
  2
DIMSTYLE
 70
     1
  0
DIMSTYLE
  2
STANDARD
 70
     0
  3

  4

  5

  6

  7

 40
1.0
 41
0.1875
 42
0.0625
 43
0.38
 44
0.125
 45
0.0
 46
0.0
 47
0.01
 48
0.01
140
0.15625
141
0.09
142
0.0
143
25.3999999999999986
144
1.0
145
0.0
146
1.0
147
0.09
 71
     1
 72
     0
 73
     1
 74
     1
 75
     0
 76
     0
 77
     0
 78
     4
170
     0
171
     2
172
     0
173
     0
174
     0
175
     0
176
     0
177
     0
178
     0
  0
ENDTAB
  0
ENDSEC
  0
SECTION
  2
BLOCKS
  0
BLOCK
  8
0
  2
$MODEL_SPACE
 70
     0
 10
0.0
 20
0.0
 30
0.0
  3
$MODEL_SPACE
  1

  0
ENDBLK
  5
21
  8
0
  0
BLOCK
 67
     1
  8
0
  2
$PAPER_SPACE
 70
     0
 10
0.0
 20
0.0
 30
0.0
  3
$PAPER_SPACE
  1

  0
ENDBLK
  5
1D
 67
     1
  8
0
  0
BLOCK
  8
0
  2
_FILLED
 70
     0
 10
0.0
 20
0.0
 30
0.0
  3
_FILLED
  1

  0
SOLID
  5
2ABDA
  8
0
  6
BYBLOCK
 62
     0
 10
0.0
 20
0.0
 30
0.0
 11
-1.0
 21
0.1666666667
 31
0.0
 12
-1.0
 22
-0.1666666667
 32
0.0
 13
-1.0
 23
-0.1666666667
 33
0.0
  0
ENDBLK
  5
2ABDB
  8
0
  6
BYBLOCK
 62
     0
  0
ENDSEC
  0
SECTION
  2
ENTITIES
  0
ATTDEF
  5
340AC
  8
DEFPOINTS
 10
2790.7261225288921196
 20
135.0118440323414859
 30
0.0
 40
0.001
  1
K-33063T-4E2
  3

  2
MODELNUMBER
 70
     0
1001
ACDBATTR
1070
     0
1070
     1
  0
ATTDEF
  5
340AD
  8
DEFPOINTS
 10
2790.7261225288921196
 20
135.0101773656747923
 30
0.0
 40
0.001
  1

  3

  2
TRADENAME
 70
     0
1001
ACDBATTR
1070
     0
1070
     1
  0
ATTDEF
  5
340AE
  8
DEFPOINTS
 10
2790.7261225288921196
 20
135.0085106990082124
 30
0.0
 40
0.001
  1
BATHROOM SINK FAUCET
  3

  2
PRODUCT
 70
     0
1001
ACDBATTR
1070
     0
1070
     1
  0
LINE
  5
36280
  8
0
 10
2791.7886428134311245
 20
135.007528351915596
 30
0.0
 11
2789.6626585499311659
 21
135.007528351915596
 31
0.0
  0
LINE
  5
36281
  8
0
 10
2786.0978167981370461
 20
138.9411087147265107
 30
0.0
 11
2786.0872358944579901
 21
138.9120379207872986
 31
0.0
  0
ARC
  5
36282
  8
0
 10
2786.1242429163758061
 20
138.8985684663516054
 30
0.0
 40
0.0393820501502474
 50
160.0000000018436026
 51
204.9825857715339907
  0
LINE
  5
36283
  8
0
 10
2786.0885456007290486
 20
138.8819357416907962
 30
0.0
 11
2786.0934148518240363
 21
138.8714861517937038
 31
0.0
  0
LINE
  5
36284
  8
0
 10
2786.7223429774307988
 20
138.6425754844399876
 30
0.0
 11
2786.7327978834309761
 21
138.6474470874155998
 31
0.0
  0
ARC
  5
36285
  8
0
 10
2786.7161794630660552
 20
138.6831100836371036
 30
0.0
 40
0.0393449004945107
 50
294.9848118303146975
 51
340.0151883440794904
  0
ARC
  5
36286
  8
0
 10
2814.875579460490826
 20
128.4423794128557859
 30
0.0
 40
29.924372707413621
 50
159.9559544625915919
 51
160.0151883440794904
  0
LINE
  5
36287
  8
0
 10
2786.0934148518240363
 20
138.8714861517935901
 30
0.0
 11
2786.7223429774307988
 21
138.6425754844399876
 31
0.0
  0
LINE
  5
36288
  8
0
 10
2786.3597884705150136
 20
138.7745343071690058
 30
0.0
 11
2786.3425043287829794
 21
138.7201195784884078
 31
0.0
  0
ARC
  5
36289
  8
0
 10
2786.588240221461092
 20
139.2527410817992006
 30
0.0
 40
0.5865763332589066
 50
235.9581117693882959
 51
245.232789599210605
  0
ARC
  5
3628A
  8
0
 10
2786.5939371684880825
 20
139.2611738480094061
 30
0.0
 40
0.5967531083562427
 50
225.8380798686499134
 51
235.9581117693882959
  0
ARC
  5
3628B
  8
0
 10
2786.6266434674848824
 20
139.2948512271248944
 30
0.0
 40
0.6436984793543191
 50
224.3381720731539986
 51
225.8380798686499134
  0
LINE
  5
3628C
  8
0
 10
2786.3258674136700392
 20
138.7734252971384876
 30
0.0
 11
2786.3251878066830614
 21
138.7740122856498886
 31
0.0
  0
LINE
  5
3628D
  8
0
 10
2786.3251878066830614
 20
138.7740122856498886
 30
0.0
 11
2786.3088575748311086
 21
138.7789896118156037
 31
0.0
  0
LINE
  5
3628E
  8
0
 10
2786.3088575748311086
 20
138.7789896118156037
 30
0.0
 11
2786.306464388430868
 21
138.772414386215587
 31
0.0
  0
LINE
  5
3628F
  8
0
 10
2786.306464388430868
 20
138.772414386215587
 30
0.0
 11
2786.3204236629248953
 21
138.7609229087424865
 31
0.0
  0
LINE
  5
36290
  8
0
 10
2786.3204236629248953
 20
138.7609229087424865
 30
0.0
 11
2786.3212124256519928
 21
138.7606358225876875
 31
0.0
  0
LINE
  5
36291
  8
0
 10
2786.3212124256519928
 20
138.7606358225876875
 30
0.0
 11
2786.3258674136950503
 21
138.7734252971168019
 31
0.0
  0
LINE
  5
36292
  8
0
 10
2786.325187806653048
 20
138.7740122856756102
 30
0.0
 11
2786.3204236630781452
 21
138.7609229086922937
 31
0.0
  0
LINE
  5
36293
  8
0
 10
2786.3027736083940908
 20
138.7622740513299959
 30
0.0
 11
2786.3011147655911373
 21
138.757716418377413
 31
0.0
  0
LINE
  5
36294
  8
0
 10
2786.3011147655911373
 20
138.757716418377413
 30
0.0
 11
2786.3154574985628642
 21
138.7472784839652888
 31
0.0
  0
LINE
  5
36295
  8
0
 10
2786.3154574985628642
 20
138.7472784839652888
 30
0.0
 11
2786.3162462611521732
 21
138.7469913978586078
 31
0.0
  0
LINE
  5
36296
  8
0
 10
2786.3162462611521732
 20
138.7469913978586078
 30
0.0
 11
2786.3194602173321073
 21
138.7558216698155888
 31
0.0
  0
LINE
  5
36297
  8
0
 10
2786.3194602173321073
 20
138.7558216698155888
 30
0.0
 11
2786.3187605716311737
 21
138.7563536026156044
 31
0.0
  0
LINE
  5
36298
  8
0
 10
2786.3187605716311737
 20
138.7563536026156044
 30
0.0
 11
2786.3027736083940908
 21
138.7622740513299959
 31
0.0
  0
LINE
  5
36299
  8
0
 10
2786.298713535126808
 20
138.7511190917443002
 30
0.0
 11
2786.2977370241769677
 21
138.7484361501319086
 31
0.0
  0
LINE
  5
3629A
  8
0
 10
2786.2977370241769677
 20
138.7484361501319086
 30
0.0
 11
2786.3124304780280909
 21
138.7389618132602891
 31
0.0
  0
LINE
  5
3629B
  8
0
 10
2786.3124304780280909
 20
138.7389618132602891
 30
0.0
 11
2786.3131964656317905
 21
138.7386121534156018
 31
0.0
  0
LINE
  5
3629C
  8
0
 10
2786.3131964656317905
 20
138.7386121534156018
 30
0.0
 11
2786.3150928461309377
 21
138.7438224160156039
 31
0.0
  0
LINE
  5
3629D
  8
0
 10
2786.3150928461309377
 20
138.7438224160156039
 30
0.0
 11
2786.3143751845718725
 21
138.7443048504883052
 31
0.0
  0
LINE
  5
3629E
  8
0
 10
2786.3143751845718725
 20
138.7443048504883052
 30
0.0
 11
2786.298713535126808
 21
138.7511190917443002
 31
0.0
  0
LINE
  5
3629F
  8
0
 10
2786.2962306964309391
 20
138.7442975485155898
 30
0.0
 11
2786.2965531978311446
 21
138.7451836139156001
 31
0.0
  0
LINE
  5
362A0
  8
0
 10
2786.2965531978311446
 20
138.7451836139156001
 30
0.0
 11
2786.3118968058479368
 21
138.7374955609899985
 31
0.0
  0
LINE
  5
362A1
  8
0
 10
2786.3118968058479368
 20
138.7374955609899985
 30
0.0
 11
2786.3126311844312113
 21
138.7370590561156121
 31
0.0
  0
LINE
  5
362A2
  8
0
 10
2786.3126311844312113
 20
138.7370590561156121
 30
0.0
 11
2786.3120048408309231
 21
138.7353381913156056
 31
0.0
  0
LINE
  5
362A3
  8
0
 10
2786.3120048408309231
 20
138.7353381913156056
 30
0.0
 11
2786.3112545041308294
 21
138.7357308514156102
 31
0.0
  0
LINE
  5
362A4
  8
0
 10
2786.3112545041308294
 20
138.7357308514156102
 30
0.0
 11
2786.2962306964218442
 21
138.7442975485326997
 31
0.0
  0
LINE
  5
362A5
  8
0
 10
2786.3182080176288764
 20
138.7863865546088959
 30
0.0
 11
2786.3154243138310449
 21
138.7787383912155974
 31
0.0
  0
LINE
  5
362A6
  8
0
 10
2786.3154243138310449
 20
138.7787383912155974
 30
0.0
 11
2786.2992196921218238
 21
138.7840608281476023
 31
0.0
  0
LINE
  5
362A7
  8
0
 10
2786.2992196921218238
 20
138.7840608281476023
 30
0.0
 11
2786.2857933396321641
 21
138.7970164974155978
 31
0.0
  0
LINE
  5
362A8
  8
0
 10
2786.2857933396321641
 20
138.7970164974155978
 30
0.0
 11
2786.2872234889368883
 21
138.8009458005317072
 31
0.0
  0
LINE
  5
362A9
  8
0
 10
2786.3182080176288764
 20
138.7863865546088959
 30
0.0
 11
2786.3125756993240429
 21
138.7917183505749961
 31
0.0
  0
LINE
  5
362AA
  8
0
 10
2786.2992196919922208
 20
138.7840608281933044
 30
0.0
 11
2786.3032431283691039
 21
138.7951151286129061
 31
0.0
  0
LINE
  5
362AB
  8
0
 10
2786.2813684900320368
 20
138.7848593233156009
 30
0.0
 11
2786.2793297125308527
 21
138.7792578279155862
 31
0.0
  0
LINE
  5
362AC
  8
0
 10
2786.2793297125308527
 20
138.7792578279155862
 30
0.0
 11
2786.2931771175308313
 21
138.7674589912155909
 31
0.0
  0
LINE
  5
362AD
  8
0
 10
2786.2931771175308313
 20
138.7674589912155909
 30
0.0
 11
2786.3090417431349124
 21
138.7612024222482034
 31
0.0
  0
LINE
  5
362AE
  8
0
 10
2786.3090417431349124
 20
138.7612024222482034
 30
0.0
 11
2786.3110555453308734
 21
138.7667352985156128
 31
0.0
  0
LINE
  5
362AF
  8
0
 10
2786.3110555453308734
 20
138.7667352985156128
 30
0.0
 11
2786.2972296396937963
 21
138.7785932042401953
 31
0.0
  0
LINE
  5
362B0
  8
0
 10
2786.2972296396937963
 20
138.7785932042401953
 30
0.0
 11
2786.281368490082059
 21
138.7848593233713927
 31
0.0
  0
LINE
  5
362B1
  8
0
 10
2786.2548507641317883
 20
138.7933978212155921
 30
0.0
 11
2786.2531534654308416
 21
138.7887345313156118
 31
0.0
  0
LINE
  5
362B2
  8
0
 10
2786.2531534654308416
 20
138.7887345313156118
 30
0.0
 11
2786.2668787993961814
 21
138.7766003061526021
 31
0.0
  0
LINE
  5
362B3
  8
0
 10
2786.2668787993961814
 20
138.7766003061526021
 30
0.0
 11
2786.2822883239309704
 21
138.7690933582155992
 31
0.0
  0
LINE
  5
362B4
  8
0
 10
2786.2822883239309704
 20
138.7690933582155992
 30
0.0
 11
2786.2839598009318252
 21
138.7736857038156018
 31
0.0
  0
LINE
  5
362B5
  8
0
 10
2786.2839598009318252
 20
138.7736857038156018
 30
0.0
 11
2786.2702473770309552
 21
138.7858553979156113
 31
0.0
  0
LINE
  5
362B6
  8
0
 10
2786.2702473770309552
 20
138.7858553979156113
 30
0.0
 11
2786.254850764098137
 21
138.7933978212462875
 31
0.0
  0
LINE
  5
362B7
  8
0
 10
2786.2609109179888947
 20
138.7917547692408959
 30
0.0
 11
2786.2629701293158178
 21
138.7974124060716861
 31
0.0
  0
LINE
  5
362B8
  8
0
 10
2786.2629701293158178
 20
138.7974124060716861
 30
0.0
 11
2786.2498008862357892
 21
138.8110744773343868
 31
0.0
  0
LINE
  5
362B9
  8
0
 10
2786.2498008862357892
 20
138.8110744773343868
 30
0.0
 11
2786.2345525858909241
 21
138.819024385776288
 31
0.0
  0
LINE
  5
362BA
  8
0
 10
2786.2345525858909241
 20
138.819024385776288
 30
0.0
 11
2786.2324528890658257
 21
138.8132555164143866
 31
0.0
  0
LINE
  5
362BB
  8
0
 10
2786.2324528890658257
 20
138.8132555164143866
 30
0.0
 11
2786.2456423720741441
 21
138.7996490538714909
 31
0.0
  0
LINE
  5
362BC
  8
0
 10
2786.2456423720741441
 20
138.7996490538714909
 30
0.0
 11
2786.2609109179888947
 21
138.7917547692408959
 31
0.0
  0
LINE
  5
362BD
  8
0
 10
2786.2610635273968001
 20
138.8104672478652049
 30
0.0
 11
2786.2586296187828339
 21
138.8037801390576078
 31
0.0
  0
LINE
  5
362BE
  8
0
 10
2786.2586296187828339
 20
138.8037801390576078
 30
0.0
 11
2786.2719443348310051
 21
138.7905177513156048
 31
0.0
  0
LINE
  5
362BF
  8
0
 10
2786.2719443348310051
 20
138.7905177513156048
 30
0.0
 11
2786.2879639742859581
 21
138.7846870795160896
 31
0.0
  0
LINE
  5
362C0
  8
0
 10
2786.2879639742859581
 20
138.7846870795160896
 30
0.0
 11
2786.2900920539032086
 21
138.790533930310005
 31
0.0
  0
LINE
  5
362C1
  8
0
 10
2786.2900920539032086
 20
138.790533930310005
 30
0.0
 11
2786.2768089533051352
 21
138.8038831805343989
 31
0.0
  0
LINE
  5
362C2
  8
0
 10
2786.2768089533051352
 20
138.8038831805343989
 30
0.0
 11
2786.2615226715088284
 21
138.8103001330752875
 31
0.0
  0
LINE
  5
362C3
  8
0
 10
2786.2087436041579167
 20
138.829510142589811
 30
0.0
 11
2786.2072628796340723
 21
138.8254418853207994
 31
0.0
  0
LINE
  5
362C4
  8
0
 10
2786.2072628796340723
 20
138.8254418853207994
 30
0.0
 11
2786.2197630145910807
 21
138.8120147447880015
 31
0.0
  0
LINE
  5
362C5
  8
0
 10
2786.2197630145910807
 20
138.8120147447880015
 30
0.0
 11
2786.2351090658307839
 21
138.8022601142156134
 31
0.0
  0
LINE
  5
362C6
  8
0
 10
2786.2351090658307839
 20
138.8022601142156134
 30
0.0
 11
2786.2368267984311387
 21
138.8069795458156079
 31
0.0
  0
LINE
  5
362C7
  8
0
 10
2786.2368267984311387
 20
138.8069795458156079
 30
0.0
 11
2786.2237861567700747
 21
138.820994946811993
 31
0.0
  0
LINE
  5
362C8
  8
0
 10
2786.2237861567700747
 20
138.820994946811993
 30
0.0
 11
2786.2117101383291811
 21
138.8284304124522066
 31
0.0
  0
LINE
  5
362C9
  8
0
 10
2786.2047221788861862
 20
138.8184613672592889
 30
0.0
 11
2786.2036900046309711
 21
138.8156254918156094
 31
0.0
  0
LINE
  5
362CA
  8
0
 10
2786.2036900046309711
 20
138.8156254918156094
 30
0.0
 11
2786.2171327726928212
 21
138.8027149243611973
 31
0.0
  0
LINE
  5
362CB
  8
0
 10
2786.2171327726928212
 20
138.8027149243611973
 30
0.0
 11
2786.2316146315938568
 21
138.7926592350648036
 31
0.0
  0
LINE
  5
362CC
  8
0
 10
2786.2316146315938568
 20
138.7926592350648036
 30
0.0
 11
2786.2326244447308454
 21
138.7954336738156087
 31
0.0
  0
LINE
  5
362CD
  8
0
 10
2786.2326244447308454
 20
138.7954336738156087
 30
0.0
 11
2786.2191744153310538
 21
138.8083242913156141
 31
0.0
  0
LINE
  5
362CE
  8
0
 10
2786.2191744153310538
 20
138.8083242913156141
 30
0.0
 11
2786.2047221788311617
 21
138.8184613672156047
 31
0.0
  0
LINE
  5
362CF
  8
0
 10
2786.2292988333310859
 20
138.8045898193155949
 30
0.0
 11
2786.2279353992321376
 21
138.8008438148156074
 31
0.0
  0
LINE
  5
362D0
  8
0
 10
2786.2279353992321376
 20
138.8008438148156074
 30
0.0
 11
2786.2415266494908792
 21
138.7883411974596015
 31
0.0
  0
LINE
  5
362D1
  8
0
 10
2786.2415266494908792
 20
138.7883411974596015
 30
0.0
 11
2786.2564775628761709
 21
138.7795742262694887
 31
0.0
  0
LINE
  5
362D2
  8
0
 10
2786.2564775628761709
 20
138.7795742262694887
 30
0.0
 11
2786.2578160196981116
 21
138.7832516060759929
 31
0.0
  0
LINE
  5
362D3
  8
0
 10
2786.2578160196981116
 20
138.7832516060759929
 30
0.0
 11
2786.2442282451679603
 21
138.7957637713483905
 31
0.0
  0
LINE
  5
362D4
  8
0
 10
2786.2442282451679603
 20
138.7957637713483905
 30
0.0
 11
2786.2292988333310859
 21
138.8045898193155949
 31
0.0
  0
LINE
  5
362D5
  8
0
 10
2786.2260815510321663
 20
138.7957504090155965
 30
0.0
 11
2786.2254100854570424
 21
138.7939055724858974
 31
0.0
  0
LINE
  5
362D6
  8
0
 10
2786.2254100854570424
 20
138.7939055724858974
 30
0.0
 11
2786.2393642761308001
 21
138.7824001269156042
 31
0.0
  0
LINE
  5
362D7
  8
0
 10
2786.2393642761308001
 20
138.7824001269156042
 30
0.0
 11
2786.2539975960307856
 21
138.7727605732156064
 31
0.0
  0
LINE
  5
362D8
  8
0
 10
2786.2539975960307856
 20
138.7727605732156064
 30
0.0
 11
2786.2546571182901971
 21
138.7745725958012031
 31
0.0
  0
LINE
  5
362D9
  8
0
 10
2786.2546571182901971
 20
138.7745725958012031
 30
0.0
 11
2786.2406951093239513
 21
138.7860565607925878
 31
0.0
  0
LINE
  5
362DA
  8
0
 10
2786.2406951093239513
 20
138.7860565607925878
 30
0.0
 11
2786.2260815510608154
 21
138.7957504089947065
 31
0.0
  0
LINE
  5
362DB
  8
0
 10
2786.2506977584212109
 20
138.7819875319418088
 30
0.0
 11
2786.2496994854309378
 21
138.7792447993155918
 31
0.0
  0
LINE
  5
362DC
  8
0
 10
2786.2496994854309378
 20
138.7792447993155918
 30
0.0
 11
2786.263793716067994
 21
138.7681241086870898
 31
0.0
  0
LINE
  5
362DD
  8
0
 10
2786.263793716067994
 20
138.7681241086870898
 30
0.0
 11
2786.2788855200310536
 21
138.7597442314155956
 31
0.0
  0
LINE
  5
362DE
  8
0
 10
2786.2788855200310536
 20
138.7597442314155956
 30
0.0
 11
2786.2798691869311369
 21
138.7624468341155932
 31
0.0
  0
LINE
  5
362DF
  8
0
 10
2786.2798691869311369
 20
138.7624468341155932
 30
0.0
 11
2786.2657755136638116
 21
138.7735690539236941
 31
0.0
  0
LINE
  5
362E0
  8
0
 10
2786.2657755136638116
 20
138.7735690539236941
 30
0.0
 11
2786.2506977584212109
 21
138.7819875319418088
 31
0.0
  0
LINE
  5
362E1
  8
0
 10
2786.2762647081790419
 20
138.7708367976441082
 30
0.0
 11
2786.2749388857241684
 21
138.7671941305337953
 31
0.0
  0
LINE
  5
362E2
  8
0
 10
2786.2749388857241684
 20
138.7671941305337953
 30
0.0
 11
2786.28916192065617
 21
138.7564273284397132
 31
0.0
  0
LINE
  5
362E3
  8
0
 10
2786.28916192065617
 20
138.7564273284397132
 30
0.0
 11
2786.3047029540311996
 21
138.7492816972155936
 31
0.0
  0
LINE
  5
362E4
  8
0
 10
2786.3047029540311996
 20
138.7492816972155936
 30
0.0
 11
2786.3060133090039017
 21
138.7528818678854066
 31
0.0
  0
LINE
  5
362E5
  8
0
 10
2786.3060133090039017
 20
138.7528818678854066
 30
0.0
 11
2786.2917980075621927
 21
138.7636699169167116
 31
0.0
  0
LINE
  5
362E6
  8
0
 10
2786.2917980075621927
 20
138.7636699169167116
 30
0.0
 11
2786.276264708115832
 21
138.7708367976746899
 31
0.0
  0
LINE
  5
362E7
  8
0
 10
2786.3029201278718574
 20
138.7443834227240984
 30
0.0
 11
2786.3022740659698684
 21
138.7426083821985969
 31
0.0
  0
LINE
  5
362E8
  8
0
 10
2786.3022740659698684
 20
138.7426083821985969
 30
0.0
 11
2786.2870507090337924
 21
138.7506268222570895
 31
0.0
  0
LINE
  5
362E9
  8
0
 10
2786.2870507090337924
 20
138.7506268222570895
 30
0.0
 11
2786.2724818757860703
 21
138.7604435512791952
 31
0.0
  0
LINE
  5
362EA
  8
0
 10
2786.2724818757860703
 20
138.7604435512791952
 30
0.0
 11
2786.2731353493750248
 21
138.7622389552373932
 31
0.0
  0
LINE
  5
362EB
  8
0
 10
2786.2731353493750248
 20
138.7622389552373932
 30
0.0
 11
2786.2883501859741955
 21
138.7541971074439004
 31
0.0
  0
LINE
  5
362EC
  8
0
 10
2786.2883501859741955
 20
138.7541971074439004
 30
0.0
 11
2786.3029201278718574
 21
138.7443834227240984
 31
0.0
  0
LINE
  5
362ED
  8
0
 10
2786.2773682928309427
 20
138.7555756840156107
 30
0.0
 11
2786.2776931137309475
 21
138.7564681221155922
 31
0.0
  0
LINE
  5
362EE
  8
0
 10
2786.2776931137309475
 20
138.7564681221155922
 30
0.0
 11
2786.2632499950118472
 21
138.7666302483764866
 31
0.0
  0
LINE
  5
362EF
  8
0
 10
2786.2632499950118472
 20
138.7666302483764866
 30
0.0
 11
2786.2484895733309713
 21
138.775920592915611
 31
0.0
  0
LINE
  5
362F0
  8
0
 10
2786.2484895733309713
 20
138.775920592915611
 30
0.0
 11
2786.2481600210321631
 21
138.7750151556155913
 31
0.0
  0
LINE
  5
362F1
  8
0
 10
2786.2481600210321631
 20
138.7750151556155913
 30
0.0
 11
2786.2522736919431736
 21
138.7719087448921869
 31
0.0
  0
LINE
  5
362F2
  8
0
 10
2786.2773682928309427
 20
138.7555756840156107
 30
0.0
 11
2786.2727431566650012
 21
138.7582378999642003
 31
0.0
  0
LINE
  5
362F3
  8
0
 10
2786.1993588323771291
 20
138.8329259201748016
 30
0.0
 11
2786.2116623255310515
 21
138.8192360758156099
 31
0.0
  0
LINE
  5
362F4
  8
0
 10
2786.2116623255310515
 20
138.8192360758156099
 30
0.0
 11
2786.210279521225857
 21
138.8154368521211097
 31
0.0
  0
LINE
  5
362F5
  8
0
 10
2786.210279521225857
 20
138.8154368521211097
 30
0.0
 11
2786.1959650491071443
 21
138.8259524327849022
 31
0.0
  0
LINE
  5
362F6
  8
0
 10
2786.1959650491071443
 20
138.8259524327849022
 30
0.0
 11
2786.1848386859542188
 21
138.8382108212720141
 31
0.0
  0
LINE
  5
362F7
  8
0
 10
2786.1735184369631497
 20
138.8423310549505061
 30
0.0
 11
2786.1864433964319687
 21
138.8313429887174095
 31
0.0
  0
LINE
  5
362F8
  8
0
 10
2786.1864433964319687
 20
138.8313429887174095
 30
0.0
 11
2786.1874927059789115
 21
138.8342259428108036
 31
0.0
  0
LINE
  5
362F9
  8
0
 10
2786.1874927059789115
 20
138.8342259428108036
 30
0.0
 11
2786.1835430933688258
 21
138.8386823784084925
 31
0.0
  0
LINE
  5
362FA
  8
0
 10
2786.1811460827311748
 20
138.8350819266156009
 30
0.0
 11
2786.1804476553379573
 21
138.8331630130354029
 31
0.0
  0
LINE
  5
362FB
  8
0
 10
2786.1804476553379573
 20
138.8331630130354029
 30
0.0
 11
2786.1937243686770671
 21
138.8197962118917133
 31
0.0
  0
LINE
  5
362FC
  8
0
 10
2786.1937243686770671
 20
138.8197962118917133
 30
0.0
 11
2786.2077190751538183
 21
138.808402084577807
 31
0.0
  0
LINE
  5
362FD
  8
0
 10
2786.2077190751538183
 20
138.808402084577807
 30
0.0
 11
2786.2077190751538183
 21
138.8102723317155949
 31
0.0
  0
LINE
  5
362FE
  8
0
 10
2786.2077190751538183
 20
138.8102723317155949
 30
0.0
 11
2786.1951031758990212
 21
138.8235844550956131
 31
0.0
  0
LINE
  5
362FF
  8
0
 10
2786.1951031758990212
 20
138.8235844550956131
 30
0.0
 11
2786.18114608270389
 21
138.8350819265405107
 31
0.0
  0
LINE
  5
36300
  8
0
 10
2786.1823861823768311
 20
138.8290395423080952
 30
0.0
 11
2786.184826332132161
 21
138.8269001410156136
 31
0.0
  0
LINE
  5
36301
  8
0
 10
2786.184826332132161
 20
138.8269001410156136
 30
0.0
 11
2786.1851723847798894
 21
138.8278509129852125
 31
0.0
  0
LINE
  5
36302
  8
0
 10
2786.1851723847798894
 20
138.8278509129852125
 30
0.0
 11
2786.1702579991761013
 21
138.8435177572557961
 31
0.0
  0
LINE
  5
36303
  8
0
 10
2786.2020989763091166
 20
138.8112541774661963
 30
0.0
 11
2786.2024394945610766
 21
138.8121897438313965
 31
0.0
  0
LINE
  5
36304
  8
0
 10
2786.2024394945610766
 20
138.8121897438313965
 30
0.0
 11
2786.2165728547161052
 21
138.8011765623735982
 31
0.0
  0
LINE
  5
36305
  8
0
 10
2786.2165728547161052
 20
138.8011765623735982
 30
0.0
 11
2786.2303908944309114
 21
138.789297044815612
 31
0.0
  0
LINE
  5
36306
  8
0
 10
2786.2303908944309114
 20
138.789297044815612
 30
0.0
 11
2786.2300576068860209
 21
138.7883813448464139
 31
0.0
  0
LINE
  5
36307
  8
0
 10
2786.2300576068860209
 20
138.7883813448464139
 30
0.0
 11
2786.2281232064037795
 21
138.789692758805387
 31
0.0
  0
LINE
  5
36308
  8
0
 10
2786.2020989763091166
 20
138.8112541774661963
 30
0.0
 11
2786.2036341987391097
 21
138.8097562318953919
 31
0.0
  0
LINE
  5
36309
  8
0
 10
2786.330191852545795
 20
138.7853065951572944
 30
0.0
 11
2786.3283018417309904
 21
138.7801138332156086
 31
0.0
  0
LINE
  5
3630A
  8
0
 10
2786.3283018417309904
 20
138.7801138332156086
 30
0.0
 11
2786.3274861738432264
 21
138.780326997412601
 31
0.0
  0
LINE
  5
3630B
  8
0
 10
2786.3274861738432264
 20
138.780326997412601
 30
0.0
 11
2786.316715458804083
 21
138.7902116013464138
 31
0.0
  0
LINE
  5
3630C
  8
0
 10
2786.3274861738309482
 20
138.7803269974156137
 30
0.0
 11
2786.32940308994921
 21
138.785593681264686
 31
0.0
  0
LINE
  5
3630D
  8
0
 10
2786.2931771175308313
 20
138.7674589912155909
 30
0.0
 11
2786.2975290752810906
 21
138.7784749089651086
 31
0.0
  0
LINE
  5
3630E
  8
0
 10
2786.2917980075621927
 20
138.7636699169167116
 30
0.0
 11
2786.28916192065617
 21
138.7564273284397132
 31
0.0
  0
LINE
  5
3630F
  8
0
 10
2786.3187605716311737
 20
138.7563536026156044
 30
0.0
 11
2786.3154574985628642
 21
138.7472784839652888
 31
0.0
  0
LINE
  5
36310
  8
0
 10
2786.3143751845718725
 20
138.7443048504883052
 30
0.0
 11
2786.3124304780280909
 21
138.7389618132602891
 31
0.0
  0
LINE
  5
36311
  8
0
 10
2786.3118968058479368
 20
138.7374955609899985
 30
0.0
 11
2786.3112545041308294
 21
138.7357308514156102
 31
0.0
  0
LINE
  5
36312
  8
0
 10
2786.2870507090337924
 20
138.7506268222570895
 30
0.0
 11
2786.2883501859741955
 21
138.7541971074439004
 31
0.0
  0
LINE
  5
36313
  8
0
 10
2786.2632499950118472
 20
138.7666302483764866
 30
0.0
 11
2786.262230112558882
 21
138.7651047381648084
 31
0.0
  0
LINE
  5
36314
  8
0
 10
2786.263793716067994
 20
138.7681241086870898
 30
0.0
 11
2786.2657755136638116
 21
138.7735690539236941
 31
0.0
  0
LINE
  5
36315
  8
0
 10
2786.2668787993961814
 20
138.7766003061526021
 30
0.0
 11
2786.2702473770309552
 21
138.7858553979156113
 31
0.0
  0
LINE
  5
36316
  8
0
 10
2786.2719443348310051
 20
138.7905177513156048
 30
0.0
 11
2786.2774431792158794
 21
138.8036169419800956
 31
0.0
  0
LINE
  5
36317
  8
0
 10
2786.2456423720741441
 20
138.7996490538714909
 30
0.0
 11
2786.2498008862357892
 21
138.8110744773343868
 31
0.0
  0
LINE
  5
36318
  8
0
 10
2786.2442282451679603
 20
138.7957637713483905
 30
0.0
 11
2786.2415266494908792
 21
138.7883411974596015
 31
0.0
  0
LINE
  5
36319
  8
0
 10
2786.2406951093239513
 20
138.7860565607925878
 30
0.0
 11
2786.2393642761308001
 21
138.7824001269156042
 31
0.0
  0
LINE
  5
3631A
  8
0
 10
2786.2237861567700747
 20
138.820994946811993
 30
0.0
 11
2786.2197630145910807
 21
138.8120147447880015
 31
0.0
  0
LINE
  5
3631B
  8
0
 10
2786.2191744153310538
 20
138.8083242913156141
 30
0.0
 11
2786.2171327726928212
 21
138.8027149243611973
 31
0.0
  0
LINE
  5
3631C
  8
0
 10
2786.2165728547161052
 20
138.8011765623735982
 30
0.0
 11
2786.2154483342269486
 21
138.7998058011393141
 31
0.0
  0
LINE
  5
3631D
  8
0
 10
2786.1937243686770671
 20
138.8197962118917133
 30
0.0
 11
2786.1943682428341162
 21
138.8241898728435046
 31
0.0
  0
LINE
  5
3631E
  8
0
 10
2786.1959650491071443
 20
138.8259524327849022
 30
0.0
 11
2786.198603281980013
 21
138.833200918029803
 31
0.0
  0
LINE
  5
3631F
  8
0
 10
2786.4559774789317999
 20
138.7395243712155946
 30
0.0
 11
2786.4364989401938146
 21
138.6861201575050018
 31
0.0
  0
ARC
  5
36320
  8
0
 10
2786.5883586753170675
 20
139.2526979682139938
 30
0.0
 40
0.5865763332589066
 50
254.9956911967477993
 51
264.0418881056410214
  0
ARC
  5
36321
  8
0
 10
2786.5939587873240271
 20
139.3199886328380899
 30
0.0
 40
0.6540863267682206
 50
264.1658376286022758
 51
269.5496887133767245
  0
ARC
  5
36322
  8
0
 10
2786.5792593105347805
 20
139.4722059764756921
 30
0.0
 40
0.8063401284839049
 50
270.6792312164843111
 51
273.8018504712414938
  0
ARC
  5
36323
  8
0
 10
2786.5860079618851159
 20
139.3096413417603969
 30
0.0
 40
0.6436984793543191
 50
274.1619200063714175
 51
275.6618278018875117
  0
LINE
  5
36324
  8
0
 10
2786.4812496580761945
 20
138.7168707851423903
 30
0.0
 11
2786.4821475761741567
 21
138.716883601476809
 31
0.0
  0
LINE
  5
36325
  8
0
 10
2786.4821475761741567
 20
138.716883601476809
 30
0.0
 11
2786.4978566231129662
 21
138.7101995837959123
 31
0.0
  0
LINE
  5
36326
  8
0
 10
2786.4978566231129662
 20
138.7101995837959123
 30
0.0
 11
2786.4954634366949904
 21
138.7036243582024042
 31
0.0
  0
LINE
  5
36327
  8
0
 10
2786.4954634366949904
 20
138.7036243582024042
 30
0.0
 11
2786.4773834327029363
 21
138.7037942244650139
 31
0.0
  0
LINE
  5
36328
  8
0
 10
2786.4773834327029363
 20
138.7037942244650139
 30
0.0
 11
2786.4765946699758388
 21
138.7040813106210919
 31
0.0
  0
LINE
  5
36329
  8
0
 10
2786.4765946699758388
 20
138.7040813106210919
 30
0.0
 11
2786.4812496580420884
 21
138.7168707851419072
 31
0.0
  0
LINE
  5
3632A
  8
0
 10
2786.4821475762128102
 20
138.7168836014774058
 30
0.0
 11
2786.4773834325528696
 21
138.7037942245246995
 31
0.0
  0
LINE
  5
3632B
  8
0
 10
2786.4917726565881821
 20
138.6934840233419948
 30
0.0
 11
2786.4901138138980059
 21
138.688926390348314
 31
0.0
  0
LINE
  5
3632C
  8
0
 10
2786.4901138138980059
 20
138.688926390348314
 30
0.0
 11
2786.4724172680980701
 21
138.6901497997762078
 31
0.0
  0
LINE
  5
3632D
  8
0
 10
2786.4724172680980701
 20
138.6901497997762078
 30
0.0
 11
2786.4716285055078515
 21
138.6904368858803878
 31
0.0
  0
LINE
  5
3632E
  8
0
 10
2786.4716285055078515
 20
138.6904368858803878
 30
0.0
 11
2786.474842461660046
 21
138.6992671578474017
 31
0.0
  0
LINE
  5
3632F
  8
0
 10
2786.474842461660046
 20
138.6992671578474017
 30
0.0
 11
2786.4757203411732007
 21
138.6992249184239085
 31
0.0
  0
LINE
  5
36330
  8
0
 10
2786.4757203411732007
 20
138.6992249184239085
 30
0.0
 11
2786.4917726565881821
 21
138.6934840233419948
 31
0.0
  0
LINE
  5
36331
  8
0
 10
2786.4877125833199898
 20
138.682329063756697
 30
0.0
 11
2786.4867360724751961
 21
138.6796461221059928
 31
0.0
  0
LINE
  5
36332
  8
0
 10
2786.4867360724751961
 20
138.6796461221059928
 30
0.0
 11
2786.4693902474568858
 21
138.6818331291096058
 31
0.0
  0
LINE
  5
36333
  8
0
 10
2786.4693902474568858
 20
138.6818331291096058
 30
0.0
 11
2786.4685787098937908
 21
138.6820576414712036
 31
0.0
  0
LINE
  5
36334
  8
0
 10
2786.4685787098937908
 20
138.6820576414712036
 30
0.0
 11
2786.4704750904038519
 21
138.6872679040675962
 31
0.0
  0
LINE
  5
36335
  8
0
 10
2786.4704750904038519
 20
138.6872679040675962
 30
0.0
 11
2786.4713349539551928
 21
138.6871761663543907
 31
0.0
  0
LINE
  5
36336
  8
0
 10
2786.4713349539551928
 20
138.6871761663543907
 30
0.0
 11
2786.4877125833199898
 21
138.682329063756697
 31
0.0
  0
LINE
  5
36337
  8
0
 10
2786.4852297446259399
 20
138.6755075205275887
 30
0.0
 11
2786.4855522460820794
 21
138.6763935859067942
 31
0.0
  0
LINE
  5
36338
  8
0
 10
2786.4855522460820794
 20
138.6763935859067942
 30
0.0
 11
2786.468856575269001
 21
138.6803668768424131
 31
0.0
  0
LINE
  5
36339
  8
0
 10
2786.468856575269001
 20
138.6803668768424131
 30
0.0
 11
2786.4680134287118562
 21
138.6805045441647906
 31
0.0
  0
LINE
  5
3633A
  8
0
 10
2786.4680134287118562
 20
138.6805045441647906
 30
0.0
 11
2786.4673870851711399
 21
138.6787836793432973
 31
0.0
  0
LINE
  5
3633B
  8
0
 10
2786.4673870851711399
 20
138.6787836793432973
 30
0.0
 11
2786.4682142734782246
 21
138.6786021672951961
 31
0.0
  0
LINE
  5
3633C
  8
0
 10
2786.4682142734782246
 20
138.6786021672951961
 30
0.0
 11
2786.4852297446441298
 21
138.6755075205350067
 31
0.0
  0
LINE
  5
3633D
  8
0
 10
2786.4954484315699119
 20
138.7218763194993869
 30
0.0
 11
2786.4926647277120537
 21
138.7142281561278025
 31
0.0
  0
LINE
  5
3633E
  8
0
 10
2786.4926647277120537
 20
138.7142281561278025
 30
0.0
 11
2786.5084993846248835
 21
138.7078892492741033
 31
0.0
  0
LINE
  5
3633F
  8
0
 10
2786.5084993846248835
 20
138.7078892492741033
 30
0.0
 11
2786.527112311025121
 21
138.7091835746593063
 31
0.0
  0
LINE
  5
36340
  8
0
 10
2786.527112311025121
 20
138.7091835746593063
 30
0.0
 11
2786.5285424604630862
 21
138.7131128777272977
 31
0.0
  0
LINE
  5
36341
  8
0
 10
2786.4954484315699119
 20
138.7218763194993869
 30
0.0
 11
2786.5031902500941214
 21
138.7223403277336899
 31
0.0
  0
LINE
  5
36342
  8
0
 10
2786.5084993847540318
 20
138.7078892492255875
 30
0.0
 11
2786.5125228210431487
 21
138.7189435496775047
 31
0.0
  0
LINE
  5
36343
  8
0
 10
2786.5226874615659654
 20
138.6970264005080082
 30
0.0
 11
2786.5206486838901583
 21
138.6914249051721981
 31
0.0
  0
LINE
  5
36344
  8
0
 10
2786.5206486838901583
 20
138.6914249051721981
 30
0.0
 11
2786.5024568101980549
 21
138.6912874122828896
 31
0.0
  0
LINE
  5
36345
  8
0
 10
2786.5024568101980549
 20
138.6912874122828896
 30
0.0
 11
2786.4862821569117841
 21
138.6966921871978968
 31
0.0
  0
LINE
  5
36346
  8
0
 10
2786.4862821569117841
 20
138.6966921871978968
 30
0.0
 11
2786.4882959592528096
 21
138.7022250634128966
 31
0.0
  0
LINE
  5
36347
  8
0
 10
2786.4882959592528096
 20
138.7022250634128966
 30
0.0
 11
2786.5065093323150904
 21
138.702421625324007
 31
0.0
  0
LINE
  5
36348
  8
0
 10
2786.5065093323150904
 20
138.702421625324007
 30
0.0
 11
2786.5226874615627821
 21
138.6970264005834963
 31
0.0
  0
LINE
  5
36349
  8
0
 10
2786.548489658768176
 20
138.6865220036750088
 30
0.0
 11
2786.546792360028121
 21
138.6818587137898078
 31
0.0
  0
LINE
  5
3634A
  8
0
 10
2786.546792360028121
 20
138.6818587137898078
 30
0.0
 11
2786.5284784146251695
 21
138.6813858326835884
 31
0.0
  0
LINE
  5
3634B
  8
0
 10
2786.5284784146251695
 20
138.6813858326835884
 30
0.0
 11
2786.5118486608721469
 21
138.6855402284101899
 31
0.0
  0
LINE
  5
3634C
  8
0
 10
2786.5118486608721469
 20
138.6855402284101899
 30
0.0
 11
2786.513520138064905
 21
138.6901325739397919
 31
0.0
  0
LINE
  5
3634D
  8
0
 10
2786.513520138064905
 20
138.6901325739397919
 30
0.0
 11
2786.5318469927779006
 21
138.6906409242579059
 31
0.0
  0
LINE
  5
3634E
  8
0
 10
2786.5318469927779006
 20
138.6906409242579059
 30
0.0
 11
2786.5484896588141055
 21
138.686522003677112
 31
0.0
  0
LINE
  5
3634F
  8
0
 10
2786.5427911781348485
 20
138.6891587446652068
 30
0.0
 11
2786.5448503896091097
 21
138.6948163814421093
 31
0.0
  0
LINE
  5
36350
  8
0
 10
2786.5448503896091097
 20
138.6948163814421093
 30
0.0
 11
2786.5637204252248011
 21
138.6968171088927022
 31
0.0
  0
LINE
  5
36351
  8
0
 10
2786.5637204252248011
 20
138.6968171088927022
 30
0.0
 11
2786.5805114036079431
 21
138.6931056735108996
 31
0.0
  0
LINE
  5
36352
  8
0
 10
2786.5805114036079431
 20
138.6931056735108996
 30
0.0
 11
2786.5784117069320018
 21
138.6873368040947128
 31
0.0
  0
LINE
  5
36353
  8
0
 10
2786.5784117069320018
 20
138.6873368040947128
 30
0.0
 11
2786.5595619112277745
 21
138.6853916853696944
 31
0.0
  0
LINE
  5
36354
  8
0
 10
2786.5595619112277745
 20
138.6853916853696944
 30
0.0
 11
2786.5427911781348485
 21
138.6891587446652068
 31
0.0
  0
LINE
  5
36355
  8
0
 10
2786.554702421984075
 20
138.7035914303426125
 30
0.0
 11
2786.5522685134528729
 21
138.6969043215052011
 31
0.0
  0
LINE
  5
36356
  8
0
 10
2786.5522685134528729
 20
138.6969043215052011
 30
0.0
 11
2786.5335439506930015
 21
138.6953032776162047
 31
0.0
  0
LINE
  5
36357
  8
0
 10
2786.5335439506930015
 20
138.6953032776162047
 30
0.0
 11
2786.5175243113321812
 21
138.7011339496721121
 31
0.0
  0
LINE
  5
36358
  8
0
 10
2786.5175243113321812
 20
138.7011339496721121
 30
0.0
 11
2786.5196523910249198
 21
138.7069808004387141
 31
0.0
  0
LINE
  5
36359
  8
0
 10
2786.5196523910249198
 20
138.7069808004387141
 30
0.0
 11
2786.5384085690720894
 21
138.7086687068695028
 31
0.0
  0
LINE
  5
3635A
  8
0
 10
2786.5384085690720894
 20
138.7086687068695028
 30
0.0
 11
2786.5542432778729562
 21
138.703758545133411
 31
0.0
  0
LINE
  5
3635B
  8
0
 10
2786.6070223451861239
 20
138.6845485355156029
 30
0.0
 11
2786.6055416206058908
 21
138.6804802782667139
 31
0.0
  0
LINE
  5
3635C
  8
0
 10
2786.6055416206058908
 20
138.6804802782667139
 30
0.0
 11
2786.5873351621098664
 21
138.6782294237845861
 31
0.0
  0
LINE
  5
3635D
  8
0
 10
2786.5873351621098664
 20
138.6782294237845861
 30
0.0
 11
2786.5693092491701464
 21
138.6806211948741065
 31
0.0
  0
LINE
  5
3635E
  8
0
 10
2786.5693092491701464
 20
138.6806211948741065
 30
0.0
 11
2786.5710269818241613
 21
138.6853406264542059
 31
0.0
  0
LINE
  5
3635F
  8
0
 10
2786.5710269818241613
 20
138.6853406264542059
 30
0.0
 11
2786.5900256190138862
 21
138.6876946835820945
 31
0.0
  0
LINE
  5
36360
  8
0
 10
2786.5900256190138862
 20
138.6876946835820945
 30
0.0
 11
2786.6040558110171332
 21
138.6856282656590054
 31
0.0
  0
LINE
  5
36361
  8
0
 10
2786.6030009197597792
 20
138.6734997602407873
 30
0.0
 11
2786.6019687455082021
 21
138.6706638847961983
 31
0.0
  0
LINE
  5
36362
  8
0
 10
2786.6019687455082021
 20
138.6706638847961983
 30
0.0
 11
2786.5833722349379968
 21
138.6694146611307019
 31
0.0
  0
LINE
  5
36363
  8
0
 10
2786.5833722349379968
 20
138.6694146611307019
 30
0.0
 11
2786.5658148149182125
 21
138.6710203157286116
 31
0.0
  0
LINE
  5
36364
  8
0
 10
2786.5658148149182125
 20
138.6710203157286116
 30
0.0
 11
2786.566824628033828
 21
138.6737947544870053
 31
0.0
  0
LINE
  5
36365
  8
0
 10
2786.566824628033828
 20
138.6737947544870053
 30
0.0
 11
2786.5854138775289357
 21
138.6750240281023991
 31
0.0
  0
LINE
  5
36366
  8
0
 10
2786.5854138775289357
 20
138.6750240281023991
 30
0.0
 11
2786.6030009197738764
 21
138.673499760172291
 31
0.0
  0
LINE
  5
36367
  8
0
 10
2786.5752576510581093
 20
138.6786711070467106
 30
0.0
 11
2786.5738942168868562
 21
138.6749251025723879
 31
0.0
  0
LINE
  5
36368
  8
0
 10
2786.5738942168868562
 20
138.6749251025723879
 30
0.0
 11
2786.5554461876240566
 21
138.674083829330101
 31
0.0
  0
LINE
  5
36369
  8
0
 10
2786.5554461876240566
 20
138.674083829330101
 30
0.0
 11
2786.5383578230571402
 21
138.6769782016812087
 31
0.0
  0
LINE
  5
3636A
  8
0
 10
2786.5383578230571402
 20
138.6769782016812087
 30
0.0
 11
2786.5396962798299683
 21
138.6806555815055049
 31
0.0
  0
LINE
  5
3636B
  8
0
 10
2786.5396962798299683
 20
138.6806555815055049
 30
0.0
 11
2786.558147783811819
 21
138.6815064030323015
 31
0.0
  0
LINE
  5
3636C
  8
0
 10
2786.558147783811819
 20
138.6815064030323015
 30
0.0
 11
2786.5752576510581093
 21
138.6786711070467106
 31
0.0
  0
LINE
  5
3636D
  8
0
 10
2786.572040368848775
 20
138.6698316967136009
 30
0.0
 11
2786.5713689032531875
 21
138.6679868601914905
 31
0.0
  0
LINE
  5
3636E
  8
0
 10
2786.5713689032531875
 20
138.6679868601914905
 30
0.0
 11
2786.5532838151730175
 21
138.6681427584549056
 31
0.0
  0
LINE
  5
3636F
  8
0
 10
2786.5532838151730175
 20
138.6681427584549056
 30
0.0
 11
2786.5358778561021609
 21
138.6701645486672021
 31
0.0
  0
LINE
  5
36370
  8
0
 10
2786.5358778561021609
 20
138.6701645486672021
 30
0.0
 11
2786.5365373784120493
 21
138.671976571234211
 31
0.0
  0
LINE
  5
36371
  8
0
 10
2786.5365373784120493
 20
138.671976571234211
 30
0.0
 11
2786.5546146482010954
 21
138.6717991923916884
 31
0.0
  0
LINE
  5
36372
  8
0
 10
2786.5546146482010954
 20
138.6717991923916884
 30
0.0
 11
2786.5720403688119404
 21
138.6698316967170967
 31
0.0
  0
LINE
  5
36373
  8
0
 10
2786.5443366531221727
 20
138.6751117143778913
 30
0.0
 11
2786.5433383800441334
 21
138.6723689817839897
 31
0.0
  0
LINE
  5
36374
  8
0
 10
2786.5433383800441334
 20
138.6723689817839897
 30
0.0
 11
2786.525393330838142
 21
138.6729096353849116
 31
0.0
  0
LINE
  5
36375
  8
0
 10
2786.525393330838142
 20
138.6729096353849116
 30
0.0
 11
2786.5084458570017887
 21
138.676191101599386
 31
0.0
  0
LINE
  5
36376
  8
0
 10
2786.5084458570017887
 20
138.676191101599386
 30
0.0
 11
2786.5094295239750863
 21
138.6788937042728946
 31
0.0
  0
LINE
  5
36377
  8
0
 10
2786.5094295239750863
 20
138.6788937042728946
 30
0.0
 11
2786.527375129147913
 21
138.6783545803617983
 31
0.0
  0
LINE
  5
36378
  8
0
 10
2786.527375129147913
 20
138.6783545803617983
 30
0.0
 11
2786.5443366531221727
 21
138.6751117143778913
 31
0.0
  0
LINE
  5
36379
  8
0
 10
2786.5175836795037867
 20
138.683003874912913
 30
0.0
 11
2786.5162578571362246
 21
138.6793612077709099
 31
0.0
  0
LINE
  5
3637A
  8
0
 10
2786.5162578571362246
 20
138.6793612077709099
 30
0.0
 11
2786.498441613281102
 21
138.6802557495221038
 31
0.0
  0
LINE
  5
3637B
  8
0
 10
2786.498441613281102
 20
138.6802557495221038
 30
0.0
 11
2786.4819433678198948
 21
138.6847714621613932
 31
0.0
  0
LINE
  5
3637C
  8
0
 10
2786.4819433678198948
 20
138.6847714621613932
 30
0.0
 11
2786.4832537227807734
 21
138.6883716328354126
 31
0.0
  0
LINE
  5
3637D
  8
0
 10
2786.4832537227807734
 20
138.6883716328354126
 30
0.0
 11
2786.501077699706002
 21
138.6874983381746063
 31
0.0
  0
LINE
  5
3637E
  8
0
 10
2786.501077699706002
 20
138.6874983381746063
 30
0.0
 11
2786.5175836795719988
 21
138.6830038748958884
 31
0.0
  0
LINE
  5
3637F
  8
0
 10
2786.4801605417301289
 20
138.6798731876446027
 30
0.0
 11
2786.4795144797990361
 21
138.6780981471295888
 31
0.0
  0
LINE
  5
36380
  8
0
 10
2786.4795144797990361
 20
138.6780981471295888
 30
0.0
 11
2786.4963304016960137
 21
138.6744552433258946
 31
0.0
  0
LINE
  5
36381
  8
0
 10
2786.4963304016960137
 20
138.6744552433258946
 30
0.0
 11
2786.5138008472267757
 21
138.6726106285057085
 31
0.0
  0
LINE
  5
36382
  8
0
 10
2786.5138008472267757
 20
138.6726106285057085
 30
0.0
 11
2786.5144543208389223
 21
138.6744060324552947
 31
0.0
  0
LINE
  5
36383
  8
0
 10
2786.5144543208389223
 20
138.6744060324552947
 30
0.0
 11
2786.4976298796968877
 21
138.6780255281267955
 31
0.0
  0
LINE
  5
36384
  8
0
 10
2786.4976298796968877
 20
138.6780255281267955
 30
0.0
 11
2786.4801605417301289
 21
138.6798731876446027
 31
0.0
  0
LINE
  5
36385
  8
0
 10
2786.506928629838967
 20
138.6720225541857872
 30
0.0
 11
2786.5072534507489763
 21
138.6729149922823012
 31
0.0
  0
LINE
  5
36386
  8
0
 10
2786.5072534507489763
 20
138.6729149922823012
 30
0.0
 11
2786.5248496104300102
 21
138.6714157748384935
 31
0.0
  0
LINE
  5
36387
  8
0
 10
2786.5248496104300102
 20
138.6714157748384935
 30
0.0
 11
2786.5421284677918266
 21
138.6690447754394029
 31
0.0
  0
LINE
  5
36388
  8
0
 10
2786.5421284677918266
 20
138.6690447754394029
 30
0.0
 11
2786.5417989156198928
 21
138.6681393380926863
 31
0.0
  0
LINE
  5
36389
  8
0
 10
2786.5417989156198928
 20
138.6681393380926863
 30
0.0
 11
2786.5370344734337777
 21
138.6683841933588042
 31
0.0
  0
LINE
  5
3638A
  8
0
 10
2786.506928629838967
 20
138.6720225541857872
 30
0.0
 11
2786.512182929121991
 21
138.6710889496877996
 31
0.0
  0
LINE
  5
3638B
  8
0
 10
2786.6164071169609997
 20
138.6811327579121951
 30
0.0
 11
2786.5981824320601845
 21
138.6785542617089959
 31
0.0
  0
LINE
  5
3638C
  8
0
 10
2786.5981824320601845
 20
138.6785542617089959
 30
0.0
 11
2786.5967996276881422
 21
138.6747550380389953
 31
0.0
  0
LINE
  5
3638D
  8
0
 10
2786.5967996276881422
 20
138.6747550380389953
 30
0.0
 11
2786.6145244344688763
 21
138.6736092748159876
 31
0.0
  0
LINE
  5
3638E
  8
0
 10
2786.6145244344688763
 20
138.6736092748159876
 30
0.0
 11
2786.6309272633739056
 21
138.6758478567865893
 31
0.0
  0
LINE
  5
3638F
  8
0
 10
2786.6422475123558797
 20
138.6717276230858999
 30
0.0
 11
2786.6252834261481439
 21
138.6716182798471095
 31
0.0
  0
LINE
  5
36390
  8
0
 10
2786.6252834261481439
 20
138.6716182798471095
 30
0.0
 11
2786.6263327355759429
 21
138.6745012339837047
 31
0.0
  0
LINE
  5
36391
  8
0
 10
2786.6263327355759429
 20
138.6745012339837047
 30
0.0
 11
2786.6322228559570249
 21
138.6753762996474961
 31
0.0
  0
LINE
  5
36392
  8
0
 10
2786.6317447468250066
 20
138.6710774248215898
 30
0.0
 11
2786.6310463193708529
 21
138.6691585112639018
 31
0.0
  0
LINE
  5
36393
  8
0
 10
2786.6310463193708529
 20
138.6691585112639018
 30
0.0
 11
2786.6122837527350384
 21
138.6674530543978108
 31
0.0
  0
LINE
  5
36394
  8
0
 10
2786.6122837527350384
 20
138.6674530543978108
 30
0.0
 11
2786.594239181744797
 21
138.6677202704487115
 31
0.0
  0
LINE
  5
36395
  8
0
 10
2786.594239181744797
 20
138.6677202704487115
 30
0.0
 11
2786.5954413534350351
 21
138.6691529628731985
 31
0.0
  0
LINE
  5
36396
  8
0
 10
2786.5954413534350351
 20
138.6691529628731985
 30
0.0
 11
2786.6136625609269686
 21
138.6712412972485993
 31
0.0
  0
LINE
  5
36397
  8
0
 10
2786.6136625609269686
 20
138.6712412972485993
 30
0.0
 11
2786.6317447467981765
 21
138.6710774247464997
 31
0.0
  0
LINE
  5
36398
  8
0
 10
2786.6261157744779666
 20
138.6672285647912872
 30
0.0
 11
2786.6236663618060447
 21
138.6671754321604908
 31
0.0
  0
LINE
  5
36399
  8
0
 10
2786.6236663618060447
 20
138.6671754321604908
 30
0.0
 11
2786.6240124145410846
 21
138.6681262040983995
 31
0.0
  0
LINE
  5
3639A
  8
0
 10
2786.6240124145410846
 20
138.6681262040983995
 30
0.0
 11
2786.6455079501411092
 21
138.6705409207743003
 31
0.0
  0
LINE
  5
3639B
  8
0
 10
2786.600377717201809
 20
138.6662925704407883
 30
0.0
 11
2786.6007182355579062
 21
138.6672281367681876
 31
0.0
  0
LINE
  5
3639C
  8
0
 10
2786.6007182355579062
 20
138.6672281367681876
 30
0.0
 11
2786.5828123169649189
 21
138.6678762991417955
 31
0.0
  0
LINE
  5
3639D
  8
0
 10
2786.5828123169649189
 20
138.6678762991417955
 30
0.0
 11
2786.5645910777311656
 21
138.6676581254884866
 31
0.0
  0
LINE
  5
3639E
  8
0
 10
2786.5645910777311656
 20
138.6676581254884866
 30
0.0
 11
2786.5642577902058292
 21
138.6667424255115009
 31
0.0
  0
LINE
  5
3639F
  8
0
 10
2786.5642577902058292
 20
138.6667424255115009
 30
0.0
 11
2786.5670471537650883
 21
138.6664558971625922
 31
0.0
  0
LINE
  5
363A0
  8
0
 10
2786.600377717201809
 20
138.6662925704407883
 30
0.0
 11
2786.5974066171138475
 21
138.6660693869019951
 31
0.0
  0
LINE
  5
363A1
  8
0
 10
2786.4855740968841928
 20
138.7287520831858103
 30
0.0
 11
2786.4836840861189557
 21
138.7235593212259062
 31
0.0
  0
LINE
  5
363A2
  8
0
 10
2786.4836840861189557
 20
138.7235593212259062
 30
0.0
 11
2786.4844459432761141
 21
138.7231983132604967
 31
0.0
  0
LINE
  5
363A3
  8
0
 10
2786.4844459432761141
 20
138.7231983132604967
 30
0.0
 11
2786.4990504906168098
 21
138.7238470769704008
 31
0.0
  0
LINE
  5
363A4
  8
0
 10
2786.4844459432870281
 20
138.7231983132554092
 30
0.0
 11
2786.4863628594807778
 21
138.7284649970769124
 31
0.0
  0
LINE
  5
363A5
  8
0
 10
2786.5024568101980549
 20
138.6912874122828896
 30
0.0
 11
2786.5062039126100899
 21
138.7025234793713935
 31
0.0
  0
LINE
  5
363A6
  8
0
 10
2786.501077699706002
 20
138.6874983381746063
 30
0.0
 11
2786.498441613281102
 21
138.6802557495221038
 31
0.0
  0
LINE
  5
363A7
  8
0
 10
2786.4757203411732007
 20
138.6992249184239085
 30
0.0
 11
2786.4724172680980701
 21
138.6901497997762078
 31
0.0
  0
LINE
  5
363A8
  8
0
 10
2786.4713349539551928
 20
138.6871761663543907
 30
0.0
 11
2786.4693902474568858
 21
138.6818331291096058
 31
0.0
  0
LINE
  5
363A9
  8
0
 10
2786.468856575269001
 20
138.6803668768424131
 30
0.0
 11
2786.4682142734782246
 21
138.6786021672951961
 31
0.0
  0
LINE
  5
363AA
  8
0
 10
2786.4963304016960137
 20
138.6744552433258946
 30
0.0
 11
2786.4976298796968877
 21
138.6780255281267955
 31
0.0
  0
LINE
  5
363AB
  8
0
 10
2786.5248496104300102
 20
138.6714157748384935
 30
0.0
 11
2786.5246503066491641
 21
138.6695915984142005
 31
0.0
  0
LINE
  5
363AC
  8
0
 10
2786.525393330838142
 20
138.6729096353849116
 30
0.0
 11
2786.527375129147913
 21
138.6783545803617983
 31
0.0
  0
LINE
  5
363AD
  8
0
 10
2786.5284784146251695
 20
138.6813858326835884
 30
0.0
 11
2786.5318469927779006
 21
138.6906409242579059
 31
0.0
  0
LINE
  5
363AE
  8
0
 10
2786.5335439506930015
 20
138.6953032776162047
 30
0.0
 11
2786.5377515889949791
 21
138.7088724288628043
 31
0.0
  0
LINE
  5
363AF
  8
0
 10
2786.5595619112277745
 20
138.6853916853696944
 30
0.0
 11
2786.5637204252248011
 21
138.6968171088927022
 31
0.0
  0
LINE
  5
363B0
  8
0
 10
2786.558147783811819
 20
138.6815064030323015
 30
0.0
 11
2786.5554461876240566
 21
138.674083829330101
 31
0.0
  0
LINE
  5
363B1
  8
0
 10
2786.5546146482010954
 20
138.6717991923916884
 30
0.0
 11
2786.5532838151730175
 21
138.6681427584549056
 31
0.0
  0
LINE
  5
363B2
  8
0
 10
2786.5900256190138862
 20
138.6876946835820945
 30
0.0
 11
2786.5873351621098664
 21
138.6782294237845861
 31
0.0
  0
LINE
  5
363B3
  8
0
 10
2786.5854138775289357
 20
138.6750240281023991
 30
0.0
 11
2786.5833722349379968
 21
138.6694146611307019
 31
0.0
  0
LINE
  5
363B4
  8
0
 10
2786.5828123169649189
 20
138.6678762991417955
 30
0.0
 11
2786.5827914560900354
 21
138.665996613364797
 31
0.0
  0
LINE
  5
363B5
  8
0
 10
2786.6122837527350384
 20
138.6674530543978108
 30
0.0
 11
2786.6146147073441171
 21
138.671232668279913
 31
0.0
  0
LINE
  5
363B6
  8
0
 10
2786.6145244344688763
 20
138.6736092748159876
 30
0.0
 11
2786.6171626673572064
 21
138.6808577600556873
 31
0.0
  0
LINE
  5
363B7
  8
0
 10
2789.6626807745310543
 20
135.007528351915596
 30
0.0
 11
2789.6285250829309916
 21
137.3968710457156135
 31
0.0
  0
ARC
  5
363B8
  8
0
 10
2785.0379510401098742
 20
137.3312487171646126
 30
0.0
 40
4.5910430549749828
 50
0.8189882913609169
 51
6.8292021987781348
  0
ARC
  5
363B9
  8
0
 10
2788.9584286615481687
 20
137.800764072855003
 30
0.0
 40
0.6425510074430252
 50
6.8292021987781348
 51
38.5470846407692278
  0
ARC
  5
363BA
  8
0
 10
2789.0764437829548115
 20
137.894795988176611
 30
0.0
 40
0.491655116247136
 50
38.5470846407692278
 51
78.498520926334848
  0
ARC
  5
363BB
  8
0
 10
2788.7267605334859581
 20
136.5933113138029
 30
0.0
 40
1.838611231394917
 50
75.906340725620467
 51
85.4205880950966758
  0
LINE
  5
363BC
  8
0
 10
2788.8735566268310322
 20
138.4260530215155995
 30
0.0
 11
2786.9493193550310934
 21
138.6337036481156133
 31
0.0
  0
ARC
  5
363BD
  8
0
 10
2786.9580356805518022
 20
138.7145827651764876
 30
0.0
 40
0.0813474394626417
 50
250.3973215348796089
 51
263.8489858222566227
  0
LINE
  5
363BE
  8
0
 10
2786.9307439718318165
 20
138.6379500793156012
 30
0.0
 11
2785.9312112863322
 21
139.0017481333156013
 31
0.0
  0
ARC
  5
363BF
  8
0
 10
2785.9379952956660418
 20
139.0199977313222064
 30
0.0
 40
0.0194696843310423
 50
196.1290160742611022
 51
249.6309312396041946
  0
ARC
  5
363C0
  8
0
 10
2788.8107743769842273
 20
139.3265913124546955
 30
0.0
 40
2.922051217426481
 50
174.830426970589798
 51
179.6527245568030935
  0
ARC
  5
363C1
  8
0
 10
2789.3471685336821793
 20
139.498109615579807
 30
0.0
 40
3.4618102090005771
 50
182.546478818427687
 51
188.0289107123101928
  0
ARC
  5
363C2
  8
0
 10
2785.9567842698620552
 20
139.586213244849688
 30
0.0
 40
0.0562948166143731
 50
93.104772416993498
 51
176.2664792082616998
  0
ARC
  5
363C3
  8
0
 10
2786.1248118313528721
 20
137.4298303117917044
 30
0.0
 40
2.2191990355868039
 50
86.3458809563777407
 51
94.4212806283383657
  0
ARC
  5
363C4
  8
0
 10
2785.7136381200039068
 20
130.9498066640520904
 30
0.0
 40
8.7122544412467775
 50
84.6282618290716755
 51
86.3633398001231711
  0
LINE
  5
363C5
  8
0
 10
2786.5292552394312224
 20
139.6237991798155917
 30
0.0
 11
2790.6902880940310752
 21
139.259741433215595
 31
0.0
  0
ARC
  5
363C6
  8
0
 10
2789.0227984293719601
 20
119.5739853250532008
 30
0.0
 40
19.7562525629685304
 50
84.145807063457724
 51
85.158296277791905
  0
ARC
  5
363C7
  8
0
 10
2790.4914040391690833
 20
133.8973743468735904
 30
0.0
 40
5.357770854554528
 50
78.6781642623296023
 51
84.145807063457724
  0
ARC
  5
363C8
  8
0
 10
2791.5308249186928151
 20
139.0888701076721077
 30
0.0
 40
0.0632431136525195
 50
3.0452671716296891
 51
78.6781642623296023
  0
LINE
  5
363C9
  8
0
 10
2791.5939787251318194
 20
139.0922298929156113
 30
0.0
 11
2791.7103470990309688
 21
136.6504332780156119
 31
0.0
  0
LINE
  5
363CA
  8
0
 10
2791.7319099235310205
 20
136.197718418515592
 30
0.0
 11
2791.7886292693310679
 21
135.007528351915596
 31
0.0
  0
ARC
  5
363CB
  8
0
 10
2796.4032662696417901
 20
136.6470862325058135
 30
0.0
 40
4.6929203641861532
 50
179.9591359786817861
 51
185.4947421950203079
  0
LINE
  5
363CC
  8
0
 10
2792.3152380561309656
 20
137.3701468920156117
 30
0.0
 11
2791.9890749191308714
 21
137.5085949297155992
 31
0.0
  0
ARC
  5
363CD
  8
0
 10
2791.9813833614539362
 20
137.4904747553744926
 30
0.0
 40
0.0196850394373468
 50
66.9999999899498562
 51
156.9999997973430936
  0
LINE
  5
363CE
  8
0
 10
2791.9632631871390913
 20
137.4981663131123071
 30
0.0
 11
2791.7651942551319735
 21
137.031545155635996
 31
0.0
  0
ARC
  5
363CF
  8
0
 10
2791.7760663556491636
 20
137.0269302227220862
 30
0.0
 40
0.0118110192380774
 50
156.9999997973446
 51
202.000021601494808
  0
LINE
  5
363D0
  8
0
 10
2791.7651153709730352
 20
137.0225057329118101
 30
0.0
 11
2791.7718786285640817
 21
137.0057661011337018
 31
0.0
  0
ARC
  5
363D1
  8
0
 10
2791.7828296423281245
 20
137.0101906026966105
 30
0.0
 40
0.0118110506112881
 50
202.0000216014827004
 51
246.9998996468181076
  0
LINE
  5
363D2
  8
0
 10
2791.7782146781519259
 20
136.9993184813675953
 30
0.0
 11
2792.0953708330389418
 21
136.864693025225705
 31
0.0
  0
ARC
  5
363D3
  8
0
 10
2792.0999851980968742
 20
136.8755637351256098
 30
0.0
 40
0.0118095172895092
 50
246.9998996468181076
 51
292.0071668300681154
  0
LINE
  5
363D4
  8
0
 10
2792.1044104907309702
 20
136.8646146948156002
 30
0.0
 11
2792.1211492790989723
 21
136.8713800399762874
 31
0.0
  0
ARC
  5
363D5
  8
0
 10
2792.1167200388508718
 20
136.8823388474548892
 30
0.0
 40
0.0118200520527418
 50
292.0071668300681154
 51
336.9663823610130748
  0
LINE
  5
363D6
  8
0
 10
2792.127597742431135
 20
136.8777140020144998
 30
0.0
 11
2792.3256666386378129
 21
137.3443350797955986
 31
0.0
  0
ARC
  5
363D7
  8
0
 10
2792.3075465758088285
 20
137.352026749007706
 30
0.0
 40
0.0196849803701796
 50
336.9995743382896194
 51
67.0001716081173839
  0
LINE
  5
363D8
  8
0
 10
2791.8733722635311096
 20
136.958926482815599
 30
0.0
 11
2791.7108824435990755
 21
136.5761244562247896
 31
0.0
  0
LINE
  5
363D9
  8
0
 10
2792.0002134834521712
 20
136.9050855792646928
 30
0.0
 11
2791.7263459390019307
 21
136.2598940767952911
 31
0.0
  0
LINE
  5
363DA
  8
0
 10
2791.765194255132883
 20
137.0315451556367066
 30
0.0
 11
2792.127597742431135
 21
136.8777140020156082
 31
0.0
  0
LINE
  5
363DB
  8
0
 10
2789.7217136684312209
 20
135.007528351915596
 30
0.0
 11
2789.7239484211308991
 21
135.2636056459110989
 31
0.0
  0
ARC
  5
363DC
  8
0
 10
2789.7436327109930971
 20
135.2634338637151075
 30
0.0
 40
0.0196850394074595
 50
89.9984802501061267
 51
179.4999999975266007
  0
LINE
  5
363DD
  8
0
 10
2789.7436332331308222
 20
135.283118903115593
 30
0.0
 11
2791.7076686417308338
 21
135.283118903115593
 31
0.0
  0
ARC
  5
363DE
  8
0
 10
2791.7075780798049891
 20
135.2633425080184111
 30
0.0
 40
0.0197766024509758
 50
0.7623723837320479
 51
89.737627616345506
  0
LINE
  5
363DF
  8
0
 10
2791.7273529315862106
 20
135.2636056459107863
 30
0.0
 11
2791.7295876842317739
 21
135.007528351915596
 31
0.0
  0
ARC
  5
363E0
  8
0
 10
2789.8519987340418993
 20
135.3323315014702075
 30
0.0
 40
0.0492125983545755
 50
269.9999999873631964
 51
357.2192475571438877
  0
LINE
  5
363E1
  8
0
 10
2789.901153384132158
 20
135.3299439899155914
 30
0.0
 11
2789.9715913248460311
 21
136.7801368998489124
 31
0.0
  0
ARC
  5
363E2
  8
0
 10
2789.9912531872341788
 20
136.7791818951127993
 30
0.0
 40
0.0196850416967513
 50
89.9729489460695504
 51
177.2192475571455077
  0
LINE
  5
363E3
  8
0
 10
2789.9912624811317983
 20
136.798866934615603
 30
0.0
 11
2791.4600481671309353
 21
136.798866934615603
 31
0.0
  0
ARC
  5
363E4
  8
0
 10
2791.4600481625520842
 20
136.7791818927128134
 30
0.0
 40
0.0196850440953649
 50
2.7807590968865741
 51
90.0270426770833154
  0
LINE
  5
363E5
  8
0
 10
2791.4797100272248827
 20
136.7801368998487135
 30
0.0
 11
2791.5501481363580751
 21
135.3299439980688135
 31
0.0
  0
ARC
  5
363E6
  8
0
 10
2791.5993028007219436
 20
135.3323315160386926
 30
0.0
 40
0.0492126129234579
 50
182.7807590968897955
 51
269.999788000927083
  0
ARC
  5
363E7
  8
0
 10
2789.9847379422521954
 20
136.8480155869787893
 30
0.0
 40
0.0097784416438039
 50
176.8323856148296898
 51
269.955264149659115
  0
LINE
  5
363E8
  8
0
 10
2789.9749744405307865
 20
136.8485559157155933
 30
0.0
 11
2790.0354277366350289
 21
138.0920911711388896
 31
0.0
  0
ARC
  5
363E9
  8
0
 10
2790.0656839018961364
 20
138.0905085896270919
 30
0.0
 40
0.0302975263111287
 50
96.1119516301067023
 51
177.005810800591604
  0
ARC
  5
363EA
  8
0
 10
2790.7862853878082205
 20
131.36095632215509
 30
0.0
 40
6.7983208878352723
 50
93.986217493130269
 51
96.1119516301067023
  0
ARC
  5
363EB
  8
0
 10
2790.7327894270520119
 20
132.007157351216506
 30
0.0
 40
6.1499700931986432
 50
90.0665076523083172
 51
93.9075410864676456
  0
ARC
  5
363EC
  8
0
 10
2790.6763381062510234
 20
131.2125115810871137
 30
0.0
 40
6.9447867982227818
 50
84.1108261188925184
 51
89.5931586851846049
  0
ARC
  5
363ED
  8
0
 10
2791.3855828051250683
 20
138.0904979727280022
 30
0.0
 40
0.0303295462780697
 50
3.1585737888583232
 51
83.7145859517665514
  0
LINE
  5
363EE
  8
0
 10
2791.4158662766808447
 20
138.0921691184155975
 30
0.0
 11
2791.4763242590311165
 21
136.8485562390156076
 31
0.0
  0
ARC
  5
363EF
  8
0
 10
2791.466430031327036
 20
136.8481393921526887
 30
0.0
 40
0.0099030047549167
 50
270.710273786363075
 51
2.4124621890808529
  0
LINE
  5
363F0
  8
0
 10
2789.9847303073629519
 20
136.8382371483156135
 30
0.0
 11
2791.466552791931008
 21
136.8382371483156135
 31
0.0
  0
LINE
  5
363F1
  8
0
 10
2791.3561133571738537
 20
136.8382371483156135
 30
0.0
 11
2791.3562605901761344
 21
136.8183801918139864
 31
0.0
  0
ARC
  5
363F2
  8
0
 10
2791.3759448800310565
 20
136.8185519739155893
 30
0.0
 40
0.0196850393999989
 50
180.4999997276970873
 51
270.0
  0
LINE
  5
363F3
  8
0
 10
2790.0952140494309788
 20
136.8382371483156135
 30
0.0
 11
2790.0952140494309788
 21
136.8183801917155904
 31
0.0
  0
ARC
  5
363F4
  8
0
 10
2790.0752315362619811
 20
136.818854690071106
 30
0.0
 40
0.0199881460181178
 50
270.3581309258127021
 51
358.639728404724508
  0
LINE
  5
363F5
  8
0
 10
2790.0797452139709094
 20
138.1224626540852114
 30
0.0
 11
2791.3713394520950715
 21
138.1224626540852114
 31
0.0
  0
ARC
  5
363F6
  8
0
 10
2790.3039739127389112
 20
138.0927110133035001
 30
0.0
 40
0.0300252998035468
 50
97.7415736265611343
 51
182.0394433124386069
  0
LINE
  5
363F7
  8
0
 10
2790.2739676320161379
 20
138.0916424884065918
 30
0.0
 11
2790.2758417716017902
 21
138.0390129627249109
 31
0.0
  0
ARC
  5
363F8
  8
0
 10
2790.3517264197748773
 20
138.0417152181832137
 30
0.0
 40
0.0759327466444895
 50
182.0394433124386069
 51
227.0664926324506041
  0
ARC
  5
363F9
  8
0
 10
2790.3619458984358062
 20
138.0690133547932135
 30
0.0
 40
0.1034782779004792
 50
233.2310593654698891
 51
259.5025807852312028
  0
ARC
  5
363FA
  8
0
 10
2790.4317981258232066
 20
138.5033367243636917
 30
0.0
 40
0.5433593267730005
 50
260.6042348851120209
 51
271.9257916218775222
  0
LINE
  5
363FB
  8
0
 10
2790.4500577574322051
 20
137.9602842924155937
 30
0.0
 11
2791.0004128850341658
 21
137.9602844932142887
 31
0.0
  0
ARC
  5
363FC
  8
0
 10
2791.1474051740660798
 20
138.0927346650653078
 30
0.0
 40
0.029957642740975
 50
357.9106839563924041
 51
82.9009802310465886
  0
LINE
  5
363FD
  8
0
 10
2791.1773429012459928
 20
138.0916424884065918
 30
0.0
 11
2791.1754687616607953
 21
138.0390129627249109
 31
0.0
  0
ARC
  5
363FE
  8
0
 10
2791.099584113488163
 20
138.0417152181832137
 30
0.0
 40
0.0759327466444895
 50
312.9335073675495096
 51
357.9605566875612794
  0
ARC
  5
363FF
  8
0
 10
2791.0893646348267794
 20
138.0690133547932135
 30
0.0
 40
0.1034782779004792
 50
280.4974192147687972
 51
306.7689406345301109
  0
ARC
  5
36400
  8
0
 10
2790.9948361786919122
 20
138.8820886753015031
 30
0.0
 40
0.9218210508375267
 50
270.3466222491845201
 51
277.0651039702461276
  0
ENDSEC
  0
EOF
