  0
SECTION
  2
HEADER
  9
$ACADVER
  1
AC1009
  9
$INSBASE
 10
2807.4146651933479006
 20
135.5170196814337942
 30
0.0
  9
$EXTMIN
 10
2806.4303749524319755
 20
135.5124982090021888
 30
0.0
  9
$EXTMAX
 10
2808.3989554342629162
 20
144.9240310579893958
 30
0.0
  9
$LIMMIN
 10
0.0
 20
0.0
  9
$LIMMAX
 10
11.6929133858000007
 20
8.2677165353999982
  9
$ORTHOMODE
 70
     0
  9
$REGENMODE
 70
     1
  9
$FILLMODE
 70
     1
  9
$QTEXTMODE
 70
     0
  9
$MIRRTEXT
 70
     0
  9
$DRAGMODE
 70
     2
  9
$LTSCALE
 40
0.6431102362
  9
$OSMODE
 70
  4095
  9
$ATTMODE
 70
     1
  9
$TEXTSIZE
 40
0.2
  9
$TRACEWID
 40
0.05
  9
$TEXTSTYLE
  7
STANDARD
  9
$CLAYER
  8
0
  9
$CELTYPE
  6
BYLAYER
  9
$CECOLOR
 62
   256
  9
$DIMSCALE
 40
1.0
  9
$DIMASZ
 40
0.1875
  9
$DIMEXO
 40
0.0625
  9
$DIMDLI
 40
0.4443307087
  9
$DIMRND
 40
0.0
  9
$DIMDLE
 40
0.0
  9
$DIMEXE
 40
0.125
  9
$DIMTP
 40
0.01
  9
$DIMTM
 40
0.01
  9
$DIMTXT
 40
2.0
  9
$DIMCEN
 40
0.1052362205
  9
$DIMTSZ
 40
0.0
  9
$DIMTOL
 70
     1
  9
$DIMLIM
 70
     0
  9
$DIMTIH
 70
     1
  9
$DIMTOH
 70
     1
  9
$DIMSE1
 70
     0
  9
$DIMSE2
 70
     0
  9
$DIMTAD
 70
     0
  9
$DIMZIN
 70
     0
  9
$DIMBLK
  1

  9
$DIMASO
 70
     1
  9
$DIMSHO
 70
     1
  9
$DIMPOST
  1
\X
  9
$DIMAPOST
  1

  9
$DIMALT
 70
     1
  9
$DIMALTD
 70
     2
  9
$DIMALTF
 40
25.3999999999999986
  9
$DIMLFAC
 40
1.0
  9
$DIMTOFL
 70
     0
  9
$DIMTVP
 40
0.0
  9
$DIMTIX
 70
     0
  9
$DIMSOXD
 70
     0
  9
$DIMSAH
 70
     0
  9
$DIMBLK1
  1

  9
$DIMBLK2
  1

  9
$DIMSTYLE
  2
STANDARD
  9
$DIMCLRD
 70
     0
  9
$DIMCLRE
 70
     0
  9
$DIMCLRT
 70
     0
  9
$DIMTFAC
 40
1.0
  9
$DIMGAP
 40
0.09
  9
$LUNITS
 70
     2
  9
$LUPREC
 70
     4
  9
$SKETCHINC
 40
0.1
  9
$FILLETRAD
 40
0.0
  9
$AUNITS
 70
     0
  9
$AUPREC
 70
     0
  9
$MENU
  1
.
  9
$ELEVATION
 40
0.0
  9
$PELEVATION
 40
0.0
  9
$THICKNESS
 40
0.0
  9
$LIMCHECK
 70
     0
  9
$BLIPMODE
 70
     0
  9
$CHAMFERA
 40
0.0
  9
$CHAMFERB
 40
0.0
  9
$SKPOLY
 70
     0
  9
$TDCREATE
 40
2458060.468368056230247
  9
$TDUPDATE
 40
2459564.7229629629291594
  9
$TDINDWG
 40
0.6779353009
  9
$TDUSRTIMER
 40
0.6779353009
  9
$USRTIMER
 70
     1
  9
$ANGBASE
 50
0.0
  9
$ANGDIR
 70
     0
  9
$PDMODE
 70
     0
  9
$PDSIZE
 40
0.3125
  9
$PLINEWID
 40
0.0
  9
$COORDS
 70
     1
  9
$SPLFRAME
 70
     0
  9
$SPLINETYPE
 70
     6
  9
$SPLINESEGS
 70
     8
  9
$ATTDIA
 70
     1
  9
$ATTREQ
 70
     1
  9
$HANDLING
 70
     1
  9
$HANDSEED
  5
37D02
  9
$SURFTAB1
 70
     6
  9
$SURFTAB2
 70
     6
  9
$SURFTYPE
 70
     6
  9
$SURFU
 70
     6
  9
$SURFV
 70
     6
  9
$UCSNAME
  2

  9
$UCSORG
 10
0.0
 20
0.0
 30
0.0
  9
$UCSXDIR
 10
1.0
 20
0.0
 30
0.0
  9
$UCSYDIR
 10
0.0
 20
1.0
 30
0.0
  9
$PUCSNAME
  2

  9
$PUCSORG
 10
0.0
 20
0.0
 30
0.0
  9
$PUCSXDIR
 10
1.0
 20
0.0
 30
0.0
  9
$PUCSYDIR
 10
0.0
 20
1.0
 30
0.0
  9
$USERI1
 70
     0
  9
$USERI2
 70
     0
  9
$USERI3
 70
     0
  9
$USERI4
 70
     0
  9
$USERI5
 70
     0
  9
$USERR1
 40
0.0
  9
$USERR2
 40
0.0
  9
$USERR3
 40
0.0
  9
$USERR4
 40
0.0
  9
$USERR5
 40
0.0
  9
$WORLDVIEW
 70
     1
  9
$SHADEDGE
 70
     3
  9
$SHADEDIF
 70
    70
  9
$TILEMODE
 70
     1
  9
$MAXACTVP
 70
    64
  9
$PLIMCHECK
 70
     0
  9
$PEXTMIN
 10
1.0000000000000000E+20
 20
1.0000000000000000E+20
 30
1.0000000000000000E+20
  9
$PEXTMAX
 10
-1.0000000000000000E+20
 20
-1.0000000000000000E+20
 30
-1.0000000000000000E+20
  9
$PLIMMIN
 10
0.0
 20
0.0
  9
$PLIMMAX
 10
12.0
 20
9.0
  9
$UNITMODE
 70
     0
  9
$VISRETAIN
 70
     1
  9
$PLINEGEN
 70
     0
  9
$PSLTSCALE
 70
     1
  0
ENDSEC
  0
SECTION
  2
TABLES
  0
TABLE
  2
VPORT
 70
     1
  0
VPORT
  2
*ACTIVE
 70
     0
 10
0.0
 20
0.0
 11
1.0
 21
1.0
 12
-496.2784500410274973
 22
-55.0432469423919386
 13
0.0
 23
0.0
 14
1.0
 24
1.0
 15
0.0
 25
0.0
 16
0.0
 26
0.0
 36
96.5995694866707311
 17
3303.693115234375
 27
195.2615115758877096
 37
0.0
 40
9.4861288821364411
 41
1.67063492063492
 42
50.0
 43
0.0
 44
0.0
 50
0.0
 51
0.0
 71
     0
 72
   100
 73
     1
 74
     1
 75
     0
 76
     0
 77
     0
 78
     0
  0
ENDTAB
  0
TABLE
  2
LTYPE
 70
     2
  0
LTYPE
  2
CONTINUOUS
 70
     0
  3
Solid line
 72
    65
 73
     0
 40
0.0
  0
LTYPE
  2
PHANTOM2
 70
     0
  3
___ _ _ ___ _ _ ___ _ _ ___ _ _
 72
    65
 73
     6
 40
1.25
 49
0.625
 49
-0.125
 49
0.125
 49
-0.125
 49
0.125
 49
-0.125
  0
ENDTAB
  0
TABLE
  2
LAYER
 70
     2
  0
LAYER
  2
0
 70
     0
 62
   255
  6
CONTINUOUS
  0
LAYER
  2
DEFPOINTS
 70
     0
 62
     7
  6
CONTINUOUS
  0
ENDTAB
  0
TABLE
  2
STYLE
 70
     1
  0
STYLE
  2
STANDARD
 70
     0
 40
0.0
 41
0.8
 50
0.0
 71
     0
 42
0.2
  3
txt
  4

  0
ENDTAB
  0
TABLE
  2
VIEW
 70
     0
  0
ENDTAB
  0
TABLE
  2
UCS
 70
     0
  0
ENDTAB
  0
TABLE
  2
APPID
 70
     9
  0
APPID
  2
ACAD
 70
     0
  0
APPID
  2
ACAD_MLEADERVER
 70
     0
  0
APPID
  2
ACAD_EXEMPT_FROM_CAD_STANDARDS
 70
     0
  0
APPID
  2
ACAD_NAV_VCDISPLAY
 70
     0
  0
APPID
  2
ACAECLAYERSTANDARD
 70
     0
  0
APPID
  2
ACCMTRANSPARENCY
 70
     0
  0
APPID
  2
ACAD_DSTYLE_DIMJAG
 70
     0
  0
APPID
  2
ACAD_DSTYLE_DIMTALN
 70
     0
  0
APPID
  2
ACDBATTR
 70
     0
  0
ENDTAB
  0
TABLE
  2
DIMSTYLE
 70
     1
  0
DIMSTYLE
  2
STANDARD
 70
     0
  3

  4

  5

  6

  7

 40
1.0
 41
0.1875
 42
0.0625
 43
0.38
 44
0.125
 45
0.0
 46
0.0
 47
0.01
 48
0.01
140
0.15625
141
0.09
142
0.0
143
25.3999999999999986
144
1.0
145
0.0
146
1.0
147
0.09
 71
     1
 72
     0
 73
     1
 74
     1
 75
     0
 76
     0
 77
     0
 78
     4
170
     0
171
     2
172
     0
173
     0
174
     0
175
     0
176
     0
177
     0
178
     0
  0
ENDTAB
  0
ENDSEC
  0
SECTION
  2
BLOCKS
  0
BLOCK
  8
0
  2
$MODEL_SPACE
 70
     0
 10
0.0
 20
0.0
 30
0.0
  3
$MODEL_SPACE
  1

  0
ENDBLK
  5
21
  8
0
  0
BLOCK
 67
     1
  8
0
  2
$PAPER_SPACE
 70
     0
 10
0.0
 20
0.0
 30
0.0
  3
$PAPER_SPACE
  1

  0
ENDBLK
  5
1D
 67
     1
  8
0
  0
ENDSEC
  0
SECTION
  2
ENTITIES
  0
ATTDEF
  5
340AC
  8
DEFPOINTS
 10
2807.4097033229918452
 20
135.5158315423354907
 30
0.0
 40
0.001
  1
K-33063T-4E2
  3

  2
MODELNUMBER
 70
     0
1001
ACDBATTR
1070
     0
1070
     1
  0
ATTDEF
  5
340AD
  8
DEFPOINTS
 10
2807.4097033229918452
 20
135.5141648756687971
 30
0.0
 40
0.001
  1

  3

  2
TRADENAME
 70
     0
1001
ACDBATTR
1070
     0
1070
     1
  0
ATTDEF
  5
340AE
  8
DEFPOINTS
 10
2807.4097033229918452
 20
135.5124982090021888
 30
0.0
 40
0.001
  1
BATHROOM SINK FAUCET
  3

  2
PRODUCT
 70
     0
1001
ACDBATTR
1070
     0
1070
     1
  0
LINE
  5
37809
  8
0
 10
2808.3989554342629162
 20
135.5170196814337942
 30
0.0
 11
2806.4303749524319755
 21
135.5170196814337942
 31
0.0
  0
LINE
  5
3780A
  8
0
 10
2806.4303749524319755
 20
135.5170196814337942
 30
0.0
 11
2806.4736950769470241
 21
138.7484213440137069
 31
0.0
  0
LINE
  5
3780B
  8
0
 10
2806.4741889819370044
 20
138.7852634681360939
 30
0.0
 11
2806.529985297748226
 21
142.9473084690366136
 31
0.0
  0
ARC
  5
3780C
  8
0
 10
2806.5810209947107978
 20
142.9460933465973937
 30
0.0
 40
0.0510501605001863
 50
129.2582046988343905
 51
178.6360872821821033
  0
ARC
  5
3780D
  8
0
 10
2806.6156859060811257
 20
142.9036780121732022
 30
0.0
 40
0.1058289581739483
 50
117.5421644570097044
 51
129.2582046988343905
  0
ARC
  5
3780E
  8
0
 10
2806.8836284040580722
 20
142.2849716489525065
 30
0.0
 40
0.7798252743676396
 50
108.5749386647042058
 51
113.9754263191662034
  0
ARC
  5
3780F
  8
0
 10
2806.5468126393711827
 20
143.3539230411687129
 30
0.0
 40
0.3413942843008857
 50
285.008200526847304
 51
309.6320365820762959
  0
ARC
  5
37810
  8
0
 10
2807.5940850107531332
 20
133.4558096384261034
 30
0.0
 40
10.05103596235646
 50
91.022834300392546
 51
92.6298756507187875
  0
ARC
  5
37811
  8
0
 10
2807.2694616681269508
 20
140.8874758818697899
 30
0.0
 40
2.6123553763192078
 50
92.9964201873192167
 51
97.3557172035777256
  0
ARC
  5
37812
  8
0
 10
2806.9986422938468422
 20
142.9853630872025008
 30
0.0
 40
0.4970601582031661
 50
97.3557172035777256
 51
107.1408846694189947
  0
ARC
  5
37813
  8
0
 10
2806.8689638076089068
 20
143.3963141484713901
 30
0.0
 40
0.0662025193747198
 50
104.7150326815582986
 51
154.1928736013080083
  0
ARC
  5
37814
  8
0
 10
2807.3486302663100105
 20
143.2648554427935039
 30
0.0
 40
0.5625811995137359
 50
163.4471149431388994
 51
164.3238229509757105
  0
LINE
  5
37815
  8
0
 10
2806.806974738147801
 20
143.416864965052099
 30
0.0
 11
2806.7673155777920329
 21
143.0973744461047943
 31
0.0
  0
ARC
  5
37816
  8
0
 10
2806.7530791366739322
 20
143.0997175798545982
 30
0.0
 40
0.0144279773868543
 50
322.8075011170014932
 51
350.6536500202719253
  0
ARC
  5
37817
  8
0
 10
2806.9776380248022178
 20
141.2434567901900095
 30
0.0
 40
1.9069412629004101
 50
96.0903896648145377
 51
100.2510252035453959
  0
ARC
  5
37818
  8
0
 10
2806.6965746791679521
 20
142.7975986409346945
 30
0.0
 40
0.3275890233746533
 50
100.2510252035453959
 51
114.1453865524991045
  0
ARC
  5
37819
  8
0
 10
2806.542964065950855
 20
143.1059855829728065
 30
0.0
 40
0.021771189726629
 50
271.6487896870751797
 51
334.2495616850752072
  0
ARC
  5
3781A
  8
0
 10
2806.5369627468771796
 20
208.3157506590771959
 30
0.0
 40
65.2315275887404908
 50
269.9941785601462811
 51
270.0058214398536052
  0
ARC
  5
3781B
  8
0
 10
2806.5328606047241919
 20
143.1052484534048119
 30
0.0
 40
0.0211761943950713
 50
179.7717587866115991
 51
263.1502681175737735
  0
LINE
  5
3781C
  8
0
 10
2806.5116845783481949
 20
143.1053328098365967
 30
0.0
 11
2806.5116845783481949
 21
144.053605189836702
 31
0.0
  0
ARC
  5
3781D
  8
0
 10
2806.6141234040142081
 20
144.0508602142137988
 30
0.0
 40
0.1024755965826388
 50
147.1264486927186965
 51
178.4650557057711069
  0
ARC
  5
3781E
  8
0
 10
2807.47726855298788
 20
143.2035939368259108
 30
0.0
 40
1.3100420654342511
 50
128.225074166476702
 51
136.4327206886127897
  0
ARC
  5
3781F
  8
0
 10
2806.4832699268681608
 20
144.4825389733827876
 30
0.0
 40
0.3098955786831177
 50
306.287357444879774
 51
349.3353046854062995
  0
LINE
  5
37820
  8
0
 10
2806.7878126837481432
 20
144.4251893533366058
 30
0.0
 11
2806.8346281774670388
 21
144.750187945075794
 31
0.0
  0
ARC
  5
37821
  8
0
 10
2806.9271437784418595
 20
144.7337606259893903
 30
0.0
 40
0.0939627225877153
 50
126.5000093257445997
 51
169.931348455379208
  0
ARC
  5
37822
  8
0
 10
2807.1145394033169396
 20
144.4805100599681964
 30
0.0
 40
0.4090071153520364
 50
102.9512653873011061
 51
126.5000093257445997
  0
ARC
  5
37823
  8
0
 10
2807.3718816018399593
 20
143.4994072307183046
 30
0.0
 40
1.42316350121627
 50
92.3203190374999281
 51
104.1957331028142022
  0
ARC
  5
37824
  8
0
 10
2807.4164055328619725
 20
142.9376925384067079
 30
0.0
 40
1.986339281985797
 50
90.0501999445653922
 51
92.947586280507096
  0
ARC
  5
37825
  8
0
 10
2805.0697952635250658
 20
144.6135542158743874
 30
0.0
 40
1.7691108172816929
 50
2.4331563948017259
 51
4.281265577014814
  0
ARC
  5
37826
  8
0
 10
2806.8970029585530028
 20
144.6911961755363905
 30
0.0
 40
0.059745720194967
 50
182.4331563948016992
 51
239.0598348450276092
  0
ARC
  5
37827
  8
0
 10
2806.9284859441431763
 20
144.743716823270006
 30
0.0
 40
0.1209796717251347
 50
239.0598348450276092
 51
264.7188041222988772
  0
ARC
  5
37828
  8
0
 10
2807.0104101656611419
 20
145.6299954995816108
 30
0.0
 40
1.011036675605268
 50
264.7188041222988772
 51
270.5647729460299047
  0
LINE
  5
37829
  8
0
 10
2807.0203759418468508
 20
144.6190079414365925
 30
0.0
 11
2807.4146651933479006
 21
144.6190079414365925
 31
0.0
  0
ARC
  5
3782A
  8
0
 10
2807.4146651933479006
 20
143.3994907749990944
 30
0.0
 40
0.1573021259240188
 50
40.867692903768372
 51
139.1323070962316137
  0
LINE
  5
3782B
  8
0
 10
2806.6382765588391521
 20
143.1199585289506047
 30
0.0
 11
2806.6352191786481853
 21
143.0241741349290123
 31
0.0
  0
ARC
  5
3782C
  8
0
 10
2807.0678164446808296
 20
142.7255036145226086
 30
0.0
 40
0.202510179462958
 50
195.278126183084396
 51
244.8103885001727917
  0
ARC
  5
3782D
  8
0
 10
2807.8091280218800421
 20
142.9793981858948086
 30
0.0
 40
0.9857725561521986
 50
179.1052070177044016
 51
198.1612006321248032
  0
ARC
  5
3782E
  8
0
 10
2813.8467073150568467
 20
143.4807247005171007
 30
0.0
 40
7.0400222173102822
 50
180.5197346526585136
 51
183.9579452536877966
  0
ARC
  5
3782F
  8
0
 10
2807.4142763605409527
 20
141.8114429435642876
 30
0.0
 40
1.010215719326528
 50
89.9779468098633259
 51
95.581160183990221
  0
ARC
  5
37830
  8
0
 10
2807.3909063132127812
 20
142.0505988914125055
 30
0.0
 40
0.7699206371810979
 50
95.5811606589596607
 51
106.6245877565688005
  0
ARC
  5
37831
  8
0
 10
2807.2510070004759655
 20
142.5191472880740946
 30
0.0
 40
0.2809324801483575
 50
106.6245877565688005
 51
123.5761310271668947
  0
ARC
  5
37832
  8
0
 10
2807.1502886277148718
 20
142.6708777225242102
 30
0.0
 40
0.0988162662904574
 50
123.5761310271668947
 51
145.9653038805550977
  0
ARC
  5
37833
  8
0
 10
2807.107449239403195
 20
142.6998110146755891
 30
0.0
 40
0.0471215026704835
 50
145.9653038805550977
 51
179.1980863992345974
  0
LINE
  5
37834
  8
0
 10
2807.0603323519480909
 20
142.7004705072338027
 30
0.0
 11
2807.0603323519480909
 21
142.6455026902332861
 31
0.0
  0
ARC
  5
37835
  8
0
 10
2807.1404197974820818
 20
142.645844827174102
 30
0.0
 40
0.080088176343507
 50
180.2447684944231128
 51
211.6733802943842022
  0
ARC
  5
37836
  8
0
 10
2807.1874499413020203
 20
142.6772139556956915
 30
0.0
 40
0.1365992866610252
 50
212.5133240243750947
 51
232.7665290884054912
  0
ARC
  5
37837
  8
0
 10
2807.2106986807698377
 20
142.6983468427181947
 30
0.0
 40
0.1675895368889692
 50
230.8094418260230043
 51
243.0136169923275133
  0
ARC
  5
37838
  8
0
 10
2807.2904093736951836
 20
142.8572405613203102
 30
0.0
 40
0.3453546951758448
 50
243.1913410748030913
 51
254.0924228216946972
  0
ARC
  5
37839
  8
0
 10
2807.3824996604089392
 20
143.1819930426615883
 30
0.0
 40
0.6829116447492389
 50
254.1298875253849872
 51
264.2516596145554217
  0
ARC
  5
3783A
  8
0
 10
2807.4235915580329674
 20
143.616378496721893
 30
0.0
 40
1.1192315623602109
 50
264.3859085789907795
 51
269.5430360774698215
  0
ARC
  5
3783B
  8
0
 10
2807.4145590496900695
 20
143.4167390148286074
 30
0.0
 40
0.9127810344003895
 50
267.0724979376691977
 51
270.0066626972321728
  0
ARC
  5
3783C
  8
0
 10
2807.4105104601508174
 20
143.3375707712010012
 30
0.0
 40
0.8335093378352187
 50
260.2830070715504007
 51
267.0724979376691977
  0
ARC
  5
3783D
  8
0
 10
2807.3606773026072005
 20
143.0465545079173069
 30
0.0
 40
0.5382572267734008
 50
252.9311063398600083
 51
260.2830070715504007
  0
ARC
  5
3783E
  8
0
 10
2807.2916451311589299
 20
142.8217276863612142
 30
0.0
 40
0.3030710443863506
 50
238.3647879837866981
 51
252.9311063398600083
  0
ARC
  5
3783F
  8
0
 10
2807.1760764114028461
 20
142.634131839236403
 30
0.0
 40
0.0827341867238795
 50
215.9637556065432875
 51
238.3647879837866981
  0
ARC
  5
37840
  8
0
 10
2807.1475795445380754
 20
142.6134551831837882
 30
0.0
 40
0.0475262966046731
 50
174.1683912158347027
 51
215.9637556065432875
  0
ARC
  5
37841
  8
0
 10
2807.1452693897022073
 20
142.6095861115576895
 30
0.0
 40
0.045803629057125
 50
145.7832651023871051
 51
169.0532067501262077
  0
ARC
  5
37842
  8
0
 10
2807.175588679313023
 20
142.5885164549123942
 30
0.0
 40
0.0827239823951451
 50
128.0425990899092881
 51
145.5245371953193114
  0
ARC
  5
37843
  8
0
 10
2807.2560362008712218
 20
142.4771926119578893
 30
0.0
 40
0.2200354983047793
 50
108.3114508246701035
 51
126.676359007585404
  0
ARC
  5
37844
  8
0
 10
2807.3702860566281743
 20
142.1461598466744931
 30
0.0
 40
0.570218372708486
 50
96.8916711831943047
 51
108.7595931088141015
  0
ARC
  5
37845
  8
0
 10
2807.4127270391290949
 20
141.8513261088147885
 30
0.0
 40
0.8680407724388242
 50
91.947920005326452
 51
97.3376438324386442
  0
ARC
  5
37846
  8
0
 10
2807.4146441870689159
 20
141.8019562478592093
 30
0.0
 40
0.9174473011151636
 50
89.9986881305445934
 51
91.9627775297692693
  0
ARC
  5
37847
  8
0
 10
2807.1477036203141324
 20
142.6451904252168106
 30
0.0
 40
0.0485885113508923
 50
202.3875792560791922
 51
211.8424475238811056
  0
ARC
  5
37848
  8
0
 10
2807.1780047582810766
 20
142.6666004185738927
 30
0.0
 40
0.085653282301483
 50
213.3151844473821939
 51
234.6274470371286043
  0
ARC
  5
37849
  8
0
 10
2807.2927848338817967
 20
142.8413593565661017
 30
0.0
 40
0.2946950865545726
 50
236.1001839606070121
 51
248.4036031979709094
  0
ARC
  5
3784A
  8
0
 10
2807.418481895676905
 20
143.1277685166072047
 30
0.0
 40
0.6073710848736831
 50
247.3228872741024134
 51
255.7829332214197962
  0
ARC
  5
3784B
  8
0
 10
2807.3939819086799616
 20
142.9947786422598881
 30
0.0
 40
0.4725213441572571
 50
254.7022172975711953
 51
263.7553963141502891
  0
ARC
  5
3784C
  8
0
 10
2807.4137147026990533
 20
143.0882854117054137
 30
0.0
 40
0.5676982694717351
 50
262.8021345817577981
 51
268.845331659914109
  0
ARC
  5
3784D
  8
0
 10
2807.4146598859151709
 20
143.1105175740092932
 30
0.0
 40
0.5899451734102774
 50
268.7970644975241044
 51
270.0005154605498205
  0
ARC
  5
3784E
  8
0
 10
2807.4146864522731448
 20
143.2013683156150137
 30
0.0
 40
0.6255883262833726
 50
263.6225944428090884
 51
269.9980529580737993
  0
ARC
  5
3784F
  8
0
 10
2807.4144424938140219
 20
143.1991856070256972
 30
0.0
 40
0.6233920265506371
 50
254.8094462092510923
 51
263.6225944428090884
  0
ARC
  5
37850
  8
0
 10
2807.4108591584158603
 20
143.1859881425421861
 30
0.0
 40
0.6097167436882733
 50
249.2293747528634924
 51
254.8094462092510923
  0
ARC
  5
37851
  8
0
 10
2807.4138160463330678
 20
143.193784242934413
 30
0.0
 40
0.618054751093302
 50
246.5632512329040935
 51
249.2293747528634924
  0
ARC
  5
37852
  8
0
 10
2807.3988613308852109
 20
143.1592866571864135
 30
0.0
 40
0.5804551907689149
 50
245.5239871072678
 51
246.5632512329040935
  0
LINE
  5
37853
  8
0
 10
2807.1583716362829364
 20
142.6309941858405921
 30
0.0
 11
2807.157866220671167
 21
142.6285350069020126
 31
0.0
  0
LINE
  5
37854
  8
0
 10
2807.1604127451992099
 20
142.6300697824794099
 30
0.0
 11
2807.1578662206829904
 21
142.6285350069634035
 31
0.0
  0
LINE
  5
37855
  8
0
 10
2807.1578662206829904
 20
142.6285350069634035
 30
0.0
 11
2807.1542708940469311
 21
142.6301864836337927
 31
0.0
  0
LINE
  5
37856
  8
0
 10
2807.1542708940469311
 20
142.6301864836337927
 30
0.0
 11
2807.1444283743699089
 21
142.627911838003314
 31
0.0
  0
LINE
  5
37857
  8
0
 10
2807.1444283743699089
 20
142.627911838003314
 30
0.0
 11
2807.1542708940469311
 21
142.6168391772320945
 31
0.0
  0
LINE
  5
37858
  8
0
 10
2807.1542708940469311
 20
142.6168391772320945
 30
0.0
 11
2807.156288642861
 21
142.615911986873698
 31
0.0
  0
LINE
  5
37859
  8
0
 10
2807.156288642861
 20
142.615911986873698
 30
0.0
 11
2807.1718494427082078
 21
142.6250615931367065
 31
0.0
  0
LINE
  5
3785A
  8
0
 10
2807.4343480999978055
 20
142.5283700528129884
 30
0.0
 11
2807.4245055802748539
 21
142.5311317284815971
 31
0.0
  0
LINE
  5
3785B
  8
0
 10
2807.3769816912467832
 20
142.7092214506556047
 30
0.0
 11
2807.3671391715752179
 21
142.6962884252936021
 31
0.0
  0
LINE
  5
3785C
  8
0
 10
2807.3671391715752179
 20
142.6962884252936021
 30
0.0
 11
2807.3769816912467832
 21
142.6825022270338081
 31
0.0
  0
LINE
  5
3785D
  8
0
 10
2807.3769816912467832
 20
142.6825022270338081
 30
0.0
 11
2807.3966667306481213
 21
142.681551455133814
 31
0.0
  0
LINE
  5
3785E
  8
0
 10
2807.3966667306481213
 20
142.681551455133814
 30
0.0
 11
2807.4065092503078631
 21
142.6943585722883086
 31
0.0
  0
LINE
  5
3785F
  8
0
 10
2807.4065092503078631
 20
142.6943585722883086
 30
0.0
 11
2807.3966667306481213
 21
142.7082417207051037
 31
0.0
  0
LINE
  5
37860
  8
0
 10
2807.3966667306481213
 20
142.7082417207051037
 30
0.0
 11
2807.3769816912467832
 21
142.7092214506556047
 31
0.0
  0
LINE
  5
37861
  8
0
 10
2807.3491428415982227
 20
142.6897332407961017
 30
0.0
 11
2807.3393003219230195
 21
142.6782357693273866
 31
0.0
  0
LINE
  5
37862
  8
0
 10
2807.3393003219230195
 20
142.6782357693273866
 30
0.0
 11
2807.3491428415468363
 21
142.6649236458337953
 31
0.0
  0
LINE
  5
37863
  8
0
 10
2807.3491428415468363
 20
142.6649236458337953
 30
0.0
 11
2807.3688278809631811
 21
142.6630533986316038
 31
0.0
  0
LINE
  5
37864
  8
0
 10
2807.3688278809631811
 20
142.6630533986316038
 30
0.0
 11
2807.3786704007889057
 21
142.6744475266847019
 31
0.0
  0
LINE
  5
37865
  8
0
 10
2807.3786704007889057
 20
142.6744475266847019
 30
0.0
 11
2807.3687867517792256
 21
142.6878176228240989
 31
0.0
  0
LINE
  5
37866
  8
0
 10
2807.3687867517792256
 20
142.6878176228240989
 30
0.0
 11
2807.3491428415982227
 21
142.6897332407961017
 31
0.0
  0
LINE
  5
37867
  8
0
 10
2807.3202474856261688
 20
142.7144265171104109
 30
0.0
 11
2807.311461472287192
 21
142.7037465348545027
 31
0.0
  0
LINE
  5
37868
  8
0
 10
2807.311461472287192
 20
142.7037465348545879
 30
0.0
 11
2807.3213039919651237
 21
142.6888772569967898
 31
0.0
  0
LINE
  5
37869
  8
0
 10
2807.3213039919651237
 20
142.6888772569967898
 30
0.0
 11
2807.3409890312950665
 21
142.6859943028495934
 31
0.0
  0
LINE
  5
3786A
  8
0
 10
2807.3409890312950665
 20
142.6859943028495934
 30
0.0
 11
2807.3508315511971887
 21
142.6978928216265956
 31
0.0
  0
LINE
  5
3786B
  8
0
 10
2807.3508315511971887
 20
142.6978928216265956
 30
0.0
 11
2807.3409890313469077
 21
142.7128208655338142
 31
0.0
  0
LINE
  5
3786C
  8
0
 10
2807.3409890313469077
 20
142.7128208655338142
 30
0.0
 11
2807.3258310928899846
 21
142.7150065341710103
 31
0.0
  0
LINE
  5
3786D
  8
0
 10
2807.2934651422478964
 20
142.6987814132747019
 30
0.0
 11
2807.2836226226268082
 21
142.6883024504462867
 31
0.0
  0
LINE
  5
3786E
  8
0
 10
2807.2836226226268082
 20
142.6883024504462867
 30
0.0
 11
2807.2934651422478964
 21
142.6738873900420117
 31
0.0
  0
LINE
  5
3786F
  8
0
 10
2807.2934651422478964
 20
142.6738873900420117
 30
0.0
 11
2807.3131501816478703
 21
142.6700881662337963
 31
0.0
  0
LINE
  5
37870
  8
0
 10
2807.3131501816478703
 20
142.6700881662337963
 30
0.0
 11
2807.3229927014781424
 21
142.6806037471585
 31
0.0
  0
LINE
  5
37871
  8
0
 10
2807.3229927014781424
 20
142.6806037471585
 30
0.0
 11
2807.3131501816478703
 21
142.6950340715337973
 31
0.0
  0
LINE
  5
37872
  8
0
 10
2807.3131501816478703
 20
142.6950340715337973
 30
0.0
 11
2807.2934651422478964
 21
142.6987814132747019
 31
0.0
  0
LINE
  5
37873
  8
0
 10
2807.3213039919642142
 20
142.6731126813735955
 30
0.0
 11
2807.3114614722771876
 21
142.6629756054744007
 31
0.0
  0
LINE
  5
37874
  8
0
 10
2807.3114614722771876
 20
142.6629756054744007
 30
0.0
 11
2807.3213039919478433
 21
142.6500849879747079
 31
0.0
  0
LINE
  5
37875
  8
0
 10
2807.3213039919478433
 20
142.6500849879747079
 30
0.0
 11
2807.3409890312891548
 21
142.6473105491909905
 31
0.0
  0
LINE
  5
37876
  8
0
 10
2807.3409890312891548
 20
142.6473105491909905
 30
0.0
 11
2807.3508315511148794
 21
142.6573662387880006
 31
0.0
  0
LINE
  5
37877
  8
0
 10
2807.3508315511148794
 20
142.6573662387880006
 30
0.0
 11
2807.3409890313400865
 21
142.6702768059396931
 31
0.0
  0
LINE
  5
37878
  8
0
 10
2807.3409890313400865
 20
142.6702768059396931
 30
0.0
 11
2807.3213039919642142
 21
142.6731126813735955
 31
0.0
  0
LINE
  5
37879
  8
0
 10
2807.376981691185847
 20
142.6668410578600117
 30
0.0
 11
2807.367139171510189
 21
142.6558278765174919
 31
0.0
  0
LINE
  5
3787A
  8
0
 10
2807.367139171510189
 20
142.6558278765174919
 30
0.0
 11
2807.3769816912467832
 21
142.6439483589338124
 31
0.0
  0
LINE
  5
3787B
  8
0
 10
2807.3769816912467832
 20
142.6439483589338124
 30
0.0
 11
2807.3966667306481213
 21
142.6430326590729862
 31
0.0
  0
LINE
  5
3787C
  8
0
 10
2807.3966667306481213
 20
142.6430326590729862
 30
0.0
 11
2807.406509250534782
 21
142.6539769280649921
 31
0.0
  0
LINE
  5
3787D
  8
0
 10
2807.406509250534782
 20
142.6539769280649921
 30
0.0
 11
2807.3966667306572162
 21
142.6659054916630112
 31
0.0
  0
LINE
  5
3787E
  8
0
 10
2807.3966667306572162
 20
142.6659054916630112
 30
0.0
 11
2807.376981691185847
 21
142.6668410578600117
 31
0.0
  0
LINE
  5
3787F
  8
0
 10
2807.3491428415800328
 20
142.6504017231515888
 30
0.0
 11
2807.33930032196713
 21
142.6407078749456048
 31
0.0
  0
LINE
  5
37880
  8
0
 10
2807.33930032196713
 20
142.6407078749456048
 30
0.0
 11
2807.3491428415468363
 21
142.6292239100338008
 31
0.0
  0
LINE
  5
37881
  8
0
 10
2807.3491428415468363
 20
142.6292239100338008
 30
0.0
 11
2807.3688278809700023
 21
142.6274118873024861
 31
0.0
  0
LINE
  5
37882
  8
0
 10
2807.3688278809700023
 20
142.6274118873024861
 30
0.0
 11
2807.3786704008789457
 21
142.6370514412330976
 31
0.0
  0
LINE
  5
37883
  8
0
 10
2807.3786704008789457
 20
142.6370514412330976
 30
0.0
 11
2807.3688278809750045
 21
142.6485568865410869
 31
0.0
  0
LINE
  5
37884
  8
0
 10
2807.3688278809750045
 20
142.6485568865410869
 30
0.0
 11
2807.3491428415800328
 21
142.6504017231515888
 31
0.0
  0
LINE
  5
37885
  8
0
 10
2807.3213039919210132
 20
142.6366388460695873
 30
0.0
 11
2807.3114614722608167
 21
142.6283847900886883
 31
0.0
  0
LINE
  5
37886
  8
0
 10
2807.3114614722608167
 20
142.6283847900886883
 30
0.0
 11
2807.3215444478601057
 21
142.6170612021655018
 31
0.0
  0
LINE
  5
37887
  8
0
 10
2807.3215444478601057
 20
142.6170612021655018
 30
0.0
 11
2807.3409890312791504
 21
142.6143955455270032
 31
0.0
  0
LINE
  5
37888
  8
0
 10
2807.3409890312791504
 20
142.6143955455270032
 30
0.0
 11
2807.3508315510980538
 21
142.6227754234022882
 31
0.0
  0
LINE
  5
37889
  8
0
 10
2807.3508315510980538
 20
142.6227754234022882
 30
0.0
 11
2807.3409890313469077
 21
142.6338961134337922
 31
0.0
  0
LINE
  5
3788A
  8
0
 10
2807.3409890313469077
 20
142.6338961134337922
 30
0.0
 11
2807.3213039919210132
 21
142.6366388460695873
 31
0.0
  0
LINE
  5
3788B
  8
0
 10
2807.2934651422960997
 20
142.6592411334856081
 30
0.0
 11
2807.2836226225131213
 21
142.6504150855012085
 31
0.0
  0
LINE
  5
3788C
  8
0
 10
2807.2836226225131213
 20
142.6504150855012085
 30
0.0
 11
2807.2934651422660863
 21
142.6379029201671074
 31
0.0
  0
LINE
  5
3788D
  8
0
 10
2807.2934651422660863
 20
142.6379029201671074
 30
0.0
 11
2807.3131501816360469
 21
142.6342255402963985
 31
0.0
  0
LINE
  5
3788E
  8
0
 10
2807.3131501816360469
 20
142.6342255402963985
 30
0.0
 11
2807.3229927014890563
 21
142.6429925120322082
 31
0.0
  0
LINE
  5
3788F
  8
0
 10
2807.3229927014890563
 20
142.6429925120322082
 30
0.0
 11
2807.3131501817138087
 21
142.6559030791839859
 31
0.0
  0
LINE
  5
37890
  8
0
 10
2807.3131501817138087
 20
142.6559030791839859
 30
0.0
 11
2807.2934651422960997
 21
142.6592411334856081
 31
0.0
  0
LINE
  5
37891
  8
0
 10
2807.265626292557954
 20
142.6849216461602907
 30
0.0
 11
2807.2557837728741106
 21
142.6756462609822904
 31
0.0
  0
LINE
  5
37892
  8
0
 10
2807.2557837728741106
 20
142.6756462609822904
 30
0.0
 11
2807.265626292647994
 21
142.6616308599338083
 31
0.0
  0
LINE
  5
37893
  8
0
 10
2807.265626292647994
 20
142.6616308599338083
 30
0.0
 11
2807.2853113319479235
 21
142.6569114283327053
 31
0.0
  0
LINE
  5
37894
  8
0
 10
2807.2853113319479235
 20
142.6569114283327053
 30
0.0
 11
2807.2951538518827874
 21
142.6660999324020054
 31
0.0
  0
LINE
  5
37895
  8
0
 10
2807.2951538518827874
 20
142.6660999324020054
 30
0.0
 11
2807.2853113319479235
 21
142.680093199387187
 31
0.0
  0
LINE
  5
37896
  8
0
 10
2807.2853113319479235
 20
142.680093199387187
 30
0.0
 11
2807.265626292557954
 21
142.6849216461602907
 31
0.0
  0
LINE
  5
37897
  8
0
 10
2807.3769816912390525
 20
142.6305719071511078
 30
0.0
 11
2807.367139171555209
 21
142.6212815627175985
 31
0.0
  0
LINE
  5
37898
  8
0
 10
2807.367139171555209
 20
142.6212815627175985
 30
0.0
 11
2807.37705943849096
 21
142.6111146664837008
 31
0.0
  0
LINE
  5
37899
  8
0
 10
2807.37705943849096
 20
142.6111146664837008
 30
0.0
 11
2807.3966667306322051
 21
142.6102269980455901
 31
0.0
  0
LINE
  5
3789A
  8
0
 10
2807.3966667306322051
 20
142.6102269980455901
 30
0.0
 11
2807.4065092503251435
 21
142.6194838263103861
 31
0.0
  0
LINE
  5
3789B
  8
0
 10
2807.4065092503251435
 20
142.6194838263103861
 30
0.0
 11
2807.3966388441481286
 21
142.6296672988916896
 31
0.0
  0
LINE
  5
3789C
  8
0
 10
2807.3966388441481286
 20
142.6296672988916896
 30
0.0
 11
2807.3769816912390525
 21
142.6305719071511078
 31
0.0
  0
LINE
  5
3789D
  8
0
 10
2807.3491428415468363
 20
142.6168902692820097
 30
0.0
 11
2807.3393003219189268
 21
142.6088484212370986
 31
0.0
  0
LINE
  5
3789E
  8
0
 10
2807.3393003219189268
 20
142.6088484212370986
 30
0.0
 11
2807.3493251632321517
 21
142.59901538678929
 31
0.0
  0
LINE
  5
3789F
  8
0
 10
2807.3493251632321517
 20
142.59901538678929
 30
0.0
 11
2807.3688278809481744
 21
142.5972596963434
 31
0.0
  0
LINE
  5
378A0
  8
0
 10
2807.3688278809481744
 20
142.5972596963434
 30
0.0
 11
2807.3786704005970023
 21
142.6052781364109023
 31
0.0
  0
LINE
  5
378A1
  8
0
 10
2807.3786704005970023
 20
142.6052781364109023
 30
0.0
 11
2807.3688278809640906
 21
142.6150948653921091
 31
0.0
  0
LINE
  5
378A2
  8
0
 10
2807.3688278809640906
 20
142.6150948653921091
 30
0.0
 11
2807.3491428415468363
 21
142.6168902692820097
 31
0.0
  0
LINE
  5
378A3
  8
0
 10
2807.2934651422478964
 20
142.6254881117239108
 30
0.0
 11
2807.2836226225449536
 21
142.6183212312409125
 31
0.0
  0
LINE
  5
378A4
  8
0
 10
2807.2836226225449536
 20
142.6183212312409125
 30
0.0
 11
2807.2934651422579009
 21
142.6075331819760947
 31
0.0
  0
LINE
  5
378A5
  8
0
 10
2807.2934651422579009
 20
142.6075331819760947
 30
0.0
 11
2807.3131501816551463
 21
142.6039330112764958
 31
0.0
  0
LINE
  5
378A6
  8
0
 10
2807.3131501816551463
 20
142.6039330112764958
 30
0.0
 11
2807.3229927013530869
 21
142.6110786425620915
 31
0.0
  0
LINE
  5
378A7
  8
0
 10
2807.3229927013530869
 20
142.6110786425620915
 30
0.0
 11
2807.3131501816478703
 21
142.6218454446338058
 31
0.0
  0
LINE
  5
378A8
  8
0
 10
2807.3131501816478703
 20
142.6218454446338058
 30
0.0
 11
2807.2934651422478964
 21
142.6254881117239108
 31
0.0
  0
LINE
  5
378A9
  8
0
 10
2807.2656262926088857
 20
142.6480491353241007
 30
0.0
 11
2807.2557837729232233
 21
142.640506712059107
 31
0.0
  0
LINE
  5
378AA
  8
0
 10
2807.2557837729232233
 20
142.640506712059107
 30
0.0
 11
2807.2656262926429918
 21
142.6283370178801988
 31
0.0
  0
LINE
  5
378AB
  8
0
 10
2807.2656262926429918
 20
142.6283370178801988
 30
0.0
 11
2807.2853113319479235
 21
142.6237446723463904
 31
0.0
  0
LINE
  5
378AC
  8
0
 10
2807.2853113319479235
 20
142.6237446723463904
 30
0.0
 11
2807.2951538516708752
 21
142.6312516204451981
 31
0.0
  0
LINE
  5
378AD
  8
0
 10
2807.2951538516708752
 20
142.6312516204451981
 30
0.0
 11
2807.2853113319479235
 21
142.6433858454338122
 31
0.0
  0
LINE
  5
378AE
  8
0
 10
2807.2853113319479235
 20
142.6433858454338122
 30
0.0
 11
2807.2656262926088857
 21
142.6480491353241007
 31
0.0
  0
LINE
  5
378AF
  8
0
 10
2807.2377874429471376
 20
142.6736756999102056
 30
0.0
 11
2807.2279449232628394
 21
142.6657257913817887
 31
0.0
  0
LINE
  5
378B0
  8
0
 10
2807.2279449232628394
 20
142.6657257913817887
 30
0.0
 11
2807.2377874429539588
 21
142.6520637201566899
 31
0.0
  0
LINE
  5
378B1
  8
0
 10
2807.2377874429539588
 20
142.6520637201566899
 30
0.0
 11
2807.257472482348021
 21
142.646406083333801
 31
0.0
  0
LINE
  5
378B2
  8
0
 10
2807.257472482348021
 20
142.646406083333801
 30
0.0
 11
2807.2673150020291359
 21
142.6543003679329047
 31
0.0
  0
LINE
  5
378B3
  8
0
 10
2807.2673150020291359
 20
142.6543003679329047
 30
0.0
 11
2807.2574724823739416
 21
142.6679068304200086
 31
0.0
  0
LINE
  5
378B4
  8
0
 10
2807.2574724823739416
 20
142.6679068304200086
 30
0.0
 11
2807.2377874429471376
 21
142.6736756999102056
 31
0.0
  0
LINE
  5
378B5
  8
0
 10
2807.2377874429480471
 20
142.6395106373630881
 30
0.0
 11
2807.227944923297855
 21
142.6332445183635116
 31
0.0
  0
LINE
  5
378B6
  8
0
 10
2807.227944923297855
 20
142.6332445183635116
 30
0.0
 11
2807.2377874429639633
 21
142.6213866126109053
 31
0.0
  0
LINE
  5
378B7
  8
0
 10
2807.2377874429639633
 20
142.6213866126109053
 30
0.0
 11
2807.2574724823721226
 21
142.615853736420604
 31
0.0
  0
LINE
  5
378B8
  8
0
 10
2807.2574724823721226
 20
142.615853736420604
 30
0.0
 11
2807.2673150020191315
 21
142.6221103053331944
 31
0.0
  0
LINE
  5
378B9
  8
0
 10
2807.2673150020191315
 20
142.6221103053331944
 30
0.0
 11
2807.257472482348021
 21
142.6339091419864076
 31
0.0
  0
LINE
  5
378BA
  8
0
 10
2807.257472482348021
 20
142.6339091419864076
 30
0.0
 11
2807.2377874429480471
 21
142.6395106373630881
 31
0.0
  0
LINE
  5
378BB
  8
0
 10
2807.2099485933481446
 20
142.6651689005338142
 30
0.0
 11
2807.2001060736761247
 21
142.6585344946782072
 31
0.0
  0
LINE
  5
378BC
  8
0
 10
2807.2001060736761247
 20
142.6585344946782072
 30
0.0
 11
2807.2099485932740208
 21
142.6451852444627946
 31
0.0
  0
LINE
  5
378BD
  8
0
 10
2807.2099485932740208
 20
142.6451852444627946
 30
0.0
 11
2807.2296336325771335
 21
142.6380234341372955
 31
0.0
  0
LINE
  5
378BE
  8
0
 10
2807.2296336325771335
 20
142.6380234341372955
 30
0.0
 11
2807.2394761522750741
 21
142.6451690654228912
 31
0.0
  0
LINE
  5
378BF
  8
0
 10
2807.2394761522750741
 20
142.6451690654228912
 30
0.0
 11
2807.2296336326480741
 21
142.6584314530140034
 31
0.0
  0
LINE
  5
378C0
  8
0
 10
2807.2296336326480741
 20
142.6584314530140034
 30
0.0
 11
2807.2099485933481446
 21
142.6651689005338142
 31
0.0
  0
LINE
  5
378C1
  8
0
 10
2807.1821097436481978
 20
142.6594180706337909
 30
0.0
 11
2807.1722672240589418
 21
142.6541109033692862
 31
0.0
  0
LINE
  5
378C2
  8
0
 10
2807.1722672240589418
 20
142.6541109033692862
 30
0.0
 11
2807.1821097435940828
 21
142.6410378687693878
 31
0.0
  0
LINE
  5
378C3
  8
0
 10
2807.1821097435940828
 20
142.6410378687693878
 30
0.0
 11
2807.2017947830468074
 21
142.6333897053337978
 31
0.0
  0
LINE
  5
378C4
  8
0
 10
2807.2017947830468074
 20
142.6333897053337978
 30
0.0
 11
2807.2116373027001828
 21
142.638712142325204
 31
0.0
  0
LINE
  5
378C5
  8
0
 10
2807.2116373027001828
 20
142.638712142325204
 30
0.0
 11
2807.2017947830718185
 21
142.6519745299164015
 31
0.0
  0
LINE
  5
378C6
  8
0
 10
2807.2017947830718185
 20
142.6519745299164015
 30
0.0
 11
2807.1821097436481978
 21
142.6594180706337909
 31
0.0
  0
LINE
  5
378C7
  8
0
 10
2807.151636647054147
 20
142.6709374769596934
 30
0.0
 11
2807.1542708940310149
 21
142.6682274539898003
 31
0.0
  0
LINE
  5
378C8
  8
0
 10
2807.1542708940310149
 20
142.6682274539898003
 30
0.0
 11
2807.1739559333159377
 21
142.6593235154464026
 31
0.0
  0
LINE
  5
378C9
  8
0
 10
2807.1739559333159377
 20
142.6593235154464026
 30
0.0
 11
2807.1837984529988717
 21
142.6649876714631944
 31
0.0
  0
LINE
  5
378CA
  8
0
 10
2807.1837984529988717
 20
142.6649876714631944
 30
0.0
 11
2807.1739559333468605
 21
142.6795497093337985
 31
0.0
  0
LINE
  5
378CB
  8
0
 10
2807.1739559333468605
 20
142.6795497093337985
 30
0.0
 11
2807.1713371584851302
 21
142.6802731199666141
 31
0.0
  0
LINE
  5
378CC
  8
0
 10
2807.1745654617420769
 20
142.6815896255855876
 30
0.0
 11
2807.1821097436959462
 21
142.6713574379334943
 31
0.0
  0
LINE
  5
378CD
  8
0
 10
2807.1821097436959462
 20
142.6713574379334943
 30
0.0
 11
2807.201794782999059
 21
142.6641956276081089
 31
0.0
  0
LINE
  5
378CE
  8
0
 10
2807.201794782999059
 20
142.6641956276081089
 30
0.0
 11
2807.2116373026969995
 21
142.671341258893591
 31
0.0
  0
LINE
  5
378CF
  8
0
 10
2807.2116373026969995
 20
142.671341258893591
 30
0.0
 11
2807.2017947830468074
 21
142.6862095534386867
 31
0.0
  0
LINE
  5
378D0
  8
0
 10
2807.2017947830468074
 20
142.6862095534386867
 30
0.0
 11
2807.1951499603260345
 21
142.6888165893271889
 31
0.0
  0
LINE
  5
378D1
  8
0
 10
2807.2021476879199327
 20
142.6910254094904076
 30
0.0
 11
2807.2099485932831158
 21
142.6789658934727072
 31
0.0
  0
LINE
  5
378D2
  8
0
 10
2807.2099485932831158
 20
142.6789658934727072
 30
0.0
 11
2807.2296336326480741
 21
142.6721419567338103
 31
0.0
  0
LINE
  5
378D3
  8
0
 10
2807.2296336326480741
 20
142.6721419567338103
 30
0.0
 11
2807.2394761523610214
 21
142.6804594986687107
 31
0.0
  0
LINE
  5
378D4
  8
0
 10
2807.2394761523610214
 20
142.6804594986687107
 30
0.0
 11
2807.2296336326758137
 21
142.6956832071439862
 31
0.0
  0
LINE
  5
378D5
  8
0
 10
2807.2296336326758137
 20
142.6956832071439862
 30
0.0
 11
2807.2245037334878361
 21
142.6974279364769984
 31
0.0
  0
LINE
  5
378D6
  8
0
 10
2807.2310767191579544
 20
142.6991243599441077
 30
0.0
 11
2807.2377874430098927
 21
142.6885346444074116
 31
0.0
  0
LINE
  5
378D7
  8
0
 10
2807.2377874430098927
 20
142.6885346444074116
 30
0.0
 11
2807.2574724823980432
 21
142.6826792851086907
 31
0.0
  0
LINE
  5
378D8
  8
0
 10
2807.2574724823980432
 20
142.6826792851086907
 30
0.0
 11
2807.2673150019959394
 21
142.6923356340344071
 31
0.0
  0
LINE
  5
378D9
  8
0
 10
2807.2673150019959394
 20
142.6923356340344071
 30
0.0
 11
2807.259000484263197
 21
142.7054133794819961
 31
0.0
  0
LINE
  5
378DA
  8
0
 10
2807.2623101605340707
 20
142.7060618009817006
 30
0.0
 11
2807.265626292647994
 21
142.7008881701337941
 31
0.0
  0
LINE
  5
378DB
  8
0
 10
2807.265626292647994
 20
142.7008881701337941
 30
0.0
 11
2807.2853113318560645
 21
142.6959759764222895
 31
0.0
  0
LINE
  5
378DC
  8
0
 10
2807.2853113318560645
 20
142.6959759764222895
 30
0.0
 11
2807.2951538516040273
 21
142.707009438440906
 31
0.0
  0
LINE
  5
378DD
  8
0
 10
2807.2951538516040273
 20
142.707009438440906
 30
0.0
 11
2807.2925305250778365
 21
142.7110519336146979
 31
0.0
  0
LINE
  5
378DE
  8
0
 10
2807.3427765914889278
 20
142.7165438371879134
 30
0.0
 11
2807.3491428415468363
 21
142.7066912582434099
 31
0.0
  0
LINE
  5
378DF
  8
0
 10
2807.3491428415468363
 20
142.7066912582434099
 30
0.0
 11
2807.3688278809891017
 21
142.7047352768310873
 31
0.0
  0
LINE
  5
378E0
  8
0
 10
2807.3688278809891017
 20
142.7047352768310873
 30
0.0
 11
2807.378670400647934
 21
142.7181000738337957
 31
0.0
  0
LINE
  5
378E1
  8
0
 10
2807.378670400647934
 20
142.7181000738337957
 30
0.0
 11
2807.3782856421121323
 21
142.7186824538704002
 31
0.0
  0
LINE
  5
378E2
  8
0
 10
2807.3949780211978577
 20
142.6736664481857133
 30
0.0
 11
2807.4048205408480499
 21
142.6860663844693136
 31
0.0
  0
LINE
  5
378E3
  8
0
 10
2807.4048205408480499
 20
142.6860663844693136
 30
0.0
 11
2807.4245055802480238
 21
142.6860663844693136
 31
0.0
  0
LINE
  5
378E4
  8
0
 10
2807.4245055802480238
 20
142.6860663844693136
 30
0.0
 11
2807.4343480999450549
 21
142.6736664481771868
 31
0.0
  0
LINE
  5
378E5
  8
0
 10
2807.4343480999450549
 20
142.6736664481771868
 30
0.0
 11
2807.4245055802330171
 21
142.6613494777022879
 31
0.0
  0
LINE
  5
378E6
  8
0
 10
2807.4245055802330171
 20
142.6613494777022879
 30
0.0
 11
2807.404820540955825
 21
142.66134947770081
 31
0.0
  0
LINE
  5
378E7
  8
0
 10
2807.404820540955825
 20
142.66134947770081
 30
0.0
 11
2807.3949780211510188
 21
142.6736664481140053
 31
0.0
  0
LINE
  5
378E8
  8
0
 10
2807.3949780211069083
 20
142.636297310332111
 30
0.0
 11
2807.4048205408930698
 21
142.646875960441804
 31
0.0
  0
LINE
  5
378E9
  8
0
 10
2807.4048205408930698
 20
142.646875960441804
 30
0.0
 11
2807.4245055802020943
 21
142.6468759604416903
 31
0.0
  0
LINE
  5
378EA
  8
0
 10
2807.4245055802020943
 20
142.6468759604416903
 30
0.0
 11
2807.4343480998531959
 21
142.6362973103236982
 31
0.0
  0
LINE
  5
378EB
  8
0
 10
2807.4343480998531959
 20
142.6362973103236982
 30
0.0
 11
2807.4244768415687759
 21
142.6257602004266971
 31
0.0
  0
LINE
  5
378EC
  8
0
 10
2807.4244768415687759
 20
142.6257602004266971
 30
0.0
 11
2807.4048492794381673
 21
142.6257602004280898
 31
0.0
  0
LINE
  5
378ED
  8
0
 10
2807.4048492794381673
 20
142.6257602004280898
 30
0.0
 11
2807.3949780210600693
 21
142.6362973102604883
 31
0.0
  0
LINE
  5
378EE
  8
0
 10
2807.3949780211769394
 20
142.6045416316478907
 30
0.0
 11
2807.4048205409771981
 21
142.6134586906254924
 31
0.0
  0
LINE
  5
378EF
  8
0
 10
2807.4048205409771981
 20
142.6134586906254924
 30
0.0
 11
2807.4245055802389288
 21
142.6134586906665049
 31
0.0
  0
LINE
  5
378F0
  8
0
 10
2807.4245055802389288
 20
142.6134586906665049
 30
0.0
 11
2807.434348099923227
 21
142.6045416316395062
 31
0.0
  0
LINE
  5
378F1
  8
0
 10
2807.434348099923227
 20
142.6045416316395062
 30
0.0
 11
2807.4245055802480238
 21
142.5956419634337919
 31
0.0
  0
LINE
  5
378F2
  8
0
 10
2807.4245055802480238
 20
142.5956419634337919
 30
0.0
 11
2807.4048205408480499
 21
142.5956419634337919
 31
0.0
  0
LINE
  5
378F3
  8
0
 10
2807.4048205408480499
 20
142.5956419634337919
 30
0.0
 11
2807.3949780211291909
 21
142.6045416315762964
 31
0.0
  0
LINE
  5
378F4
  8
0
 10
2807.155959603473093
 20
142.6340628679502913
 30
0.0
 11
2807.1461170836328165
 21
142.6314300903692072
 31
0.0
  0
LINE
  5
378F5
  8
0
 10
2807.1461170836328165
 20
142.6314300903692072
 30
0.0
 11
2807.1264320443970064
 21
142.6413472298746967
 31
0.0
  0
LINE
  5
378F6
  8
0
 10
2807.1264320443970064
 20
142.6413472298746967
 30
0.0
 11
2807.1198557500679271
 21
142.6496482621903112
 31
0.0
  0
LINE
  5
378F7
  8
0
 10
2807.1276159487979385
 20
142.6558651038853895
 30
0.0
 11
2807.1461170838811086
 21
142.6465040861505997
 31
0.0
  0
LINE
  5
378F8
  8
0
 10
2807.1461170838811086
 20
142.6465040861505997
 30
0.0
 11
2807.1559596031629553
 21
142.6340628678674136
 31
0.0
  0
LINE
  5
378F9
  8
0
 10
2807.1444283743521737
 20
142.6525418995975087
 30
0.0
 11
2807.1542708939900876
 21
142.6564869546525927
 31
0.0
  0
LINE
  5
378FA
  8
0
 10
2807.1542708939900876
 20
142.6564869546525927
 30
0.0
 11
2807.173955933435991
 21
142.6476609675947884
 31
0.0
  0
LINE
  5
378FB
  8
0
 10
2807.173955933435991
 20
142.6476609675947884
 30
0.0
 11
2807.1837984530698122
 21
142.6349783115122989
 31
0.0
  0
LINE
  5
378FC
  8
0
 10
2807.1837984530698122
 20
142.6349783115122989
 30
0.0
 11
2807.1708862797759139
 21
142.6399579092338001
 31
0.0
  0
LINE
  5
378FD
  8
0
 10
2807.1708862797759139
 20
142.6399579092338001
 30
0.0
 11
2807.1659774548479618
 21
142.6344143234337878
 31
0.0
  0
LINE
  5
378FE
  8
0
 10
2807.1659774548479618
 20
142.6344143234337878
 30
0.0
 11
2807.1542708940000921
 21
142.6397106908360968
 31
0.0
  0
LINE
  5
378FF
  8
0
 10
2807.1542708940000921
 20
142.6397106908360968
 30
0.0
 11
2807.1444283743521737
 21
142.6525418995975087
 31
0.0
  0
LINE
  5
37900
  8
0
 10
2807.2001060736370164
 20
142.6286635997248027
 30
0.0
 11
2807.2099485933499636
 21
142.63364092591641
 31
0.0
  0
LINE
  5
37901
  8
0
 10
2807.2099485933499636
 20
142.63364092591641
 30
0.0
 11
2807.2296336326780875
 21
142.6270657003296947
 31
0.0
  0
LINE
  5
37902
  8
0
 10
2807.2296336326780875
 20
142.6270657003296947
 30
0.0
 11
2807.2394761524410569
 21
142.6155742227003884
 31
0.0
  0
LINE
  5
37903
  8
0
 10
2807.2394761524410569
 20
142.6155742227003884
 30
0.0
 11
2807.2001060736370164
 21
142.6286635997248027
 31
0.0
  0
LINE
  5
37904
  8
0
 10
2807.2557837729477797
 20
142.6110049167338047
 30
0.0
 11
2807.265626292646175
 21
142.6169253654601903
 31
0.0
  0
LINE
  5
37905
  8
0
 10
2807.265626292646175
 20
142.6169253654601903
 30
0.0
 11
2807.2853113319752083
 21
142.6123677325084032
 31
0.0
  0
LINE
  5
37906
  8
0
 10
2807.2853113319752083
 20
142.6123677325084032
 30
0.0
 11
2807.29515385169816
 21
142.6019297980969043
 31
0.0
  0
LINE
  5
37907
  8
0
 10
2807.29515385169816
 20
142.6019297980969043
 30
0.0
 11
2807.2557837729600578
 21
142.6110049166958049
 31
0.0
  0
LINE
  5
37908
  8
0
 10
2807.3114614722048827
 20
142.5989561646092056
 30
0.0
 11
2807.3213039919478433
 21
142.6057704058748072
 31
0.0
  0
LINE
  5
37909
  8
0
 10
2807.3213039919478433
 20
142.6057704058748072
 30
0.0
 11
2807.340989031260051
 21
142.6030874642457036
 31
0.0
  0
LINE
  5
3790A
  8
0
 10
2807.340989031260051
 20
142.6030874642457036
 30
0.0
 11
2807.3508315509479871
 21
142.5936131273338106
 31
0.0
  0
LINE
  5
3790B
  8
0
 10
2807.3508315509479871
 20
142.5936131273338106
 30
0.0
 11
2807.3114614722048827
 21
142.5989561646092056
 31
0.0
  0
LINE
  5
3790C
  8
0
 10
2807.4065092502719381
 20
142.5903821655118122
 30
0.0
 11
2807.3966667305858209
 21
142.5989488625625938
 31
0.0
  0
LINE
  5
3790D
  8
0
 10
2807.3966667305858209
 20
142.5989488625625938
 30
0.0
 11
2807.3769816912458737
 21
142.599834928077712
 31
0.0
  0
LINE
  5
3790E
  8
0
 10
2807.3769816912458737
 20
142.599834928077712
 30
0.0
 11
2807.3671391715479331
 21
142.5921468750337908
 31
0.0
  0
LINE
  5
3790F
  8
0
 10
2807.3671391715479331
 20
142.5921468750337908
 30
0.0
 11
2807.406509250246927
 21
142.5903821655338106
 31
0.0
  0
LINE
  5
37910
  8
0
 10
2807.1165895247090702
 20
142.6320619938400966
 30
0.0
 11
2807.1264320443478937
 21
142.6328684710337882
 31
0.0
  0
LINE
  5
37911
  8
0
 10
2807.1264320443478937
 20
142.6328684710337882
 30
0.0
 11
2807.1461170839579609
 21
142.6229733582829908
 31
0.0
  0
LINE
  5
37912
  8
0
 10
2807.1461170839579609
 20
142.6229733582829908
 30
0.0
 11
2807.1559596034780952
 21
142.612268728368889
 31
0.0
  0
LINE
  5
37913
  8
0
 10
2807.1559596034780952
 20
142.612268728368889
 30
0.0
 11
2807.1461170837601458
 21
142.6113120145784023
 31
0.0
  0
LINE
  5
37914
  8
0
 10
2807.1461170837601458
 20
142.6113120145784023
 30
0.0
 11
2807.1264320445438898
 21
142.6212071270562944
 31
0.0
  0
LINE
  5
37915
  8
0
 10
2807.1264320445438898
 20
142.6212071270562944
 30
0.0
 11
2807.1165895246499531
 21
142.6320619938375103
 31
0.0
  0
LINE
  5
37916
  8
0
 10
2807.1165895246640503
 20
142.6158846868137005
 30
0.0
 11
2807.1264320444088298
 21
142.6149227843592087
 31
0.0
  0
LINE
  5
37917
  8
0
 10
2807.1264320444088298
 20
142.6149227843592087
 30
0.0
 11
2807.1461170836510064
 21
142.6050056447606096
 31
0.0
  0
LINE
  5
37918
  8
0
 10
2807.1461170836510064
 20
142.6050056447606096
 30
0.0
 11
2807.1559596033648631
 21
142.595977078474192
 31
0.0
  0
LINE
  5
37919
  8
0
 10
2807.1559596033648631
 20
142.595977078474192
 30
0.0
 11
2807.1461170837478676
 21
142.5967569530338039
 31
0.0
  0
LINE
  5
3791A
  8
0
 10
2807.1461170837478676
 20
142.5967569530338039
 30
0.0
 11
2807.1264320440877782
 21
142.6067446682014008
 31
0.0
  0
LINE
  5
3791B
  8
0
 10
2807.1264320440877782
 20
142.6067446682014008
 30
0.0
 11
2807.1165895246640503
 21
142.6158846868137005
 31
0.0
  0
LINE
  5
3791C
  8
0
 10
2807.1444283744531276
 20
142.5954132154060119
 30
0.0
 11
2807.1542708939969089
 21
142.5942433505375959
 31
0.0
  0
LINE
  5
3791D
  8
0
 10
2807.1542708939969089
 20
142.5942433505375959
 30
0.0
 11
2807.1659774548479618
 21
142.588946983133809
 31
0.0
  0
LINE
  5
3791E
  8
0
 10
2807.1659774548479618
 20
142.588946983133809
 30
0.0
 11
2807.17088627974681
 21
142.5834033973337966
 31
0.0
  0
LINE
  5
3791F
  8
0
 10
2807.17088627974681
 20
142.5834033973337966
 30
0.0
 11
2807.1835561438970217
 21
142.5780301314838141
 31
0.0
  0
LINE
  5
37920
  8
0
 10
2807.1835561438970217
 20
142.5780301314838141
 30
0.0
 11
2807.1739559333468605
 21
142.5788709397338039
 31
0.0
  0
LINE
  5
37921
  8
0
 10
2807.1739559333468605
 20
142.5788709397338039
 30
0.0
 11
2807.1542708941587989
 21
142.5876969266647905
 31
0.0
  0
LINE
  5
37922
  8
0
 10
2807.1542708941587989
 20
142.5876969266647905
 30
0.0
 11
2807.1444283743121559
 21
142.5954132154282945
 31
0.0
  0
LINE
  5
37923
  8
0
 10
2807.1444283743689994
 20
142.5877414492053958
 30
0.0
 11
2807.1542708940401099
 21
142.5846743243895958
 31
0.0
  0
LINE
  5
37924
  8
0
 10
2807.1542708940401099
 20
142.5846743243895958
 30
0.0
 11
2807.1739559331981582
 21
142.5757703858367051
 31
0.0
  0
LINE
  5
37925
  8
0
 10
2807.1739559331981582
 20
142.5757703858367051
 30
0.0
 11
2807.1837984530411632
 21
142.5697731979904006
 31
0.0
  0
LINE
  5
37926
  8
0
 10
2807.1837984530411632
 20
142.5697731979904006
 30
0.0
 11
2807.1739559333768739
 21
142.572673892014592
 31
0.0
  0
LINE
  5
37927
  8
0
 10
2807.1739559333768739
 20
142.572673892014592
 30
0.0
 11
2807.154270894910951
 21
142.5817380327997057
 31
0.0
  0
LINE
  5
37928
  8
0
 10
2807.154270894910951
 20
142.5817380327997057
 30
0.0
 11
2807.1444283742921471
 21
142.5877414492549917
 31
0.0
  0
LINE
  5
37929
  8
0
 10
2807.1722672240148313
 20
142.5779393246299946
 30
0.0
 11
2807.1821097436481978
 21
142.5765276337338037
 31
0.0
  0
LINE
  5
3792A
  8
0
 10
2807.1821097436481978
 20
142.5765276337338037
 30
0.0
 11
2807.2017947830809135
 21
142.5688794703879978
 31
0.0
  0
LINE
  5
3792B
  8
0
 10
2807.2017947830809135
 20
142.5688794703879978
 30
0.0
 11
2807.2116373028261478
 21
142.5625405635242089
 31
0.0
  0
LINE
  5
3792C
  8
0
 10
2807.2116373028261478
 20
142.5625405635242089
 30
0.0
 11
2807.2023531569047918
 21
142.5637406010087034
 31
0.0
  0
LINE
  5
3792D
  8
0
 10
2807.2023531569047918
 20
142.5637406010087034
 30
0.0
 11
2807.1821097436481978
 21
142.5715851480337903
 31
0.0
  0
LINE
  5
3792E
  8
0
 10
2807.1821097436481978
 20
142.5715851480337903
 30
0.0
 11
2807.1722672243308807
 21
142.5779393245846904
 31
0.0
  0
LINE
  5
3792F
  8
0
 10
2807.2001060735938154
 20
142.5715349155925082
 30
0.0
 11
2807.2099485933481446
 21
142.5681493327473106
 31
0.0
  0
LINE
  5
37930
  8
0
 10
2807.2099485933481446
 20
142.5681493327473106
 30
0.0
 11
2807.2296336326480741
 21
142.5616093277824916
 31
0.0
  0
LINE
  5
37931
  8
0
 10
2807.2296336326480741
 20
142.5616093277824916
 30
0.0
 11
2807.2394761524251408
 21
142.5584455386120908
 31
0.0
  0
LINE
  5
37932
  8
0
 10
2807.2394761524251408
 20
142.5584455386120908
 30
0.0
 11
2807.2296336326571691
 21
142.5582756723923978
 31
0.0
  0
LINE
  5
37933
  8
0
 10
2807.2296336326571691
 20
142.5582756723923978
 30
0.0
 11
2807.2099485933481446
 21
142.5648508980337965
 31
0.0
  0
LINE
  5
37934
  8
0
 10
2807.2099485933481446
 20
142.5648508980337965
 30
0.0
 11
2807.2001060736120053
 21
142.5715349156558887
 31
0.0
  0
LINE
  5
37935
  8
0
 10
2807.172267223982999
 20
142.5729173353439023
 30
0.0
 11
2807.1821097436481978
 21
142.5682913518338069
 31
0.0
  0
LINE
  5
37936
  8
0
 10
2807.1821097436481978
 20
142.5682913518338069
 30
0.0
 11
2807.2017947830468074
 21
142.5605947644822891
 31
0.0
  0
LINE
  5
37937
  8
0
 10
2807.2017947830468074
 20
142.5605947644822891
 30
0.0
 11
2807.211637303299085
 21
142.557083890520687
 31
0.0
  0
LINE
  5
37938
  8
0
 10
2807.211637303299085
 20
142.557083890520687
 30
0.0
 11
2807.2017947835888663
 21
142.5617510822557108
 31
0.0
  0
LINE
  5
37939
  8
0
 10
2807.2017947835888663
 20
142.5617510822557108
 30
0.0
 11
2807.1821097436659329
 21
142.569585087018595
 31
0.0
  0
LINE
  5
3793A
  8
0
 10
2807.1821097436659329
 20
142.569585087018595
 30
0.0
 11
2807.1722672230630451
 21
142.5729173356972979
 31
0.0
  0
LINE
  5
3793B
  8
0
 10
2807.4245055802748539
 20
142.5311317284815971
 30
0.0
 11
2807.4048205408480499
 21
142.5311317284815971
 31
0.0
  0
LINE
  5
3793C
  8
0
 10
2807.4048205408480499
 20
142.5311317284815971
 30
0.0
 11
2807.394978021235147
 21
142.5283700528279951
 31
0.0
  0
LINE
  5
3793D
  8
0
 10
2807.394978021235147
 20
142.5283700528279951
 30
0.0
 11
2807.4048205411500021
 21
142.5256257680235024
 31
0.0
  0
LINE
  5
3793E
  8
0
 10
2807.4048205411500021
 20
142.5256257680235024
 30
0.0
 11
2807.4245055800361115
 21
142.5256257679824046
 31
0.0
  0
LINE
  5
3793F
  8
0
 10
2807.4245055800361115
 20
142.5256257679824046
 30
0.0
 11
2807.4343480999978055
 21
142.5283700528129884
 31
0.0
  0
LINE
  5
37940
  8
0
 10
2807.4343481000109932
 20
142.5220399421818911
 30
0.0
 11
2807.4245055805331504
 21
142.5231646407546009
 31
0.0
  0
LINE
  5
37941
  8
0
 10
2807.4245055805331504
 20
142.5231646407546009
 30
0.0
 11
2807.4048205412082098
 21
142.5231646407563062
 31
0.0
  0
LINE
  5
37942
  8
0
 10
2807.4048205412082098
 20
142.5231646407563062
 30
0.0
 11
2807.39497802124788
 21
142.5220399421081936
 31
0.0
  0
LINE
  5
37943
  8
0
 10
2807.39497802124788
 20
142.5220399421081936
 30
0.0
 11
2807.4048205413951109
 21
142.5209572484490081
 31
0.0
  0
LINE
  5
37944
  8
0
 10
2807.4048205413951109
 20
142.5209572484490081
 30
0.0
 11
2807.4245055803057767
 21
142.520957248452703
 31
0.0
  0
LINE
  5
37945
  8
0
 10
2807.4245055803057767
 20
142.520957248452703
 30
0.0
 11
2807.4343481000109932
 21
142.5220399421818058
 31
0.0
  0
LINE
  5
37946
  8
0
 10
2807.4065092502760308
 20
142.5242693528446978
 30
0.0
 11
2807.3966667306208365
 21
142.5266738684157133
 31
0.0
  0
LINE
  5
37947
  8
0
 10
2807.3966667306208365
 20
142.5266738684157133
 30
0.0
 11
2807.3769816912608803
 21
142.5275663064876994
 31
0.0
  0
LINE
  5
37948
  8
0
 10
2807.3769816912608803
 20
142.5275663064876994
 30
0.0
 11
2807.3671391715088248
 21
142.5260670891921109
 31
0.0
  0
LINE
  5
37949
  8
0
 10
2807.3671391715088248
 20
142.5260670891921109
 30
0.0
 11
2807.3769816912222268
 21
142.5236960897269114
 31
0.0
  0
LINE
  5
3794A
  8
0
 10
2807.3769816912222268
 20
142.5236960897269114
 30
0.0
 11
2807.3966667298718676
 21
142.5227906524455932
 31
0.0
  0
LINE
  5
3794B
  8
0
 10
2807.3966667298718676
 20
142.5227906524455932
 30
0.0
 11
2807.4065092503078631
 21
142.5242693528238931
 31
0.0
  0
LINE
  5
3794C
  8
0
 10
2807.4065092502660264
 20
142.5332534815264864
 30
0.0
 11
2807.3966667306481213
 21
142.5336375928337986
 31
0.0
  0
LINE
  5
3794D
  8
0
 10
2807.3966667306481213
 20
142.5336375928337986
 30
0.0
 11
2807.3769816912467832
 21
142.5345194401338063
 31
0.0
  0
LINE
  5
3794E
  8
0
 10
2807.3769816912467832
 20
142.5345194401338063
 30
0.0
 11
2807.3671391715479331
 21
142.5350181909338119
 31
0.0
  0
LINE
  5
3794F
  8
0
 10
2807.3671391715479331
 20
142.5350181909338119
 30
0.0
 11
2807.3769816913491013
 21
142.5310449001109987
 31
0.0
  0
LINE
  5
37950
  8
0
 10
2807.3769816913491013
 20
142.5310449001109987
 30
0.0
 11
2807.3966667306481213
 21
142.5301588347338111
 31
0.0
  0
LINE
  5
37951
  8
0
 10
2807.3966667306481213
 20
142.5301588347338111
 30
0.0
 11
2807.4065092502660264
 21
142.5332534815264864
 31
0.0
  0
LINE
  5
37952
  8
0
 10
2807.3786704006170112
 20
142.5291065576197127
 30
0.0
 11
2807.3688278809481744
 21
142.5327494613337933
 31
0.0
  0
LINE
  5
37953
  8
0
 10
2807.3688278809481744
 20
142.5327494613337933
 30
0.0
 11
2807.3491428415468363
 21
142.5345245018727951
 31
0.0
  0
LINE
  5
37954
  8
0
 10
2807.3491428415468363
 20
142.5345245018727951
 30
0.0
 11
2807.339300322094914
 21
142.5326768424820045
 31
0.0
  0
LINE
  5
37955
  8
0
 10
2807.339300322094914
 20
142.5326768424820045
 30
0.0
 11
2807.3491428416018607
 21
142.5290573467281092
 31
0.0
  0
LINE
  5
37956
  8
0
 10
2807.3491428416018607
 20
142.5290573467281092
 30
0.0
 11
2807.368827880840854
 21
142.5272619427418874
 31
0.0
  0
LINE
  5
37957
  8
0
 10
2807.368827880840854
 20
142.5272619427418874
 30
0.0
 11
2807.3786704007238768
 21
142.5291065576433027
 31
0.0
  0
LINE
  5
37958
  8
0
 10
2807.3393003218611739
 20
142.5264505067790992
 30
0.0
 11
2807.3491428415732116
 21
142.5266278856310862
 31
0.0
  0
LINE
  5
37959
  8
0
 10
2807.3491428415732116
 20
142.5266278856310862
 30
0.0
 11
2807.3688278809481744
 21
142.5248158630338082
 31
0.0
  0
LINE
  5
3795A
  8
0
 10
2807.3688278809481744
 20
142.5248158630338082
 30
0.0
 11
2807.378670400898045
 21
142.5227940727833982
 31
0.0
  0
LINE
  5
3795B
  8
0
 10
2807.378670400898045
 20
142.5227940727833982
 30
0.0
 11
2807.3688278809481744
 21
142.5226381745297886
 31
0.0
  0
LINE
  5
3795C
  8
0
 10
2807.3688278809481744
 20
142.5226381745297886
 30
0.0
 11
2807.3491428403867758
 21
142.5244830113269927
 31
0.0
  0
LINE
  5
3795D
  8
0
 10
2807.3491428403867758
 20
142.5244830113269927
 30
0.0
 11
2807.3393003216579018
 21
142.5264505067827088
 31
0.0
  0
LINE
  5
3795E
  8
0
 10
2807.3508315509948261
 20
142.5275609495633091
 30
0.0
 11
2807.3409890313469077
 21
142.5308424157468039
 31
0.0
  0
LINE
  5
3795F
  8
0
 10
2807.3409890313469077
 20
142.5308424157468039
 30
0.0
 11
2807.3213039919010043
 21
142.5335450186713899
 31
0.0
  0
LINE
  5
37960
  8
0
 10
2807.3213039919010043
 20
142.5335450186713899
 30
0.0
 11
2807.3114614722180704
 21
142.5330058947571104
 31
0.0
  0
LINE
  5
37961
  8
0
 10
2807.3114614722180704
 20
142.5330058947571104
 30
0.0
 11
2807.3213039914130604
 21
142.5297630288984863
 31
0.0
  0
LINE
  5
37962
  8
0
 10
2807.3213039914130604
 20
142.5297630288984863
 30
0.0
 11
2807.3409890313168944
 21
142.5270202961017958
 31
0.0
  0
LINE
  5
37963
  8
0
 10
2807.3409890313168944
 20
142.5270202961017958
 30
0.0
 11
2807.3508315509470776
 21
142.5275609495606943
 31
0.0
  0
LINE
  5
37964
  8
0
 10
2807.3508315510189277
 20
142.5364844432911866
 30
0.0
 11
2807.3409890309721959
 21
142.5342974362687016
 31
0.0
  0
LINE
  5
37965
  8
0
 10
2807.3409890309721959
 20
142.5342974362687016
 30
0.0
 11
2807.3213039921461132
 21
142.5369803779298934
 31
0.0
  0
LINE
  5
37966
  8
0
 10
2807.3213039921461132
 20
142.5369803779298934
 30
0.0
 11
2807.3114614722480837
 21
142.5418274805338115
 31
0.0
  0
LINE
  5
37967
  8
0
 10
2807.3114614722480837
 20
142.5418274805338115
 30
0.0
 11
2807.3213039919478433
 21
142.5404237647020125
 31
0.0
  0
LINE
  5
37968
  8
0
 10
2807.3213039919478433
 20
142.5404237647020125
 30
0.0
 11
2807.3409890313469077
 21
142.5377561503337915
 31
0.0
  0
LINE
  5
37969
  8
0
 10
2807.3409890313469077
 20
142.5377561503337915
 30
0.0
 11
2807.3508315510330249
 21
142.536484443294313
 31
0.0
  0
LINE
  5
3796A
  8
0
 10
2807.3229927013740053
 20
142.5349070637402917
 30
0.0
 11
2807.3131501816678792
 21
142.5394227762544972
 31
0.0
  0
LINE
  5
3796B
  8
0
 10
2807.3131501816678792
 20
142.5394227762544972
 30
0.0
 11
2807.2934651423202013
 21
142.5430229470746895
 31
0.0
  0
LINE
  5
3796C
  8
0
 10
2807.2934651423202013
 20
142.5430229470746895
 30
0.0
 11
2807.2836226227218503
 21
142.5421496524450902
 31
0.0
  0
LINE
  5
3796D
  8
0
 10
2807.2836226227218503
 20
142.5421496524450902
 30
0.0
 11
2807.2934651422228853
 21
142.5376551891498877
 31
0.0
  0
LINE
  5
3796E
  8
0
 10
2807.2934651422228853
 20
142.5376551891498877
 30
0.0
 11
2807.3131501816310447
 21
142.5340125219595109
 31
0.0
  0
LINE
  5
3796F
  8
0
 10
2807.3131501816310447
 20
142.5340125219595109
 30
0.0
 11
2807.322992701252133
 21
142.5349070637923887
 31
0.0
  0
LINE
  5
37970
  8
0
 10
2807.2951538516749679
 20
142.5448011139592097
 30
0.0
 11
2807.2853113319479235
 21
142.5469878286671985
 31
0.0
  0
LINE
  5
37971
  8
0
 10
2807.2853113319479235
 20
142.5469878286671985
 30
0.0
 11
2807.265626292647994
 21
142.5515224607893003
 31
0.0
  0
LINE
  5
37972
  8
0
 10
2807.265626292647994
 20
142.5515224607893003
 30
0.0
 11
2807.2557837729018502
 21
142.5538762326044093
 31
0.0
  0
LINE
  5
37973
  8
0
 10
2807.2557837729018502
 20
142.5538762326044093
 30
0.0
 11
2807.2656262926020645
 21
142.548135337578799
 31
0.0
  0
LINE
  5
37974
  8
0
 10
2807.2656262926020645
 20
142.548135337578799
 30
0.0
 11
2807.2853113319479235
 21
142.5435777046338046
 31
0.0
  0
LINE
  5
37975
  8
0
 10
2807.2853113319479235
 20
142.5435777046338046
 30
0.0
 11
2807.2951538515690117
 21
142.5448011139827997
 31
0.0
  0
LINE
  5
37976
  8
0
 10
2807.2557837727767946
 20
142.5452922386272974
 30
0.0
 11
2807.265626292647994
 21
142.544783888233809
 31
0.0
  0
LINE
  5
37977
  8
0
 10
2807.265626292647994
 20
142.544783888233809
 30
0.0
 11
2807.2853113320561533
 21
142.5401915426926962
 31
0.0
  0
LINE
  5
37978
  8
0
 10
2807.2853113320561533
 20
142.5401915426926962
 30
0.0
 11
2807.2951538516767869
 21
142.5360371469664074
 31
0.0
  0
LINE
  5
37979
  8
0
 10
2807.2951538516767869
 20
142.5360371469664074
 30
0.0
 11
2807.2853113320188641
 21
142.5365100281449884
 31
0.0
  0
LINE
  5
3797A
  8
0
 10
2807.2853113320188641
 20
142.5365100281449884
 30
0.0
 11
2807.2650804030649851
 21
142.5413842660971113
 31
0.0
  0
LINE
  5
3797B
  8
0
 10
2807.2650804030649851
 20
142.5413842660971113
 30
0.0
 11
2807.2557837727767946
 21
142.5452922386272974
 31
0.0
  0
LINE
  5
3797C
  8
0
 10
2807.2673150020168578
 20
142.5459387264941995
 30
0.0
 11
2807.2574724822061398
 21
142.5513435014352979
 31
0.0
  0
LINE
  5
3797D
  8
0
 10
2807.2574724822061398
 20
142.5513435014352979
 30
0.0
 11
2807.2377874429907934
 21
142.5568763777284005
 31
0.0
  0
LINE
  5
3797E
  8
0
 10
2807.2377874429907934
 20
142.5568763777284005
 30
0.0
 11
2807.2279449233101332
 21
142.5570729396469005
 31
0.0
  0
LINE
  5
3797F
  8
0
 10
2807.2279449233101332
 20
142.5570729396469005
 30
0.0
 11
2807.2377874429821532
 21
142.5516777147539926
 31
0.0
  0
LINE
  5
37980
  8
0
 10
2807.2377874429821532
 20
142.5516777147539926
 30
0.0
 11
2807.2574724823862198
 21
142.5460762194389872
 31
0.0
  0
LINE
  5
37981
  8
0
 10
2807.2574724823862198
 20
142.5460762194389872
 30
0.0
 11
2807.2673150020427784
 21
142.5459387264947964
 31
0.0
  0
LINE
  5
37982
  8
0
 10
2807.2279449235379616
 20
142.5514684231702063
 30
0.0
 11
2807.2377874429921576
 21
142.5494676958286959
 31
0.0
  0
LINE
  5
37983
  8
0
 10
2807.2377874429921576
 20
142.5494676958286959
 30
0.0
 11
2807.257472482348021
 21
142.5438100588698944
 31
0.0
  0
LINE
  5
37984
  8
0
 10
2807.257472482348021
 20
142.5438100588698944
 30
0.0
 11
2807.2673150020441426
 21
142.5400429997582989
 31
0.0
  0
LINE
  5
37985
  8
0
 10
2807.2673150020441426
 20
142.5400429997582989
 30
0.0
 11
2807.257472482348021
 21
142.5423811937617984
 31
0.0
  0
LINE
  5
37986
  8
0
 10
2807.257472482348021
 20
142.5423811937617984
 30
0.0
 11
2807.2377874429480471
 21
142.5482252991432119
 31
0.0
  0
LINE
  5
37987
  8
0
 10
2807.2377874429480471
 20
142.5482252991432119
 30
0.0
 11
2807.2279449232610204
 21
142.551468423284291
 31
0.0
  0
LINE
  5
37988
  8
0
 10
2807.2394761523628404
 20
142.5499545919867899
 30
0.0
 11
2807.2296336326871824
 21
142.5550036708067978
 31
0.0
  0
LINE
  5
37989
  8
0
 10
2807.2296336326871824
 20
142.5550036708067978
 30
0.0
 11
2807.2099485932890275
 21
142.5616321148548025
 31
0.0
  0
LINE
  5
3798A
  8
0
 10
2807.2099485932890275
 20
142.5616321148548025
 30
0.0
 11
2807.2001060736370164
 21
142.5633200212404006
 31
0.0
  0
LINE
  5
3798B
  8
0
 10
2807.2001060736370164
 20
142.5633200212404006
 30
0.0
 11
2807.209948593451827
 21
142.5582930832692909
 31
0.0
  0
LINE
  5
3798C
  8
0
 10
2807.209948593451827
 20
142.5582930832692909
 30
0.0
 11
2807.2296336326949131
 21
142.5515556357273113
 31
0.0
  0
LINE
  5
3798D
  8
0
 10
2807.2296336326949131
 20
142.5515556357273113
 30
0.0
 11
2807.2394761523628404
 21
142.5499545919867899
 31
0.0
  0
LINE
  5
3798E
  8
0
 10
2807.1837984530347967
 20
142.6183185722551912
 30
0.0
 11
2807.1739559334150726
 21
142.6188348789453073
 31
0.0
  0
LINE
  5
3798F
  8
0
 10
2807.1739559334150726
 20
142.6188348789453073
 30
0.0
 11
2807.1562886429301216
 21
142.6085304358477117
 31
0.0
  0
LINE
  5
37990
  8
0
 10
2807.1562886429301216
 20
142.6085304358477117
 30
0.0
 11
2807.1542708940469311
 21
142.609457626333807
 31
0.0
  0
LINE
  5
37991
  8
0
 10
2807.1542708940469311
 20
142.609457626333807
 30
0.0
 11
2807.1444283742921471
 21
142.6088689432573062
 31
0.0
  0
LINE
  5
37992
  8
0
 10
2807.1444283742921471
 20
142.6088689432573062
 30
0.0
 11
2807.1542708939891781
 21
142.5994822451337996
 31
0.0
  0
LINE
  5
37993
  8
0
 10
2807.1542708939891781
 20
142.5994822451337996
 30
0.0
 11
2807.157866220662072
 21
142.5978307683515141
 31
0.0
  0
LINE
  5
37994
  8
0
 10
2807.157866220662072
 20
142.5978307683515141
 30
0.0
 11
2807.1739559333468605
 21
142.6071735352338123
 31
0.0
  0
LINE
  5
37995
  8
0
 10
2807.1739559333468605
 20
142.6071735352338123
 30
0.0
 11
2807.1837984530347967
 21
142.6183185722551912
 31
0.0
  0
LINE
  5
37996
  8
0
 10
2807.1898339661001955
 20
142.6177428354966139
 30
0.0
 11
2807.182109743690944
 21
142.6137368716601941
 31
0.0
  0
LINE
  5
37997
  8
0
 10
2807.182109743690944
 20
142.6137368716601941
 30
0.0
 11
2807.1748633353940932
 21
142.6055230463354064
 31
0.0
  0
LINE
  5
37998
  8
0
 10
2807.1748633353940932
 20
142.6055230463354064
 30
0.0
 11
2807.1583716362611085
 21
142.5959842499734975
 31
0.0
  0
LINE
  5
37999
  8
0
 10
2807.1583716362611085
 20
142.5959842499734975
 30
0.0
 11
2807.157866220662072
 21
142.5978307683515141
 31
0.0
  0
ARC
  5
3799A
  8
0
 10
2807.4103366477920645
 20
143.1500951128421946
 30
0.0
 40
0.6087078243529792
 50
245.5477814957118881
 51
251.3014876537770022
  0
ARC
  5
3799B
  8
0
 10
2807.4135466637048921
 20
143.159579507216705
 30
0.0
 40
0.6187207129880244
 50
251.3014876537770022
 51
262.9291682684706188
  0
ARC
  5
3799C
  8
0
 10
2807.414984354390981
 20
143.171170082001197
 30
0.0
 40
0.6304001127303711
 50
262.9291682684706188
 51
269.9709921030216151
  0
LINE
  5
3799D
  8
0
 10
2807.1748633354468438
 20
142.5941756853337949
 30
0.0
 11
2807.2090411912481613
 21
142.5941756853337949
 31
0.0
  0
LINE
  5
3799E
  8
0
 10
2807.2090411912481613
 20
142.5941756853337949
 30
0.0
 11
2807.2090411912481613
 21
142.6106412770236886
 31
0.0
  0
LINE
  5
3799F
  8
0
 10
2807.1748633354468438
 20
142.5941756853337949
 30
0.0
 11
2807.1748633354468438
 21
142.6055230463962005
 31
0.0
  0
LINE
  5
379A0
  8
0
 10
2807.1821097436481978
 20
142.5941756853337949
 30
0.0
 11
2807.1821097436481978
 21
142.6137368716379115
 31
0.0
  0
LINE
  5
379A1
  8
0
 10
2807.2017947830468074
 20
142.5941756853337949
 30
0.0
 11
2807.2017947830468074
 21
142.6132346227051073
 31
0.0
  0
LINE
  5
379A2
  8
0
 10
2807.2305410347480574
 20
142.6035451137310872
 30
0.0
 11
2807.2305410347480574
 21
142.5941756853337949
 31
0.0
  0
LINE
  5
379A3
  8
0
 10
2807.2305410347480574
 20
142.5941756853337949
 30
0.0
 11
2807.2641740226649745
 21
142.5941756853337949
 31
0.0
  0
LINE
  5
379A4
  8
0
 10
2807.2377874429480471
 20
142.5941756853337949
 30
0.0
 11
2807.2377874429480471
 21
142.6013509141357076
 31
0.0
  0
LINE
  5
379A5
  8
0
 10
2807.257472482348021
 20
142.5941756853337949
 30
0.0
 11
2807.257472482348021
 21
142.595880495465309
 31
0.0
  0
LINE
  5
379A6
  8
0
 10
2807.4245055802480238
 20
142.6860663844693136
 30
0.0
 11
2807.4245055802480238
 21
142.6613494777022879
 31
0.0
  0
LINE
  5
379A7
  8
0
 10
2807.4245055802480238
 20
142.6468759604416903
 30
0.0
 11
2807.4245055802480238
 21
142.6257602004266971
 31
0.0
  0
LINE
  5
379A8
  8
0
 10
2807.4245055802480238
 20
142.6134586906665049
 30
0.0
 11
2807.4245055802480238
 21
142.5956419634337919
 31
0.0
  0
LINE
  5
379A9
  8
0
 10
2807.4048205408480499
 20
142.5956419634337919
 30
0.0
 11
2807.4048205408480499
 21
142.6134586906254924
 31
0.0
  0
LINE
  5
379AA
  8
0
 10
2807.4048205408480499
 20
142.6257602004280898
 30
0.0
 11
2807.4048205408480499
 21
142.646875960441804
 31
0.0
  0
LINE
  5
379AB
  8
0
 10
2807.4048205408480499
 20
142.66134947770081
 30
0.0
 11
2807.4048205408480499
 21
142.6860663844693136
 31
0.0
  0
LINE
  5
379AC
  8
0
 10
2807.3966667305858209
 20
142.5989488625625938
 30
0.0
 11
2807.3966667305858209
 21
142.5908233429082088
 31
0.0
  0
LINE
  5
379AD
  8
0
 10
2807.3769816912458737
 20
142.599834928077712
 30
0.0
 11
2807.3769816912458737
 21
142.591705697657801
 31
0.0
  0
LINE
  5
379AE
  8
0
 10
2807.3966667306322051
 20
142.6102269980455901
 30
0.0
 11
2807.3966388441481286
 21
142.6296672988916896
 31
0.0
  0
LINE
  5
379AF
  8
0
 10
2807.3769816912390525
 20
142.6305719071511078
 30
0.0
 11
2807.37705943849096
 21
142.6111146664837008
 31
0.0
  0
LINE
  5
379B0
  8
0
 10
2807.3688278809481744
 20
142.5972596963434
 30
0.0
 11
2807.3688278809640906
 21
142.6150948653921091
 31
0.0
  0
LINE
  5
379B1
  8
0
 10
2807.3491428415468363
 20
142.6168902692820097
 30
0.0
 11
2807.3493251632321517
 21
142.59901538678929
 31
0.0
  0
LINE
  5
379B2
  8
0
 10
2807.340989031260051
 20
142.6030874642457036
 30
0.0
 11
2807.340989031260051
 21
142.5949488866529862
 31
0.0
  0
LINE
  5
379B3
  8
0
 10
2807.3213039919478433
 20
142.6057704058748072
 30
0.0
 11
2807.3213039919478433
 21
142.5976204052824983
 31
0.0
  0
LINE
  5
379B4
  8
0
 10
2807.3409890312791504
 20
142.6143955455270032
 30
0.0
 11
2807.3409890313469077
 21
142.6338961134337922
 31
0.0
  0
LINE
  5
379B5
  8
0
 10
2807.3213039919210132
 20
142.6366388460695873
 30
0.0
 11
2807.3215444478601057
 21
142.6170612021655018
 31
0.0
  0
LINE
  5
379B6
  8
0
 10
2807.3491428415468363
 20
142.6292239100338008
 30
0.0
 11
2807.3491428415800328
 21
142.6504017231515888
 31
0.0
  0
LINE
  5
379B7
  8
0
 10
2807.3688278809750045
 20
142.6485568865410869
 30
0.0
 11
2807.3688278809700023
 21
142.6274118873024861
 31
0.0
  0
LINE
  5
379B8
  8
0
 10
2807.376981691185847
 20
142.6668410578600117
 30
0.0
 11
2807.3769816912467832
 21
142.6439483589338124
 31
0.0
  0
LINE
  5
379B9
  8
0
 10
2807.3966667306481213
 20
142.6430326590729862
 30
0.0
 11
2807.3966667306481213
 21
142.6659054916634091
 31
0.0
  0
LINE
  5
379BA
  8
0
 10
2807.3688278809631811
 20
142.6630533986316038
 30
0.0
 11
2807.3687867517792256
 21
142.6878176228240989
 31
0.0
  0
LINE
  5
379BB
  8
0
 10
2807.3491428415982227
 20
142.6897332407961017
 30
0.0
 11
2807.3491428415982227
 21
142.6649236457662937
 31
0.0
  0
LINE
  5
379BC
  8
0
 10
2807.3769816912467832
 20
142.7092214506556047
 30
0.0
 11
2807.3769816912467832
 21
142.6825022270338081
 31
0.0
  0
LINE
  5
379BD
  8
0
 10
2807.3966667306481213
 20
142.681551455133814
 30
0.0
 11
2807.3966667306481213
 21
142.7082417207051037
 31
0.0
  0
LINE
  5
379BE
  8
0
 10
2807.3409890312950665
 20
142.6859943028495934
 30
0.0
 11
2807.3409890313469077
 21
142.7128208655338142
 31
0.0
  0
LINE
  5
379BF
  8
0
 10
2807.3213039919651237
 20
142.6888772569967898
 30
0.0
 11
2807.3213039919651237
 21
142.714539065774801
 31
0.0
  0
LINE
  5
379C0
  8
0
 10
2807.2934651422478964
 20
142.6987814132747019
 30
0.0
 11
2807.2934651422478964
 21
142.6738873900420117
 31
0.0
  0
LINE
  5
379C1
  8
0
 10
2807.3131501816478703
 20
142.6950340715337973
 30
0.0
 11
2807.3131501816478703
 21
142.6700881662337963
 31
0.0
  0
LINE
  5
379C2
  8
0
 10
2807.3213039919642142
 20
142.6731126813735955
 30
0.0
 11
2807.3213039919478433
 21
142.6500849879747079
 31
0.0
  0
LINE
  5
379C3
  8
0
 10
2807.3409890312891548
 20
142.6473105491909905
 30
0.0
 11
2807.3409890313400865
 21
142.6702768059396931
 31
0.0
  0
LINE
  5
379C4
  8
0
 10
2807.3131501817138087
 20
142.6559030791839859
 30
0.0
 11
2807.3131501817138087
 21
142.6342255402817898
 31
0.0
  0
LINE
  5
379C5
  8
0
 10
2807.2934651422660863
 20
142.6379029201671074
 30
0.0
 11
2807.2934651422660863
 21
142.6592411334592896
 31
0.0
  0
LINE
  5
379C6
  8
0
 10
2807.2853113319479235
 20
142.6569114283327053
 30
0.0
 11
2807.2853113319479235
 21
142.680093199387187
 31
0.0
  0
LINE
  5
379C7
  8
0
 10
2807.265626292557954
 20
142.6849216461602907
 30
0.0
 11
2807.265626292647994
 21
142.6616308599338083
 31
0.0
  0
LINE
  5
379C8
  8
0
 10
2807.2574724823739416
 20
142.6679068304200086
 30
0.0
 11
2807.257472482348021
 21
142.646406083333801
 31
0.0
  0
LINE
  5
379C9
  8
0
 10
2807.2377874429539588
 20
142.6520637201566899
 30
0.0
 11
2807.2377874429471376
 21
142.6736756999102056
 31
0.0
  0
LINE
  5
379CA
  8
0
 10
2807.2099485933481446
 20
142.6651689005338142
 30
0.0
 11
2807.2099485932740208
 21
142.6451852444627946
 31
0.0
  0
LINE
  5
379CB
  8
0
 10
2807.2296336325771335
 20
142.6380234341372955
 30
0.0
 11
2807.2296336325771335
 21
142.658431453038105
 31
0.0
  0
LINE
  5
379CC
  8
0
 10
2807.2377874429480471
 20
142.6395106373630881
 30
0.0
 11
2807.2377874429639633
 21
142.6213866126109053
 31
0.0
  0
LINE
  5
379CD
  8
0
 10
2807.2574724823721226
 20
142.615853736420604
 30
0.0
 11
2807.2574724823721226
 21
142.633909141957389
 31
0.0
  0
LINE
  5
379CE
  8
0
 10
2807.2656262926429918
 20
142.6283370178801988
 30
0.0
 11
2807.2656262926088857
 21
142.6480491353241007
 31
0.0
  0
LINE
  5
379CF
  8
0
 10
2807.2853113319479235
 20
142.6433858454338122
 30
0.0
 11
2807.2853113319479235
 21
142.6237446723463904
 31
0.0
  0
LINE
  5
379D0
  8
0
 10
2807.2934651422478964
 20
142.6254881117239108
 30
0.0
 11
2807.2934651422579009
 21
142.6075331819760947
 31
0.0
  0
LINE
  5
379D1
  8
0
 10
2807.3131501816551463
 20
142.6039330112764958
 30
0.0
 11
2807.3131501816478703
 21
142.6218454446338058
 31
0.0
  0
LINE
  5
379D2
  8
0
 10
2807.2017947830468074
 20
142.6333897053337978
 30
0.0
 11
2807.2017947830718185
 21
142.6519745299164015
 31
0.0
  0
LINE
  5
379D3
  8
0
 10
2807.1821097436481978
 20
142.6594180706337909
 30
0.0
 11
2807.1821097435940828
 21
142.6410378687693878
 31
0.0
  0
LINE
  5
379D4
  8
0
 10
2807.173955933435991
 20
142.6476609675947884
 30
0.0
 11
2807.173955933435991
 21
142.6387740929988013
 31
0.0
  0
LINE
  5
379D5
  8
0
 10
2807.1659774548479618
 20
142.6344143234337878
 30
0.0
 11
2807.1659774548479618
 21
142.6512381993782981
 31
0.0
  0
LINE
  5
379D6
  8
0
 10
2807.1542708940000921
 20
142.6397106908360968
 30
0.0
 11
2807.1542708939900876
 21
142.6564869546525927
 31
0.0
  0
LINE
  5
379D7
  8
0
 10
2807.1739559333159377
 20
142.6593235154464026
 30
0.0
 11
2807.1739559333468605
 21
142.6795497093337985
 31
0.0
  0
LINE
  5
379D8
  8
0
 10
2807.1542708940310149
 20
142.6682274539898003
 30
0.0
 11
2807.1542708940310149
 21
142.6722809069370896
 31
0.0
  0
LINE
  5
379D9
  8
0
 10
2807.1821097436959462
 20
142.6713574379334943
 30
0.0
 11
2807.1821097436959462
 21
142.6844336318673072
 31
0.0
  0
LINE
  5
379DA
  8
0
 10
2807.2017947830468074
 20
142.6862095534386867
 30
0.0
 11
2807.201794782999059
 21
142.6641956276081089
 31
0.0
  0
LINE
  5
379DB
  8
0
 10
2807.2099485932831158
 20
142.6789658934727072
 30
0.0
 11
2807.2099485932831158
 21
142.6933717712728082
 31
0.0
  0
LINE
  5
379DC
  8
0
 10
2807.2296336326480741
 20
142.6721419567338103
 30
0.0
 11
2807.2296336326758137
 21
142.6956832071439862
 31
0.0
  0
LINE
  5
379DD
  8
0
 10
2807.2377874430098927
 20
142.6885346444074116
 30
0.0
 11
2807.2377874430098927
 21
142.7007706200674875
 31
0.0
  0
LINE
  5
379DE
  8
0
 10
2807.2574724823980432
 20
142.6826792851086907
 30
0.0
 11
2807.2574724823980432
 21
142.7051071519223058
 31
0.0
  0
LINE
  5
379DF
  8
0
 10
2807.265626292647994
 20
142.7008881701337941
 30
0.0
 11
2807.265626292647994
 21
142.7066911360579979
 31
0.0
  0
LINE
  5
379E0
  8
0
 10
2807.2853113318560645
 20
142.6959759764222895
 30
0.0
 11
2807.2853113318560645
 21
142.7100111468629962
 31
0.0
  0
LINE
  5
379E1
  8
0
 10
2807.1461170836328165
 20
142.6314300903692072
 30
0.0
 11
2807.1461170838811086
 21
142.6465040861505997
 31
0.0
  0
LINE
  5
379E2
  8
0
 10
2807.1276159487979385
 20
142.6558651038853895
 30
0.0
 11
2807.1268597389921524
 21
142.6411317613192864
 31
0.0
  0
LINE
  5
379E3
  8
0
 10
2807.1264320443478937
 20
142.6328684710337882
 30
0.0
 11
2807.1264320445438898
 21
142.6212071270562944
 31
0.0
  0
LINE
  5
379E4
  8
0
 10
2807.1461170837601458
 20
142.6113120145784023
 30
0.0
 11
2807.1461170839579609
 21
142.6229733582829908
 31
0.0
  0
LINE
  5
379E5
  8
0
 10
2807.1264320440877782
 20
142.6067446682014008
 30
0.0
 11
2807.1264320444088298
 21
142.6149227843592087
 31
0.0
  0
LINE
  5
379E6
  8
0
 10
2807.1461170836510064
 20
142.6050056447606096
 30
0.0
 11
2807.1454675742188556
 21
142.5968084170874022
 31
0.0
  0
LINE
  5
379E7
  8
0
 10
2807.1562886429301216
 20
142.6085304358477117
 30
0.0
 11
2807.1542708939891781
 21
142.5994822451337996
 31
0.0
  0
LINE
  5
379E8
  8
0
 10
2807.1739559334150726
 20
142.6188348789453073
 30
0.0
 11
2807.1739559333468605
 21
142.6071735352338123
 31
0.0
  0
LINE
  5
379E9
  8
0
 10
2807.1542708939969089
 20
142.5942433505375959
 30
0.0
 11
2807.1542708941587989
 21
142.5876969266647905
 31
0.0
  0
LINE
  5
379EA
  8
0
 10
2807.17088627974681
 20
142.5834033973337966
 30
0.0
 11
2807.1739559333468605
 21
142.5788709397338039
 31
0.0
  0
LINE
  5
379EB
  8
0
 10
2807.1542708940401099
 20
142.5846743243895958
 30
0.0
 11
2807.1542708940401099
 21
142.5817380327997057
 31
0.0
  0
LINE
  5
379EC
  8
0
 10
2807.1739559333768739
 20
142.572673892014592
 30
0.0
 11
2807.1739559331981582
 21
142.5757703858367051
 31
0.0
  0
LINE
  5
379ED
  8
0
 10
2807.1821097436481978
 20
142.5765276337338037
 30
0.0
 11
2807.1821097436481978
 21
142.5715851480337903
 31
0.0
  0
LINE
  5
379EE
  8
0
 10
2807.1821097436659329
 20
142.569585087018595
 30
0.0
 11
2807.1821097436481978
 21
142.5682913518338069
 31
0.0
  0
LINE
  5
379EF
  8
0
 10
2807.2003895460279637
 20
142.5623103210376996
 30
0.0
 11
2807.2005664665139193
 21
142.5610750198324865
 31
0.0
  0
LINE
  5
379F0
  8
0
 10
2807.2023531569047918
 20
142.5637406010087034
 30
0.0
 11
2807.2017947830809135
 21
142.5688794703879978
 31
0.0
  0
LINE
  5
379F1
  8
0
 10
2807.2099485933481446
 20
142.5648508980337965
 30
0.0
 11
2807.2099485933481446
 21
142.5681493327473106
 31
0.0
  0
LINE
  5
379F2
  8
0
 10
2807.2296336326571691
 20
142.5582756723923978
 30
0.0
 11
2807.2296336326480741
 21
142.5616093277824916
 31
0.0
  0
LINE
  5
379F3
  8
0
 10
2807.2099485932890275
 20
142.5616321148548025
 30
0.0
 11
2807.2103819540229779
 21
142.5581447602671119
 31
0.0
  0
LINE
  5
379F4
  8
0
 10
2807.2296336326949131
 20
142.5515556357273113
 30
0.0
 11
2807.2296336326871824
 21
142.5550036708067978
 31
0.0
  0
LINE
  5
379F5
  8
0
 10
2807.2377874429821532
 20
142.5516777147539926
 30
0.0
 11
2807.2377874429907934
 21
142.5568763777284005
 31
0.0
  0
LINE
  5
379F6
  8
0
 10
2807.2377874429921576
 20
142.5494676958286959
 30
0.0
 11
2807.2380123094358169
 21
142.5481585406556917
 31
0.0
  0
LINE
  5
379F7
  8
0
 10
2807.2574724823862198
 20
142.5460762194389872
 30
0.0
 11
2807.2574724822061398
 21
142.5513435014352979
 31
0.0
  0
LINE
  5
379F8
  8
0
 10
2807.2656262926020645
 20
142.548135337578799
 30
0.0
 11
2807.265626292647994
 21
142.5515224607893003
 31
0.0
  0
LINE
  5
379F9
  8
0
 10
2807.2650804030649851
 20
142.5413842660971113
 30
0.0
 11
2807.2652569732858865
 21
142.5448029629876032
 31
0.0
  0
LINE
  5
379FA
  8
0
 10
2807.257472482348021
 20
142.5423811937617984
 30
0.0
 11
2807.257472482348021
 21
142.5438100588698944
 31
0.0
  0
LINE
  5
379FB
  8
0
 10
2807.2853113320188641
 20
142.5365100281449884
 30
0.0
 11
2807.2853113320561533
 21
142.5401915426926962
 31
0.0
  0
LINE
  5
379FC
  8
0
 10
2807.2853113319479235
 20
142.5435777046338046
 30
0.0
 11
2807.2853113319479235
 21
142.5469878286671985
 31
0.0
  0
LINE
  5
379FD
  8
0
 10
2807.2934651423202013
 20
142.5430229470746895
 30
0.0
 11
2807.2934651422228853
 21
142.5376551891498877
 31
0.0
  0
LINE
  5
379FE
  8
0
 10
2807.3131501816310447
 20
142.5340125219595109
 30
0.0
 11
2807.3131501816678792
 21
142.5394227762544972
 31
0.0
  0
LINE
  5
379FF
  8
0
 10
2807.3213039921461132
 20
142.5369803779298934
 30
0.0
 11
2807.3203965702878122
 21
142.540553178936193
 31
0.0
  0
LINE
  5
37A00
  8
0
 10
2807.3409890309721959
 20
142.5342974362687016
 30
0.0
 11
2807.3409890313469077
 21
142.5377561503337915
 31
0.0
  0
LINE
  5
37A01
  8
0
 10
2807.3213039914130604
 20
142.5297630288984863
 30
0.0
 11
2807.32109745264097
 21
142.5335337054856097
 31
0.0
  0
LINE
  5
37A02
  8
0
 10
2807.3409890313168944
 20
142.5270202961017958
 30
0.0
 11
2807.3415040705840511
 21
142.5307717048625022
 31
0.0
  0
LINE
  5
37A03
  8
0
 10
2807.3491428416018607
 20
142.5290573467281092
 30
0.0
 11
2807.3481514707518727
 21
142.5343383995675879
 31
0.0
  0
LINE
  5
37A04
  8
0
 10
2807.3679732296468501
 20
142.5273398925058075
 30
0.0
 11
2807.3684639804828294
 21
142.5327822749881079
 31
0.0
  0
LINE
  5
37A05
  8
0
 10
2807.3491428403867758
 20
142.5244830113269927
 30
0.0
 11
2807.3491041986749224
 21
142.5266271892207044
 31
0.0
  0
LINE
  5
37A06
  8
0
 10
2807.3688278809481744
 20
142.5248158630338082
 30
0.0
 11
2807.3688623652760725
 21
142.5226387207362109
 31
0.0
  0
LINE
  5
37A07
  8
0
 10
2807.3769816912222268
 20
142.5236960897269114
 30
0.0
 11
2807.3769708671161425
 21
142.5275667972096016
 31
0.0
  0
LINE
  5
37A08
  8
0
 10
2807.3769816913491013
 20
142.5310449001109987
 30
0.0
 11
2807.3769816913491013
 21
142.5345194401292872
 31
0.0
  0
LINE
  5
37A09
  8
0
 10
2807.3966667306481213
 20
142.5301588347338111
 30
0.0
 11
2807.3966667306481213
 21
142.5336375928337986
 31
0.0
  0
LINE
  5
37A0A
  8
0
 10
2807.3966667298718676
 20
142.5227906524455932
 30
0.0
 11
2807.3966667298718676
 21
142.5266738684157133
 31
0.0
  0
LINE
  5
37A0B
  8
0
 10
2807.4245055800361115
 20
142.5256257679824046
 30
0.0
 11
2807.4245055800361115
 21
142.5311317284815971
 31
0.0
  0
LINE
  5
37A0C
  8
0
 10
2807.4048205411500021
 20
142.5256257680235024
 30
0.0
 11
2807.4048205411500021
 21
142.5311317284815971
 31
0.0
  0
LINE
  5
37A0D
  8
0
 10
2807.4245055805331504
 20
142.5231646407546009
 30
0.0
 11
2807.4245055805331504
 21
142.5209572484777993
 31
0.0
  0
LINE
  5
37A0E
  8
0
 10
2807.4048205413951109
 20
142.5209572484490081
 30
0.0
 11
2807.4048205412082098
 21
142.5231646407563062
 31
0.0
  0
LINE
  5
37A0F
  8
0
 10
2807.3688278809481744
 20
142.704735276774386
 30
0.0
 11
2807.3688278809481744
 21
142.7182566410182858
 31
0.0
  0
LINE
  5
37A10
  8
0
 10
2807.3491428415468363
 20
142.7066912582434952
 30
0.0
 11
2807.3491428415468363
 21
142.717045547464096
 31
0.0
  0
ARC
  5
37A11
  8
0
 10
2807.1517047892511982
 20
142.6230143350709056
 30
0.0
 40
0.0736112512447167
 50
197.755064956205814
 51
217.369710618046696
  0
ARC
  5
37A12
  8
0
 10
2807.116245579257793
 20
142.6116602965772984
 30
0.0
 40
0.0363786074567283
 50
162.7990493815603088
 51
197.755064956205814
  0
ARC
  5
37A13
  8
0
 10
2807.1391046656030994
 20
142.6045838117127005
 30
0.0
 40
0.0603079715637114
 50
132.6212462737844078
 51
162.7990493815603088
  0
ARC
  5
37A14
  8
0
 10
2807.2198779758841738
 20
142.5168088450490984
 30
0.0
 40
0.1795923897688573
 50
108.2683079640323029
 51
132.6212462737844078
  0
ARC
  5
37A15
  8
0
 10
2807.358426516911095
 20
142.1561089391886128
 30
0.0
 40
0.5658455314144009
 50
97.6633779999034175
 51
110.141687239554301
  0
ARC
  5
37A16
  8
0
 10
2807.4108847761149264
 20
141.8282773918870134
 30
0.0
 40
0.8977826631218754
 50
91.6728635407636148
 51
98.191329759258096
  0
ARC
  5
37A17
  8
0
 10
2807.4269870055431966
 20
140.7496685733599122
 30
0.0
 40
1.976461783474883
 50
90.3572001310372173
 51
91.2266513431479069
  0
ARC
  5
37A18
  8
0
 10
2807.4146091508919199
 20
141.7461188535388885
 30
0.0
 40
0.990469311277944
 50
89.9967581063520043
 51
94.1770032088161599
  0
ARC
  5
37A19
  8
0
 10
2807.4026461199850928
 20
141.9099244370734141
 30
0.0
 40
0.826227467323404
 50
94.1770032088161599
 51
103.5772193081499069
  0
ARC
  5
37A1A
  8
0
 10
2807.295592309902986
 20
142.3532029318288039
 30
0.0
 40
0.3702051628627704
 50
103.5772193081499069
 51
118.8884561936926048
  0
ARC
  5
37A1B
  8
0
 10
2807.171334777895936
 20
142.5784022901416108
 30
0.0
 40
0.1129996317308431
 50
118.8884561936926048
 51
142.6416557527811051
  0
ARC
  5
37A1C
  8
0
 10
2807.1189545378788353
 20
142.6183896983206125
 30
0.0
 40
0.0471006001959996
 50
142.6416557527811051
 51
178.8405657490152123
  0
ARC
  5
37A1D
  8
0
 10
2807.1090680208922095
 20
142.6185897886485918
 30
0.0
 40
0.0372120586324426
 50
178.8405657490152123
 51
202.0469928828163972
  0
ARC
  5
37A1E
  8
0
 10
2807.140168954425917
 20
142.6311850635829899
 30
0.0
 40
0.070766626388609
 50
202.0469928828163972
 51
211.4634509242266915
  0
ARC
  5
37A1F
  8
0
 10
2807.3908281744929809
 20
142.7845693762685073
 30
0.0
 40
0.3646318880013919
 50
211.4634509242266915
 51
212.369141156381005
  0
ARC
  5
37A20
  8
0
 10
2807.4166969587431595
 20
141.2505792934099986
 30
0.0
 40
1.630843170283282
 50
90.0713812427612339
 51
95.5247358581403176
  0
ARC
  5
37A21
  8
0
 10
2807.3595294712959003
 20
141.773569407788699
 30
0.0
 40
1.104798082030596
 50
95.1850034549507029
 51
106.8579224573521032
  0
ARC
  5
37A22
  8
0
 10
2807.1927535090089805
 20
142.3356913858673067
 30
0.0
 40
0.518478527428696
 50
107.2343127423466029
 51
117.7295439561879959
  0
ARC
  5
37A23
  8
0
 10
2807.0523627993220543
 20
142.5974650811891991
 30
0.0
 40
0.2214586642810453
 50
117.0919264015961971
 51
136.9332478856836133
  0
ARC
  5
37A24
  8
0
 10
2806.954745672665922
 20
142.68940414012161
 30
0.0
 40
0.0873645288106581
 50
137.2670799703352031
 51
166.857453386076088
  0
ARC
  5
37A25
  8
0
 10
2806.9419320796741886
 20
142.6960376984415007
 30
0.0
 40
0.0734639010284115
 50
169.6243686218925006
 51
198.982662301259893
  0
LINE
  5
37A26
  8
0
 10
2808.3989554342629162
 20
135.5170196814337942
 30
0.0
 11
2808.3556191982838754
 21
138.7496231551936887
 31
0.0
  0
LINE
  5
37A27
  8
0
 10
2808.3551792977978039
 20
138.782436891992603
 30
0.0
 11
2808.2993450889471205
 21
142.9473084690366136
 31
0.0
  0
ARC
  5
37A28
  8
0
 10
2808.248309391984094
 20
142.9460933465973937
 30
0.0
 40
0.0510501605001863
 50
1.3639127178178969
 51
50.7417953011656309
  0
ARC
  5
37A29
  8
0
 10
2808.2136444806142208
 20
142.9036780121732022
 30
0.0
 40
0.1058289581739483
 50
50.7417953011656309
 51
62.4578355429902814
  0
ARC
  5
37A2A
  8
0
 10
2807.9457019826368196
 20
142.2849716489525065
 30
0.0
 40
0.7798252743676396
 50
66.0245736808338108
 51
71.4250613352957942
  0
ARC
  5
37A2B
  8
0
 10
2808.2825177473241638
 20
143.3539230411687129
 30
0.0
 40
0.3413942843008857
 50
230.3679634179235904
 51
254.9917994731526107
  0
ARC
  5
37A2C
  8
0
 10
2807.2352453759431228
 20
133.4558096384400017
 30
0.0
 40
10.0510359623425494
 50
87.3701243492811983
 51
88.9771656996074398
  0
ARC
  5
37A2D
  8
0
 10
2807.559868718567941
 20
140.8874758818697899
 30
0.0
 40
2.6123553763192078
 50
82.6442827964222602
 51
87.003579812680826
  0
ARC
  5
37A2E
  8
0
 10
2807.8306880928489591
 20
142.9853630872025008
 30
0.0
 40
0.4970601582031661
 50
72.8591153305810622
 51
82.6442827964222602
  0
ARC
  5
37A2F
  8
0
 10
2807.960366579085985
 20
143.3963141484713901
 30
0.0
 40
0.0662025193747198
 50
25.8071263986934483
 51
75.284967318441673
  0
ARC
  5
37A30
  8
0
 10
2807.4807001203848813
 20
143.2648554427935039
 30
0.0
 40
0.5625811995137359
 50
15.6761770490243002
 51
16.5528850568610615
  0
LINE
  5
37A31
  8
0
 10
2808.0223556485480003
 20
143.416864965052099
 30
0.0
 11
2808.0620148089028589
 21
143.0973744461047943
 31
0.0
  0
ARC
  5
37A32
  8
0
 10
2808.0762512500209596
 20
143.0997175798545982
 30
0.0
 40
0.0144279773868543
 50
189.3463499797281031
 51
217.1924988829985068
  0
ARC
  5
37A33
  8
0
 10
2807.8516923618931287
 20
141.2434567901900095
 30
0.0
 40
1.9069412629004101
 50
79.7489747964545757
 51
83.8252238771187592
  0
ARC
  5
37A34
  8
0
 10
2808.1327557075269397
 20
142.7975986409346945
 30
0.0
 40
0.3275890233746533
 50
65.8546134475008813
 51
79.7489747964545757
  0
ARC
  5
37A35
  8
0
 10
2808.2863663207449463
 20
143.1059855829728065
 30
0.0
 40
0.021771189726629
 50
205.7504383149247928
 51
268.3512103129248203
  0
ARC
  5
37A36
  8
0
 10
2808.2923676398181669
 20
208.3157506590771959
 30
0.0
 40
65.2315275887404908
 50
269.9941785601462811
 51
270.0058214398536052
  0
ARC
  5
37A37
  8
0
 10
2808.2960317400170425
 20
143.1056354691405943
 30
0.0
 40
0.0216161872780938
 50
277.8802268501531216
 51
359.1977462456716239
  0
LINE
  5
37A38
  8
0
 10
2808.3176458083471516
 20
143.1053328098365967
 30
0.0
 11
2808.3176458083471516
 21
144.053605189836702
 31
0.0
  0
ARC
  5
37A39
  8
0
 10
2808.1434738183011177
 20
144.0286492626588881
 30
0.0
 40
0.1759507897620657
 50
8.1540262630443774
 51
26.2544693384339602
  0
ARC
  5
37A3A
  8
0
 10
2807.3520618337070118
 20
143.2035939368259108
 30
0.0
 40
1.3100420654342511
 50
43.5672793113871677
 51
51.7749258335232767
  0
ARC
  5
37A3B
  8
0
 10
2808.3460604598271857
 20
144.4825389733827876
 30
0.0
 40
0.3098955786831177
 50
190.6646953145937005
 51
233.7126425551201123
  0
LINE
  5
37A3C
  8
0
 10
2808.0415177029481129
 20
144.4251893533366058
 30
0.0
 11
2807.994702209227853
 21
144.750187945075794
 31
0.0
  0
ARC
  5
37A3D
  8
0
 10
2807.9021866082530323
 20
144.7337606259893903
 30
0.0
 40
0.0939627225877153
 50
10.0686515446208205
 51
53.4999906742553719
  0
ARC
  5
37A3E
  8
0
 10
2807.7147909833788617
 20
144.4805100599681964
 30
0.0
 40
0.4090071153520364
 50
53.4999906742553719
 51
77.0487346126988939
  0
ARC
  5
37A3F
  8
0
 10
2807.4574487848549325
 20
143.4994072307183046
 30
0.0
 40
1.42316350121627
 50
75.8042668971857978
 51
87.6796809625000861
  0
ARC
  5
37A40
  8
0
 10
2807.4129248538338288
 20
142.9376925384067079
 30
0.0
 40
1.986339281985797
 50
87.052413719492904
 51
89.9498000554345936
  0
ARC
  5
37A41
  8
0
 10
2809.759535123169826
 20
144.6135542158743874
 30
0.0
 40
1.7691108172816929
 50
175.7187344229851931
 51
177.5668436051981871
  0
ARC
  5
37A42
  8
0
 10
2807.932327428141889
 20
144.6911961755363905
 30
0.0
 40
0.059745720194967
 50
300.9401651549723056
 51
357.5668436051983008
  0
ARC
  5
37A43
  8
0
 10
2807.9008444425521702
 20
144.743716823270006
 30
0.0
 40
0.1209796717251347
 50
275.2811958777011228
 51
300.9401651549723056
  0
ARC
  5
37A44
  8
0
 10
2807.8189202210342046
 20
145.6299954995816108
 30
0.0
 40
1.011036675605268
 50
269.4352270539700953
 51
275.2811958777011228
  0
LINE
  5
37A45
  8
0
 10
2807.808954444848041
 20
144.6190079414365925
 30
0.0
 11
2807.4146651933479006
 21
144.6190079414365925
 31
0.0
  0
LINE
  5
37A46
  8
0
 10
2808.1910538278571039
 20
143.1199585289506047
 30
0.0
 11
2808.1941112080471612
 21
143.0241741349290123
 31
0.0
  0
ARC
  5
37A47
  8
0
 10
2807.4150540261548485
 20
141.8114429435642876
 30
0.0
 40
1.010215719326504
 50
84.4188398160097648
 51
90.0220531901366741
  0
ARC
  5
37A48
  8
0
 10
2807.43842407348302
 20
142.0505988914125055
 30
0.0
 40
0.7699206371810979
 50
73.3754122434311853
 51
84.4188393410403251
  0
ARC
  5
37A49
  8
0
 10
2807.5783233862189263
 20
142.5191472880740946
 30
0.0
 40
0.2809324801483575
 50
56.4238689728330769
 51
73.3754122434311853
  0
ARC
  5
37A4A
  8
0
 10
2807.6790417589800199
 20
142.6708777225242102
 30
0.0
 40
0.0988162662904574
 50
34.0346961194448099
 51
56.4238689728330769
  0
ARC
  5
37A4B
  8
0
 10
2807.7218811472921516
 20
142.6998110146755891
 30
0.0
 40
0.0471215026704835
 50
0.8019136007654099
 51
34.0346961194448099
  0
LINE
  5
37A4C
  8
0
 10
2807.7689980347468008
 20
142.7004705072338027
 30
0.0
 11
2807.7689980347468008
 21
142.6455026902332861
 31
0.0
  0
ARC
  5
37A4D
  8
0
 10
2807.68891058921281
 20
142.645844827174102
 30
0.0
 40
0.080088176343507
 50
328.3266197056158262
 51
359.7552315055767735
  0
ARC
  5
37A4E
  8
0
 10
2807.6418804453928715
 20
142.6772139556956915
 30
0.0
 40
0.1365992866610252
 50
307.2334709115945088
 51
327.486675975625019
  0
ARC
  5
37A4F
  8
0
 10
2807.6186317059250541
 20
142.6983468427181947
 30
0.0
 40
0.1675895368889692
 50
296.9863830076724867
 51
309.1905581739760009
  0
ARC
  5
37A50
  8
0
 10
2807.5389210130010724
 20
142.8572405613203102
 30
0.0
 40
0.3453546951758448
 50
285.9075771783049049
 51
296.8086589251968235
  0
ARC
  5
37A51
  8
0
 10
2807.4468307262859526
 20
143.1819930426615883
 30
0.0
 40
0.6829116447492389
 50
275.7483403854445783
 51
285.8701124746149844
  0
ARC
  5
37A52
  8
0
 10
2807.3788094859100966
 20
144.1241959077190984
 30
0.0
 40
1.6274084184733659
 50
271.2624654813910752
 51
274.808589862204883
  0
ARC
  5
37A53
  8
0
 10
2807.4147713370061865
 20
143.4167390148286074
 30
0.0
 40
0.9127810344003895
 50
269.9933373027678272
 51
272.9275020623308023
  0
ARC
  5
37A54
  8
0
 10
2807.4188199265440744
 20
143.3375707712010012
 30
0.0
 40
0.8335093378352187
 50
272.9275020623308023
 51
279.7169929284494856
  0
ARC
  5
37A55
  8
0
 10
2807.468653084088146
 20
143.0465545079173069
 30
0.0
 40
0.5382572267734008
 50
279.7169929284494856
 51
287.0688936601400201
  0
ARC
  5
37A56
  8
0
 10
2807.5376852555359619
 20
142.8217276863612142
 30
0.0
 40
0.3030710443863506
 50
287.0688936601400201
 51
301.6352120162133019
  0
ARC
  5
37A57
  8
0
 10
2807.6532539752920457
 20
142.634131839236403
 30
0.0
 40
0.0827341867238795
 50
301.6352120162133019
 51
324.0362443934566272
  0
ARC
  5
37A58
  8
0
 10
2807.6817508421568164
 20
142.6134551831837882
 30
0.0
 40
0.0475262966046731
 50
324.0362443934566272
 51
5.8316087841653044
  0
ARC
  5
37A59
  8
0
 10
2807.6840609969931393
 20
142.6095861115576895
 30
0.0
 40
0.045803629057125
 50
10.9467932498737301
 51
34.2167348976129517
  0
ARC
  5
37A5A
  8
0
 10
2807.6537417073818688
 20
142.5885164549123942
 30
0.0
 40
0.0827239823951451
 50
34.4754628046806673
 51
51.9574009100907119
  0
ARC
  5
37A5B
  8
0
 10
2807.5732941858241247
 20
142.4771926119578893
 30
0.0
 40
0.2200354983047793
 50
53.3236409924146173
 51
71.6885491753299249
  0
ARC
  5
37A5C
  8
0
 10
2807.4590443300671723
 20
142.1461598466744931
 30
0.0
 40
0.570218372708486
 50
71.2404068911858843
 51
83.1083288168057237
  0
ARC
  5
37A5D
  8
0
 10
2807.4166033475671611
 20
141.8513261088147885
 30
0.0
 40
0.8680407724388242
 50
82.6623561675613558
 51
88.0520799946735622
  0
ARC
  5
37A5E
  8
0
 10
2807.4146861996259759
 20
141.8019562478363866
 30
0.0
 40
0.9174473011378655
 50
88.037222470256765
 51
90.0013118694293155
  0
ARC
  5
37A5F
  8
0
 10
2807.6816267663812141
 20
142.6451904252168106
 30
0.0
 40
0.0485885113508923
 50
328.1575524761190081
 51
337.6124207439191878
  0
ARC
  5
37A60
  8
0
 10
2807.6513256284138151
 20
142.6666004185738927
 30
0.0
 40
0.085653282301483
 50
305.3725529628715094
 51
326.6848155526178061
  0
ARC
  5
37A61
  8
0
 10
2807.5365455528130951
 20
142.8413593565661017
 30
0.0
 40
0.2946950865545726
 50
291.5963968020291759
 51
303.8998160393929879
  0
ARC
  5
37A62
  8
0
 10
2807.4108484910179868
 20
143.1277685166072047
 30
0.0
 40
0.6073710848736831
 50
284.2170667785802038
 51
292.6771127258977003
  0
ARC
  5
37A63
  8
0
 10
2807.4353484780149302
 20
142.9947786422598881
 30
0.0
 40
0.4725213441572571
 50
276.2446036858495972
 51
285.2977827024287762
  0
ARC
  5
37A64
  8
0
 10
2807.4156156839958385
 20
143.0882854117054137
 30
0.0
 40
0.5676982694717351
 50
271.154668340085891
 51
277.1978654182423156
  0
ARC
  5
37A65
  8
0
 10
2807.4146705007779019
 20
143.1105175742141
 30
0.0
 40
0.5899451736151526
 50
269.9994845396586811
 51
271.2029355022675077
  0
ARC
  5
37A66
  8
0
 10
2807.4146439344222017
 20
143.2013683156150137
 30
0.0
 40
0.6255883262833726
 50
270.001947041926087
 51
276.3774055571909116
  0
ARC
  5
37A67
  8
0
 10
2807.4148878928817794
 20
143.1991856070256972
 30
0.0
 40
0.6233920265506371
 50
276.3774055571909116
 51
285.1905537907488792
  0
ARC
  5
37A68
  8
0
 10
2807.418471228279941
 20
143.1859881425421861
 30
0.0
 40
0.6097167436882733
 50
285.1905537907488792
 51
290.7706252471364792
  0
ARC
  5
37A69
  8
0
 10
2807.415514340361824
 20
143.193784242934413
 30
0.0
 40
0.618054751093302
 50
290.7706252471364792
 51
293.4367487670958781
  0
ARC
  5
37A6A
  8
0
 10
2807.4304690558101356
 20
143.1592866571864135
 30
0.0
 40
0.5804551907689149
 50
293.4367487670958781
 51
294.4760128927321148
  0
LINE
  5
37A6B
  8
0
 10
2807.6709587504119554
 20
142.6309941858405921
 30
0.0
 11
2807.6714641660241796
 21
142.6285350069020126
 31
0.0
  0
LINE
  5
37A6C
  8
0
 10
2807.6689176414961366
 20
142.6300697824794099
 30
0.0
 11
2807.6714641660128109
 21
142.6285350069634035
 31
0.0
  0
LINE
  5
37A6D
  8
0
 10
2807.6714641660128109
 20
142.6285350069634035
 30
0.0
 11
2807.6750594926479607
 21
142.6301864836337927
 31
0.0
  0
LINE
  5
37A6E
  8
0
 10
2807.6750594926479607
 20
142.6301864836337927
 30
0.0
 11
2807.6849020123258924
 21
142.627911838003314
 31
0.0
  0
LINE
  5
37A6F
  8
0
 10
2807.6849020123258924
 20
142.627911838003314
 30
0.0
 11
2807.6750594926479607
 21
142.6168391772320945
 31
0.0
  0
LINE
  5
37A70
  8
0
 10
2807.6750594926479607
 20
142.6168391772320945
 30
0.0
 11
2807.6730417438338918
 21
142.615911986873698
 31
0.0
  0
LINE
  5
37A71
  8
0
 10
2807.6730417438338918
 20
142.615911986873698
 30
0.0
 11
2807.6574809439871387
 21
142.6250615931367065
 31
0.0
  0
LINE
  5
37A72
  8
0
 10
2807.4523486954481086
 20
142.7092214506556047
 30
0.0
 11
2807.4621912151201286
 21
142.6962884252936021
 31
0.0
  0
LINE
  5
37A73
  8
0
 10
2807.4621912151201286
 20
142.6962884252936021
 30
0.0
 11
2807.4523486954481086
 21
142.6825022270338081
 31
0.0
  0
LINE
  5
37A74
  8
0
 10
2807.4523486954481086
 20
142.6825022270338081
 30
0.0
 11
2807.4326636560472252
 21
142.681551455133814
 31
0.0
  0
LINE
  5
37A75
  8
0
 10
2807.4326636560472252
 20
142.681551455133814
 30
0.0
 11
2807.4228211363870287
 21
142.6943585722883086
 31
0.0
  0
LINE
  5
37A76
  8
0
 10
2807.4228211363870287
 20
142.6943585722883086
 30
0.0
 11
2807.4326636560472252
 21
142.7082417207051037
 31
0.0
  0
LINE
  5
37A77
  8
0
 10
2807.4326636560472252
 20
142.7082417207051037
 30
0.0
 11
2807.4523486954481086
 21
142.7092214506556047
 31
0.0
  0
LINE
  5
37A78
  8
0
 10
2807.4801875450980333
 20
142.6897332407961017
 30
0.0
 11
2807.4900300647727818
 21
142.6782357693273866
 31
0.0
  0
LINE
  5
37A79
  8
0
 10
2807.4900300647727818
 20
142.6782357693273866
 30
0.0
 11
2807.4801875451480555
 21
142.6649236458337953
 31
0.0
  0
LINE
  5
37A7A
  8
0
 10
2807.4801875451480555
 20
142.6649236458337953
 30
0.0
 11
2807.4605025057321654
 21
142.6630533986316038
 31
0.0
  0
LINE
  5
37A7B
  8
0
 10
2807.4605025057321654
 20
142.6630533986316038
 30
0.0
 11
2807.4506599859059861
 21
142.6744475266847019
 31
0.0
  0
LINE
  5
37A7C
  8
0
 10
2807.4506599859059861
 20
142.6744475266847019
 30
0.0
 11
2807.4605436349170304
 21
142.6878176228240989
 31
0.0
  0
LINE
  5
37A7D
  8
0
 10
2807.4605436349170304
 20
142.6878176228240989
 30
0.0
 11
2807.4801875450980333
 21
142.6897332407961017
 31
0.0
  0
LINE
  5
37A7E
  8
0
 10
2807.5090829010691778
 20
142.7144265171104109
 30
0.0
 11
2807.5178689144081545
 21
142.7037465348545027
 31
0.0
  0
LINE
  5
37A7F
  8
0
 10
2807.5178689144081545
 20
142.7037465348545879
 30
0.0
 11
2807.5080263947288586
 21
142.6888772569967898
 31
0.0
  0
LINE
  5
37A80
  8
0
 10
2807.5080263947288586
 20
142.6888772569967898
 30
0.0
 11
2807.4883413553998253
 21
142.6859943028495934
 31
0.0
  0
LINE
  5
37A81
  8
0
 10
2807.4883413553998253
 20
142.6859943028495934
 30
0.0
 11
2807.4784988354981579
 21
142.6978928216265956
 31
0.0
  0
LINE
  5
37A82
  8
0
 10
2807.4784988354981579
 20
142.6978928216265956
 30
0.0
 11
2807.4883413553479841
 21
142.7128208655338142
 31
0.0
  0
LINE
  5
37A83
  8
0
 10
2807.4883413553479841
 20
142.7128208655338142
 30
0.0
 11
2807.5034992938049072
 21
142.7150065341710103
 31
0.0
  0
LINE
  5
37A84
  8
0
 10
2807.5358652444479048
 20
142.6987814132747019
 30
0.0
 11
2807.5457077640689931
 21
142.6883024504462867
 31
0.0
  0
LINE
  5
37A85
  8
0
 10
2807.5457077640689931
 20
142.6883024504462867
 30
0.0
 11
2807.5358652444479048
 21
142.6738873900420117
 31
0.0
  0
LINE
  5
37A86
  8
0
 10
2807.5358652444479048
 20
142.6738873900420117
 30
0.0
 11
2807.5161802050470214
 21
142.6700881662337963
 31
0.0
  0
LINE
  5
37A87
  8
0
 10
2807.5161802050470214
 20
142.6700881662337963
 30
0.0
 11
2807.5063376852172041
 21
142.6806037471585
 31
0.0
  0
LINE
  5
37A88
  8
0
 10
2807.5063376852172041
 20
142.6806037471585
 30
0.0
 11
2807.5161802050470214
 21
142.6950340715337973
 31
0.0
  0
LINE
  5
37A89
  8
0
 10
2807.5161802050470214
 20
142.6950340715337973
 30
0.0
 11
2807.5358652444479048
 21
142.6987814132747019
 31
0.0
  0
LINE
  5
37A8A
  8
0
 10
2807.5080263947320418
 20
142.6731126813735955
 30
0.0
 11
2807.517868914418159
 21
142.6629756054744007
 31
0.0
  0
LINE
  5
37A8B
  8
0
 10
2807.517868914418159
 20
142.6629756054744007
 30
0.0
 11
2807.508026394747958
 21
142.6500849879747079
 31
0.0
  0
LINE
  5
37A8C
  8
0
 10
2807.508026394747958
 20
142.6500849879747079
 30
0.0
 11
2807.4883413554061917
 21
142.6473105491909905
 31
0.0
  0
LINE
  5
37A8D
  8
0
 10
2807.4883413554061917
 20
142.6473105491909905
 30
0.0
 11
2807.4784988355800124
 21
142.6573662387880006
 31
0.0
  0
LINE
  5
37A8E
  8
0
 10
2807.4784988355800124
 20
142.6573662387880006
 30
0.0
 11
2807.4883413553561695
 21
142.6702768059396931
 31
0.0
  0
LINE
  5
37A8F
  8
0
 10
2807.4883413553561695
 20
142.6702768059396931
 30
0.0
 11
2807.5080263947320418
 21
142.6731126813735955
 31
0.0
  0
LINE
  5
37A90
  8
0
 10
2807.4523486955090448
 20
142.6668410578600117
 30
0.0
 11
2807.462191215186067
 21
142.6558278765174919
 31
0.0
  0
LINE
  5
37A91
  8
0
 10
2807.462191215186067
 20
142.6558278765174919
 30
0.0
 11
2807.4523486954481086
 21
142.6439483589338124
 31
0.0
  0
LINE
  5
37A92
  8
0
 10
2807.4523486954481086
 20
142.6439483589338124
 30
0.0
 11
2807.4326636560472252
 21
142.6430326590729862
 31
0.0
  0
LINE
  5
37A93
  8
0
 10
2807.4326636560472252
 20
142.6430326590729862
 30
0.0
 11
2807.4228211361601097
 21
142.6539769280649921
 31
0.0
  0
LINE
  5
37A94
  8
0
 10
2807.4228211361601097
 20
142.6539769280649921
 30
0.0
 11
2807.4326636560381303
 21
142.6659054916630112
 31
0.0
  0
LINE
  5
37A95
  8
0
 10
2807.4326636560381303
 20
142.6659054916630112
 30
0.0
 11
2807.4523486955090448
 21
142.6668410578600117
 31
0.0
  0
LINE
  5
37A96
  8
0
 10
2807.4801875451148589
 20
142.6504017231515888
 30
0.0
 11
2807.490030064729126
 21
142.6407078749456048
 31
0.0
  0
LINE
  5
37A97
  8
0
 10
2807.490030064729126
 20
142.6407078749456048
 30
0.0
 11
2807.4801875451480555
 21
142.6292239100338008
 31
0.0
  0
LINE
  5
37A98
  8
0
 10
2807.4801875451480555
 20
142.6292239100338008
 30
0.0
 11
2807.4605025057248895
 21
142.6274118873024861
 31
0.0
  0
LINE
  5
37A99
  8
0
 10
2807.4605025057248895
 20
142.6274118873024861
 30
0.0
 11
2807.4506599858159461
 21
142.6370514412330976
 31
0.0
  0
LINE
  5
37A9A
  8
0
 10
2807.4506599858159461
 20
142.6370514412330976
 30
0.0
 11
2807.4605025057198873
 21
142.6485568865410869
 31
0.0
  0
LINE
  5
37A9B
  8
0
 10
2807.4605025057198873
 20
142.6485568865410869
 30
0.0
 11
2807.4801875451148589
 21
142.6504017231515888
 31
0.0
  0
LINE
  5
37A9C
  8
0
 10
2807.5080263947747881
 20
142.6366388460695873
 30
0.0
 11
2807.5178689144340751
 21
142.6283847900886883
 31
0.0
  0
LINE
  5
37A9D
  8
0
 10
2807.5178689144340751
 20
142.6283847900886883
 30
0.0
 11
2807.5077859388347861
 21
142.6170612021655018
 31
0.0
  0
LINE
  5
37A9E
  8
0
 10
2807.5077859388347861
 20
142.6170612021655018
 30
0.0
 11
2807.4883413554161962
 21
142.6143955455270032
 31
0.0
  0
LINE
  5
37A9F
  8
0
 10
2807.4883413554161962
 20
142.6143955455270032
 30
0.0
 11
2807.478498835596838
 21
142.6227754234022882
 31
0.0
  0
LINE
  5
37AA0
  8
0
 10
2807.478498835596838
 20
142.6227754234022882
 30
0.0
 11
2807.4883413553479841
 21
142.6338961134337922
 31
0.0
  0
LINE
  5
37AA1
  8
0
 10
2807.4883413553479841
 20
142.6338961134337922
 30
0.0
 11
2807.5080263947747881
 21
142.6366388460695873
 31
0.0
  0
LINE
  5
37AA2
  8
0
 10
2807.5358652443987921
 20
142.6592411334856081
 30
0.0
 11
2807.5457077641822252
 21
142.6504150855012085
 31
0.0
  0
LINE
  5
37AA3
  8
0
 10
2807.5457077641822252
 20
142.6504150855012085
 30
0.0
 11
2807.5358652444288055
 21
142.6379029201671074
 31
0.0
  0
LINE
  5
37AA4
  8
0
 10
2807.5358652444288055
 20
142.6379029201671074
 30
0.0
 11
2807.5161802050588449
 21
142.6342255402963985
 31
0.0
  0
LINE
  5
37AA5
  8
0
 10
2807.5161802050588449
 20
142.6342255402963985
 30
0.0
 11
2807.5063376852058354
 21
142.6429925120322082
 31
0.0
  0
LINE
  5
37AA6
  8
0
 10
2807.5063376852058354
 20
142.6429925120322082
 30
0.0
 11
2807.5161802049810831
 21
142.6559030791839859
 31
0.0
  0
LINE
  5
37AA7
  8
0
 10
2807.5161802049810831
 20
142.6559030791839859
 30
0.0
 11
2807.5358652443987921
 21
142.6592411334856081
 31
0.0
  0
LINE
  5
37AA8
  8
0
 10
2807.5637040941378473
 20
142.6849216461602907
 30
0.0
 11
2807.5735466138207812
 21
142.6756462609822904
 31
0.0
  0
LINE
  5
37AA9
  8
0
 10
2807.5735466138207812
 20
142.6756462609822904
 30
0.0
 11
2807.5637040940468978
 21
142.6616308599338083
 31
0.0
  0
LINE
  5
37AAA
  8
0
 10
2807.5637040940468978
 20
142.6616308599338083
 30
0.0
 11
2807.5440190547478778
 21
142.6569114283327053
 31
0.0
  0
LINE
  5
37AAB
  8
0
 10
2807.5440190547478778
 20
142.6569114283327053
 30
0.0
 11
2807.5341765348121044
 21
142.6660999324020054
 31
0.0
  0
LINE
  5
37AAC
  8
0
 10
2807.5341765348121044
 20
142.6660999324020054
 30
0.0
 11
2807.5440190547478778
 21
142.680093199387187
 31
0.0
  0
LINE
  5
37AAD
  8
0
 10
2807.5440190547478778
 20
142.680093199387187
 30
0.0
 11
2807.5637040941378473
 21
142.6849216461602907
 31
0.0
  0
LINE
  5
37AAE
  8
0
 10
2807.4523486954572036
 20
142.6305719071511078
 30
0.0
 11
2807.4621912151401375
 21
142.6212815627175985
 31
0.0
  0
LINE
  5
37AAF
  8
0
 10
2807.4621912151401375
 20
142.6212815627175985
 30
0.0
 11
2807.4522709482039318
 21
142.6111146664837008
 31
0.0
  0
LINE
  5
37AB0
  8
0
 10
2807.4522709482039318
 20
142.6111146664837008
 30
0.0
 11
2807.4326636560631414
 21
142.6102269980455901
 31
0.0
  0
LINE
  5
37AB1
  8
0
 10
2807.4326636560631414
 20
142.6102269980455901
 30
0.0
 11
2807.422821136370203
 21
142.6194838263103861
 31
0.0
  0
LINE
  5
37AB2
  8
0
 10
2807.422821136370203
 20
142.6194838263103861
 30
0.0
 11
2807.432691542547218
 21
142.6296672988916896
 31
0.0
  0
LINE
  5
37AB3
  8
0
 10
2807.432691542547218
 20
142.6296672988916896
 30
0.0
 11
2807.4523486954572036
 21
142.6305719071511078
 31
0.0
  0
LINE
  5
37AB4
  8
0
 10
2807.4801875451480555
 20
142.6168902692820097
 30
0.0
 11
2807.490030064775965
 21
142.6088484212370986
 31
0.0
  0
LINE
  5
37AB5
  8
0
 10
2807.490030064775965
 20
142.6088484212370986
 30
0.0
 11
2807.4800052234641043
 21
142.59901538678929
 31
0.0
  0
LINE
  5
37AB6
  8
0
 10
2807.4800052234641043
 20
142.59901538678929
 30
0.0
 11
2807.4605025057480816
 21
142.5972596963434
 31
0.0
  0
LINE
  5
37AB7
  8
0
 10
2807.4605025057480816
 20
142.5972596963434
 30
0.0
 11
2807.450659986098799
 21
142.6052781364109023
 31
0.0
  0
LINE
  5
37AB8
  8
0
 10
2807.450659986098799
 20
142.6052781364109023
 30
0.0
 11
2807.4605025057308012
 21
142.6150948653921091
 31
0.0
  0
LINE
  5
37AB9
  8
0
 10
2807.4605025057308012
 20
142.6150948653921091
 30
0.0
 11
2807.4801875451480555
 21
142.6168902692820097
 31
0.0
  0
LINE
  5
37ABA
  8
0
 10
2807.5358652444479048
 20
142.6254881117239108
 30
0.0
 11
2807.5457077641499382
 21
142.6183212312409125
 31
0.0
  0
LINE
  5
37ABB
  8
0
 10
2807.5457077641499382
 20
142.6183212312409125
 30
0.0
 11
2807.5358652444369909
 21
142.6075331819760947
 31
0.0
  0
LINE
  5
37ABC
  8
0
 10
2807.5358652444369909
 20
142.6075331819760947
 30
0.0
 11
2807.5161802050402002
 21
142.6039330112764958
 31
0.0
  0
LINE
  5
37ABD
  8
0
 10
2807.5161802050402002
 20
142.6039330112764958
 30
0.0
 11
2807.5063376853418049
 21
142.6110786425620915
 31
0.0
  0
LINE
  5
37ABE
  8
0
 10
2807.5063376853418049
 20
142.6110786425620915
 30
0.0
 11
2807.5161802050470214
 21
142.6218454446338058
 31
0.0
  0
LINE
  5
37ABF
  8
0
 10
2807.5161802050470214
 20
142.6218454446338058
 30
0.0
 11
2807.5358652444479048
 21
142.6254881117239108
 31
0.0
  0
LINE
  5
37AC0
  8
0
 10
2807.5637040940860061
 20
142.6480491353241007
 30
0.0
 11
2807.5735466137721232
 21
142.640506712059107
 31
0.0
  0
LINE
  5
37AC1
  8
0
 10
2807.5735466137721232
 20
142.640506712059107
 30
0.0
 11
2807.5637040940519
 21
142.6283370178801988
 31
0.0
  0
LINE
  5
37AC2
  8
0
 10
2807.5637040940519
 20
142.6283370178801988
 30
0.0
 11
2807.5440190547478778
 21
142.6237446723463904
 31
0.0
  0
LINE
  5
37AC3
  8
0
 10
2807.5440190547478778
 20
142.6237446723463904
 30
0.0
 11
2807.5341765350249261
 21
142.6312516204451981
 31
0.0
  0
LINE
  5
37AC4
  8
0
 10
2807.5341765350249261
 20
142.6312516204451981
 30
0.0
 11
2807.5440190547478778
 21
142.6433858454338122
 31
0.0
  0
LINE
  5
37AC5
  8
0
 10
2807.5440190547478778
 20
142.6433858454338122
 30
0.0
 11
2807.5637040940860061
 21
142.6480491353241007
 31
0.0
  0
LINE
  5
37AC6
  8
0
 10
2807.5915429437482089
 20
142.6736756999102056
 30
0.0
 11
2807.6013854634320523
 21
142.6657257913817887
 31
0.0
  0
LINE
  5
37AC7
  8
0
 10
2807.6013854634320523
 20
142.6657257913817887
 30
0.0
 11
2807.591542943740933
 21
142.6520637201566899
 31
0.0
  0
LINE
  5
37AC8
  8
0
 10
2807.591542943740933
 20
142.6520637201566899
 30
0.0
 11
2807.5718579043477803
 21
142.646406083333801
 31
0.0
  0
LINE
  5
37AC9
  8
0
 10
2807.5718579043477803
 20
142.646406083333801
 30
0.0
 11
2807.5620153846671201
 21
142.6543003679329047
 31
0.0
  0
LINE
  5
37ACA
  8
0
 10
2807.5620153846671201
 20
142.6543003679329047
 30
0.0
 11
2807.5718579043218597
 21
142.6679068304200086
 31
0.0
  0
LINE
  5
37ACB
  8
0
 10
2807.5718579043218597
 20
142.6679068304200086
 30
0.0
 11
2807.5915429437482089
 21
142.6736756999102056
 31
0.0
  0
LINE
  5
37ACC
  8
0
 10
2807.5915429437468447
 20
142.6395106373630881
 30
0.0
 11
2807.6013854633979463
 21
142.6332445183635116
 31
0.0
  0
LINE
  5
37ACD
  8
0
 10
2807.6013854633979463
 20
142.6332445183635116
 30
0.0
 11
2807.5915429437309285
 21
142.6213866126109053
 31
0.0
  0
LINE
  5
37ACE
  8
0
 10
2807.5915429437309285
 20
142.6213866126109053
 30
0.0
 11
2807.5718579043232239
 21
142.615853736420604
 31
0.0
  0
LINE
  5
37ACF
  8
0
 10
2807.5718579043232239
 20
142.615853736420604
 30
0.0
 11
2807.5620153846771245
 21
142.6221103053331944
 31
0.0
  0
LINE
  5
37AD0
  8
0
 10
2807.5620153846771245
 20
142.6221103053331944
 30
0.0
 11
2807.5718579043477803
 21
142.6339091419864076
 31
0.0
  0
LINE
  5
37AD1
  8
0
 10
2807.5718579043477803
 20
142.6339091419864076
 30
0.0
 11
2807.5915429437468447
 21
142.6395106373630881
 31
0.0
  0
LINE
  5
37AD2
  8
0
 10
2807.6193817933481114
 20
142.6651689005338142
 30
0.0
 11
2807.6292243130201314
 21
142.6585344946782072
 31
0.0
  0
LINE
  5
37AD3
  8
0
 10
2807.6292243130201314
 20
142.6585344946782072
 30
0.0
 11
2807.619381793420871
 21
142.6451852444627946
 31
0.0
  0
LINE
  5
37AD4
  8
0
 10
2807.619381793420871
 20
142.6451852444627946
 30
0.0
 11
2807.599696754118213
 21
142.6380234341372955
 31
0.0
  0
LINE
  5
37AD5
  8
0
 10
2807.599696754118213
 20
142.6380234341372955
 30
0.0
 11
2807.5898542344198177
 21
142.6451690654228912
 31
0.0
  0
LINE
  5
37AD6
  8
0
 10
2807.5898542344198177
 20
142.6451690654228912
 30
0.0
 11
2807.5996967540468177
 21
142.6584314530140034
 31
0.0
  0
LINE
  5
37AD7
  8
0
 10
2807.5996967540468177
 20
142.6584314530140034
 30
0.0
 11
2807.6193817933481114
 21
142.6651689005338142
 31
0.0
  0
LINE
  5
37AD8
  8
0
 10
2807.6472206430480583
 20
142.6594180706337909
 30
0.0
 11
2807.65706316263595
 21
142.6541109033692862
 31
0.0
  0
LINE
  5
37AD9
  8
0
 10
2807.65706316263595
 20
142.6541109033692862
 30
0.0
 11
2807.647220643100809
 21
142.6410378687693878
 31
0.0
  0
LINE
  5
37ADA
  8
0
 10
2807.647220643100809
 20
142.6410378687693878
 30
0.0
 11
2807.6275356036480844
 21
142.6333897053337978
 31
0.0
  0
LINE
  5
37ADB
  8
0
 10
2807.6275356036480844
 20
142.6333897053337978
 30
0.0
 11
2807.6176930839960733
 21
142.638712142325204
 31
0.0
  0
LINE
  5
37ADC
  8
0
 10
2807.6176930839960733
 20
142.638712142325204
 30
0.0
 11
2807.6275356036230733
 21
142.6519745299164015
 31
0.0
  0
LINE
  5
37ADD
  8
0
 10
2807.6275356036230733
 20
142.6519745299164015
 30
0.0
 11
2807.6472206430480583
 21
142.6594180706337909
 31
0.0
  0
LINE
  5
37ADE
  8
0
 10
2807.6776937396411995
 20
142.6709374769596934
 30
0.0
 11
2807.6750594926647864
 21
142.6682274539898003
 31
0.0
  0
LINE
  5
37ADF
  8
0
 10
2807.6750594926647864
 20
142.6682274539898003
 30
0.0
 11
2807.6553744533789541
 21
142.6593235154464026
 31
0.0
  0
LINE
  5
37AE0
  8
0
 10
2807.6553744533789541
 20
142.6593235154464026
 30
0.0
 11
2807.6455319336960201
 21
142.6649876714631944
 31
0.0
  0
LINE
  5
37AE1
  8
0
 10
2807.6455319336960201
 20
142.6649876714631944
 30
0.0
 11
2807.6553744533480312
 21
142.6795497093337985
 31
0.0
  0
LINE
  5
37AE2
  8
0
 10
2807.6553744533480312
 20
142.6795497093337985
 30
0.0
 11
2807.6579932282102163
 21
142.6802731199666141
 31
0.0
  0
LINE
  5
37AE3
  8
0
 10
2807.6547649249528149
 20
142.6815896255855876
 30
0.0
 11
2807.6472206429989456
 21
142.6713574379334943
 31
0.0
  0
LINE
  5
37AE4
  8
0
 10
2807.6472206429989456
 20
142.6713574379334943
 30
0.0
 11
2807.6275356036958328
 21
142.6641956276081089
 31
0.0
  0
LINE
  5
37AE5
  8
0
 10
2807.6275356036958328
 20
142.6641956276081089
 30
0.0
 11
2807.6176930839978922
 21
142.671341258893591
 31
0.0
  0
LINE
  5
37AE6
  8
0
 10
2807.6176930839978922
 20
142.671341258893591
 30
0.0
 11
2807.6275356036480844
 21
142.6862095534386867
 31
0.0
  0
LINE
  5
37AE7
  8
0
 10
2807.6275356036480844
 20
142.6862095534386867
 30
0.0
 11
2807.6341804263688573
 21
142.6888165893271889
 31
0.0
  0
LINE
  5
37AE8
  8
0
 10
2807.6271826987749591
 20
142.6910254094904076
 30
0.0
 11
2807.619381793411776
 21
142.6789658934727072
 31
0.0
  0
LINE
  5
37AE9
  8
0
 10
2807.619381793411776
 20
142.6789658934727072
 30
0.0
 11
2807.5996967540468177
 21
142.6721419567338103
 31
0.0
  0
LINE
  5
37AEA
  8
0
 10
2807.5996967540468177
 20
142.6721419567338103
 30
0.0
 11
2807.5898542343338704
 21
142.6804594986687107
 31
0.0
  0
LINE
  5
37AEB
  8
0
 10
2807.5898542343338704
 20
142.6804594986687107
 30
0.0
 11
2807.5996967540190781
 21
142.6956832071439862
 31
0.0
  0
LINE
  5
37AEC
  8
0
 10
2807.5996967540190781
 20
142.6956832071439862
 30
0.0
 11
2807.6048266532070556
 21
142.6974279364769984
 31
0.0
  0
LINE
  5
37AED
  8
0
 10
2807.5982536675369374
 20
142.6991243599441077
 30
0.0
 11
2807.591542943684999
 21
142.6885346444074116
 31
0.0
  0
LINE
  5
37AEE
  8
0
 10
2807.591542943684999
 20
142.6885346444074116
 30
0.0
 11
2807.5718579042968486
 21
142.6826792851086907
 31
0.0
  0
LINE
  5
37AEF
  8
0
 10
2807.5718579042968486
 20
142.6826792851086907
 30
0.0
 11
2807.5620153846989524
 21
142.6923356340344071
 31
0.0
  0
LINE
  5
37AF0
  8
0
 10
2807.5620153846989524
 20
142.6923356340344071
 30
0.0
 11
2807.5703299024321495
 21
142.7054133794819961
 31
0.0
  0
LINE
  5
37AF1
  8
0
 10
2807.567020226160821
 20
142.7060618009817006
 30
0.0
 11
2807.5637040940468978
 21
142.7008881701337941
 31
0.0
  0
LINE
  5
37AF2
  8
0
 10
2807.5637040940468978
 20
142.7008881701337941
 30
0.0
 11
2807.5440190548388273
 21
142.6959759764222895
 31
0.0
  0
LINE
  5
37AF3
  8
0
 10
2807.5440190548388273
 20
142.6959759764222895
 30
0.0
 11
2807.5341765350908645
 21
142.707009438440906
 31
0.0
  0
LINE
  5
37AF4
  8
0
 10
2807.5341765350908645
 20
142.707009438440906
 30
0.0
 11
2807.5367998616170553
 21
142.7110519336146979
 31
0.0
  0
LINE
  5
37AF5
  8
0
 10
2807.486553795205964
 20
142.7165438371879134
 30
0.0
 11
2807.4801875451480555
 21
142.7066912582434099
 31
0.0
  0
LINE
  5
37AF6
  8
0
 10
2807.4801875451480555
 20
142.7066912582434099
 30
0.0
 11
2807.4605025057057901
 21
142.7047352768310873
 31
0.0
  0
LINE
  5
37AF7
  8
0
 10
2807.4605025057057901
 20
142.7047352768310873
 30
0.0
 11
2807.4506599860469578
 21
142.7181000738337957
 31
0.0
  0
LINE
  5
37AF8
  8
0
 10
2807.4506599860469578
 20
142.7181000738337957
 30
0.0
 11
2807.4510447445832142
 21
142.7186824538704002
 31
0.0
  0
LINE
  5
37AF9
  8
0
 10
2807.6733707832217988
 20
142.6340628679502913
 30
0.0
 11
2807.6832133030620753
 21
142.6314300903692072
 31
0.0
  0
LINE
  5
37AFA
  8
0
 10
2807.6832133030620753
 20
142.6314300903692072
 30
0.0
 11
2807.7028983422987949
 21
142.6413472298746967
 31
0.0
  0
LINE
  5
37AFB
  8
0
 10
2807.7028983422987949
 20
142.6413472298746967
 30
0.0
 11
2807.7094746366269646
 21
142.6496482621903112
 31
0.0
  0
LINE
  5
37AFC
  8
0
 10
2807.7017144378969533
 20
142.6558651038853895
 30
0.0
 11
2807.6832133028137832
 21
142.6465040861505997
 31
0.0
  0
LINE
  5
37AFD
  8
0
 10
2807.6832133028137832
 20
142.6465040861505997
 30
0.0
 11
2807.6733707835319365
 21
142.6340628678674136
 31
0.0
  0
LINE
  5
37AFE
  8
0
 10
2807.6849020123431728
 20
142.6525418995975087
 30
0.0
 11
2807.6750594927048041
 21
142.6564869546525927
 31
0.0
  0
LINE
  5
37AFF
  8
0
 10
2807.6750594927048041
 20
142.6564869546525927
 30
0.0
 11
2807.6553744532589008
 21
142.6476609675947884
 31
0.0
  0
LINE
  5
37B00
  8
0
 10
2807.6553744532589008
 20
142.6476609675947884
 30
0.0
 11
2807.6455319336250795
 21
142.6349783115122989
 31
0.0
  0
LINE
  5
37B01
  8
0
 10
2807.6455319336250795
 20
142.6349783115122989
 30
0.0
 11
2807.6584441069198874
 21
142.6399579092338001
 31
0.0
  0
LINE
  5
37B02
  8
0
 10
2807.6584441069198874
 20
142.6399579092338001
 30
0.0
 11
2807.66335293184693
 21
142.6344143234337878
 31
0.0
  0
LINE
  5
37B03
  8
0
 10
2807.66335293184693
 20
142.6344143234337878
 30
0.0
 11
2807.6750594926947997
 21
142.6397106908360968
 31
0.0
  0
LINE
  5
37B04
  8
0
 10
2807.6750594926947997
 20
142.6397106908360968
 30
0.0
 11
2807.6849020123431728
 21
142.6525418995975087
 31
0.0
  0
LINE
  5
37B05
  8
0
 10
2807.6292243130578754
 20
142.6286635997248027
 30
0.0
 11
2807.6193817933449282
 21
142.63364092591641
 31
0.0
  0
LINE
  5
37B06
  8
0
 10
2807.6193817933449282
 20
142.63364092591641
 30
0.0
 11
2807.5996967540181686
 21
142.6270657003296947
 31
0.0
  0
LINE
  5
37B07
  8
0
 10
2807.5996967540181686
 20
142.6270657003296947
 30
0.0
 11
2807.5898542342538349
 21
142.6155742227003884
 31
0.0
  0
LINE
  5
37B08
  8
0
 10
2807.5898542342538349
 20
142.6155742227003884
 30
0.0
 11
2807.6292243130578754
 21
142.6286635997248027
 31
0.0
  0
LINE
  5
37B09
  8
0
 10
2807.5735466137480216
 20
142.6110049167338047
 30
0.0
 11
2807.5637040940491715
 21
142.6169253654601903
 31
0.0
  0
LINE
  5
37B0A
  8
0
 10
2807.5637040940491715
 20
142.6169253654601903
 30
0.0
 11
2807.5440190547201382
 21
142.6123677325084032
 31
0.0
  0
LINE
  5
37B0B
  8
0
 10
2807.5440190547201382
 20
142.6123677325084032
 30
0.0
 11
2807.5341765349971865
 21
142.6019297980969043
 31
0.0
  0
LINE
  5
37B0C
  8
0
 10
2807.5341765349971865
 20
142.6019297980969043
 30
0.0
 11
2807.573546613734834
 21
142.6110049166958049
 31
0.0
  0
LINE
  5
37B0D
  8
0
 10
2807.5178689144909185
 20
142.5989561646092056
 30
0.0
 11
2807.5080263947470485
 21
142.6057704058748072
 31
0.0
  0
LINE
  5
37B0E
  8
0
 10
2807.5080263947470485
 20
142.6057704058748072
 30
0.0
 11
2807.488341355436205
 21
142.6030874642457036
 31
0.0
  0
LINE
  5
37B0F
  8
0
 10
2807.488341355436205
 20
142.6030874642457036
 30
0.0
 11
2807.4784988357469047
 21
142.5936131273338106
 31
0.0
  0
LINE
  5
37B10
  8
0
 10
2807.4784988357469047
 20
142.5936131273338106
 30
0.0
 11
2807.5178689144909185
 21
142.5989561646092056
 31
0.0
  0
LINE
  5
37B11
  8
0
 10
2807.4228211364229537
 20
142.5903821655118122
 30
0.0
 11
2807.4326636561090709
 21
142.5989488625625938
 31
0.0
  0
LINE
  5
37B12
  8
0
 10
2807.4326636561090709
 20
142.5989488625625938
 30
0.0
 11
2807.4523486954490181
 21
142.599834928077712
 31
0.0
  0
LINE
  5
37B13
  8
0
 10
2807.4523486954490181
 20
142.599834928077712
 30
0.0
 11
2807.4621912151478682
 21
142.5921468750337908
 31
0.0
  0
LINE
  5
37B14
  8
0
 10
2807.4621912151478682
 20
142.5921468750337908
 30
0.0
 11
2807.4228211364479648
 21
142.5903821655338106
 31
0.0
  0
LINE
  5
37B15
  8
0
 10
2807.7127408619858215
 20
142.6320619938400966
 30
0.0
 11
2807.7028983423469981
 21
142.6328684710337882
 31
0.0
  0
LINE
  5
37B16
  8
0
 10
2807.7028983423469981
 20
142.6328684710337882
 30
0.0
 11
2807.6832133027369309
 21
142.6229733582829908
 31
0.0
  0
LINE
  5
37B17
  8
0
 10
2807.6832133027369309
 20
142.6229733582829908
 30
0.0
 11
2807.6733707832167966
 21
142.612268728368889
 31
0.0
  0
LINE
  5
37B18
  8
0
 10
2807.6733707832167966
 20
142.612268728368889
 30
0.0
 11
2807.6832133029352008
 21
142.6113120145784023
 31
0.0
  0
LINE
  5
37B19
  8
0
 10
2807.6832133029352008
 20
142.6113120145784023
 30
0.0
 11
2807.7028983421519115
 21
142.6212071270562944
 31
0.0
  0
LINE
  5
37B1A
  8
0
 10
2807.7028983421519115
 20
142.6212071270562944
 30
0.0
 11
2807.7127408620449387
 21
142.6320619938375103
 31
0.0
  0
LINE
  5
37B1B
  8
0
 10
2807.7127408620322058
 20
142.6158846868137005
 30
0.0
 11
2807.702898342286062
 21
142.6149227843592087
 31
0.0
  0
LINE
  5
37B1C
  8
0
 10
2807.702898342286062
 20
142.6149227843592087
 30
0.0
 11
2807.6832133030438854
 21
142.6050056447606096
 31
0.0
  0
LINE
  5
37B1D
  8
0
 10
2807.6832133030438854
 20
142.6050056447606096
 30
0.0
 11
2807.6733707833300286
 21
142.595977078474192
 31
0.0
  0
LINE
  5
37B1E
  8
0
 10
2807.6733707833300286
 20
142.595977078474192
 30
0.0
 11
2807.6832133029479337
 21
142.5967569530338039
 31
0.0
  0
LINE
  5
37B1F
  8
0
 10
2807.6832133029479337
 20
142.5967569530338039
 30
0.0
 11
2807.7028983426080231
 21
142.6067446682014008
 31
0.0
  0
LINE
  5
37B20
  8
0
 10
2807.7028983426080231
 20
142.6067446682014008
 30
0.0
 11
2807.7127408620322058
 21
142.6158846868137005
 31
0.0
  0
LINE
  5
37B21
  8
0
 10
2807.6849020122431284
 20
142.5954132154060119
 30
0.0
 11
2807.6750594926979829
 21
142.5942433505375959
 31
0.0
  0
LINE
  5
37B22
  8
0
 10
2807.6750594926979829
 20
142.5942433505375959
 30
0.0
 11
2807.66335293184693
 21
142.588946983133809
 31
0.0
  0
LINE
  5
37B23
  8
0
 10
2807.66335293184693
 20
142.588946983133809
 30
0.0
 11
2807.6584441069480818
 21
142.5834033973337966
 31
0.0
  0
LINE
  5
37B24
  8
0
 10
2807.6584441069480818
 20
142.5834033973337966
 30
0.0
 11
2807.6457742427978701
 21
142.5780301314838141
 31
0.0
  0
LINE
  5
37B25
  8
0
 10
2807.6457742427978701
 20
142.5780301314838141
 30
0.0
 11
2807.6553744533480312
 21
142.5788709397338039
 31
0.0
  0
LINE
  5
37B26
  8
0
 10
2807.6553744533480312
 20
142.5788709397338039
 30
0.0
 11
2807.6750594925360929
 21
142.5876969266647905
 31
0.0
  0
LINE
  5
37B27
  8
0
 10
2807.6750594925360929
 20
142.5876969266647905
 30
0.0
 11
2807.6849020123831906
 21
142.5954132154282945
 31
0.0
  0
LINE
  5
37B28
  8
0
 10
2807.6849020123258924
 20
142.5877414492053958
 30
0.0
 11
2807.6750594926547819
 21
142.5846743243895958
 31
0.0
  0
LINE
  5
37B29
  8
0
 10
2807.6750594926547819
 20
142.5846743243895958
 30
0.0
 11
2807.6553744534980979
 21
142.5757703858367051
 31
0.0
  0
LINE
  5
37B2A
  8
0
 10
2807.6553744534980979
 20
142.5757703858367051
 30
0.0
 11
2807.6455319336541834
 21
142.5697731979904006
 31
0.0
  0
LINE
  5
37B2B
  8
0
 10
2807.6455319336541834
 20
142.5697731979904006
 30
0.0
 11
2807.6553744533180179
 21
142.572673892014592
 31
0.0
  0
LINE
  5
37B2C
  8
0
 10
2807.6553744533180179
 20
142.572673892014592
 30
0.0
 11
2807.6750594917848503
 21
142.5817380327997057
 31
0.0
  0
LINE
  5
37B2D
  8
0
 10
2807.6750594917848503
 20
142.5817380327997057
 30
0.0
 11
2807.6849020124031995
 21
142.5877414492549917
 31
0.0
  0
LINE
  5
37B2E
  8
0
 10
2807.6570631626800605
 20
142.5779393246299946
 30
0.0
 11
2807.6472206430480583
 21
142.5765276337338037
 31
0.0
  0
LINE
  5
37B2F
  8
0
 10
2807.6472206430480583
 20
142.5765276337338037
 30
0.0
 11
2807.6275356036139783
 21
142.5688794703879978
 31
0.0
  0
LINE
  5
37B30
  8
0
 10
2807.6275356036139783
 20
142.5688794703879978
 30
0.0
 11
2807.6176930838691987
 21
142.5625405635242089
 31
0.0
  0
LINE
  5
37B31
  8
0
 10
2807.6176930838691987
 20
142.5625405635242089
 30
0.0
 11
2807.6269772297901
 21
142.5637406010087034
 31
0.0
  0
LINE
  5
37B32
  8
0
 10
2807.6269772297901
 20
142.5637406010087034
 30
0.0
 11
2807.6472206430480583
 21
142.5715851480337903
 31
0.0
  0
LINE
  5
37B33
  8
0
 10
2807.6472206430480583
 20
142.5715851480337903
 30
0.0
 11
2807.6570631623640111
 21
142.5779393245846904
 31
0.0
  0
LINE
  5
37B34
  8
0
 10
2807.6292243131010764
 20
142.5715349155925082
 30
0.0
 11
2807.6193817933481114
 21
142.5681493327473106
 31
0.0
  0
LINE
  5
37B35
  8
0
 10
2807.6193817933481114
 20
142.5681493327473106
 30
0.0
 11
2807.5996967540468177
 21
142.5616093277824916
 31
0.0
  0
LINE
  5
37B36
  8
0
 10
2807.5996967540468177
 20
142.5616093277824916
 30
0.0
 11
2807.5898542342711153
 21
142.5584455386120908
 31
0.0
  0
LINE
  5
37B37
  8
0
 10
2807.5898542342711153
 20
142.5584455386120908
 30
0.0
 11
2807.599696754039087
 21
142.5582756723923978
 31
0.0
  0
LINE
  5
37B38
  8
0
 10
2807.599696754039087
 20
142.5582756723923978
 30
0.0
 11
2807.6193817933481114
 21
142.5648508980337965
 31
0.0
  0
LINE
  5
37B39
  8
0
 10
2807.6193817933481114
 20
142.5648508980337965
 30
0.0
 11
2807.629224313083796
 21
142.5715349156558887
 31
0.0
  0
LINE
  5
37B3A
  8
0
 10
2807.6570631627118928
 20
142.5729173353439023
 30
0.0
 11
2807.6472206430480583
 21
142.5682913518338069
 31
0.0
  0
LINE
  5
37B3B
  8
0
 10
2807.6472206430480583
 20
142.5682913518338069
 30
0.0
 11
2807.6275356036480844
 21
142.5605947644822891
 31
0.0
  0
LINE
  5
37B3C
  8
0
 10
2807.6275356036480844
 20
142.5605947644822891
 30
0.0
 11
2807.617693083397171
 21
142.557083890520687
 31
0.0
  0
LINE
  5
37B3D
  8
0
 10
2807.617693083397171
 20
142.557083890520687
 30
0.0
 11
2807.6275356031060255
 21
142.5617510822557108
 31
0.0
  0
LINE
  5
37B3E
  8
0
 10
2807.6275356031060255
 20
142.5617510822557108
 30
0.0
 11
2807.6472206430298684
 21
142.569585087018595
 31
0.0
  0
LINE
  5
37B3F
  8
0
 10
2807.6472206430298684
 20
142.569585087018595
 30
0.0
 11
2807.6570631636318467
 21
142.5729173356972979
 31
0.0
  0
LINE
  5
37B40
  8
0
 10
2807.422821136418861
 20
142.5242693528446978
 30
0.0
 11
2807.4326636560740553
 21
142.5266738684157133
 31
0.0
  0
LINE
  5
37B41
  8
0
 10
2807.4326636560740553
 20
142.5266738684157133
 30
0.0
 11
2807.4523486954340115
 21
142.5275663064876994
 31
0.0
  0
LINE
  5
37B42
  8
0
 10
2807.4523486954340115
 20
142.5275663064876994
 30
0.0
 11
2807.4621912151869765
 21
142.5260670891921109
 31
0.0
  0
LINE
  5
37B43
  8
0
 10
2807.4621912151869765
 20
142.5260670891921109
 30
0.0
 11
2807.4523486954731197
 21
142.5236960897269114
 31
0.0
  0
LINE
  5
37B44
  8
0
 10
2807.4523486954731197
 20
142.5236960897269114
 30
0.0
 11
2807.4326636568230242
 21
142.5227906524455932
 31
0.0
  0
LINE
  5
37B45
  8
0
 10
2807.4326636568230242
 20
142.5227906524455932
 30
0.0
 11
2807.4228211363870287
 21
142.5242693528238931
 31
0.0
  0
LINE
  5
37B46
  8
0
 10
2807.4228211364288654
 20
142.5332534815264864
 30
0.0
 11
2807.4326636560472252
 21
142.5336375928337986
 31
0.0
  0
LINE
  5
37B47
  8
0
 10
2807.4326636560472252
 20
142.5336375928337986
 30
0.0
 11
2807.4523486954481086
 21
142.5345194401338063
 31
0.0
  0
LINE
  5
37B48
  8
0
 10
2807.4523486954481086
 20
142.5345194401338063
 30
0.0
 11
2807.4621912151478682
 21
142.5350181909338119
 31
0.0
  0
LINE
  5
37B49
  8
0
 10
2807.4621912151478682
 20
142.5350181909338119
 30
0.0
 11
2807.4523486953457905
 21
142.5310449001109987
 31
0.0
  0
LINE
  5
37B4A
  8
0
 10
2807.4523486953457905
 20
142.5310449001109987
 30
0.0
 11
2807.4326636560472252
 21
142.5301588347338111
 31
0.0
  0
LINE
  5
37B4B
  8
0
 10
2807.4326636560472252
 20
142.5301588347338111
 30
0.0
 11
2807.4228211364288654
 21
142.5332534815264864
 31
0.0
  0
LINE
  5
37B4C
  8
0
 10
2807.4506599860778806
 20
142.5291065576197127
 30
0.0
 11
2807.4605025057480816
 21
142.5327494613337933
 31
0.0
  0
LINE
  5
37B4D
  8
0
 10
2807.4605025057480816
 20
142.5327494613337933
 30
0.0
 11
2807.4801875451480555
 21
142.5345245018727951
 31
0.0
  0
LINE
  5
37B4E
  8
0
 10
2807.4801875451480555
 20
142.5345245018727951
 30
0.0
 11
2807.4900300645999778
 21
142.5326768424820045
 31
0.0
  0
LINE
  5
37B4F
  8
0
 10
2807.4900300645999778
 20
142.5326768424820045
 30
0.0
 11
2807.4801875450930311
 21
142.5290573467281092
 31
0.0
  0
LINE
  5
37B50
  8
0
 10
2807.4801875450930311
 20
142.5290573467281092
 30
0.0
 11
2807.4605025058540377
 21
142.5272619427418874
 31
0.0
  0
LINE
  5
37B51
  8
0
 10
2807.4605025058540377
 20
142.5272619427418874
 30
0.0
 11
2807.450659985971015
 21
142.5291065576433027
 31
0.0
  0
LINE
  5
37B52
  8
0
 10
2807.4900300648341727
 20
142.5264505067790992
 30
0.0
 11
2807.4801875451221349
 21
142.5266278856310862
 31
0.0
  0
LINE
  5
37B53
  8
0
 10
2807.4801875451221349
 20
142.5266278856310862
 30
0.0
 11
2807.4605025057480816
 21
142.5248158630338082
 31
0.0
  0
LINE
  5
37B54
  8
0
 10
2807.4605025057480816
 20
142.5248158630338082
 30
0.0
 11
2807.4506599857968467
 21
142.5227940727833982
 31
0.0
  0
LINE
  5
37B55
  8
0
 10
2807.4506599857968467
 20
142.5227940727833982
 30
0.0
 11
2807.4605025057480816
 21
142.5226381745297886
 31
0.0
  0
LINE
  5
37B56
  8
0
 10
2807.4605025057480816
 20
142.5226381745297886
 30
0.0
 11
2807.480187546308116
 21
142.5244830113269927
 31
0.0
  0
LINE
  5
37B57
  8
0
 10
2807.480187546308116
 20
142.5244830113269927
 30
0.0
 11
2807.4900300650378995
 21
142.5264505067827088
 31
0.0
  0
LINE
  5
37B58
  8
0
 10
2807.4784988357009752
 20
142.5275609495633091
 30
0.0
 11
2807.4883413553479841
 21
142.5308424157468039
 31
0.0
  0
LINE
  5
37B59
  8
0
 10
2807.4883413553479841
 20
142.5308424157468039
 30
0.0
 11
2807.5080263947938874
 21
142.5335450186713899
 31
0.0
  0
LINE
  5
37B5A
  8
0
 10
2807.5080263947938874
 20
142.5335450186713899
 30
0.0
 11
2807.5178689144768214
 21
142.5330058947571104
 31
0.0
  0
LINE
  5
37B5B
  8
0
 10
2807.5178689144768214
 20
142.5330058947571104
 30
0.0
 11
2807.5080263952831956
 21
142.5297630288984863
 31
0.0
  0
LINE
  5
37B5C
  8
0
 10
2807.5080263952831956
 20
142.5297630288984863
 30
0.0
 11
2807.4883413553779974
 21
142.5270202961017958
 31
0.0
  0
LINE
  5
37B5D
  8
0
 10
2807.4883413553779974
 20
142.5270202961017958
 30
0.0
 11
2807.4784988357478142
 21
142.5275609495606943
 31
0.0
  0
LINE
  5
37B5E
  8
0
 10
2807.4784988356759641
 20
142.5364844432911866
 30
0.0
 11
2807.4883413557231506
 21
142.5342974362687016
 31
0.0
  0
LINE
  5
37B5F
  8
0
 10
2807.4883413557231506
 20
142.5342974362687016
 30
0.0
 11
2807.5080263945487786
 21
142.5369803779298934
 31
0.0
  0
LINE
  5
37B60
  8
0
 10
2807.5080263945487786
 20
142.5369803779298934
 30
0.0
 11
2807.517868914446808
 21
142.5418274805338115
 31
0.0
  0
LINE
  5
37B61
  8
0
 10
2807.517868914446808
 20
142.5418274805338115
 30
0.0
 11
2807.508026394747958
 21
142.5404237647020125
 31
0.0
  0
LINE
  5
37B62
  8
0
 10
2807.508026394747958
 20
142.5404237647020125
 30
0.0
 11
2807.4883413553479841
 21
142.5377561503337915
 31
0.0
  0
LINE
  5
37B63
  8
0
 10
2807.4883413553479841
 20
142.5377561503337915
 30
0.0
 11
2807.4784988356618669
 21
142.536484443294313
 31
0.0
  0
LINE
  5
37B64
  8
0
 10
2807.5063376853208865
 20
142.5349070637402917
 30
0.0
 11
2807.5161802050270126
 21
142.5394227762544972
 31
0.0
  0
LINE
  5
37B65
  8
0
 10
2807.5161802050270126
 20
142.5394227762544972
 30
0.0
 11
2807.5358652443751453
 21
142.5430229470746895
 31
0.0
  0
LINE
  5
37B66
  8
0
 10
2807.5358652443751453
 20
142.5430229470746895
 30
0.0
 11
2807.5457077639730414
 21
142.5421496524450902
 31
0.0
  0
LINE
  5
37B67
  8
0
 10
2807.5457077639730414
 20
142.5421496524450902
 30
0.0
 11
2807.5358652444720065
 21
142.5376551891498877
 31
0.0
  0
LINE
  5
37B68
  8
0
 10
2807.5358652444720065
 20
142.5376551891498877
 30
0.0
 11
2807.5161802050638471
 21
142.5340125219595109
 31
0.0
  0
LINE
  5
37B69
  8
0
 10
2807.5161802050638471
 20
142.5340125219595109
 30
0.0
 11
2807.5063376854441231
 21
142.5349070637923887
 31
0.0
  0
LINE
  5
37B6A
  8
0
 10
2807.5341765350199239
 20
142.5448011139592097
 30
0.0
 11
2807.5440190547478778
 21
142.5469878286671985
 31
0.0
  0
LINE
  5
37B6B
  8
0
 10
2807.5440190547478778
 20
142.5469878286671985
 30
0.0
 11
2807.5637040940468978
 21
142.5515224607893003
 31
0.0
  0
LINE
  5
37B6C
  8
0
 10
2807.5637040940468978
 20
142.5515224607893003
 30
0.0
 11
2807.5735466137939511
 21
142.5538762326044093
 31
0.0
  0
LINE
  5
37B6D
  8
0
 10
2807.5735466137939511
 20
142.5538762326044093
 30
0.0
 11
2807.5637040940928273
 21
142.548135337578799
 31
0.0
  0
LINE
  5
37B6E
  8
0
 10
2807.5637040940928273
 20
142.548135337578799
 30
0.0
 11
2807.5440190547478778
 21
142.5435777046338046
 31
0.0
  0
LINE
  5
37B6F
  8
0
 10
2807.5440190547478778
 20
142.5435777046338046
 30
0.0
 11
2807.53417653512588
 21
142.5448011139827997
 31
0.0
  0
LINE
  5
37B70
  8
0
 10
2807.5735466139180971
 20
142.5452922386272974
 30
0.0
 11
2807.5637040940468978
 21
142.544783888233809
 31
0.0
  0
LINE
  5
37B71
  8
0
 10
2807.5637040940468978
 20
142.544783888233809
 30
0.0
 11
2807.5440190546391932
 21
142.5401915426926962
 31
0.0
  0
LINE
  5
37B72
  8
0
 10
2807.5440190546391932
 20
142.5401915426926962
 30
0.0
 11
2807.5341765350181049
 21
142.5360371469664074
 31
0.0
  0
LINE
  5
37B73
  8
0
 10
2807.5341765350181049
 20
142.5360371469664074
 30
0.0
 11
2807.5440190546760277
 21
142.5365100281449884
 31
0.0
  0
LINE
  5
37B74
  8
0
 10
2807.5440190546760277
 20
142.5365100281449884
 30
0.0
 11
2807.5642499836308161
 21
142.5413842660971113
 31
0.0
  0
LINE
  5
37B75
  8
0
 10
2807.5642499836308161
 20
142.5413842660971113
 30
0.0
 11
2807.5735466139180971
 21
142.5452922386272974
 31
0.0
  0
LINE
  5
37B76
  8
0
 10
2807.562015384678034
 20
142.5459387264941995
 30
0.0
 11
2807.5718579044901162
 21
142.5513435014352979
 31
0.0
  0
LINE
  5
37B77
  8
0
 10
2807.5718579044901162
 20
142.5513435014352979
 30
0.0
 11
2807.5915429437040984
 21
142.5568763777284005
 31
0.0
  0
LINE
  5
37B78
  8
0
 10
2807.5915429437040984
 20
142.5568763777284005
 30
0.0
 11
2807.6013854633861229
 21
142.5570729396469005
 31
0.0
  0
LINE
  5
37B79
  8
0
 10
2807.6013854633861229
 20
142.5570729396469005
 30
0.0
 11
2807.5915429437131934
 21
142.5516777147539926
 31
0.0
  0
LINE
  5
37B7A
  8
0
 10
2807.5915429437131934
 20
142.5516777147539926
 30
0.0
 11
2807.5718579043091268
 21
142.5460762194389872
 31
0.0
  0
LINE
  5
37B7B
  8
0
 10
2807.5718579043091268
 20
142.5460762194389872
 30
0.0
 11
2807.5620153846521134
 21
142.5459387264947964
 31
0.0
  0
LINE
  5
37B7C
  8
0
 10
2807.6013854631578397
 20
142.5514684231702063
 30
0.0
 11
2807.5915429437031889
 21
142.5494676958286959
 31
0.0
  0
LINE
  5
37B7D
  8
0
 10
2807.5915429437031889
 20
142.5494676958286959
 30
0.0
 11
2807.5718579043477803
 21
142.5438100588698944
 31
0.0
  0
LINE
  5
37B7E
  8
0
 10
2807.5718579043477803
 20
142.5438100588698944
 30
0.0
 11
2807.5620153846512039
 21
142.5400429997582989
 31
0.0
  0
LINE
  5
37B7F
  8
0
 10
2807.5620153846512039
 20
142.5400429997582989
 30
0.0
 11
2807.5718579043477803
 21
142.5423811937617984
 31
0.0
  0
LINE
  5
37B80
  8
0
 10
2807.5718579043477803
 20
142.5423811937617984
 30
0.0
 11
2807.5915429437468447
 21
142.5482252991432119
 31
0.0
  0
LINE
  5
37B81
  8
0
 10
2807.5915429437468447
 20
142.5482252991432119
 30
0.0
 11
2807.6013854634347808
 21
142.551468423284291
 31
0.0
  0
LINE
  5
37B82
  8
0
 10
2807.5898542343320514
 20
142.5499545919867899
 30
0.0
 11
2807.5996967540081641
 21
142.5550036708067978
 31
0.0
  0
LINE
  5
37B83
  8
0
 10
2807.5996967540081641
 20
142.5550036708067978
 30
0.0
 11
2807.6193817934058643
 21
142.5616321148548025
 31
0.0
  0
LINE
  5
37B84
  8
0
 10
2807.6193817934058643
 20
142.5616321148548025
 30
0.0
 11
2807.6292243130587849
 21
142.5633200212404006
 31
0.0
  0
LINE
  5
37B85
  8
0
 10
2807.6292243130587849
 20
142.5633200212404006
 30
0.0
 11
2807.6193817932430647
 21
142.5582930832692909
 31
0.0
  0
LINE
  5
37B86
  8
0
 10
2807.6193817932430647
 20
142.5582930832692909
 30
0.0
 11
2807.5996967539999787
 21
142.5515556357273113
 31
0.0
  0
LINE
  5
37B87
  8
0
 10
2807.5996967539999787
 20
142.5515556357273113
 30
0.0
 11
2807.5898542343320514
 21
142.5499545919867899
 31
0.0
  0
LINE
  5
37B88
  8
0
 10
2807.6455319336600951
 20
142.6183185722551912
 30
0.0
 11
2807.6553744532798191
 21
142.6188348789453073
 31
0.0
  0
LINE
  5
37B89
  8
0
 10
2807.6553744532798191
 20
142.6188348789453073
 30
0.0
 11
2807.673041743765225
 21
142.6085304358477117
 31
0.0
  0
LINE
  5
37B8A
  8
0
 10
2807.673041743765225
 20
142.6085304358477117
 30
0.0
 11
2807.6750594926479607
 21
142.609457626333807
 31
0.0
  0
LINE
  5
37B8B
  8
0
 10
2807.6750594926479607
 20
142.609457626333807
 30
0.0
 11
2807.684902012404109
 21
142.6088689432573062
 31
0.0
  0
LINE
  5
37B8C
  8
0
 10
2807.684902012404109
 20
142.6088689432573062
 30
0.0
 11
2807.6750594927061684
 21
142.5994822451337996
 31
0.0
  0
LINE
  5
37B8D
  8
0
 10
2807.6750594927061684
 20
142.5994822451337996
 30
0.0
 11
2807.6714641660328198
 21
142.5978307683515141
 31
0.0
  0
LINE
  5
37B8E
  8
0
 10
2807.6714641660328198
 20
142.5978307683515141
 30
0.0
 11
2807.6553744533480312
 21
142.6071735352338123
 31
0.0
  0
LINE
  5
37B8F
  8
0
 10
2807.6553744533480312
 20
142.6071735352338123
 30
0.0
 11
2807.6455319336600951
 21
142.6183185722551912
 31
0.0
  0
LINE
  5
37B90
  8
0
 10
2807.639496420595151
 20
142.6177428354966139
 30
0.0
 11
2807.6472206430048573
 21
142.6137368716601941
 31
0.0
  0
LINE
  5
37B91
  8
0
 10
2807.6472206430048573
 20
142.6137368716601941
 30
0.0
 11
2807.6544670513007986
 21
142.6055230463354064
 31
0.0
  0
LINE
  5
37B92
  8
0
 10
2807.6544670513007986
 20
142.6055230463354064
 30
0.0
 11
2807.6709587504351475
 21
142.5959842499734975
 31
0.0
  0
LINE
  5
37B93
  8
0
 10
2807.6709587504351475
 20
142.5959842499734975
 30
0.0
 11
2807.6714641660328198
 21
142.5978307683515141
 31
0.0
  0
ARC
  5
37B94
  8
0
 10
2807.4189937389028273
 20
143.1500951128421946
 30
0.0
 40
0.6087078243529792
 50
288.6985123462230263
 51
294.4522185042881119
  0
ARC
  5
37B95
  8
0
 10
2807.4157837229899997
 20
143.159579507216705
 30
0.0
 40
0.6187207129880244
 50
277.0708317315293812
 51
288.6985123462230263
  0
ARC
  5
37B96
  8
0
 10
2807.4143460323048203
 20
143.171170082001197
 30
0.0
 40
0.6304001127303711
 50
270.0290078969783849
 51
277.0708317315293812
  0
LINE
  5
37B97
  8
0
 10
2807.6544670512480479
 20
142.5941756853337949
 30
0.0
 11
2807.6202891954480947
 21
142.5941756853337949
 31
0.0
  0
LINE
  5
37B98
  8
0
 10
2807.6202891954480947
 20
142.5941756853337949
 30
0.0
 11
2807.6202891954480947
 21
142.6106412770236886
 31
0.0
  0
LINE
  5
37B99
  8
0
 10
2807.6544670512480479
 20
142.5941756853337949
 30
0.0
 11
2807.6544670512480479
 21
142.6055230463962005
 31
0.0
  0
LINE
  5
37B9A
  8
0
 10
2807.6472206430480583
 20
142.5941756853337949
 30
0.0
 11
2807.6472206430480583
 21
142.6137368716379115
 31
0.0
  0
LINE
  5
37B9B
  8
0
 10
2807.6275356036480844
 20
142.5941756853337949
 30
0.0
 11
2807.6275356036480844
 21
142.6132346227051073
 31
0.0
  0
LINE
  5
37B9C
  8
0
 10
2807.5987893519481986
 20
142.6035451137310872
 30
0.0
 11
2807.5987893519481986
 21
142.5941756853337949
 31
0.0
  0
LINE
  5
37B9D
  8
0
 10
2807.5987893519481986
 20
142.5941756853337949
 30
0.0
 11
2807.5651563640308268
 21
142.5941756853337949
 31
0.0
  0
LINE
  5
37B9E
  8
0
 10
2807.5915429437468447
 20
142.5941756853337949
 30
0.0
 11
2807.5915429437468447
 21
142.6013509141357076
 31
0.0
  0
LINE
  5
37B9F
  8
0
 10
2807.5718579043477803
 20
142.5941756853337949
 30
0.0
 11
2807.5718579043477803
 21
142.595880495465309
 31
0.0
  0
LINE
  5
37BA0
  8
0
 10
2807.4326636561090709
 20
142.5989488625625938
 30
0.0
 11
2807.4326636561090709
 21
142.5908233429082088
 31
0.0
  0
LINE
  5
37BA1
  8
0
 10
2807.4523486954490181
 20
142.599834928077712
 30
0.0
 11
2807.4523486954490181
 21
142.591705697657801
 31
0.0
  0
LINE
  5
37BA2
  8
0
 10
2807.4326636560631414
 20
142.6102269980455901
 30
0.0
 11
2807.432691542547218
 21
142.6296672988916896
 31
0.0
  0
LINE
  5
37BA3
  8
0
 10
2807.4523486954572036
 20
142.6305719071511078
 30
0.0
 11
2807.4522709482039318
 21
142.6111146664837008
 31
0.0
  0
LINE
  5
37BA4
  8
0
 10
2807.4605025057480816
 20
142.5972596963434
 30
0.0
 11
2807.4605025057308012
 21
142.6150948653921091
 31
0.0
  0
LINE
  5
37BA5
  8
0
 10
2807.4801875451480555
 20
142.6168902692820097
 30
0.0
 11
2807.4800052234641043
 21
142.59901538678929
 31
0.0
  0
LINE
  5
37BA6
  8
0
 10
2807.488341355436205
 20
142.6030874642457036
 30
0.0
 11
2807.488341355436205
 21
142.5949488866529862
 31
0.0
  0
LINE
  5
37BA7
  8
0
 10
2807.5080263947470485
 20
142.6057704058748072
 30
0.0
 11
2807.5080263947470485
 21
142.5976204052824983
 31
0.0
  0
LINE
  5
37BA8
  8
0
 10
2807.4883413554161962
 20
142.6143955455270032
 30
0.0
 11
2807.4883413553479841
 21
142.6338961134337922
 31
0.0
  0
LINE
  5
37BA9
  8
0
 10
2807.5080263947747881
 20
142.6366388460695873
 30
0.0
 11
2807.5077859388347861
 21
142.6170612021655018
 31
0.0
  0
LINE
  5
37BAA
  8
0
 10
2807.4801875451480555
 20
142.6292239100338008
 30
0.0
 11
2807.4801875451148589
 21
142.6504017231515888
 31
0.0
  0
LINE
  5
37BAB
  8
0
 10
2807.4605025057198873
 20
142.6485568865410869
 30
0.0
 11
2807.4605025057248895
 21
142.6274118873024861
 31
0.0
  0
LINE
  5
37BAC
  8
0
 10
2807.4523486955090448
 20
142.6668410578600117
 30
0.0
 11
2807.4523486954481086
 21
142.6439483589338124
 31
0.0
  0
LINE
  5
37BAD
  8
0
 10
2807.4326636560472252
 20
142.6430326590729862
 30
0.0
 11
2807.4326636560472252
 21
142.6659054916634091
 31
0.0
  0
LINE
  5
37BAE
  8
0
 10
2807.4605025057321654
 20
142.6630533986316038
 30
0.0
 11
2807.4605436349170304
 21
142.6878176228240989
 31
0.0
  0
LINE
  5
37BAF
  8
0
 10
2807.4801875450980333
 20
142.6897332407961017
 30
0.0
 11
2807.4801875450980333
 21
142.6649236457662937
 31
0.0
  0
LINE
  5
37BB0
  8
0
 10
2807.4523486954481086
 20
142.7092214506556047
 30
0.0
 11
2807.4523486954481086
 21
142.6825022270338081
 31
0.0
  0
LINE
  5
37BB1
  8
0
 10
2807.4326636560472252
 20
142.681551455133814
 30
0.0
 11
2807.4326636560472252
 21
142.7082417207051037
 31
0.0
  0
LINE
  5
37BB2
  8
0
 10
2807.4883413553998253
 20
142.6859943028495934
 30
0.0
 11
2807.4883413553479841
 21
142.7128208655338142
 31
0.0
  0
LINE
  5
37BB3
  8
0
 10
2807.5080263947288586
 20
142.6888772569967898
 30
0.0
 11
2807.5080263947288586
 21
142.714539065774801
 31
0.0
  0
LINE
  5
37BB4
  8
0
 10
2807.5358652444479048
 20
142.6987814132747019
 30
0.0
 11
2807.5358652444479048
 21
142.6738873900420117
 31
0.0
  0
LINE
  5
37BB5
  8
0
 10
2807.5161802050470214
 20
142.6950340715337973
 30
0.0
 11
2807.5161802050470214
 21
142.6700881662337963
 31
0.0
  0
LINE
  5
37BB6
  8
0
 10
2807.5080263947320418
 20
142.6731126813735955
 30
0.0
 11
2807.508026394747958
 21
142.6500849879747079
 31
0.0
  0
LINE
  5
37BB7
  8
0
 10
2807.4883413554061917
 20
142.6473105491909905
 30
0.0
 11
2807.4883413553561695
 21
142.6702768059396931
 31
0.0
  0
LINE
  5
37BB8
  8
0
 10
2807.5161802049810831
 20
142.6559030791839859
 30
0.0
 11
2807.5161802049810831
 21
142.6342255402817898
 31
0.0
  0
LINE
  5
37BB9
  8
0
 10
2807.5358652444288055
 20
142.6379029201671074
 30
0.0
 11
2807.5358652444288055
 21
142.6592411334592896
 31
0.0
  0
LINE
  5
37BBA
  8
0
 10
2807.5440190547478778
 20
142.6569114283327053
 30
0.0
 11
2807.5440190547478778
 21
142.680093199387187
 31
0.0
  0
LINE
  5
37BBB
  8
0
 10
2807.5637040941378473
 20
142.6849216461602907
 30
0.0
 11
2807.5637040940468978
 21
142.6616308599338083
 31
0.0
  0
LINE
  5
37BBC
  8
0
 10
2807.5718579043218597
 20
142.6679068304200086
 30
0.0
 11
2807.5718579043477803
 21
142.646406083333801
 31
0.0
  0
LINE
  5
37BBD
  8
0
 10
2807.591542943740933
 20
142.6520637201566899
 30
0.0
 11
2807.5915429437482089
 21
142.6736756999102056
 31
0.0
  0
LINE
  5
37BBE
  8
0
 10
2807.6193817933481114
 20
142.6651689005338142
 30
0.0
 11
2807.619381793420871
 21
142.6451852444627946
 31
0.0
  0
LINE
  5
37BBF
  8
0
 10
2807.599696754118213
 20
142.6380234341372955
 30
0.0
 11
2807.599696754118213
 21
142.658431453038105
 31
0.0
  0
LINE
  5
37BC0
  8
0
 10
2807.5915429437468447
 20
142.6395106373630881
 30
0.0
 11
2807.5915429437309285
 21
142.6213866126109053
 31
0.0
  0
LINE
  5
37BC1
  8
0
 10
2807.5718579043232239
 20
142.615853736420604
 30
0.0
 11
2807.5718579043232239
 21
142.633909141957389
 31
0.0
  0
LINE
  5
37BC2
  8
0
 10
2807.5637040940519
 20
142.6283370178801988
 30
0.0
 11
2807.5637040940860061
 21
142.6480491353241007
 31
0.0
  0
LINE
  5
37BC3
  8
0
 10
2807.5440190547478778
 20
142.6433858454338122
 30
0.0
 11
2807.5440190547478778
 21
142.6237446723463904
 31
0.0
  0
LINE
  5
37BC4
  8
0
 10
2807.5358652444479048
 20
142.6254881117239108
 30
0.0
 11
2807.5358652444369909
 21
142.6075331819760947
 31
0.0
  0
LINE
  5
37BC5
  8
0
 10
2807.5161802050402002
 20
142.6039330112764958
 30
0.0
 11
2807.5161802050470214
 21
142.6218454446338058
 31
0.0
  0
LINE
  5
37BC6
  8
0
 10
2807.6275356036480844
 20
142.6333897053337978
 30
0.0
 11
2807.6275356036230733
 21
142.6519745299164015
 31
0.0
  0
LINE
  5
37BC7
  8
0
 10
2807.6472206430480583
 20
142.6594180706337909
 30
0.0
 11
2807.647220643100809
 21
142.6410378687693878
 31
0.0
  0
LINE
  5
37BC8
  8
0
 10
2807.6553744532589008
 20
142.6476609675947884
 30
0.0
 11
2807.6553744532589008
 21
142.6387740929988013
 31
0.0
  0
LINE
  5
37BC9
  8
0
 10
2807.66335293184693
 20
142.6344143234337878
 30
0.0
 11
2807.66335293184693
 21
142.6512381993782981
 31
0.0
  0
LINE
  5
37BCA
  8
0
 10
2807.6750594926947997
 20
142.6397106908360968
 30
0.0
 11
2807.6750594927048041
 21
142.6564869546525927
 31
0.0
  0
LINE
  5
37BCB
  8
0
 10
2807.6553744533789541
 20
142.6593235154464026
 30
0.0
 11
2807.6553744533480312
 21
142.6795497093337985
 31
0.0
  0
LINE
  5
37BCC
  8
0
 10
2807.6750594926647864
 20
142.6682274539898003
 30
0.0
 11
2807.6750594926647864
 21
142.6722809069370896
 31
0.0
  0
LINE
  5
37BCD
  8
0
 10
2807.6472206429989456
 20
142.6713574379334943
 30
0.0
 11
2807.6472206429989456
 21
142.6844336318673072
 31
0.0
  0
LINE
  5
37BCE
  8
0
 10
2807.6275356036480844
 20
142.6862095534386867
 30
0.0
 11
2807.6275356036958328
 21
142.6641956276081089
 31
0.0
  0
LINE
  5
37BCF
  8
0
 10
2807.619381793411776
 20
142.6789658934727072
 30
0.0
 11
2807.619381793411776
 21
142.6933717712728082
 31
0.0
  0
LINE
  5
37BD0
  8
0
 10
2807.5996967540468177
 20
142.6721419567338103
 30
0.0
 11
2807.5996967540190781
 21
142.6956832071439862
 31
0.0
  0
LINE
  5
37BD1
  8
0
 10
2807.591542943684999
 20
142.6885346444074116
 30
0.0
 11
2807.591542943684999
 21
142.7007706200674875
 31
0.0
  0
LINE
  5
37BD2
  8
0
 10
2807.5718579042968486
 20
142.6826792851086907
 30
0.0
 11
2807.5718579042968486
 21
142.7051071519223058
 31
0.0
  0
LINE
  5
37BD3
  8
0
 10
2807.5637040940468978
 20
142.7008881701337941
 30
0.0
 11
2807.5637040940468978
 21
142.7066911360579979
 31
0.0
  0
LINE
  5
37BD4
  8
0
 10
2807.5440190548388273
 20
142.6959759764222895
 30
0.0
 11
2807.5440190548388273
 21
142.7100111468629962
 31
0.0
  0
LINE
  5
37BD5
  8
0
 10
2807.6832133030620753
 20
142.6314300903692072
 30
0.0
 11
2807.6832133028137832
 21
142.6465040861505997
 31
0.0
  0
LINE
  5
37BD6
  8
0
 10
2807.7017144378969533
 20
142.6558651038853895
 30
0.0
 11
2807.7024706477031941
 21
142.6411317613192864
 31
0.0
  0
LINE
  5
37BD7
  8
0
 10
2807.7028983423469981
 20
142.6328684710337882
 30
0.0
 11
2807.7028983421519115
 21
142.6212071270562944
 31
0.0
  0
LINE
  5
37BD8
  8
0
 10
2807.6832133029352008
 20
142.6113120145784023
 30
0.0
 11
2807.6832133027369309
 21
142.6229733582829908
 31
0.0
  0
LINE
  5
37BD9
  8
0
 10
2807.7028983426080231
 20
142.6067446682014008
 30
0.0
 11
2807.702898342286062
 21
142.6149227843592087
 31
0.0
  0
LINE
  5
37BDA
  8
0
 10
2807.6832133030438854
 20
142.6050056447606096
 30
0.0
 11
2807.6838628124760362
 21
142.5968084170874022
 31
0.0
  0
LINE
  5
37BDB
  8
0
 10
2807.673041743765225
 20
142.6085304358477117
 30
0.0
 11
2807.6750594927061684
 21
142.5994822451337996
 31
0.0
  0
LINE
  5
37BDC
  8
0
 10
2807.6553744532798191
 20
142.6188348789453073
 30
0.0
 11
2807.6553744533480312
 21
142.6071735352338123
 31
0.0
  0
LINE
  5
37BDD
  8
0
 10
2807.6750594926979829
 20
142.5942433505375959
 30
0.0
 11
2807.6750594925360929
 21
142.5876969266647905
 31
0.0
  0
LINE
  5
37BDE
  8
0
 10
2807.6584441069480818
 20
142.5834033973337966
 30
0.0
 11
2807.6553744533480312
 21
142.5788709397338039
 31
0.0
  0
LINE
  5
37BDF
  8
0
 10
2807.6750594926547819
 20
142.5846743243895958
 30
0.0
 11
2807.6750594926547819
 21
142.5817380327997057
 31
0.0
  0
LINE
  5
37BE0
  8
0
 10
2807.6553744533180179
 20
142.572673892014592
 30
0.0
 11
2807.6553744534980979
 21
142.5757703858367051
 31
0.0
  0
LINE
  5
37BE1
  8
0
 10
2807.6472206430480583
 20
142.5765276337338037
 30
0.0
 11
2807.6472206430480583
 21
142.5715851480337903
 31
0.0
  0
LINE
  5
37BE2
  8
0
 10
2807.6472206430298684
 20
142.569585087018595
 30
0.0
 11
2807.6472206430480583
 21
142.5682913518338069
 31
0.0
  0
LINE
  5
37BE3
  8
0
 10
2807.6289408406669281
 20
142.5623103210376996
 30
0.0
 11
2807.6287639201809725
 21
142.5610750198324865
 31
0.0
  0
LINE
  5
37BE4
  8
0
 10
2807.6269772297901
 20
142.5637406010087034
 30
0.0
 11
2807.6275356036139783
 21
142.5688794703879978
 31
0.0
  0
LINE
  5
37BE5
  8
0
 10
2807.6193817933481114
 20
142.5648508980337965
 30
0.0
 11
2807.6193817933481114
 21
142.5681493327473106
 31
0.0
  0
LINE
  5
37BE6
  8
0
 10
2807.599696754039087
 20
142.5582756723923978
 30
0.0
 11
2807.5996967540468177
 21
142.5616093277824916
 31
0.0
  0
LINE
  5
37BE7
  8
0
 10
2807.6193817934058643
 20
142.5616321148548025
 30
0.0
 11
2807.6189484326719139
 21
142.5581447602671119
 31
0.0
  0
LINE
  5
37BE8
  8
0
 10
2807.5996967539999787
 20
142.5515556357273113
 30
0.0
 11
2807.5996967540081641
 21
142.5550036708067978
 31
0.0
  0
LINE
  5
37BE9
  8
0
 10
2807.5915429437131934
 20
142.5516777147539926
 30
0.0
 11
2807.5915429437040984
 21
142.5568763777284005
 31
0.0
  0
LINE
  5
37BEA
  8
0
 10
2807.5915429437031889
 20
142.5494676958286959
 30
0.0
 11
2807.5913180772590749
 21
142.5481585406556917
 31
0.0
  0
LINE
  5
37BEB
  8
0
 10
2807.5718579043091268
 20
142.5460762194389872
 30
0.0
 11
2807.5718579044901162
 21
142.5513435014352979
 31
0.0
  0
LINE
  5
37BEC
  8
0
 10
2807.5637040940928273
 20
142.548135337578799
 30
0.0
 11
2807.5637040940468978
 21
142.5515224607893003
 31
0.0
  0
LINE
  5
37BED
  8
0
 10
2807.5642499836308161
 20
142.5413842660971113
 30
0.0
 11
2807.5640734134099148
 21
142.5448029629876032
 31
0.0
  0
LINE
  5
37BEE
  8
0
 10
2807.5718579043477803
 20
142.5423811937617984
 30
0.0
 11
2807.5718579043477803
 21
142.5438100588698944
 31
0.0
  0
LINE
  5
37BEF
  8
0
 10
2807.5440190546760277
 20
142.5365100281449884
 30
0.0
 11
2807.5440190546391932
 21
142.5401915426926962
 31
0.0
  0
LINE
  5
37BF0
  8
0
 10
2807.5440190547478778
 20
142.5435777046338046
 30
0.0
 11
2807.5440190547478778
 21
142.5469878286671985
 31
0.0
  0
LINE
  5
37BF1
  8
0
 10
2807.5358652443751453
 20
142.5430229470746895
 30
0.0
 11
2807.5358652444720065
 21
142.5376551891498877
 31
0.0
  0
LINE
  5
37BF2
  8
0
 10
2807.5161802050638471
 20
142.5340125219595109
 30
0.0
 11
2807.5161802050270126
 21
142.5394227762544972
 31
0.0
  0
LINE
  5
37BF3
  8
0
 10
2807.5080263945487786
 20
142.5369803779298934
 30
0.0
 11
2807.5089338164079891
 21
142.540553178936193
 31
0.0
  0
LINE
  5
37BF4
  8
0
 10
2807.4883413557231506
 20
142.5342974362687016
 30
0.0
 11
2807.4883413553479841
 21
142.5377561503337915
 31
0.0
  0
LINE
  5
37BF5
  8
0
 10
2807.5080263952831956
 20
142.5297630288984863
 30
0.0
 11
2807.5082329340539218
 21
142.5335337054856097
 31
0.0
  0
LINE
  5
37BF6
  8
0
 10
2807.4883413553779974
 20
142.5270202961017958
 30
0.0
 11
2807.4878263161108407
 21
142.5307717048625022
 31
0.0
  0
LINE
  5
37BF7
  8
0
 10
2807.4801875450930311
 20
142.5290573467281092
 30
0.0
 11
2807.4811789159430191
 21
142.5343383995675879
 31
0.0
  0
LINE
  5
37BF8
  8
0
 10
2807.4613571570480417
 20
142.5273398925058075
 30
0.0
 11
2807.4608664062129719
 21
142.5327822749881079
 31
0.0
  0
LINE
  5
37BF9
  8
0
 10
2807.480187546308116
 20
142.5244830113269927
 30
0.0
 11
2807.4802261880199694
 21
142.5266271892207044
 31
0.0
  0
LINE
  5
37BFA
  8
0
 10
2807.4605025057480816
 20
142.5248158630338082
 30
0.0
 11
2807.4604680214201835
 21
142.5226387207362109
 31
0.0
  0
LINE
  5
37BFB
  8
0
 10
2807.4523486954731197
 20
142.5236960897269114
 30
0.0
 11
2807.4523595195801136
 21
142.5275667972096016
 31
0.0
  0
LINE
  5
37BFC
  8
0
 10
2807.4523486953457905
 20
142.5310449001109987
 30
0.0
 11
2807.4523486953457905
 21
142.5345194401292872
 31
0.0
  0
LINE
  5
37BFD
  8
0
 10
2807.4326636560472252
 20
142.5301588347338111
 30
0.0
 11
2807.4326636560472252
 21
142.5336375928337986
 31
0.0
  0
LINE
  5
37BFE
  8
0
 10
2807.4326636568230242
 20
142.5227906524455932
 30
0.0
 11
2807.4326636568230242
 21
142.5266738684157133
 31
0.0
  0
LINE
  5
37BFF
  8
0
 10
2807.4605025057480816
 20
142.704735276774386
 30
0.0
 11
2807.4605025057480816
 21
142.7182566410182858
 31
0.0
  0
LINE
  5
37C00
  8
0
 10
2807.4801875451480555
 20
142.7066912582434952
 30
0.0
 11
2807.4801875451480555
 21
142.717045547464096
 31
0.0
  0
ARC
  5
37C01
  8
0
 10
2807.6776255974441483
 20
142.6230143350709056
 30
0.0
 40
0.0736112512447167
 50
322.6302893819532756
 51
342.2449350437942144
  0
ARC
  5
37C02
  8
0
 10
2807.7130848074370988
 20
142.6116602965772984
 30
0.0
 40
0.0363786074567283
 50
342.2449350437942144
 51
17.2009506184396592
  0
ARC
  5
37C03
  8
0
 10
2807.6902257210917924
 20
142.6045838117127005
 30
0.0
 40
0.0603079715637114
 50
17.2009506184396592
 51
47.3787537262156135
  0
ARC
  5
37C04
  8
0
 10
2807.6094524108111727
 20
142.5168088450490984
 30
0.0
 40
0.1795923897688573
 50
47.3787537262156135
 51
71.7316920359676544
  0
ARC
  5
37C05
  8
0
 10
2807.4709038697851611
 20
142.1561089391886128
 30
0.0
 40
0.5658455314144009
 50
69.858312760445628
 51
82.3366220000965967
  0
ARC
  5
37C06
  8
0
 10
2807.4184456105799654
 20
141.8282773918870134
 30
0.0
 40
0.8977826631218754
 50
81.8086702407419182
 51
88.3271364592363852
  0
ARC
  5
37C07
  8
0
 10
2807.3722225609421912
 20
138.5705678158379897
 30
0.0
 40
4.1557408710364392
 50
89.0013211967336844
 51
89.4148273291195324
  0
ARC
  5
37C08
  8
0
 10
2807.4147212358029719
 20
141.7461188535388885
 30
0.0
 40
0.990469311277944
 50
85.8229967911838543
 51
90.0032418936479957
  0
ARC
  5
37C09
  8
0
 10
2807.426684266709799
 20
141.9099244370734141
 30
0.0
 40
0.826227467323404
 50
76.4227806918500647
 51
85.8229967911838543
  0
ARC
  5
37C0A
  8
0
 10
2807.5337380767919058
 20
142.3532029318288039
 30
0.0
 40
0.3702051628627704
 50
61.1115438063074166
 51
76.4227806918500647
  0
ARC
  5
37C0B
  8
0
 10
2807.6579956087989558
 20
142.5784022901416108
 30
0.0
 40
0.1129996317308431
 50
37.3583442472189233
 51
61.1115438063074166
  0
ARC
  5
37C0C
  8
0
 10
2807.710375848816966
 20
142.6183896983206125
 30
0.0
 40
0.0471006001959996
 50
1.159434250984825
 51
37.3583442472189233
  0
ARC
  5
37C0D
  8
0
 10
2807.7202623658031371
 20
142.6185897886485918
 30
0.0
 40
0.0372120586324426
 50
337.9530071171835175
 51
1.159434250984825
  0
ARC
  5
37C0E
  8
0
 10
2807.6891614322698842
 20
142.6311850635829899
 30
0.0
 40
0.070766626388609
 50
328.5365490757733937
 51
337.9530071171835175
  0
ARC
  5
37C0F
  8
0
 10
2807.4385022122019109
 20
142.7845693762685073
 30
0.0
 40
0.3646318880013919
 50
327.6308588436176024
 51
328.5365490757733937
  0
ARC
  5
37C10
  8
0
 10
2806.496874409972861
 20
138.787848528924286
 30
0.0
 40
0.0228322400220585
 50
186.5009542965528908
 51
260.6152907619762118
  0
LINE
  5
37C11
  8
0
 10
2806.4931513240480854
 20
138.7653218821338044
 30
0.0
 11
2808.3356585430478845
 21
138.7653218821338044
 31
0.0
  0
ARC
  5
37C12
  8
0
 10
2808.3356627417510936
 20
138.7850069279010938
 30
0.0
 40
0.0196850462150532
 50
269.987779150792278
 51
352.4981746061175727
  0
ARC
  5
37C13
  8
0
 10
2808.336134851927909
 20
138.7453878207240052
 30
0.0
 40
0.0199393533243138
 50
12.2636702184391595
 51
90.0458337157090227
  0
ARC
  5
37C14
  8
0
 10
2806.4930513158519716
 20
138.7457875286432056
 30
0.0
 40
0.0195346094901819
 50
89.7066707397915479
 51
172.251316912047713
  0
ARC
  5
37C15
  8
0
 10
2807.4130025221811593
 20
141.4870248228448872
 30
0.0
 40
1.3668473428490331
 50
89.9303038012855041
 51
97.8310405859452032
  0
ARC
  5
37C16
  8
0
 10
2807.3556660757280952
 20
141.9039112628796033
 30
0.0
 40
0.9460364922561278
 50
97.8310405859452032
 51
107.3238710688295043
  0
ARC
  5
37C17
  8
0
 10
2807.2010618994631841
 20
142.3995607116677036
 30
0.0
 40
0.4268343857481641
 50
107.3238710688295043
 51
120.4301346095751057
  0
ARC
  5
37C18
  8
0
 10
2807.0301701191929169
 20
142.6771748547903087
 30
0.0
 40
0.1011328307557916
 50
116.6071502852937982
 51
161.806883114078488
  0
ARC
  5
37C19
  8
0
 10
2807.012552086058804
 20
142.6977418532499087
 30
0.0
 40
0.0792276919967588
 50
172.0128450817333885
 51
238.1146915754412987
  0
ARC
  5
37C1A
  8
0
 10
2807.1790030368620137
 20
142.9136413625479918
 30
0.0
 40
0.3515333820053195
 50
233.6619182493766118
 51
257.3457190491698725
  0
ARC
  5
37C1B
  8
0
 10
2807.0331036594811849
 20
142.7403675751262995
 30
0.0
 40
0.103936276143888
 50
197.7097699325281894
 51
240.1585109858997953
  0
ARC
  5
37C1C
  8
0
 10
2807.4456267315208606
 20
143.4594655310023938
 30
0.0
 40
0.9329580823165294
 50
240.1585109858997953
 51
246.3716816153435047
  0
ARC
  5
37C1D
  8
0
 10
2807.0082118730911134
 20
142.6781474491131974
 30
0.0
 40
0.0859986478809472
 50
125.8782900215659026
 51
175.0099461081493928
  0
ARC
  5
37C1E
  8
0
 10
2807.0048175468559748
 20
142.6914979156840104
 30
0.0
 40
0.0824875015543278
 50
184.0807919332339964
 51
231.3691284017558019
  0
ARC
  5
37C1F
  8
0
 10
2807.1787719029630352
 20
142.9106523896882948
 30
0.0
 40
0.3622885120232171
 50
231.5158713998411883
 51
255.0093553818634859
  0
ARC
  5
37C20
  8
0
 10
2807.3144681308331201
 20
143.3096625082106925
 30
0.0
 40
0.7833148624557117
 50
252.9703853993715938
 51
257.2296953304311273
  0
ARC
  5
37C21
  8
0
 10
2807.1723285550860965
 20
143.0000281717088058
 30
0.0
 40
0.4959107820867599
 50
247.3840638775922116
 51
267.8701050409206914
  0
ARC
  5
37C22
  8
0
 10
2807.3031941925078172
 20
144.7635851978317021
 30
0.0
 40
2.264053012154255
 50
266.2190572492705769
 51
271.0555997757313094
  0
ARC
  5
37C23
  8
0
 10
2807.7615139420149717
 20
142.7255036145226086
 30
0.0
 40
0.202510179462958
 50
295.1896114998273219
 51
344.7218738169154904
  0
ARC
  5
37C24
  8
0
 10
2807.020202364816214
 20
142.9793981858948086
 30
0.0
 40
0.9857725561521986
 50
341.8387993678751968
 51
0.8947929822956123
  0
ARC
  5
37C25
  8
0
 10
2807.412633427952187
 20
141.2505792934099986
 30
0.0
 40
1.630843170283282
 50
84.4752641418596824
 51
89.9286187572387661
  0
ARC
  5
37C26
  8
0
 10
2807.469800915399901
 20
141.773569407788699
 30
0.0
 40
1.104798082030596
 50
73.1420775426478826
 51
84.8149965450493113
  0
ARC
  5
37C27
  8
0
 10
2807.6365768776868208
 20
142.3356913858673067
 30
0.0
 40
0.518478527428696
 50
62.2704560438119969
 51
72.7656872576534255
  0
ARC
  5
37C28
  8
0
 10
2807.7769675873728374
 20
142.5974650811891991
 30
0.0
 40
0.2214586642810453
 50
43.0667521143163583
 51
62.9080735984038526
  0
ARC
  5
37C29
  8
0
 10
2807.8745847140298793
 20
142.68940414012161
 30
0.0
 40
0.0873645288106581
 50
13.1425466139238907
 51
42.7329200296648395
  0
ARC
  5
37C2A
  8
0
 10
2807.8873983070220675
 20
142.6960376984415007
 30
0.0
 40
0.0734639010284115
 50
341.017337698740107
 51
10.3756313781074905
  0
ARC
  5
37C2B
  8
0
 10
2807.4163278645141872
 20
141.4870248228448872
 30
0.0
 40
1.3668473428490331
 50
82.1689594140547968
 51
90.0696961987144959
  0
ARC
  5
37C2C
  8
0
 10
2807.560007475322891
 20
142.266473975512497
 30
0.0
 40
0.5762248349959127
 50
60.4199361658355798
 51
85.7646237671109333
  0
ARC
  5
37C2D
  8
0
 10
2807.7991602675028844
 20
142.6771748547903087
 30
0.0
 40
0.1011328307557916
 50
18.1931168859214907
 51
63.3928497147061378
  0
ARC
  5
37C2E
  8
0
 10
2807.8167783006360878
 20
142.6977418532499087
 30
0.0
 40
0.0792276919967588
 50
301.8853084245586729
 51
7.9871549182666071
  0
ARC
  5
37C2F
  8
0
 10
2807.6503273498337876
 20
142.9136413625479918
 30
0.0
 40
0.3515333820053195
 50
282.6542809508300138
 51
306.3380817506234166
  0
ARC
  5
37C30
  8
0
 10
2807.7962267272141617
 20
142.7403675751262995
 30
0.0
 40
0.103936276143888
 50
299.8414890141002047
 51
342.2902300674717821
  0
ARC
  5
37C31
  8
0
 10
2807.3837036551749406
 20
143.4594655310023938
 30
0.0
 40
0.9329580823165294
 50
293.6283183846564953
 51
299.8414890141002047
  0
ARC
  5
37C32
  8
0
 10
2807.8211185136037784
 20
142.6781474491131974
 30
0.0
 40
0.0859986478809472
 50
4.990053891850537
 51
54.1217099784340618
  0
ARC
  5
37C33
  8
0
 10
2807.824512839838917
 20
142.6914979156840104
 30
0.0
 40
0.0824875015543278
 50
308.6308715982441981
 51
355.9192080667659752
  0
ARC
  5
37C34
  8
0
 10
2807.6505584837318565
 20
142.9106523896882948
 30
0.0
 40
0.3622885120232171
 50
284.9906446181365141
 51
308.4841286001588969
  0
ARC
  5
37C35
  8
0
 10
2807.5148622558622264
 20
143.3096625082106925
 30
0.0
 40
0.7833148624557117
 50
282.7703046695688727
 51
287.0296146006284062
  0
ARC
  5
37C36
  8
0
 10
2807.6570018316087953
 20
143.0000281717088058
 30
0.0
 40
0.4959107820867599
 50
272.1298949590793086
 51
292.6159361224077884
  0
ARC
  5
37C37
  8
0
 10
2807.5261361941879841
 20
144.7635851978317021
 30
0.0
 40
2.264053012154255
 50
268.8524941731391209
 51
273.7809427507293094
  0
ARC
  5
37C38
  8
0
 10
2756.9864676052861796
 20
145.2007556414152987
 30
0.0
 40
51.0670552735280765
 50
357.5242018328269751
 51
357.9981182609765256
  0
ENDSEC
  0
EOF
