  0
SECTION
  2
HEADER
  9
$ACADVER
  1
AC1009
  9
$INSBASE
 10
2790.7255391916869485
 20
147.2527928166113895
 30
0.0
  9
$EXTMIN
 10
2789.7412489507719329
 20
142.4153360439813127
 30
0.0
  9
$EXTMAX
 10
2791.7098294326019641
 20
148.3155679501973907
 30
0.0
  9
$LIMMIN
 10
0.0
 20
0.0
  9
$LIMMAX
 10
11.6929133858000007
 20
8.2677165353999982
  9
$ORTHOMODE
 70
     1
  9
$REGENMODE
 70
     1
  9
$FILLMODE
 70
     1
  9
$QTEXTMODE
 70
     0
  9
$MIRRTEXT
 70
     0
  9
$DRAGMODE
 70
     2
  9
$LTSCALE
 40
0.6431102362
  9
$OSMODE
 70
  2039
  9
$ATTMODE
 70
     1
  9
$TEXTSIZE
 40
0.2
  9
$TRACEWID
 40
0.05
  9
$TEXTSTYLE
  7
STANDARD
  9
$CLAYER
  8
0
  9
$CELTYPE
  6
BYLAYER
  9
$CECOLOR
 62
   256
  9
$DIMSCALE
 40
1.0
  9
$DIMASZ
 40
0.1875
  9
$DIMEXO
 40
0.0625
  9
$DIMDLI
 40
0.4443307087
  9
$DIMRND
 40
0.0
  9
$DIMDLE
 40
0.0
  9
$DIMEXE
 40
0.125
  9
$DIMTP
 40
0.01
  9
$DIMTM
 40
0.01
  9
$DIMTXT
 40
2.0
  9
$DIMCEN
 40
0.1052362205
  9
$DIMTSZ
 40
0.0
  9
$DIMTOL
 70
     1
  9
$DIMLIM
 70
     0
  9
$DIMTIH
 70
     1
  9
$DIMTOH
 70
     1
  9
$DIMSE1
 70
     0
  9
$DIMSE2
 70
     0
  9
$DIMTAD
 70
     0
  9
$DIMZIN
 70
     0
  9
$DIMBLK
  1

  9
$DIMASO
 70
     1
  9
$DIMSHO
 70
     1
  9
$DIMPOST
  1
\X
  9
$DIMAPOST
  1

  9
$DIMALT
 70
     1
  9
$DIMALTD
 70
     2
  9
$DIMALTF
 40
25.3999999999999986
  9
$DIMLFAC
 40
1.0
  9
$DIMTOFL
 70
     0
  9
$DIMTVP
 40
0.0
  9
$DIMTIX
 70
     0
  9
$DIMSOXD
 70
     0
  9
$DIMSAH
 70
     0
  9
$DIMBLK1
  1

  9
$DIMBLK2
  1

  9
$DIMSTYLE
  2
STANDARD
  9
$DIMCLRD
 70
     0
  9
$DIMCLRE
 70
     0
  9
$DIMCLRT
 70
     0
  9
$DIMTFAC
 40
1.0
  9
$DIMGAP
 40
0.09
  9
$LUNITS
 70
     2
  9
$LUPREC
 70
     4
  9
$SKETCHINC
 40
0.1
  9
$FILLETRAD
 40
0.0
  9
$AUNITS
 70
     0
  9
$AUPREC
 70
     0
  9
$MENU
  1
.
  9
$ELEVATION
 40
0.0
  9
$PELEVATION
 40
0.0
  9
$THICKNESS
 40
0.0
  9
$LIMCHECK
 70
     0
  9
$BLIPMODE
 70
     0
  9
$CHAMFERA
 40
0.0
  9
$CHAMFERB
 40
0.0
  9
$SKPOLY
 70
     0
  9
$TDCREATE
 40
2458060.468368056230247
  9
$TDUPDATE
 40
2459332.8595833331346512
  9
$TDINDWG
 40
0.6707478009
  9
$TDUSRTIMER
 40
0.6707478009
  9
$USRTIMER
 70
     1
  9
$ANGBASE
 50
0.0
  9
$ANGDIR
 70
     0
  9
$PDMODE
 70
     0
  9
$PDSIZE
 40
0.3125
  9
$PLINEWID
 40
0.0
  9
$COORDS
 70
     1
  9
$SPLFRAME
 70
     0
  9
$SPLINETYPE
 70
     6
  9
$SPLINESEGS
 70
     8
  9
$ATTDIA
 70
     1
  9
$ATTREQ
 70
     1
  9
$HANDLING
 70
     1
  9
$HANDSEED
  5
3487D
  9
$SURFTAB1
 70
     6
  9
$SURFTAB2
 70
     6
  9
$SURFTYPE
 70
     6
  9
$SURFU
 70
     6
  9
$SURFV
 70
     6
  9
$UCSNAME
  2

  9
$UCSORG
 10
0.0
 20
0.0
 30
0.0
  9
$UCSXDIR
 10
1.0
 20
0.0
 30
0.0
  9
$UCSYDIR
 10
0.0
 20
1.0
 30
0.0
  9
$PUCSNAME
  2

  9
$PUCSORG
 10
0.0
 20
0.0
 30
0.0
  9
$PUCSXDIR
 10
1.0
 20
0.0
 30
0.0
  9
$PUCSYDIR
 10
0.0
 20
1.0
 30
0.0
  9
$USERI1
 70
     0
  9
$USERI2
 70
     0
  9
$USERI3
 70
     0
  9
$USERI4
 70
     0
  9
$USERI5
 70
     0
  9
$USERR1
 40
0.0
  9
$USERR2
 40
0.0
  9
$USERR3
 40
0.0
  9
$USERR4
 40
0.0
  9
$USERR5
 40
0.0
  9
$WORLDVIEW
 70
     1
  9
$SHADEDGE
 70
     3
  9
$SHADEDIF
 70
    70
  9
$TILEMODE
 70
     1
  9
$MAXACTVP
 70
    64
  9
$PLIMCHECK
 70
     0
  9
$PEXTMIN
 10
1.0000000000000000E+20
 20
1.0000000000000000E+20
 30
1.0000000000000000E+20
  9
$PEXTMAX
 10
-1.0000000000000000E+20
 20
-1.0000000000000000E+20
 30
-1.0000000000000000E+20
  9
$PLIMMIN
 10
0.0
 20
0.0
  9
$PLIMMAX
 10
12.0
 20
9.0
  9
$UNITMODE
 70
     0
  9
$VISRETAIN
 70
     1
  9
$PLINEGEN
 70
     0
  9
$PSLTSCALE
 70
     1
  0
ENDSEC
  0
SECTION
  2
TABLES
  0
TABLE
  2
VPORT
 70
     1
  0
VPORT
  2
*ACTIVE
 70
     0
 10
0.0
 20
0.0
 11
1.0
 21
1.0
 12
-512.9675760426880515
 22
-49.8960595787983721
 13
0.0
 23
0.0
 14
1.0
 24
1.0
 15
0.0
 25
0.0
 16
0.0
 26
0.0
 36
96.5995694866707311
 17
3303.693115234375
 27
195.2615115758877096
 37
0.0
 40
5.9493323104287859
 41
2.6486111111111108
 42
50.0
 43
0.0
 44
0.0
 50
0.0
 51
0.0
 71
     0
 72
   100
 73
     1
 74
     1
 75
     0
 76
     0
 77
     0
 78
     0
  0
ENDTAB
  0
TABLE
  2
LTYPE
 70
     2
  0
LTYPE
  2
CONTINUOUS
 70
     0
  3
Solid line
 72
    65
 73
     0
 40
0.0
  0
LTYPE
  2
PHANTOM2
 70
     0
  3
___ _ _ ___ _ _ ___ _ _ ___ _ _
 72
    65
 73
     6
 40
1.25
 49
0.625
 49
-0.125
 49
0.125
 49
-0.125
 49
0.125
 49
-0.125
  0
ENDTAB
  0
TABLE
  2
LAYER
 70
     2
  0
LAYER
  2
0
 70
     0
 62
   255
  6
CONTINUOUS
  0
LAYER
  2
DEFPOINTS
 70
     0
 62
     7
  6
CONTINUOUS
  0
ENDTAB
  0
TABLE
  2
STYLE
 70
     1
  0
STYLE
  2
STANDARD
 70
     0
 40
0.0
 41
0.8
 50
0.0
 71
     0
 42
0.2
  3
txt
  4

  0
ENDTAB
  0
TABLE
  2
VIEW
 70
     0
  0
ENDTAB
  0
TABLE
  2
UCS
 70
     0
  0
ENDTAB
  0
TABLE
  2
APPID
 70
     9
  0
APPID
  2
ACAD
 70
     0
  0
APPID
  2
ACAD_MLEADERVER
 70
     0
  0
APPID
  2
ACAD_EXEMPT_FROM_CAD_STANDARDS
 70
     0
  0
APPID
  2
ACAD_NAV_VCDISPLAY
 70
     0
  0
APPID
  2
ACAECLAYERSTANDARD
 70
     0
  0
APPID
  2
ACCMTRANSPARENCY
 70
     0
  0
APPID
  2
ACAD_DSTYLE_DIMJAG
 70
     0
  0
APPID
  2
ACAD_DSTYLE_DIMTALN
 70
     0
  0
APPID
  2
ACDBATTR
 70
     0
  0
ENDTAB
  0
TABLE
  2
DIMSTYLE
 70
     1
  0
DIMSTYLE
  2
STANDARD
 70
     0
  3

  4

  5

  6

  7

 40
1.0
 41
0.1875
 42
0.0625
 43
0.38
 44
0.125
 45
0.0
 46
0.0
 47
0.01
 48
0.01
140
0.15625
141
0.09
142
0.0
143
25.3999999999999986
144
1.0
145
0.0
146
1.0
147
0.09
 71
     1
 72
     0
 73
     1
 74
     1
 75
     0
 76
     0
 77
     0
 78
     4
170
     0
171
     2
172
     0
173
     0
174
     0
175
     0
176
     0
177
     0
178
     0
  0
ENDTAB
  0
ENDSEC
  0
SECTION
  2
BLOCKS
  0
BLOCK
  8
0
  2
$MODEL_SPACE
 70
     0
 10
0.0
 20
0.0
 30
0.0
  3
$MODEL_SPACE
  1

  0
ENDBLK
  5
21
  8
0
  0
BLOCK
 67
     1
  8
0
  2
$PAPER_SPACE
 70
     0
 10
0.0
 20
0.0
 30
0.0
  3
$PAPER_SPACE
  1

  0
ENDBLK
  5
1D
 67
     1
  8
0
  0
BLOCK
  8
0
  2
_FILLED
 70
     0
 10
0.0
 20
0.0
 30
0.0
  3
_FILLED
  1

  0
SOLID
  5
2ABDA
  8
0
  6
BYBLOCK
 62
     0
 10
0.0
 20
0.0
 30
0.0
 11
-1.0
 21
0.1666666667
 31
0.0
 12
-1.0
 22
-0.1666666667
 32
0.0
 13
-1.0
 23
-0.1666666667
 33
0.0
  0
ENDBLK
  5
2ABDB
  8
0
  6
BYBLOCK
 62
     0
  0
ENDSEC
  0
SECTION
  2
ENTITIES
  0
ATTDEF
  5
340AF
  8
DEFPOINTS
 10
2790.7261225288921196
 20
147.2572898627659868
 30
0.0
 40
0.001
  1
K-33059T-4CD
  3

  2
MODELNUMBER
 70
     0
1001
ACDBATTR
1070
     0
1070
     1
  0
ATTDEF
  5
340B0
  8
DEFPOINTS
 10
2790.7261225288921196
 20
147.2556231960992932
 30
0.0
 40
0.001
  1

  3

  2
TRADENAME
 70
     0
1001
ACDBATTR
1070
     0
1070
     1
  0
ATTDEF
  5
340B1
  8
DEFPOINTS
 10
2790.7261225288921196
 20
147.2539565294325996
 30
0.0
 40
0.001
  1
BATHROOM SINK FAUCET
  3

  2
PRODUCT
 70
     0
1001
ACDBATTR
1070
     0
1070
     1
  0
ARC
  5
34479
  8
0
 10
2790.7343864930339805
 20
147.2761515934593888
 30
0.0
 40
0.8625016717417983
 50
90.5877344171243948
 51
102.9917391217005047
  0
ARC
  5
3447A
  8
0
 10
2790.7338220266151438
 20
147.2918099477728049
 30
0.0
 40
0.8471224412427837
 50
103.1926276509537956
 51
131.4089127527734036
  0
ARC
  5
3447B
  8
0
 10
2790.8489644799788039
 20
147.1612474192436082
 30
0.0
 40
1.02120391189059
 50
131.4089127527734036
 51
165.3883281773211138
  0
ARC
  5
3447C
  8
0
 10
2791.0046047178821027
 20
147.1206723151398137
 30
0.0
 40
1.1820461411947381
 50
165.3883281773211138
 51
188.328885620888002
  0
ARC
  5
3447D
  8
0
 10
2792.3327356148661238
 20
147.3937924170334952
 30
0.0
 40
2.5369267716327708
 50
190.0874499713825969
 51
195.6536594069266926
  0
ARC
  5
3447E
  8
0
 10
2779.5668644399270306
 20
143.845022370475192
 30
0.0
 40
10.7130322092778805
 50
13.3603902991584391
 51
15.5073191914440596
  0
ARC
  5
3447F
  8
0
 10
2785.5942384526388196
 20
145.4374745941362903
 30
0.0
 40
4.4835423005196997
 50
0.5381048774896935
 51
11.3590739308382194
  0
ARC
  5
34480
  8
0
 10
-48572.6780573511277908
 20
-706.1413533406099532
 30
0.0
 40
51369.8153120121132815
 50
0.9482176207251121
 51
0.9499064851711441
  0
LINE
  5
34481
  8
0
 10
2790.1026632955718014
 20
143.9656005174541917
 30
0.0
 11
2790.1171668094871166
 21
143.0900896634647097
 31
0.0
  0
ARC
  5
34482
  8
0
 10
2790.8575709590750193
 20
143.0883555799061924
 30
0.0
 40
0.7404061802637923
 50
179.8658091157209071
 51
219.95283108974931
  0
ARC
  5
34483
  8
0
 10
2790.7287020558469521
 20
143.0011870635078139
 30
0.0
 40
0.5858595572233379
 50
221.511233016241107
 51
269.6906773208527852
  0
ARC
  5
34484
  8
0
 10
2790.7253474583671959
 20
143.7649832800265983
 30
0.0
 40
0.4575239958364683
 50
259.6606038317578964
 51
270.0240107851632274
  0
ARC
  5
34485
  8
0
 10
2790.7323488102720148
 20
143.8033592185655039
 30
0.0
 40
0.4965333740326338
 50
227.0644462310478104
 51
259.6606038317578964
  0
ARC
  5
34486
  8
0
 10
2790.9212007179157808
 20
144.0063353454021069
 30
0.0
 40
0.7737775824236904
 50
208.5084213134452966
 51
227.0644462310478104
  0
ARC
  5
34487
  8
0
 10
2790.9209207672188313
 20
144.006183291293496
 30
0.0
 40
0.773459003006197
 50
185.757910828655298
 51
208.5084213134452966
  0
ARC
  5
34488
  8
0
 10
2781.5818105145781374
 20
143.0644817943068006
 30
0.0
 40
8.6130090239138681
 50
5.7579108286553033
 51
6.4016619124418881
  0
ARC
  5
34489
  8
0
 10
2735.4599659232271733
 20
142.9300270965738946
 30
0.0
 40
54.6921071974260613
 50
1.14698086718986
 51
2.0582147327041831
  0
ARC
  5
3448A
  8
0
 10
2786.5218525100740408
 20
144.9474434061469026
 30
0.0
 40
3.5953290563382101
 50
359.1528845028173009
 51
8.5115241570890188
  0
ARC
  5
3448B
  8
0
 10
2790.7272570444820303
 20
147.3600880769783998
 30
0.0
 40
0.9554814174776112
 50
90.1030117030098268
 51
115.9135493537827983
  0
ARC
  5
3448C
  8
0
 10
2790.7685863929059451
 20
147.3003464192130139
 30
0.0
 40
1.0273374421339989
 50
116.5307189012197995
 51
180.4805986178450894
  0
ARC
  5
3448D
  8
0
 10
2790.9440122357618748
 20
147.2884260636764964
 30
0.0
 40
1.202731679744897
 50
179.8426455886458086
 51
208.7853899394278017
  0
ARC
  5
3448E
  8
0
 10
2790.7166918903399164
 20
147.2761515934593888
 30
0.0
 40
0.862501671741784
 50
77.0082608782994669
 51
89.4122655828756052
  0
ARC
  5
3448F
  8
0
 10
2790.7172563567601173
 20
147.2918099477728049
 30
0.0
 40
0.8471224412427837
 50
48.5910872472265893
 51
76.8073723490461475
  0
ARC
  5
34490
  8
0
 10
2790.6021139033950931
 20
147.1612474192436082
 30
0.0
 40
1.02120391189059
 50
14.6116718226788809
 51
48.5910872472265893
  0
ARC
  5
34491
  8
0
 10
2790.4464736654917942
 20
147.1206723151398137
 30
0.0
 40
1.1820461411947381
 50
351.6711143791121117
 51
14.6116718226788809
  0
ARC
  5
34492
  8
0
 10
2789.1183427685077731
 20
147.3937924170334952
 30
0.0
 40
2.5369267716327708
 50
344.3463405930733074
 51
349.9125500286173178
  0
ARC
  5
34493
  8
0
 10
2801.8842139434468663
 20
143.845022370475192
 30
0.0
 40
10.7130322092778805
 50
164.4926808085558889
 51
166.639609700841504
  0
ARC
  5
34494
  8
0
 10
2795.8568399307359869
 20
145.4374745941362903
 30
0.0
 40
4.4835423005196997
 50
168.6409260691617931
 51
179.461895122510299
  0
ARC
  5
34495
  8
0
 10
54154.1291357345107826
 20
-706.1413533406099532
 30
0.0
 40
51369.8153120121132815
 50
179.0500935148288875
 51
179.051782379274897
  0
LINE
  5
34496
  8
0
 10
2791.3484150878020955
 20
143.9656005174541917
 30
0.0
 11
2791.3339115738867804
 21
143.0900896634647097
 31
0.0
  0
ARC
  5
34497
  8
0
 10
2790.5935074242988776
 20
143.0883555799061924
 30
0.0
 40
0.7404061802637992
 50
320.0471689102507185
 51
0.1341908842790487
  0
ARC
  5
34498
  8
0
 10
2790.7223763275269448
 20
143.0011870635078139
 30
0.0
 40
0.585859557223334
 50
270.3093226791472148
 51
318.4887669837589215
  0
ARC
  5
34499
  8
0
 10
2790.7257309250071557
 20
143.7649832800265983
 30
0.0
 40
0.4575239958364683
 50
269.9759892148367726
 51
280.3393961682421036
  0
ARC
  5
3449A
  8
0
 10
2790.7187295731018821
 20
143.8033592185655039
 30
0.0
 40
0.4965333740326338
 50
280.3393961682421036
 51
312.935553768952218
  0
ARC
  5
3449B
  8
0
 10
2790.5298776654581161
 20
144.0063353454021069
 30
0.0
 40
0.7737775824236904
 50
312.935553768952218
 51
331.4915786865545897
  0
ARC
  5
3449C
  8
0
 10
2790.5301576161559751
 20
144.006183291293496
 30
0.0
 40
0.773459003006197
 50
331.4915786865545897
 51
354.2420891713446736
  0
ARC
  5
3449D
  8
0
 10
2799.8692678687962143
 20
143.0644817943068006
 30
0.0
 40
8.6130090239138681
 50
173.5983380875580906
 51
174.242089171344702
  0
ARC
  5
3449E
  8
0
 10
2845.9911124601471784
 20
142.9300270965738946
 30
0.0
 40
54.6921071974260613
 50
177.9417852672958134
 51
178.8530191328100898
  0
ARC
  5
3449F
  8
0
 10
2794.9292258732998562
 20
144.9474434061469026
 30
0.0
 40
3.5953290563382101
 50
171.4884758429109866
 51
180.8471154971826138
  0
ARC
  5
344A0
  8
0
 10
2790.7238213388900476
 20
147.3600880769739092
 30
0.0
 40
0.9554814174821077
 50
64.0864506462761909
 51
89.8969882969120562
  0
ARC
  5
344A1
  8
0
 10
2790.6824919904679518
 20
147.3003464192130139
 30
0.0
 40
1.0273374421339989
 50
359.519401382153319
 51
63.4692810987802289
  0
ARC
  5
344A2
  8
0
 10
2790.5070661476129317
 20
147.2884260636764964
 30
0.0
 40
1.202731679744897
 50
331.2146100605722268
 51
0.157354411354187
  0
ENDSEC
  0
EOF
