  0
SECTION
  2
HEADER
  9
$ACADVER
  1
AC1009
  9
$INSBASE
 10
0.0
 20
0.0
 30
0.0
  9
$EXTMIN
 10
-182.7285415196759
 20
-56.295911388216837
 30
0.0
  9
$EXTMAX
 10
44.13910128972406
 20
413.70408860990318
 30
0.0
  9
$LIMMIN
 10
0.0
 20
0.0
  9
$LIMMAX
 10
44.0
 20
34.0
  9
$ORTHOMODE
 70
     0
  9
$REGENMODE
 70
     1
  9
$FILLMODE
 70
     1
  9
$QTEXTMODE
 70
     0
  9
$MIRRTEXT
 70
     1
  9
$DRAGMODE
 70
     2
  9
$LTSCALE
 40
2.419999999999999
  9
$OSMODE
 70
    39
  9
$ATTMODE
 70
     1
  9
$TEXTSIZE
 40
0.2
  9
$TRACEWID
 40
0.05
  9
$TEXTSTYLE
  7
STANDARD
  9
$CLAYER
  8
0
  9
$CELTYPE
  6
BYLAYER
  9
$CECOLOR
 62
   256
  9
$DIMSCALE
 40
1.0
  9
$DIMASZ
 40
0.1875
  9
$DIMEXO
 40
0.275
  9
$DIMDLI
 40
1.671999999999999
  9
$DIMRND
 40
0.0
  9
$DIMDLE
 40
0.0
  9
$DIMEXE
 40
0.792
  9
$DIMTP
 40
0.01
  9
$DIMTM
 40
0.01
  9
$DIMTXT
 40
0.3
  9
$DIMCEN
 40
0.396
  9
$DIMTSZ
 40
0.0
  9
$DIMTOL
 70
     1
  9
$DIMLIM
 70
     0
  9
$DIMTIH
 70
     1
  9
$DIMTOH
 70
     1
  9
$DIMSE1
 70
     0
  9
$DIMSE2
 70
     0
  9
$DIMTAD
 70
     0
  9
$DIMZIN
 70
     0
  9
$DIMBLK
  1

  9
$DIMASO
 70
     1
  9
$DIMSHO
 70
     1
  9
$DIMPOST
  1

  9
$DIMAPOST
  1

  9
$DIMALT
 70
     0
  9
$DIMALTD
 70
     2
  9
$DIMALTF
 40
25.399999999999999
  9
$DIMLFAC
 40
1.0
  9
$DIMTOFL
 70
     0
  9
$DIMTVP
 40
0.0
  9
$DIMTIX
 70
     0
  9
$DIMSOXD
 70
     0
  9
$DIMSAH
 70
     0
  9
$DIMBLK1
  1

  9
$DIMBLK2
  1

  9
$DIMSTYLE
  2
STANDARD
  9
$DIMCLRD
 70
     0
  9
$DIMCLRE
 70
     0
  9
$DIMCLRT
 70
     0
  9
$DIMTFAC
 40
1.0
  9
$DIMGAP
 40
0.09
  9
$LUNITS
 70
     2
  9
$LUPREC
 70
     4
  9
$SKETCHINC
 40
0.1
  9
$FILLETRAD
 40
0.0
  9
$AUNITS
 70
     0
  9
$AUPREC
 70
     0
  9
$MENU
  1
acad
  9
$ELEVATION
 40
0.0
  9
$PELEVATION
 40
0.0
  9
$THICKNESS
 40
0.0
  9
$LIMCHECK
 70
     0
  9
$BLIPMODE
 70
     0
  9
$CHAMFERA
 40
0.0
  9
$CHAMFERB
 40
0.0
  9
$SKPOLY
 70
     0
  9
$TDCREATE
 40
2454354.8460693178
  9
$TDUPDATE
 40
2454455.5536606829
  9
$TDINDWG
 40
0.003362037
  9
$TDUSRTIMER
 40
0.003362037
  9
$USRTIMER
 70
     1
  9
$ANGBASE
 50
0.0
  9
$ANGDIR
 70
     0
  9
$PDMODE
 70
     3
  9
$PDSIZE
 40
0.3125
  9
$PLINEWID
 40
0.0
  9
$COORDS
 70
     1
  9
$SPLFRAME
 70
     0
  9
$SPLINETYPE
 70
     6
  9
$SPLINESEGS
 70
     8
  9
$ATTDIA
 70
     0
  9
$ATTREQ
 70
     1
  9
$HANDLING
 70
     1
  9
$HANDSEED
  5
7BC
  9
$SURFTAB1
 70
     6
  9
$SURFTAB2
 70
     6
  9
$SURFTYPE
 70
     6
  9
$SURFU
 70
     6
  9
$SURFV
 70
     6
  9
$UCSNAME
  2

  9
$UCSORG
 10
0.0
 20
0.0
 30
0.0
  9
$UCSXDIR
 10
1.0
 20
0.0
 30
0.0
  9
$UCSYDIR
 10
0.0
 20
1.0
 30
0.0
  9
$PUCSNAME
  2

  9
$PUCSORG
 10
0.0
 20
0.0
 30
0.0
  9
$PUCSXDIR
 10
1.0
 20
0.0
 30
0.0
  9
$PUCSYDIR
 10
0.0
 20
1.0
 30
0.0
  9
$USERI1
 70
     0
  9
$USERI2
 70
     0
  9
$USERI3
 70
     0
  9
$USERI4
 70
     0
  9
$USERI5
 70
     0
  9
$USERR1
 40
0.0
  9
$USERR2
 40
0.0
  9
$USERR3
 40
0.0
  9
$USERR4
 40
0.0
  9
$USERR5
 40
0.0
  9
$WORLDVIEW
 70
     1
  9
$SHADEDGE
 70
     3
  9
$SHADEDIF
 70
    70
  9
$TILEMODE
 70
     1
  9
$MAXACTVP
 70
    16
  9
$PLIMCHECK
 70
     0
  9
$PEXTMIN
 10
1.0000000000000000E+020
 20
1.0000000000000000E+020
 30
1.0000000000000000E+020
  9
$PEXTMAX
 10
-1.0000000000000000E+020
 20
-1.0000000000000000E+020
 30
-1.0000000000000000E+020
  9
$PLIMMIN
 10
0.0
 20
0.0
  9
$PLIMMAX
 10
12.0
 20
9.0
  9
$UNITMODE
 70
     0
  9
$VISRETAIN
 70
     0
  9
$PLINEGEN
 70
     1
  9
$PSLTSCALE
 70
     0
  0
ENDSEC
  0
SECTION
  2
TABLES
  0
TABLE
  2
VPORT
 70
     1
  0
VPORT
  2
*ACTIVE
 70
     0
 10
0.0
 20
0.0
 11
1.0
 21
1.0
 12
-69.294719586758504
 22
178.7040897051472
 13
0.0
 23
0.0
 14
1.0
 24
1.0
 15
0.0
 25
0.0
 16
0.0
 26
0.0
 36
1.0
 17
0.0
 27
0.0
 37
0.0
 40
473.65358641764419
 41
1.5250965250965249
 42
50.0
 43
0.0
 44
0.0
 50
0.0
 51
0.0
 71
     0
 72
   100
 73
     1
 74
     1
 75
     0
 76
     0
 77
     0
 78
     0
  0
ENDTAB
  0
TABLE
  2
LTYPE
 70
    19
  0
LTYPE
  2
CONTINUOUS
 70
     0
  3
Solid line
 72
    65
 73
     0
 40
0.0
  0
LTYPE
  2
CENTER
 70
     0
  3
____ _ ____ _ ____ _ ____ _ ____ _ ____ _ ____
 72
    65
 73
     4
 40
0.6
 49
0.375
 49
-0.075
 49
0.075
 49
-0.075
  0
LTYPE
  2
HIDDEN
 70
     0
  3
- - - - - - - - - - - - - - - - - - - -
 72
    65
 73
     2
 40
0.2
 49
0.1
 49
-0.1
  0
LTYPE
  2
PHANTOM
 70
     0
  3
_____ _ _ _____ _ _ _____ _ _ _____
 72
    65
 73
     6
 40
0.8
 49
0.45
 49
-0.05
 49
0.1
 49
-0.05
 49
0.1
 49
-0.05
  0
LTYPE
  2
DOT
 70
     0
  3
. . . . . . . . . . . . . . . . . . . .
 72
    65
 73
     2
 40
0.2
 49
0.1
 49
-0.1
  0
LTYPE
  2
DASHED
 70
     0
  3
- - - - - - - - - - - - - - - - - - - -
 72
    65
 73
     2
 40
0.2
 49
0.1
 49
-0.1
  0
LTYPE
  2
PHANTOM2
 70
     0
  3
Phantom (.5x) ___ _ _ ___ _ _ ___ _ _ ___ _ _
 72
    65
 73
     6
 40
1.25
 49
0.625
 49
-0.125
 49
0.125
 49
-0.125
 49
0.125
 49
-0.125
  0
LTYPE
  2
AM_ISO02W050
 70
     0
  3
__ __ __ __ __ __ __ __ __ __ __ __ __ __ __
 72
    65
 73
     2
 40
7.5
 49
6.0
 49
-1.5
  0
LTYPE
  2
AM_ISO08W050
 70
     0
  3
____ . ____ . ____ . ____ . ____ . ____ . ____
 72
    65
 73
     4
 40
18.0
 49
12.0
 49
-1.5
 49
3.0
 49
-1.5
  0
LTYPE
  2
AM_ISO09W050
 70
     0
  3
_____ . . _____ . . _____ . . ____ .. ____
 72
    65
 73
     6
 40
22.5
 49
12.0
 49
-1.5
 49
3.0
 49
-1.5
 49
3.0
 49
-1.5
  0
LTYPE
  2
AMCONSTR
 70
     0
  3
_______________________
 72
    65
 73
     2
 40
9999.0
 49
9999.0
 49
0.0
  0
LTYPE
  2
AM_ISO08W050X2
 70
     0
  3
__ . __ . __ . __ . __ . __
 72
    65
 73
     4
 40
9.0
 49
6.0
 49
-0.75
 49
1.5
 49
-0.75
  0
LTYPE
  2
AM_ISO02W050X2
 70
     0
  3
 _ _ _ _ _ _ _ _ _ _ _ _
 72
    65
 73
     2
 40
3.75
 49
3.0
 49
-0.75
  0
LTYPE
  2
AMZIGZAG
 70
     0
  3
/\/-/\/-/\/-/\/-/\/-/\/
 72
    65
 73
     2
 40
11.0001
 49
0.0001
 49
-11.0
  0
LTYPE
  2
CENTER2
 70
     0
  3
Center (.5x) ___ _ ___ _ ___ _ ___ _ ___ _ ___
 72
    65
 73
     4
 40
1.125
 49
0.75
 49
-0.125
 49
0.125
 49
-0.125
  0
LTYPE
  2
HIDDEN2
 70
     0
  3
Hidden (.5x) _ _ _ _ _ _ _ _ _ _ _ _ _ _ _ _ _
 72
    65
 73
     2
 40
0.1875
 49
0.125
 49
-0.0625
  0
LTYPE
  2
AMZIGZAG2
 70
     0
  3
/\/-/\/-/\/-/\/-/\/-/\/
 72
    65
 73
     2
 40
0.4401
 49
0.0001
 49
-0.4400000000000001
  0
LTYPE
  2
ACANSTGB
 70
     0
  3
__ . . __ . .
 72
    65
 73
     6
 40
0.35433070866
 49
0.15748031496
 49
-0.03937007874
 49
0.03937007874
 49
-0.03937007874
 49
0.03937007874
 49
-0.03937007874
  0
LTYPE
  2
ACANSTGL
 70
     0
  3
_ _ _ _ _
 72
    65
 73
     2
 40
0.11811023622
 49
0.07874015748
 49
-0.03937007874
  0
ENDTAB
  0
TABLE
  2
LAYER
 70
    20
  0
LAYER
  2
0
 70
     0
 62
     7
  6
CONTINUOUS
  0
LAYER
  2
DEFAULT_1
 70
     0
 62
     7
  6
CENTER
  0
LAYER
  2
DEFAULT_2
 70
     0
 62
     8
  6
HIDDEN
  0
LAYER
  2
DEFAULT_3
 70
     0
 62
     7
  6
PHANTOM
  0
LAYER
  2
_2D_DELETED_OBJS
 70
     0
 62
     7
  6
CONTINUOUS
  0
LAYER
  2
_BLACK_HOLE
 70
     0
 62
     7
  6
CONTINUOUS
  0
LAYER
  2
DATUMS
 70
     0
 62
     7
  6
CONTINUOUS
  0
LAYER
  2
DATUM_AXIS
 70
     0
 62
     7
  6
CONTINUOUS
  0
LAYER
  2
DATUM_CSYS
 70
     0
 62
     7
  6
CONTINUOUS
  0
LAYER
  2
DATUM_PLANE
 70
     0
 62
     7
  6
CONTINUOUS
  0
LAYER
  2
DATUM_POINT
 70
     0
 62
     7
  6
CONTINUOUS
  0
LAYER
  2
_CURVE
 70
     0
 62
     7
  6
CONTINUOUS
  0
LAYER
  2
_SURFACE
 70
     0
 62
     7
  6
CONTINUOUS
  0
LAYER
  2
__REF_CURVE
 70
     0
 62
     7
  6
CONTINUOUS
  0
LAYER
  2
__REF_SURFACE
 70
     0
 62
     7
  6
CONTINUOUS
  0
LAYER
  2
___COSMETIC_SKETCH
 70
     0
 62
     7
  6
CONTINUOUS
  0
LAYER
  2
___GDT
 70
     0
 62
     7
  6
CONTINUOUS
  0
LAYER
  2
___NOTE
 70
     0
 62
     7
  6
CONTINUOUS
  0
LAYER
  2
___SYMBOL
 70
     0
 62
     7
  6
CONTINUOUS
  0
LAYER
  2
DEFPOINTS
 70
     0
 62
     7
  6
CONTINUOUS
  0
ENDTAB
  0
TABLE
  2
STYLE
 70
     4
  0
STYLE
  2
STANDARD
 70
     0
 40
0.0
 41
0.8
 50
0.0
 71
     0
 42
0.2
  3
txt
  4

  0
STYLE
  2

 70
     1
 40
0.0
 41
1.0
 50
0.0
 71
     0
 42
0.2
  3
genltshp.shx
  4

  0
STYLE
  2
ACANSTS
 70
     0
 40
1.0
 41
1.0
 50
0.0
 71
     0
 42
0.2
  3
romans.shx
  4

  0
STYLE
  2
ACANSGDT
 70
     0
 40
0.0
 41
1.0
 50
0.0
 71
     0
 42
0.2
  3
AMGDT
  4

  0
ENDTAB
  0
TABLE
  2
VIEW
 70
     0
  0
ENDTAB
  0
TABLE
  2
UCS
 70
     0
  0
ENDTAB
  0
TABLE
  2
APPID
 70
    13
  0
APPID
  2
ACAD
 70
     0
  0
APPID
  2
DCO15
 70
     0
  0
APPID
  2
MCAD_NO_VIS
 70
     0
  0
APPID
  2
ACAD_TEMP_GRAPHIC
 70
     0
  0
APPID
  2
AD_DRAW
 70
     0
  0
APPID
  2
ACATTRIBSERVICES
 70
     0
  0
APPID
  2
DESIGNERASSEMBLIES
 70
     0
  0
APPID
  2
ACADM_DIM_EDIT
 70
     0
  0
APPID
  2
AMDT_DM_ADJ
 70
     0
  0
APPID
  2
ACAD_DSTYLE_DIMARC_LENGTH_
 70
     0
  0
APPID
  2
ACAD_DSTYLE_DIMJOGGED_JOGA
 70
     0
  0
APPID
  2
ACAD_EXEMPT_FROM_CAD_STANDARDS
 70
     0
  0
APPID
  2
ACAD_DSTYLE_DIMARC_LENGTH_SYMBOL
 70
     0
  0
ENDTAB
  0
TABLE
  2
DIMSTYLE
 70
     7
  0
DIMSTYLE
  2
STANDARD
 70
     0
  3

  4

  5

  6

  7

 40
1.0
 41
0.1875
 42
0.0625
 43
0.38
 44
0.18
 45
0.0
 46
0.0
 47
0.01
 48
0.01
140
0.3
141
0.09
142
0.0
143
25.399999999999999
144
1.0
145
0.0
146
1.0
147
0.09
 71
     1
 72
     0
 73
     1
 74
     1
 75
     0
 76
     0
 77
     0
 78
     4
170
     0
171
     2
172
     0
173
     0
174
     0
175
     0
176
     0
177
     0
178
     0
  0
DIMSTYLE
  2
AM_ANSI
 70
     0
  3

  4
mm
  5

  6

  7

 40
1.0
 41
0.1
 42
0.05
 43
0.5
 44
0.1
 45
0.0
 46
0.0
 47
0.1
 48
0.1
140
0.12
141
0.0
142
0.0
143
25.399999999999999
144
1.0
145
0.0
146
0.71
147
0.06
 71
     0
 72
     0
 73
     1
 74
     1
 75
     0
 76
     0
 77
     0
 78
     7
170
     0
171
     2
172
     0
173
     0
174
     0
175
     0
176
   256
177
   256
178
     2
  0
DIMSTYLE
  2
AM_ANSI$3
 70
     0
  3

  4
mm
  5

  6

  7

 40
1.0
 41
0.1
 42
0.05
 43
0.5
 44
0.1
 45
0.0
 46
0.0
 47
0.1
 48
0.1
140
0.12
141
0.0
142
0.0
143
25.399999999999999
144
1.0
145
0.0
146
0.71
147
0.06
 71
     0
 72
     0
 73
     1
 74
     1
 75
     0
 76
     0
 77
     0
 78
     7
170
     0
171
     2
172
     0
173
     0
174
     0
175
     0
176
   256
177
   256
178
     2
  0
DIMSTYLE
  2
AM_ANSI$4
 70
     0
  3

  4
mm
  5

  6

  7

 40
1.0
 41
0.1
 42
0.05
 43
0.5
 44
0.1
 45
0.0
 46
0.0
 47
0.1
 48
0.1
140
0.12
141
0.0
142
0.0
143
25.399999999999999
144
1.0
145
0.0
146
0.71
147
0.06
 71
     0
 72
     0
 73
     1
 74
     1
 75
     0
 76
     0
 77
     0
 78
     7
170
     0
171
     2
172
     0
173
     0
174
     0
175
     0
176
   256
177
   256
178
     2
  0
DIMSTYLE
  2
AM_ANSI$7
 70
     0
  3

  4
mm
  5

  6

  7

 40
1.0
 41
0.1
 42
0.05
 43
0.5
 44
0.1
 45
0.0
 46
0.0
 47
0.1
 48
0.1
140
0.24
141
0.0
142
0.0
143
25.399999999999999
144
1.0
145
0.0
146
0.71
147
0.06
 71
     0
 72
     0
 73
     1
 74
     1
 75
     0
 76
     0
 77
     0
 78
     7
170
     0
171
     2
172
     0
173
     0
174
     0
175
     0
176
   256
177
   256
178
     2
  0
DIMSTYLE
  2
AM_ANSI$SF
 70
     0
  3

  4
mm
  5

  6

  7

 40
1.0
 41
0.1
 42
0.05
 43
0.5
 44
0.1
 45
0.0
 46
0.0
 47
0.1
 48
0.1
140
0.12
141
0.0
142
0.0
143
25.399999999999999
144
1.0
145
0.0
146
0.71
147
0.06
 71
     0
 72
     0
 73
     1
 74
     1
 75
     1
 76
     1
 77
     0
 78
     7
170
     0
171
     2
172
     0
173
     0
174
     0
175
     0
176
   256
177
   256
178
     2
  0
DIMSTYLE
  2
AM_ANSI$SH
 70
     0
  3

  4
mm
  5

  6
GENAXEH
  7

 40
1.0
 41
0.1
 42
0.05
 43
0.5
 44
0.1
 45
0.0
 46
0.0
 47
0.1
 48
0.1
140
0.12
141
0.0
142
0.0
143
25.399999999999999
144
1.0
145
0.0
146
0.71
147
0.06
 71
     0
 72
     0
 73
     1
 74
     1
 75
     1
 76
     1
 77
     0
 78
     7
170
     0
171
     2
172
     0
173
     1
174
     0
175
     0
176
   256
177
   256
178
     2
  0
ENDTAB
  0
ENDSEC
  0
SECTION
  2
BLOCKS
  0
BLOCK
  8
0
  2
$MODEL_SPACE
 70
     0
 10
0.0
 20
0.0
 30
0.0
  3
$MODEL_SPACE
  1

  0
ENDBLK
  5
21
  8
0
  0
BLOCK
 67
     1
  8
0
  2
$PAPER_SPACE
 70
     0
 10
0.0
 20
0.0
 30
0.0
  3
$PAPER_SPACE
  1

  0
ENDBLK
  5
1D
 67
     1
  8
0
  0
BLOCK
  8
0
  2
GENAXEH
 70
     0
 10
0.0
 20
0.0
 30
0.0
  3
GENAXEH
  1

  0
LINE
  5
51F
  8
0
 10
-1.0
 20
0.0
 30
0.0
 11
1.0
 21
0.0
 31
0.0
  0
ENDBLK
  5
521
  8
0
  0
BLOCK
  8
0
  2
*U2
 70
     1
 10
0.0
 20
0.0
 30
0.0
  3
*U2
  1

  0
TEXT
  5
737
  8
0
 62
     0
 10
-265.56232483097841
 20
178.55408861084311
 30
0.0
 40
0.3
  1
470.0000¡À0.0100
 41
0.8
  0
ENDBLK
  5
739
  8
0
  0
ENDSEC
  0
SECTION
  2
ENTITIES
  0
TEXT
  5
228
  8
0
  6
CONTINUOUS
 62
     2
 10
38.296666666699998
 20
2.0499999999999989
 30
0.0
 40
0.1
  1
 
 41
0.8
  0
TEXT
  5
230
  8
0
  6
CONTINUOUS
 62
     2
 10
40.452500000000001
 20
3.524999999999999
 30
0.0
 40
0.1
  1
 
 41
0.95
 72
     1
 11
40.499999999999993
 21
3.524999999999999
 31
0.0
  0
LINE
  5
329
  8
0
  6
CONTINUOUS
 62
     7
 10
-181.556951731796
 20
408.87564530770322
 30
0.0
 11
-176.72850531047581
 21
413.70405238950292
 31
0.0
  0
LINE
  5
32A
  8
0
  6
CONTINUOUS
 62
     7
 10
-181.55697403807611
 20
-51.467478870856887
 30
0.0
 11
-176.72854152071591
 21
-56.295911388216837
 31
0.0
  0
LINE
  5
32B
  8
0
  6
CONTINUOUS
 62
     7
 10
-176.72854152071591
 20
-56.295911388216837
 30
0.0
 11
-175.314327955956
 21
-56.295911388216837
 31
0.0
  0
LINE
  5
32D
  8
0
  6
CONTINUOUS
 62
     7
 10
-156.73726170147589
 20
-12.295911387376689
 30
0.0
 11
-8.7414415494361037
 21
-12.295911387376689
 31
0.0
  0
LINE
  5
32E
  8
0
  6
CONTINUOUS
 62
     7
 10
-167.43444629639589
 20
-30.73314710617683
 30
0.0
 11
-175.314327955956
 21
-32.844555034736914
 31
0.0
  0
LINE
  5
333
  8
0
  6
CONTINUOUS
 62
     7
 10
-182.7285415196759
 20
-48.639040595816823
 30
0.0
 11
-182.7285415196759
 21
406.04721781242318
 31
0.0
  0
LINE
  5
336
  8
0
  6
CONTINUOUS
 62
     7
 10
-175.31424976459601
 20
413.70408860990318
 30
0.0
 11
-175.31424976459601
 21
-56.295911388216837
 31
0.0
  0
LINE
  5
33E
  8
0
  6
CONTINUOUS
 62
     7
 10
-162.86087464599609
 20
302.6006352978232
 30
0.0
 11
-158.83199482975601
 21
298.5717554815833
 31
0.0
  0
LINE
  5
33F
  8
0
  6
CONTINUOUS
 62
     7
 10
39.013033010004172
 20
183.69038009366321
 30
0.0
 11
37.189367741924123
 21
182.6482856525833
 31
0.0
  0
LINE
  5
342
  8
0
  6
CONTINUOUS
 62
     7
 10
16.184386551564099
 20
230.39170593898319
 30
0.0
 11
14.64590358840405
 21
259.74770966018309
 31
0.0
  0
LINE
  5
349
  8
0
  6
CONTINUOUS
 62
     7
 10
14.64590358840405
 20
79.660467559543122
 30
0.0
 11
12.74909228932392
 21
25.342898806023189
 31
0.0
  0
LINE
  5
34A
  8
0
  6
CONTINUOUS
 62
     7
 10
16.184386551564099
 20
109.0164712807432
 30
0.0
 11
14.64590358840405
 21
79.660467559543122
 31
0.0
  0
LINE
  5
34B
  8
0
  6
CONTINUOUS
 62
     7
 10
-162.86087464599609
 20
-17.192458078896831
 30
0.0
 11
-158.83199482975601
 21
-13.163578257577001
 31
0.0
  0
LINE
  5
34C
  8
0
  6
CONTINUOUS
 62
     7
 10
19.0130330100842
 20
227.71779712882329
 30
0.0
 11
17.18936774200392
 21
228.75989156482319
 31
0.0
  0
LINE
  5
34D
  8
0
  6
CONTINUOUS
 62
     7
 10
-162.86087464599609
 20
374.60063530058318
 30
0.0
 11
-158.83199482975601
 21
370.57175547926317
 31
0.0
  0
LINE
  5
34E
  8
0
  6
CONTINUOUS
 62
     7
 10
24.139101289804099
 20
124.5277264405433
 30
0.0
 11
24.139101289804099
 21
214.8804507842631
 31
0.0
  0
LINE
  5
352
  8
0
  6
CONTINUOUS
 62
     7
 10
34.645903588324018
 20
151.66046756230321
 30
0.0
 11
30.23480018296414
 21
25.342993314343179
 31
0.0
  0
LINE
  5
353
  8
0
  6
CONTINUOUS
 62
     7
 10
36.184386551484067
 20
181.01647128350299
 30
0.0
 11
34.645903588324018
 21
151.66046756230321
 31
0.0
  0
LINE
  5
354
  8
0
  6
CONTINUOUS
 62
     7
 10
44.13910128972406
 20
196.52776162738309
 30
0.0
 11
39.811429640284132
 21
184.63758149110319
 31
0.0
  0
LINE
  5
355
  8
0
  6
CONTINUOUS
 62
     7
 10
24.139101289804099
 20
124.52776162970321
 30
0.0
 11
19.81142964036394
 21
112.6375814934231
 31
0.0
  0
LINE
  5
356
  8
0
  6
CONTINUOUS
 62
     7
 10
19.0130330100842
 20
111.6903800909033
 30
0.0
 11
17.18936774200392
 21
110.6482856549032
 31
0.0
  0
LINE
  5
357
  8
0
  6
CONTINUOUS
 62
     7
 10
24.139101289804099
 20
214.8804155900232
 30
0.0
 11
19.81142964036394
 21
226.77059573138331
 31
0.0
  0
LINE
  5
358
  8
0
  6
CONTINUOUS
 62
     7
 10
36.184386551484067
 20
302.39170593666319
 30
0.0
 11
34.645903588324018
 21
331.7477096578632
 31
0.0
  0
LINE
  5
359
  8
0
  6
CONTINUOUS
 62
     7
 10
34.645903588324018
 20
331.7477096578632
 30
0.0
 11
34.634691164724018
 21
332.06879136266321
 31
0.0
  0
LINE
  5
35C
  8
0
  6
CONTINUOUS
 62
     7
 10
44.13910128972406
 20
196.527726438223
 30
0.0
 11
44.13910128972406
 21
286.88045078194318
 31
0.0
  0
LINE
  5
35D
  8
0
  6
CONTINUOUS
 62
     7
 10
-156.73752360087579
 20
297.70408861138299
 30
0.0
 11
-24.34154553331609
 21
297.70408861138299
 31
0.0
  0
LINE
  5
35E
  8
0
  6
CONTINUOUS
 62
     7
 10
-167.43444629639589
 20
316.632321626063
 30
0.0
 11
-172.5049986546359
 21
317.99097203550332
 31
0.0
  0
LINE
  5
363
  8
0
  6
CONTINUOUS
 62
     7
 10
39.013033010004172
 20
299.717797126503
 30
0.0
 11
37.189367741924123
 21
300.759891567583
 31
0.0
  0
LINE
  5
364
  8
0
  6
CONTINUOUS
 62
     7
 10
44.13910128972406
 20
286.88041559278332
 30
0.0
 11
39.811429640284132
 21
298.77059572906319
 31
0.0
  0
LINE
  5
365
  8
0
  6
CONTINUOUS
 62
     7
 10
-156.737537890916
 20
369.70408860906332
 30
0.0
 11
-4.3414283835159031
 21
369.70408860906332
 31
0.0
  0
LINE
  5
366
  8
0
  6
CONTINUOUS
 62
     7
 10
-167.43444629639589
 20
388.14132432786329
 30
0.0
 11
-175.314327955956
 21
390.25273225642309
 31
0.0
  0
LINE
  5
368
  8
0
  6
CONTINUOUS
 62
     7
 10
-176.72854152071591
 20
413.70408860990318
 30
0.0
 11
-175.314327955956
 21
413.70408860990318
 31
0.0
  0
ARC
  5
3DA
  8
0
  6
CONTINUOUS
 62
     7
 10
-168.7285415187159
 20
-25.903517974496939
 30
0.0
 40
5.0000000025199993
 50
285.00000000000011
 51
0.0
  0
ARC
  5
3DC
  8
0
  6
CONTINUOUS
 62
     7
 10
18.181645620283909
 20
230.49637785054321
 30
0.0
 40
1.9999999979599989
 50
183.0
 51
240.25511870310009
  0
ARC
  5
3DD
  8
0
  6
CONTINUOUS
 62
     7
 10
-160.76614151771599
 20
304.69508590698319
 30
0.0
 40
2.96239999848
 50
179.99453575379999
 51
224.999171348
  0
ARC
  5
3DE
  8
0
  6
CONTINUOUS
 62
     7
 10
-24.341424608996022
 20
258.70408860798312
 30
0.0
 40
38.999999998319993
 50
2.000000000099976
 51
90.0
  0
ARC
  5
3DF
  8
0
  6
CONTINUOUS
 62
     7
 10
-26.227146146155981
 20
26.704088610943248
 30
0.0
 40
38.999999998319993
 50
270.0
 51
358.0
  0
ARC
  5
3E0
  8
0
  6
CONTINUOUS
 62
     7
 10
18.181645620283909
 20
108.9117993691832
 30
0.0
 40
1.9999999979599989
 50
119.74488129689991
 51
177.0
  0
ARC
  5
3E1
  8
0
  6
CONTINUOUS
 62
     7
 10
18.119982924203889
 20
113.2532177475432
 30
0.0
 40
1.8000000017199991
 50
299.74488129689991
 51
339.99999999999989
  0
ARC
  5
3E2
  8
0
  6
CONTINUOUS
 62
     7
 10
18.119982924203889
 20
226.15495947218321
 30
0.0
 40
1.8000000017199991
 50
20.000000000000011
 51
60.255118703100109
  0
ARC
  5
3E3
  8
0
  6
CONTINUOUS
 62
     7
 10
-160.76614151771599
 20
376.69507049194323
 30
0.0
 40
2.96239999848
 50
179.99423754950001
 51
224.99912611510001
  0
ARC
  5
3E4
  8
0
  6
CONTINUOUS
 62
     7
 10
-160.76614151771599
 20
-19.287191207176871
 30
0.0
 40
2.96239999848
 50
134.9999999671
 51
180.0
  0
ARC
  5
3E5
  8
0
  6
CONTINUOUS
 62
     7
 10
-4.3414283377958318
 20
330.70408861074321
 30
0.0
 40
38.999999998319993
 50
2.0000000250000811
 51
90.0
  0
ARC
  5
3E6
  8
0
  6
CONTINUOUS
 62
     7
 10
-8.7414415494361037
 20
26.704088610943248
 30
0.0
 40
38.999999998319993
 50
270.0
 51
358.0
  0
ARC
  5
3E7
  8
0
  6
CONTINUOUS
 62
     7
 10
38.181645620204108
 20
180.91179936686299
 30
0.0
 40
1.9999999979599989
 50
119.74488129689991
 51
177.0
  0
ARC
  5
3E8
  8
0
  6
CONTINUOUS
 62
     7
 10
38.181645620204108
 20
302.49637785330327
 30
0.0
 40
1.9999999979599989
 50
183.0
 51
240.25511870310009
  0
ARC
  5
3E9
  8
0
  6
CONTINUOUS
 62
     7
 10
38.11998292412386
 20
185.25321775030329
 30
0.0
 40
1.8000000017199991
 50
299.74488129689991
 51
339.99999999999989
  0
ARC
  5
3EA
  8
0
  6
CONTINUOUS
 62
     7
 10
38.11998292412386
 20
298.15495946986312
 30
0.0
 40
1.8000000017199991
 50
20.000000000000011
 51
60.255118703100109
  0
ARC
  5
3EB
  8
0
  6
CONTINUOUS
 62
     7
 10
-171.7285415181959
 20
320.88874951146317
 30
0.0
 40
2.9999999994799991
 50
184.62930298229989
 51
254.9999999999001
  0
ARC
  5
3EC
  8
0
  6
CONTINUOUS
 62
     7
 10
-168.7285415187159
 20
311.80269249438311
 30
0.0
 40
5.0000000025199993
 50
0.0
 51
74.999999999999972
  0
ARC
  5
3ED
  8
0
  6
CONTINUOUS
 62
     7
 10
-168.7285415187159
 20
383.31169519618311
 30
0.0
 40
5.0000000025199993
 50
0.0
 51
74.999999999999972
  0
ARC
  5
3EE
  8
0
  6
CONTINUOUS
 62
     7
 10
-178.72854151867591
 20
-48.639024050256687
 30
0.0
 40
4.0000000010000001
 50
180.00023699170009
 51
225.0003426160001
  0
ARC
  5
3EF
  8
0
  6
CONTINUOUS
 62
     7
 10
-178.72854151867591
 20
406.04720127194332
 30
0.0
 40
4.0000000010000001
 50
134.9996573841
 51
179.99976300829991
  0
ARC
  5
3F0
  8
0
  6
CONTINUOUS
 62
     7
 10
-156.73726170147589
 20
300.66648860986311
 30
0.0
 40
2.96239999848
 50
225.00000002739989
 51
270.0
  0
ARC
  5
3F1
  8
0
  6
CONTINUOUS
 62
     7
 10
-156.73726170147589
 20
372.66648861262303
 30
0.0
 40
2.96239999848
 50
225.00000003049999
 51
270.0
  0
ARC
  5
3F2
  8
0
  6
CONTINUOUS
 62
     7
 10
-156.737537890916
 20
-15.2583113909368
 30
0.0
 40
2.96239999848
 50
89.99465818489989
 51
134.99889183779999
  0
POLYLINE
  8
0
  5
73A
  62
7
  66
     1
 10
0.000000
 20
0.000000
 30
0.000000
  70
     8
  0
VERTEX
  8
0
  5
73B
 10
34.6038
 20
332.052
 30
0.000000
  70
    32
  0
VERTEX
  8
0
  5
73C
 10
34.6040
 20
332.052
 30
0.000000
  70
    32
  0
VERTEX
  8
0
  5
73D
 10
34.6043
 20
332.052
 30
0.000000
  70
    32
  0
VERTEX
  8
0
  5
73E
 10
34.6045
 20
332.052
 30
0.000000
  70
    32
  0
VERTEX
  8
0
  5
73F
 10
34.6048
 20
332.052
 30
0.000000
  70
    32
  0
VERTEX
  8
0
  5
740
 10
34.6050
 20
332.052
 30
0.000000
  70
    32
  0
VERTEX
  8
0
  5
741
 10
34.6053
 20
332.053
 30
0.000000
  70
    32
  0
VERTEX
  8
0
  5
742
 10
34.6055
 20
332.053
 30
0.000000
  70
    32
  0
VERTEX
  8
0
  5
743
 10
34.6057
 20
332.053
 30
0.000000
  70
    32
  0
VERTEX
  8
0
  5
744
 10
34.6060
 20
332.053
 30
0.000000
  70
    32
  0
VERTEX
  8
0
  5
745
 10
34.6062
 20
332.053
 30
0.000000
  70
    32
  0
VERTEX
  8
0
  5
746
 10
34.6065
 20
332.053
 30
0.000000
  70
    32
  0
VERTEX
  8
0
  5
747
 10
34.6067
 20
332.053
 30
0.000000
  70
    32
  0
VERTEX
  8
0
  5
748
 10
34.6070
 20
332.053
 30
0.000000
  70
    32
  0
VERTEX
  8
0
  5
749
 10
34.6072
 20
332.054
 30
0.000000
  70
    32
  0
VERTEX
  8
0
  5
74A
 10
34.6075
 20
332.054
 30
0.000000
  70
    32
  0
VERTEX
  8
0
  5
74B
 10
34.6077
 20
332.054
 30
0.000000
  70
    32
  0
VERTEX
  8
0
  5
74C
 10
34.6080
 20
332.054
 30
0.000000
  70
    32
  0
VERTEX
  8
0
  5
74D
 10
34.6082
 20
332.054
 30
0.000000
  70
    32
  0
VERTEX
  8
0
  5
74E
 10
34.6084
 20
332.054
 30
0.000000
  70
    32
  0
VERTEX
  8
0
  5
74F
 10
34.6087
 20
332.055
 30
0.000000
  70
    32
  0
VERTEX
  8
0
  5
750
 10
34.6089
 20
332.055
 30
0.000000
  70
    32
  0
VERTEX
  8
0
  5
751
 10
34.6092
 20
332.055
 30
0.000000
  70
    32
  0
VERTEX
  8
0
  5
752
 10
34.6094
 20
332.055
 30
0.000000
  70
    32
  0
VERTEX
  8
0
  5
753
 10
34.6097
 20
332.055
 30
0.000000
  70
    32
  0
VERTEX
  8
0
  5
754
 10
34.6099
 20
332.055
 30
0.000000
  70
    32
  0
VERTEX
  8
0
  5
755
 10
34.6102
 20
332.056
 30
0.000000
  70
    32
  0
VERTEX
  8
0
  5
756
 10
34.6104
 20
332.056
 30
0.000000
  70
    32
  0
VERTEX
  8
0
  5
757
 10
34.6107
 20
332.056
 30
0.000000
  70
    32
  0
VERTEX
  8
0
  5
758
 10
34.6109
 20
332.056
 30
0.000000
  70
    32
  0
VERTEX
  8
0
  5
759
 10
34.6112
 20
332.056
 30
0.000000
  70
    32
  0
VERTEX
  8
0
  5
75A
 10
34.6114
 20
332.056
 30
0.000000
  70
    32
  0
VERTEX
  8
0
  5
75B
 10
34.6117
 20
332.057
 30
0.000000
  70
    32
  0
VERTEX
  8
0
  5
75C
 10
34.6119
 20
332.057
 30
0.000000
  70
    32
  0
VERTEX
  8
0
  5
75D
 10
34.6122
 20
332.057
 30
0.000000
  70
    32
  0
VERTEX
  8
0
  5
75E
 10
34.6124
 20
332.057
 30
0.000000
  70
    32
  0
VERTEX
  8
0
  5
75F
 10
34.6126
 20
332.057
 30
0.000000
  70
    32
  0
VERTEX
  8
0
  5
760
 10
34.6129
 20
332.057
 30
0.000000
  70
    32
  0
VERTEX
  8
0
  5
761
 10
34.6131
 20
332.058
 30
0.000000
  70
    32
  0
VERTEX
  8
0
  5
762
 10
34.6134
 20
332.058
 30
0.000000
  70
    32
  0
VERTEX
  8
0
  5
763
 10
34.6136
 20
332.058
 30
0.000000
  70
    32
  0
VERTEX
  8
0
  5
764
 10
34.6139
 20
332.058
 30
0.000000
  70
    32
  0
VERTEX
  8
0
  5
765
 10
34.6141
 20
332.058
 30
0.000000
  70
    32
  0
VERTEX
  8
0
  5
766
 10
34.6144
 20
332.059
 30
0.000000
  70
    32
  0
VERTEX
  8
0
  5
767
 10
34.6146
 20
332.059
 30
0.000000
  70
    32
  0
VERTEX
  8
0
  5
768
 10
34.6149
 20
332.059
 30
0.000000
  70
    32
  0
VERTEX
  8
0
  5
769
 10
34.6151
 20
332.059
 30
0.000000
  70
    32
  0
VERTEX
  8
0
  5
76A
 10
34.6154
 20
332.059
 30
0.000000
  70
    32
  0
VERTEX
  8
0
  5
76B
 10
34.6156
 20
332.059
 30
0.000000
  70
    32
  0
VERTEX
  8
0
  5
76C
 10
34.6159
 20
332.060
 30
0.000000
  70
    32
  0
VERTEX
  8
0
  5
76D
 10
34.6161
 20
332.060
 30
0.000000
  70
    32
  0
VERTEX
  8
0
  5
76E
 10
34.6164
 20
332.060
 30
0.000000
  70
    32
  0
VERTEX
  8
0
  5
76F
 10
34.6166
 20
332.060
 30
0.000000
  70
    32
  0
VERTEX
  8
0
  5
770
 10
34.6169
 20
332.060
 30
0.000000
  70
    32
  0
VERTEX
  8
0
  5
771
 10
34.6171
 20
332.061
 30
0.000000
  70
    32
  0
VERTEX
  8
0
  5
772
 10
34.6173
 20
332.061
 30
0.000000
  70
    32
  0
VERTEX
  8
0
  5
773
 10
34.6176
 20
332.061
 30
0.000000
  70
    32
  0
VERTEX
  8
0
  5
774
 10
34.6178
 20
332.061
 30
0.000000
  70
    32
  0
VERTEX
  8
0
  5
775
 10
34.6181
 20
332.061
 30
0.000000
  70
    32
  0
VERTEX
  8
0
  5
776
 10
34.6183
 20
332.061
 30
0.000000
  70
    32
  0
VERTEX
  8
0
  5
777
 10
34.6186
 20
332.062
 30
0.000000
  70
    32
  0
VERTEX
  8
0
  5
778
 10
34.6188
 20
332.062
 30
0.000000
  70
    32
  0
VERTEX
  8
0
  5
779
 10
34.6191
 20
332.062
 30
0.000000
  70
    32
  0
VERTEX
  8
0
  5
77A
 10
34.6193
 20
332.062
 30
0.000000
  70
    32
  0
VERTEX
  8
0
  5
77B
 10
34.6196
 20
332.062
 30
0.000000
  70
    32
  0
VERTEX
  8
0
  5
77C
 10
34.6198
 20
332.062
 30
0.000000
  70
    32
  0
VERTEX
  8
0
  5
77D
 10
34.6201
 20
332.063
 30
0.000000
  70
    32
  0
VERTEX
  8
0
  5
77E
 10
34.6203
 20
332.063
 30
0.000000
  70
    32
  0
VERTEX
  8
0
  5
77F
 10
34.6206
 20
332.063
 30
0.000000
  70
    32
  0
VERTEX
  8
0
  5
780
 10
34.6208
 20
332.063
 30
0.000000
  70
    32
  0
VERTEX
  8
0
  5
781
 10
34.6210
 20
332.063
 30
0.000000
  70
    32
  0
VERTEX
  8
0
  5
782
 10
34.6213
 20
332.063
 30
0.000000
  70
    32
  0
VERTEX
  8
0
  5
783
 10
34.6215
 20
332.063
 30
0.000000
  70
    32
  0
VERTEX
  8
0
  5
784
 10
34.6218
 20
332.064
 30
0.000000
  70
    32
  0
VERTEX
  8
0
  5
785
 10
34.6220
 20
332.064
 30
0.000000
  70
    32
  0
VERTEX
  8
0
  5
786
 10
34.6223
 20
332.064
 30
0.000000
  70
    32
  0
VERTEX
  8
0
  5
787
 10
34.6225
 20
332.064
 30
0.000000
  70
    32
  0
VERTEX
  8
0
  5
788
 10
34.6228
 20
332.064
 30
0.000000
  70
    32
  0
VERTEX
  8
0
  5
789
 10
34.6230
 20
332.064
 30
0.000000
  70
    32
  0
VERTEX
  8
0
  5
78A
 10
34.6233
 20
332.064
 30
0.000000
  70
    32
  0
VERTEX
  8
0
  5
78B
 10
34.6235
 20
332.064
 30
0.000000
  70
    32
  0
VERTEX
  8
0
  5
78C
 10
34.6237
 20
332.065
 30
0.000000
  70
    32
  0
VERTEX
  8
0
  5
78D
 10
34.6240
 20
332.065
 30
0.000000
  70
    32
  0
VERTEX
  8
0
  5
78E
 10
34.6242
 20
332.065
 30
0.000000
  70
    32
  0
VERTEX
  8
0
  5
78F
 10
34.6245
 20
332.065
 30
0.000000
  70
    32
  0
VERTEX
  8
0
  5
790
 10
34.6247
 20
332.065
 30
0.000000
  70
    32
  0
VERTEX
  8
0
  5
791
 10
34.6250
 20
332.065
 30
0.000000
  70
    32
  0
VERTEX
  8
0
  5
792
 10
34.6252
 20
332.065
 30
0.000000
  70
    32
  0
VERTEX
  8
0
  5
793
 10
34.6255
 20
332.065
 30
0.000000
  70
    32
  0
VERTEX
  8
0
  5
794
 10
34.6257
 20
332.065
 30
0.000000
  70
    32
  0
VERTEX
  8
0
  5
795
 10
34.6259
 20
332.066
 30
0.000000
  70
    32
  0
VERTEX
  8
0
  5
796
 10
34.6262
 20
332.066
 30
0.000000
  70
    32
  0
VERTEX
  8
0
  5
797
 10
34.6264
 20
332.066
 30
0.000000
  70
    32
  0
VERTEX
  8
0
  5
798
 10
34.6267
 20
332.066
 30
0.000000
  70
    32
  0
VERTEX
  8
0
  5
799
 10
34.6269
 20
332.066
 30
0.000000
  70
    32
  0
VERTEX
  8
0
  5
79A
 10
34.6272
 20
332.066
 30
0.000000
  70
    32
  0
VERTEX
  8
0
  5
79B
 10
34.6274
 20
332.066
 30
0.000000
  70
    32
  0
VERTEX
  8
0
  5
79C
 10
34.6276
 20
332.066
 30
0.000000
  70
    32
  0
VERTEX
  8
0
  5
79D
 10
34.6279
 20
332.066
 30
0.000000
  70
    32
  0
VERTEX
  8
0
  5
79E
 10
34.6281
 20
332.066
 30
0.000000
  70
    32
  0
VERTEX
  8
0
  5
79F
 10
34.6284
 20
332.066
 30
0.000000
  70
    32
  0
VERTEX
  8
0
  5
7A0
 10
34.6286
 20
332.066
 30
0.000000
  70
    32
  0
VERTEX
  8
0
  5
7A1
 10
34.6289
 20
332.066
 30
0.000000
  70
    32
  0
VERTEX
  8
0
  5
7A2
 10
34.6291
 20
332.066
 30
0.000000
  70
    32
  0
VERTEX
  8
0
  5
7A3
 10
34.6293
 20
332.066
 30
0.000000
  70
    32
  0
VERTEX
  8
0
  5
7A4
 10
34.6296
 20
332.066
 30
0.000000
  70
    32
  0
VERTEX
  8
0
  5
7A5
 10
34.6298
 20
332.066
 30
0.000000
  70
    32
  0
VERTEX
  8
0
  5
7A6
 10
34.6301
 20
332.066
 30
0.000000
  70
    32
  0
VERTEX
  8
0
  5
7A7
 10
34.6303
 20
332.066
 30
0.000000
  70
    32
  0
VERTEX
  8
0
  5
7A8
 10
34.6305
 20
332.066
 30
0.000000
  70
    32
  0
VERTEX
  8
0
  5
7A9
 10
34.6308
 20
332.066
 30
0.000000
  70
    32
  0
VERTEX
  8
0
  5
7AA
 10
34.6310
 20
332.066
 30
0.000000
  70
    32
  0
VERTEX
  8
0
  5
7AB
 10
34.6313
 20
332.066
 30
0.000000
  70
    32
  0
VERTEX
  8
0
  5
7AC
 10
34.6315
 20
332.066
 30
0.000000
  70
    32
  0
VERTEX
  8
0
  5
7AD
 10
34.6317
 20
332.066
 30
0.000000
  70
    32
  0
VERTEX
  8
0
  5
7AE
 10
34.6320
 20
332.066
 30
0.000000
  70
    32
  0
VERTEX
  8
0
  5
7AF
 10
34.6322
 20
332.066
 30
0.000000
  70
    32
  0
VERTEX
  8
0
  5
7B0
 10
34.6324
 20
332.066
 30
0.000000
  70
    32
  0
VERTEX
  8
0
  5
7B1
 10
34.6327
 20
332.066
 30
0.000000
  70
    32
  0
VERTEX
  8
0
  5
7B2
 10
34.6329
 20
332.066
 30
0.000000
  70
    32
  0
VERTEX
  8
0
  5
7B3
 10
34.6332
 20
332.066
 30
0.000000
  70
    32
  0
VERTEX
  8
0
  5
7B4
 10
34.6334
 20
332.066
 30
0.000000
  70
    32
  0
VERTEX
  8
0
  5
7B5
 10
34.6336
 20
332.066
 30
0.000000
  70
    32
  0
VERTEX
  8
0
  5
7B6
 10
34.6339
 20
332.066
 30
0.000000
  70
    32
  0
VERTEX
  8
0
  5
7B7
 10
34.6341
 20
332.066
 30
0.000000
  70
    32
  0
VERTEX
  8
0
  5
7B8
 10
34.6343
 20
332.065
 30
0.000000
  70
    32
  0
VERTEX
  8
0
  5
7B9
 10
34.6346
 20
332.065
 30
0.000000
  70
    32
  0
VERTEX
  8
0
  5
7BA
 10
34.6348
 20
332.065
 30
0.000000
  70
    32
  0
SEQEND
  8
0
  5
7BB
  0
LINE
  5
557
  8
0
 10
-163.728541502724
 20
304.69536842836669
 30
0.0
 11
-163.72854151619589
 21
311.80269249438311
 31
0.0
  0
LINE
  5
558
  8
0
 10
-163.72854150121341
 20
376.69536843157272
 30
0.0
 11
-163.72854151619589
 21
383.31169519618311
 31
0.0
  0
LINE
  5
559
  8
0
 10
-163.72854151619589
 20
-25.903517974496939
 30
0.0
 11
-163.72854151619589
 21
-19.287191207176871
 31
0.0
  0
ENDSEC
  0
EOF
