  0
SECTION
  2
HEADER
  9
$ACADVER
  1
AC1009
  9
$INSBASE
 10
0.0
 20
0.0
 30
0.0
  9
$EXTMIN
 10
-642.14150443187498
 20
-63.7465577758162
 30
0.0
  9
$EXTMAX
 10
197.85849556984471
 20
163.12108503866369
 30
0.0
  9
$LIMMIN
 10
0.0
 20
0.0
  9
$LIMMAX
 10
44.0
 20
34.0
  9
$ORTHOMODE
 70
     0
  9
$REGENMODE
 70
     1
  9
$FILLMODE
 70
     1
  9
$QTEXTMODE
 70
     0
  9
$MIRRTEXT
 70
     1
  9
$DRAGMODE
 70
     2
  9
$LTSCALE
 40
2.419999999999999
  9
$OSMODE
 70
    39
  9
$ATTMODE
 70
     1
  9
$TEXTSIZE
 40
0.2
  9
$TRACEWID
 40
0.05
  9
$TEXTSTYLE
  7
STANDARD
  9
$CLAYER
  8
0
  9
$CELTYPE
  6
BYLAYER
  9
$CECOLOR
 62
   256
  9
$DIMSCALE
 40
1.0
  9
$DIMASZ
 40
0.1875
  9
$DIMEXO
 40
0.275
  9
$DIMDLI
 40
1.671999999999999
  9
$DIMRND
 40
0.0
  9
$DIMDLE
 40
0.0
  9
$DIMEXE
 40
0.792
  9
$DIMTP
 40
0.01
  9
$DIMTM
 40
0.01
  9
$DIMTXT
 40
0.3
  9
$DIMCEN
 40
0.396
  9
$DIMTSZ
 40
0.0
  9
$DIMTOL
 70
     1
  9
$DIMLIM
 70
     0
  9
$DIMTIH
 70
     1
  9
$DIMTOH
 70
     1
  9
$DIMSE1
 70
     0
  9
$DIMSE2
 70
     0
  9
$DIMTAD
 70
     0
  9
$DIMZIN
 70
     0
  9
$DIMBLK
  1

  9
$DIMASO
 70
     1
  9
$DIMSHO
 70
     1
  9
$DIMPOST
  1

  9
$DIMAPOST
  1

  9
$DIMALT
 70
     0
  9
$DIMALTD
 70
     2
  9
$DIMALTF
 40
25.399999999999999
  9
$DIMLFAC
 40
1.0
  9
$DIMTOFL
 70
     0
  9
$DIMTVP
 40
0.0
  9
$DIMTIX
 70
     0
  9
$DIMSOXD
 70
     0
  9
$DIMSAH
 70
     0
  9
$DIMBLK1
  1

  9
$DIMBLK2
  1

  9
$DIMSTYLE
  2
STANDARD
  9
$DIMCLRD
 70
     0
  9
$DIMCLRE
 70
     0
  9
$DIMCLRT
 70
     0
  9
$DIMTFAC
 40
1.0
  9
$DIMGAP
 40
0.09
  9
$LUNITS
 70
     2
  9
$LUPREC
 70
     4
  9
$SKETCHINC
 40
0.1
  9
$FILLETRAD
 40
0.0
  9
$AUNITS
 70
     0
  9
$AUPREC
 70
     0
  9
$MENU
  1
acad
  9
$ELEVATION
 40
0.0
  9
$PELEVATION
 40
0.0
  9
$THICKNESS
 40
0.0
  9
$LIMCHECK
 70
     0
  9
$BLIPMODE
 70
     0
  9
$CHAMFERA
 40
0.0
  9
$CHAMFERB
 40
0.0
  9
$SKPOLY
 70
     0
  9
$TDCREATE
 40
2454354.8472185191
  9
$TDUPDATE
 40
2454455.5533365859
  9
$TDINDWG
 40
0.0092369907
  9
$TDUSRTIMER
 40
0.0092369907
  9
$USRTIMER
 70
     1
  9
$ANGBASE
 50
0.0
  9
$ANGDIR
 70
     0
  9
$PDMODE
 70
     3
  9
$PDSIZE
 40
0.3125
  9
$PLINEWID
 40
0.0
  9
$COORDS
 70
     1
  9
$SPLFRAME
 70
     0
  9
$SPLINETYPE
 70
     6
  9
$SPLINESEGS
 70
     8
  9
$ATTDIA
 70
     0
  9
$ATTREQ
 70
     1
  9
$HANDLING
 70
     1
  9
$HANDSEED
  5
821
  9
$SURFTAB1
 70
     6
  9
$SURFTAB2
 70
     6
  9
$SURFTYPE
 70
     6
  9
$SURFU
 70
     6
  9
$SURFV
 70
     6
  9
$UCSNAME
  2

  9
$UCSORG
 10
0.0
 20
0.0
 30
0.0
  9
$UCSXDIR
 10
1.0
 20
0.0
 30
0.0
  9
$UCSYDIR
 10
0.0
 20
1.0
 30
0.0
  9
$PUCSNAME
  2

  9
$PUCSORG
 10
0.0
 20
0.0
 30
0.0
  9
$PUCSXDIR
 10
1.0
 20
0.0
 30
0.0
  9
$PUCSYDIR
 10
0.0
 20
1.0
 30
0.0
  9
$USERI1
 70
     0
  9
$USERI2
 70
     0
  9
$USERI3
 70
     0
  9
$USERI4
 70
     0
  9
$USERI5
 70
     0
  9
$USERR1
 40
0.0
  9
$USERR2
 40
0.0
  9
$USERR3
 40
0.0
  9
$USERR4
 40
0.0
  9
$USERR5
 40
0.0
  9
$WORLDVIEW
 70
     1
  9
$SHADEDGE
 70
     3
  9
$SHADEDIF
 70
    70
  9
$TILEMODE
 70
     1
  9
$MAXACTVP
 70
    16
  9
$PLIMCHECK
 70
     0
  9
$PEXTMIN
 10
1.0000000000000000E+020
 20
1.0000000000000000E+020
 30
1.0000000000000000E+020
  9
$PEXTMAX
 10
-1.0000000000000000E+020
 20
-1.0000000000000000E+020
 30
-1.0000000000000000E+020
  9
$PLIMMIN
 10
0.0
 20
0.0
  9
$PLIMMAX
 10
12.0
 20
9.0
  9
$UNITMODE
 70
     0
  9
$VISRETAIN
 70
     0
  9
$PLINEGEN
 70
     1
  9
$PSLTSCALE
 70
     0
  0
ENDSEC
  0
SECTION
  2
TABLES
  0
TABLE
  2
VPORT
 70
     1
  0
VPORT
  2
*ACTIVE
 70
     0
 10
0.0
 20
0.0
 11
1.0
 21
1.0
 12
-222.14150247523759
 22
49.68726415964116
 13
0.0
 23
0.0
 14
1.0
 24
1.0
 15
0.0
 25
0.0
 16
0.0
 26
0.0
 36
1.0
 17
0.0
 27
0.0
 37
0.0
 40
553.95199411729379
 41
1.5250965250965249
 42
50.0
 43
0.0
 44
0.0
 50
0.0
 51
0.0
 71
     0
 72
   100
 73
     1
 74
     1
 75
     0
 76
     0
 77
     0
 78
     0
  0
ENDTAB
  0
TABLE
  2
LTYPE
 70
    19
  0
LTYPE
  2
CONTINUOUS
 70
     0
  3
Solid line
 72
    65
 73
     0
 40
0.0
  0
LTYPE
  2
CENTER
 70
     0
  3
____ _ ____ _ ____ _ ____ _ ____ _ ____ _ ____
 72
    65
 73
     4
 40
0.6
 49
0.375
 49
-0.075
 49
0.075
 49
-0.075
  0
LTYPE
  2
HIDDEN
 70
     0
  3
- - - - - - - - - - - - - - - - - - - -
 72
    65
 73
     2
 40
0.2
 49
0.1
 49
-0.1
  0
LTYPE
  2
PHANTOM
 70
     0
  3
_____ _ _ _____ _ _ _____ _ _ _____
 72
    65
 73
     6
 40
0.8
 49
0.45
 49
-0.05
 49
0.1
 49
-0.05
 49
0.1
 49
-0.05
  0
LTYPE
  2
DOT
 70
     0
  3
. . . . . . . . . . . . . . . . . . . .
 72
    65
 73
     2
 40
0.2
 49
0.1
 49
-0.1
  0
LTYPE
  2
DASHED
 70
     0
  3
- - - - - - - - - - - - - - - - - - - -
 72
    65
 73
     2
 40
0.2
 49
0.1
 49
-0.1
  0
LTYPE
  2
PHANTOM2
 70
     0
  3
Phantom (.5x) ___ _ _ ___ _ _ ___ _ _ ___ _ _
 72
    65
 73
     6
 40
1.25
 49
0.625
 49
-0.125
 49
0.125
 49
-0.125
 49
0.125
 49
-0.125
  0
LTYPE
  2
AM_ISO02W050
 70
     0
  3
__ __ __ __ __ __ __ __ __ __ __ __ __ __ __
 72
    65
 73
     2
 40
7.5
 49
6.0
 49
-1.5
  0
LTYPE
  2
AM_ISO08W050
 70
     0
  3
____ . ____ . ____ . ____ . ____ . ____ . ____
 72
    65
 73
     4
 40
18.0
 49
12.0
 49
-1.5
 49
3.0
 49
-1.5
  0
LTYPE
  2
AM_ISO09W050
 70
     0
  3
_____ . . _____ . . _____ . . ____ .. ____
 72
    65
 73
     6
 40
22.5
 49
12.0
 49
-1.5
 49
3.0
 49
-1.5
 49
3.0
 49
-1.5
  0
LTYPE
  2
AMCONSTR
 70
     0
  3
_______________________
 72
    65
 73
     2
 40
9999.0
 49
9999.0
 49
0.0
  0
LTYPE
  2
AM_ISO08W050X2
 70
     0
  3
__ . __ . __ . __ . __ . __
 72
    65
 73
     4
 40
9.0
 49
6.0
 49
-0.75
 49
1.5
 49
-0.75
  0
LTYPE
  2
AM_ISO02W050X2
 70
     0
  3
 _ _ _ _ _ _ _ _ _ _ _ _
 72
    65
 73
     2
 40
3.75
 49
3.0
 49
-0.75
  0
LTYPE
  2
AMZIGZAG
 70
     0
  3
/\/-/\/-/\/-/\/-/\/-/\/
 72
    65
 73
     2
 40
11.0001
 49
0.0001
 49
-11.0
  0
LTYPE
  2
CENTER2
 70
     0
  3
Center (.5x) ___ _ ___ _ ___ _ ___ _ ___ _ ___
 72
    65
 73
     4
 40
1.125
 49
0.75
 49
-0.125
 49
0.125
 49
-0.125
  0
LTYPE
  2
HIDDEN2
 70
     0
  3
Hidden (.5x) _ _ _ _ _ _ _ _ _ _ _ _ _ _ _ _ _
 72
    65
 73
     2
 40
0.1875
 49
0.125
 49
-0.0625
  0
LTYPE
  2
AMZIGZAG2
 70
     0
  3
/\/-/\/-/\/-/\/-/\/-/\/
 72
    65
 73
     2
 40
0.4401
 49
0.0001
 49
-0.4400000000000001
  0
LTYPE
  2
ACANSTGB
 70
     0
  3
__ . . __ . .
 72
    65
 73
     6
 40
0.35433070866
 49
0.15748031496
 49
-0.03937007874
 49
0.03937007874
 49
-0.03937007874
 49
0.03937007874
 49
-0.03937007874
  0
LTYPE
  2
ACANSTGL
 70
     0
  3
_ _ _ _ _
 72
    65
 73
     2
 40
0.11811023622
 49
0.07874015748
 49
-0.03937007874
  0
ENDTAB
  0
TABLE
  2
LAYER
 70
    20
  0
LAYER
  2
0
 70
     0
 62
     7
  6
CONTINUOUS
  0
LAYER
  2
DEFAULT_1
 70
     0
 62
     7
  6
CENTER
  0
LAYER
  2
DEFAULT_2
 70
     0
 62
     8
  6
HIDDEN
  0
LAYER
  2
DEFAULT_3
 70
     0
 62
     7
  6
PHANTOM
  0
LAYER
  2
_2D_DELETED_OBJS
 70
     0
 62
     7
  6
CONTINUOUS
  0
LAYER
  2
_BLACK_HOLE
 70
     0
 62
     7
  6
CONTINUOUS
  0
LAYER
  2
DATUMS
 70
     0
 62
     7
  6
CONTINUOUS
  0
LAYER
  2
DATUM_AXIS
 70
     0
 62
     7
  6
CONTINUOUS
  0
LAYER
  2
DATUM_CSYS
 70
     0
 62
     7
  6
CONTINUOUS
  0
LAYER
  2
DATUM_PLANE
 70
     0
 62
     7
  6
CONTINUOUS
  0
LAYER
  2
DATUM_POINT
 70
     0
 62
     7
  6
CONTINUOUS
  0
LAYER
  2
_CURVE
 70
     0
 62
     7
  6
CONTINUOUS
  0
LAYER
  2
_SURFACE
 70
     0
 62
     7
  6
CONTINUOUS
  0
LAYER
  2
__REF_CURVE
 70
     0
 62
     7
  6
CONTINUOUS
  0
LAYER
  2
__REF_SURFACE
 70
     0
 62
     7
  6
CONTINUOUS
  0
LAYER
  2
___COSMETIC_SKETCH
 70
     0
 62
     7
  6
CONTINUOUS
  0
LAYER
  2
___GDT
 70
     0
 62
     7
  6
CONTINUOUS
  0
LAYER
  2
___NOTE
 70
     0
 62
     7
  6
CONTINUOUS
  0
LAYER
  2
___SYMBOL
 70
     0
 62
     7
  6
CONTINUOUS
  0
LAYER
  2
DEFPOINTS
 70
     0
 62
     7
  6
CONTINUOUS
  0
ENDTAB
  0
TABLE
  2
STYLE
 70
     4
  0
STYLE
  2
STANDARD
 70
     0
 40
0.0
 41
0.8
 50
0.0
 71
     0
 42
0.2
  3
txt
  4

  0
STYLE
  2

 70
     1
 40
0.0
 41
1.0
 50
0.0
 71
     0
 42
0.2
  3
genltshp.shx
  4

  0
STYLE
  2
ACANSTS
 70
     0
 40
1.0
 41
1.0
 50
0.0
 71
     0
 42
0.2
  3
romans.shx
  4

  0
STYLE
  2
ACANSGDT
 70
     0
 40
0.0
 41
1.0
 50
0.0
 71
     0
 42
0.2
  3
AMGDT
  4

  0
ENDTAB
  0
TABLE
  2
VIEW
 70
     0
  0
ENDTAB
  0
TABLE
  2
UCS
 70
     0
  0
ENDTAB
  0
TABLE
  2
APPID
 70
    13
  0
APPID
  2
ACAD
 70
     0
  0
APPID
  2
DCO15
 70
     0
  0
APPID
  2
MCAD_NO_VIS
 70
     0
  0
APPID
  2
ACAD_TEMP_GRAPHIC
 70
     0
  0
APPID
  2
AD_DRAW
 70
     0
  0
APPID
  2
ACATTRIBSERVICES
 70
     0
  0
APPID
  2
DESIGNERASSEMBLIES
 70
     0
  0
APPID
  2
ACADM_DIM_EDIT
 70
     0
  0
APPID
  2
AMDT_DM_ADJ
 70
     0
  0
APPID
  2
ACAD_DSTYLE_DIMARC_LENGTH_
 70
     0
  0
APPID
  2
ACAD_DSTYLE_DIMJOGGED_JOGA
 70
     0
  0
APPID
  2
ACAD_EXEMPT_FROM_CAD_STANDARDS
 70
     0
  0
APPID
  2
ACAD_DSTYLE_DIMARC_LENGTH_SYMBOL
 70
     0
  0
ENDTAB
  0
TABLE
  2
DIMSTYLE
 70
     7
  0
DIMSTYLE
  2
STANDARD
 70
     0
  3

  4

  5

  6

  7

 40
1.0
 41
0.1875
 42
0.0625
 43
0.38
 44
0.18
 45
0.0
 46
0.0
 47
0.01
 48
0.01
140
0.3
141
0.09
142
0.0
143
25.399999999999999
144
1.0
145
0.0
146
1.0
147
0.09
 71
     1
 72
     0
 73
     1
 74
     1
 75
     0
 76
     0
 77
     0
 78
     4
170
     0
171
     2
172
     0
173
     0
174
     0
175
     0
176
     0
177
     0
178
     0
  0
DIMSTYLE
  2
AM_ANSI
 70
     0
  3

  4
mm
  5

  6

  7

 40
1.0
 41
0.1
 42
0.05
 43
0.5
 44
0.1
 45
0.0
 46
0.0
 47
0.1
 48
0.1
140
0.12
141
0.0
142
0.0
143
25.399999999999999
144
1.0
145
0.0
146
0.71
147
0.06
 71
     0
 72
     0
 73
     1
 74
     1
 75
     0
 76
     0
 77
     0
 78
     7
170
     0
171
     2
172
     0
173
     0
174
     0
175
     0
176
   256
177
   256
178
     2
  0
DIMSTYLE
  2
AM_ANSI$3
 70
     0
  3

  4
mm
  5

  6

  7

 40
1.0
 41
0.1
 42
0.05
 43
0.5
 44
0.1
 45
0.0
 46
0.0
 47
0.1
 48
0.1
140
0.12
141
0.0
142
0.0
143
25.399999999999999
144
1.0
145
0.0
146
0.71
147
0.06
 71
     0
 72
     0
 73
     1
 74
     1
 75
     0
 76
     0
 77
     0
 78
     7
170
     0
171
     2
172
     0
173
     0
174
     0
175
     0
176
   256
177
   256
178
     2
  0
DIMSTYLE
  2
AM_ANSI$4
 70
     0
  3

  4
mm
  5

  6

  7

 40
1.0
 41
0.1
 42
0.05
 43
0.5
 44
0.1
 45
0.0
 46
0.0
 47
0.1
 48
0.1
140
0.12
141
0.0
142
0.0
143
25.399999999999999
144
1.0
145
0.0
146
0.71
147
0.06
 71
     0
 72
     0
 73
     1
 74
     1
 75
     0
 76
     0
 77
     0
 78
     7
170
     0
171
     2
172
     0
173
     0
174
     0
175
     0
176
   256
177
   256
178
     2
  0
DIMSTYLE
  2
AM_ANSI$7
 70
     0
  3

  4
mm
  5

  6

  7

 40
1.0
 41
0.1
 42
0.05
 43
0.5
 44
0.1
 45
0.0
 46
0.0
 47
0.1
 48
0.1
140
0.24
141
0.0
142
0.0
143
25.399999999999999
144
1.0
145
0.0
146
0.71
147
0.06
 71
     0
 72
     0
 73
     1
 74
     1
 75
     0
 76
     0
 77
     0
 78
     7
170
     0
171
     2
172
     0
173
     0
174
     0
175
     0
176
   256
177
   256
178
     2
  0
DIMSTYLE
  2
AM_ANSI$SF
 70
     0
  3

  4
mm
  5

  6

  7

 40
1.0
 41
0.1
 42
0.05
 43
0.5
 44
0.1
 45
0.0
 46
0.0
 47
0.1
 48
0.1
140
0.12
141
0.0
142
0.0
143
25.399999999999999
144
1.0
145
0.0
146
0.71
147
0.06
 71
     0
 72
     0
 73
     1
 74
     1
 75
     1
 76
     1
 77
     0
 78
     7
170
     0
171
     2
172
     0
173
     0
174
     0
175
     0
176
   256
177
   256
178
     2
  0
DIMSTYLE
  2
AM_ANSI$SH
 70
     0
  3

  4
mm
  5

  6
GENAXEH
  7

 40
1.0
 41
0.1
 42
0.05
 43
0.5
 44
0.1
 45
0.0
 46
0.0
 47
0.1
 48
0.1
140
0.12
141
0.0
142
0.0
143
25.399999999999999
144
1.0
145
0.0
146
0.71
147
0.06
 71
     0
 72
     0
 73
     1
 74
     1
 75
     1
 76
     1
 77
     0
 78
     7
170
     0
171
     2
172
     0
173
     1
174
     0
175
     0
176
   256
177
   256
178
     2
  0
ENDTAB
  0
ENDSEC
  0
SECTION
  2
BLOCKS
  0
BLOCK
  8
0
  2
$MODEL_SPACE
 70
     0
 10
0.0
 20
0.0
 30
0.0
  3
$MODEL_SPACE
  1

  0
ENDBLK
  5
21
  8
0
  0
BLOCK
 67
     1
  8
0
  2
$PAPER_SPACE
 70
     0
 10
0.0
 20
0.0
 30
0.0
  3
$PAPER_SPACE
  1

  0
ENDBLK
  5
1D
 67
     1
  8
0
  0
BLOCK
  8
0
  2
GENAXEH
 70
     0
 10
0.0
 20
0.0
 30
0.0
  3
GENAXEH
  1

  0
LINE
  5
51F
  8
0
 10
-1.0
 20
0.0
 30
0.0
 11
1.0
 21
0.0
 31
0.0
  0
ENDBLK
  5
521
  8
0
  0
BLOCK
  8
0
  2
*U3
 70
     1
 10
0.0
 20
0.0
 30
0.0
  3
*U3
  1

  0
TEXT
  5
81A
  8
0
 62
     0
 10
12.704676850749999
 20
24.245461102220929
 30
0.0
 40
0.3
  1
16.5354¡À0.0100
 41
0.8
  0
ENDBLK
  5
81C
  8
0
  0
BLOCK
  8
0
  2
*U4
 70
     1
 10
0.0
 20
0.0
 30
0.0
  3
*U4
  1

  0
TEXT
  5
81E
  8
0
 62
     0
 10
-223.52150443101519
 20
62.029322060861297
 30
0.0
 40
0.3
  1
840.0000¡À0.0100
 41
0.8
  0
ENDBLK
  5
820
  8
0
  0
ENDSEC
  0
SECTION
  2
ENTITIES
  0
TEXT
  5
228
  8
0
  6
CONTINUOUS
 62
     2
 10
38.296666666699998
 20
2.0499999999999989
 30
0.0
 40
0.1
  1
 
 41
0.8
  0
TEXT
  5
230
  8
0
  6
CONTINUOUS
 62
     2
 10
40.452500000000001
 20
3.524999999999999
 30
0.0
 40
0.1
  1
 
 41
0.95
 72
     1
 11
40.499999999999993
 21
3.524999999999999
 31
0.0
  0
LINE
  5
24C
  8
0
  6
CONTINUOUS
 62
     7
 10
-642.14150443187498
 20
155.70687147494391
 30
0.0
 11
-642.14150443187498
 21
157.121085034624
 31
0.0
  0
LINE
  5
24E
  8
0
  6
CONTINUOUS
 62
     7
 10
-598.14150443103506
 20
137.12980521538381
 30
0.0
 11
-598.14150443103506
 21
-13.415231108216171
 31
0.0
  0
POLYLINE
  5
24F
  8
0
  6
CONTINUOUS
 62
     7
 66
     1
 10
0.0
 20
0.0
 30
0.0
  0
VERTEX
  5
7CC
  8
0
  6
CONTINUOUS
 62
     7
 10
-595.24967532519497
 20
-28.152937568736089
 30
0.0
  0
VERTEX
  5
7CD
  8
0
  6
CONTINUOUS
 62
     7
 10
-594.58115753091511
 20
-29.695003379696121
 30
0.0
  0
VERTEX
  5
7CE
  8
0
  6
CONTINUOUS
 62
     7
 10
-593.79319278731498
 20
-31.311054442736239
 30
0.0
  0
SEQEND
  5
7CF
  8
0
  6
CONTINUOUS
 62
     7
  0
LINE
  5
250
  8
0
  6
CONTINUOUS
 62
     7
 10
-595.85108238247506
 20
-26.583635876256039
 30
0.0
 11
-595.21475960127509
 21
-28.238195066496129
 31
0.0
  0
LINE
  5
251
  8
0
  6
CONTINUOUS
 62
     7
 10
-596.3842823117551
 20
-24.99000943689612
 30
0.0
 11
-595.82416276651509
 21
-26.658439800816041
 31
0.0
  0
LINE
  5
252
  8
0
  6
CONTINUOUS
 62
     7
 10
-596.84830406087508
 20
-23.375013215536232
 30
0.0
 11
-596.36441105355505
 21
-25.053754292896091
 31
0.0
  0
LINE
  5
253
  8
0
  6
CONTINUOUS
 62
     7
 10
-597.09743691287497
 20
-22.37889045289614
 30
0.0
 11
-596.83449103287512
 21
-23.42716201649614
 31
0.0
  0
LINE
  5
254
  8
0
  6
CONTINUOUS
 62
     7
 10
-637.31306112967513
 20
161.9494952457037
 30
0.0
 11
-642.14146821147494
 21
157.12104882438391
 31
0.0
  0
LINE
  5
255
  8
0
  6
CONTINUOUS
 62
     7
 10
-591.26242168427495
 20
-35.534152209376089
 30
0.0
 11
-590.17905091731507
 21
-37.030283649416113
 31
0.0
  0
LINE
  5
256
  8
0
  6
CONTINUOUS
 62
     7
 10
-592.18586013203515
 20
-34.129249365136047
 30
0.0
 11
-591.17492899159515
 21
-35.660673551456057
 31
0.0
  0
LINE
  5
257
  8
0
  6
CONTINUOUS
 62
     7
 10
-593.04783577663511
 20
-32.685952190776113
 30
0.0
 11
-592.11040186791513
 21
-34.249140982096151
 31
0.0
  0
LINE
  5
258
  8
0
  6
CONTINUOUS
 62
     7
 10
-593.84675809039516
 20
-31.20695291865616
 30
0.0
 11
-592.98370431739522
 21
-32.798355354336081
 31
0.0
  0
LINE
  5
259
  8
0
  6
CONTINUOUS
 62
     7
 10
-595.21475960127509
 20
-28.238195066496129
 30
0.0
 11
-594.53734501503504
 21
-29.790043108336139
 31
0.0
  0
LINE
  5
25A
  8
0
  6
CONTINUOUS
 62
     7
 10
-616.5787401447551
 20
147.8269898103039
 30
0.0
 11
-618.69014807331507
 21
155.70687147494391
 31
0.0
  0
POLYLINE
  5
25E
  8
0
  6
CONTINUOUS
 62
     7
 66
     1
 10
0.0
 20
0.0
 30
0.0
  0
VERTEX
  5
7D0
  8
0
  6
CONTINUOUS
 62
     7
 10
-590.17905091731507
 20
-37.030283649416113
 30
0.0
  0
VERTEX
  5
7D1
  8
0
  6
CONTINUOUS
 62
     7
 10
-589.12464315567502
 20
-38.35538729841619
 30
0.0
  0
VERTEX
  5
7D2
  8
0
  6
CONTINUOUS
 62
     7
 10
-588.01369139231508
 20
-39.633484645696171
 30
0.0
  0
VERTEX
  5
7D3
  8
0
  6
CONTINUOUS
 62
     7
 10
-586.84829316939511
 20
-40.862159094616111
 30
0.0
  0
VERTEX
  5
7D4
  8
0
  6
CONTINUOUS
 62
     7
 10
-585.63064449471517
 20
-42.039092778336233
 30
0.0
  0
VERTEX
  5
7D5
  8
0
  6
CONTINUOUS
 62
     7
 10
-584.36303997887512
 20
-43.162065274576094
 30
0.0
  0
VERTEX
  5
7D6
  8
0
  6
CONTINUOUS
 62
     7
 10
-583.04787411035511
 20
-44.228953488776142
 30
0.0
  0
VERTEX
  5
7D7
  8
0
  6
CONTINUOUS
 62
     7
 10
-581.68762613235515
 20
-45.237745060216177
 30
0.0
  0
VERTEX
  5
7D8
  8
0
  6
CONTINUOUS
 62
     7
 10
-580.28486034251512
 20
-46.186537132656099
 30
0.0
  0
VERTEX
  5
7D9
  8
0
  6
CONTINUOUS
 62
     7
 10
-578.84222737307505
 20
-47.073536374656207
 30
0.0
  0
VERTEX
  5
7DA
  8
0
  6
CONTINUOUS
 62
     7
 10
-577.36244742179508
 20
-47.897070307976151
 30
0.0
  0
VERTEX
  5
7DB
  8
0
  6
CONTINUOUS
 62
     7
 10
-575.84831073455507
 20
-48.655586113776053
 30
0.0
  0
VERTEX
  5
7DC
  8
0
  6
CONTINUOUS
 62
     7
 10
-574.30267887535513
 20
-49.347650830736143
 30
0.0
  0
VERTEX
  5
7DD
  8
0
  6
CONTINUOUS
 62
     7
 10
-572.72846660595519
 20
-49.971960402536183
 30
0.0
  0
VERTEX
  5
7DE
  8
0
  6
CONTINUOUS
 62
     7
 10
-571.12864251071505
 20
-50.527338545016157
 30
0.0
  0
VERTEX
  5
7DF
  8
0
  6
CONTINUOUS
 62
     7
 10
-569.50623024119511
 20
-51.012737096696121
 30
0.0
  0
VERTEX
  5
7E0
  8
0
  6
CONTINUOUS
 62
     7
 10
-567.86428937979508
 20
-51.4272426329361
 30
0.0
  0
VERTEX
  5
7E1
  8
0
  6
CONTINUOUS
 62
     7
 10
-566.20591619667505
 20
-51.770075444856161
 30
0.0
  0
VERTEX
  5
7E2
  8
0
  6
CONTINUOUS
 62
     7
 10
-564.53424483339506
 20
-52.040589986376062
 30
0.0
  0
VERTEX
  5
7E3
  8
0
  6
CONTINUOUS
 62
     7
 10
-562.85242982263514
 20
-52.238278775655999
 30
0.0
  0
SEQEND
  5
7E4
  8
0
  6
CONTINUOUS
 62
     7
  0
POLYLINE
  5
25F
  8
0
  6
CONTINUOUS
 62
     7
 66
     1
 10
0.0
 20
0.0
 30
0.0
  0
VERTEX
  5
7E5
  8
0
  6
CONTINUOUS
 62
     7
 10
-590.27924264479509
 20
-36.898017452176077
 30
0.0
  0
VERTEX
  5
7E6
  8
0
  6
CONTINUOUS
 62
     7
 10
-589.2381421209551
 20
-38.218303401896037
 30
0.0
  0
VERTEX
  5
7E7
  8
0
  6
CONTINUOUS
 62
     7
 10
-588.1410462506351
 20
-39.492550170136163
 30
0.0
  0
VERTEX
  5
7E8
  8
0
  6
CONTINUOUS
 62
     7
 10
-586.9900058095152
 20
-40.71836216605606
 30
0.0
  0
VERTEX
  5
7E9
  8
0
  6
CONTINUOUS
 62
     7
 10
-585.78715538819495
 20
-41.89345576709615
 30
0.0
  0
VERTEX
  5
7EA
  8
0
  6
CONTINUOUS
 62
     7
 10
-584.53472622427512
 20
-43.01564126465609
 30
0.0
  0
VERTEX
  5
7EB
  8
0
  6
CONTINUOUS
 62
     7
 10
-583.23506409411505
 20
-44.082809701816132
 30
0.0
  0
VERTEX
  5
7EC
  8
0
  6
CONTINUOUS
 62
     7
 10
-581.89058321691505
 20
-45.092974214376113
 30
0.0
  0
VERTEX
  5
7ED
  8
0
  6
CONTINUOUS
 62
     7
 10
-580.50378133723495
 20
-46.044253759616133
 30
0.0
  0
VERTEX
  5
7EE
  8
0
  6
CONTINUOUS
 62
     7
 10
-579.07725912043509
 20
-46.934862351776133
 30
0.0
  0
VERTEX
  5
7EF
  8
0
  6
CONTINUOUS
 62
     7
 10
-577.61366909359515
 20
-47.763144088656183
 30
0.0
  0
VERTEX
  5
7F0
  8
0
  6
CONTINUOUS
 62
     7
 10
-576.11573271431496
 20
-48.527558963176141
 30
0.0
  0
VERTEX
  5
7F1
  8
0
  6
CONTINUOUS
 62
     7
 10
-574.58626094471515
 20
-49.226674659176069
 30
0.0
  0
VERTEX
  5
7F2
  8
0
  6
CONTINUOUS
 62
     7
 10
-573.02809913851513
 20
-49.85919467429607
 30
0.0
  0
VERTEX
  5
7F3
  8
0
  6
CONTINUOUS
 62
     7
 10
-571.4441457303551
 20
-50.42394643277612
 30
0.0
  0
VERTEX
  5
7F4
  8
0
  6
CONTINUOUS
 62
     7
 10
-569.83737373943507
 20
-50.919875788896093
 30
0.0
  0
VERTEX
  5
7F5
  8
0
  6
CONTINUOUS
 62
     7
 10
-568.21077244603521
 20
-51.34606777877616
 30
0.0
  0
VERTEX
  5
7F6
  8
0
  6
CONTINUOUS
 62
     7
 10
-566.56736749307515
 20
-51.701737222376202
 30
0.0
  0
VERTEX
  5
7F7
  8
0
  6
CONTINUOUS
 62
     7
 10
-564.9102428672752
 20
-51.986226031096059
 30
0.0
  0
VERTEX
  5
7F8
  8
0
  6
CONTINUOUS
 62
     7
 10
-563.24248969275516
 20
-52.199015252456213
 30
0.0
  0
VERTEX
  5
7F9
  8
0
  6
CONTINUOUS
 62
     7
 10
-561.56719961687497
 20
-52.339722052576121
 30
0.0
  0
SEQEND
  5
7FA
  8
0
  6
CONTINUOUS
 62
     7
  0
LINE
  5
260
  8
0
  6
CONTINUOUS
 62
     7
 10
-475.15521294919512
 20
-58.620489496096191
 30
0.0
 11
-476.19730738519502
 21
-56.796824222936152
 31
0.0
  0
LINE
  5
261
  8
0
  6
CONTINUOUS
 62
     7
 10
-599.00916564719512
 20
139.22480888414381
 30
0.0
 11
-603.0377475265152
 21
143.25341251094389
 31
0.0
  0
LINE
  5
262
  8
0
  6
CONTINUOUS
 62
     7
 10
-462.31783141039512
 20
-63.7465577758162
 30
0.0
 11
-474.20801155175502
 21
-59.418886121296161
 31
0.0
  0
LINE
  5
263
  8
0
  6
CONTINUOUS
 62
     7
 10
-462.31783141039512
 20
-63.7465577758162
 30
0.0
 11
-371.96517745007509
 21
-63.7465577758162
 31
0.0
  0
LINE
  5
264
  8
0
  6
CONTINUOUS
 62
     7
 10
-507.1851254805552
 20
-54.253360069336161
 30
0.0
 11
-560.50258479919512
 21
-52.391473363856221
 31
0.0
  0
LINE
  5
265
  8
0
  6
CONTINUOUS
 62
     7
 10
-561.56719961687497
 20
-52.339722052576121
 30
0.0
 11
-560.50258479919512
 21
-52.391473267336089
 31
0.0
  0
LINE
  5
266
  8
0
  6
CONTINUOUS
 62
     7
 10
-477.82912175935502
 20
-55.791843032496217
 30
0.0
 11
-507.1851254805552
 21
-54.253360069336161
 31
0.0
  0
POLYLINE
  5
267
  8
0
  6
CONTINUOUS
 62
     7
 66
     1
 10
0.0
 20
0.0
 30
0.0
  0
VERTEX
  5
7FB
  8
0
  6
CONTINUOUS
 62
     7
 10
-562.85242982263514
 20
-52.238278775655999
 30
0.0
  0
VERTEX
  5
7FC
  8
0
  6
CONTINUOUS
 62
     7
 10
-561.16363993631512
 20
-52.362772308736218
 30
0.0
  0
VERTEX
  5
7FD
  8
0
  6
CONTINUOUS
 62
     7
 10
-560.50258479919512
 20
-52.391473328296108
 30
0.0
  0
SEQEND
  5
7FE
  8
0
  6
CONTINUOUS
 62
     7
  0
LINE
  5
268
  8
0
  6
CONTINUOUS
 62
     7
 10
33.546112897324861
 20
-35.791843032576253
 30
0.0
 11
62.902116618524701
 21
-34.25336006941609
 31
0.0
  0
LINE
  5
269
  8
0
  6
CONTINUOUS
 62
     7
 10
-356.45388710111507
 20
-55.791843032496217
 30
0.0
 11
-327.097883379915
 21
-54.253360069336161
 31
0.0
  0
LINE
  5
26A
  8
0
  6
CONTINUOUS
 62
     7
 10
-327.097883379915
 20
-54.253360069336161
 30
0.0
 11
-273.78042406127508
 21
-52.391473363856221
 31
0.0
  0
LINE
  5
26B
  8
0
  6
CONTINUOUS
 62
     7
 10
62.902116618524701
 20
-34.25336006941609
 30
0.0
 11
116.219575942245
 21
-32.391473363936143
 31
0.0
  0
LINE
  5
271
  8
0
  6
CONTINUOUS
 62
     7
 10
-72.31783141195524
 20
-43.746557775896108
 30
0.0
 11
18.0348225483649
 21
-43.746557775896108
 31
0.0
  0
LINE
  5
279
  8
0
  6
CONTINUOUS
 62
     7
 10
-359.1277959112752
 20
-58.620489496096191
 30
0.0
 11
-358.08570147527507
 21
-56.796824222936152
 31
0.0
  0
LINE
  5
27A
  8
0
  6
CONTINUOUS
 62
     7
 10
-235.27384321327509
 20
139.22480888414381
 30
0.0
 11
-231.2452613339552
 21
143.25341251094389
 31
0.0
  0
LINE
  5
27B
  8
0
  6
CONTINUOUS
 62
     7
 10
-117.1851254770351
 20
-34.25336006941609
 30
0.0
 11
-170.50258480075519
 21
-32.391473363936143
 31
0.0
  0
LINE
  5
27C
  8
0
  6
CONTINUOUS
 62
     7
 10
-171.56719943047511
 20
-32.339722067896219
 30
0.0
 11
-170.50258480075519
 21
-32.391473267416131
 31
0.0
  0
LINE
  5
27D
  8
0
  6
CONTINUOUS
 62
     7
 10
-87.829121760915086
 20
-35.791843032576253
 30
0.0
 11
-117.1851254770351
 21
-34.25336006941609
 31
0.0
  0
LINE
  5
27E
  8
0
  6
CONTINUOUS
 62
     7
 10
-173.05848654187511
 20
-32.21803059169622
 30
0.0
 11
-171.3770032601951
 21
-32.35110841545611
 31
0.0
  0
POLYLINE
  5
27F
  8
0
  6
CONTINUOUS
 62
     7
 66
     1
 10
0.0
 20
0.0
 30
0.0
  0
VERTEX
  5
7FF
  8
0
  6
CONTINUOUS
 62
     7
 10
-178.04647607311509
 20
-31.384975336296179
 30
0.0
  0
VERTEX
  5
800
  8
0
  6
CONTINUOUS
 62
     7
 10
-176.396344783595
 20
-31.7345120006961
 30
0.0
  0
VERTEX
  5
801
  8
0
  6
CONTINUOUS
 62
     7
 10
-174.7326442095551
 20
-32.012370281656217
 30
0.0
  0
VERTEX
  5
802
  8
0
  6
CONTINUOUS
 62
     7
 10
-173.05848654187511
 20
-32.21803059169622
 30
0.0
  0
SEQEND
  5
803
  8
0
  6
CONTINUOUS
 62
     7
  0
POLYLINE
  5
280
  8
0
  6
CONTINUOUS
 62
     7
 66
     1
 10
0.0
 20
0.0
 30
0.0
  0
VERTEX
  5
804
  8
0
  6
CONTINUOUS
 62
     7
 10
-178.2107676876351
 20
-31.346068916776179
 30
0.0
  0
VERTEX
  5
805
  8
0
  6
CONTINUOUS
 62
     7
 10
-176.56736443647509
 20
-31.701737816816149
 30
0.0
  0
VERTEX
  5
806
  8
0
  6
CONTINUOUS
 62
     7
 10
-174.9102411670352
 20
-31.986226290256131
 30
0.0
  0
VERTEX
  5
807
  8
0
  6
CONTINUOUS
 62
     7
 10
-173.24248893739511
 20
-32.199015333816192
 30
0.0
  0
VERTEX
  5
808
  8
0
  6
CONTINUOUS
 62
     7
 10
-171.56719943047511
 20
-32.339722067896219
 30
0.0
  0
SEQEND
  5
809
  8
0
  6
CONTINUOUS
 62
     7
  0
LINE
  5
281
  8
0
  6
CONTINUOUS
 62
     7
 10
-179.83736707603521
 20
-30.919877693976218
 30
0.0
 11
-178.04647607311509
 21
-31.384975336296179
 31
0.0
  0
LINE
  5
282
  8
0
  6
CONTINUOUS
 62
     7
 10
-181.44413697399511
 20
-30.423949348776201
 30
0.0
 11
-179.67995097735511
 21
-30.964414069216112
 31
0.0
  0
LINE
  5
283
  8
0
  6
CONTINUOUS
 62
     7
 10
-183.0280881215551
 20
-29.859198875536102
 30
0.0
 11
-181.2937139626751
 21
-30.47361477649611
 31
0.0
  0
LINE
  5
284
  8
0
  6
CONTINUOUS
 62
     7
 10
-184.58624765191499
 20
-29.226680399656178
 30
0.0
 11
-182.88474637115519
 21
-29.91349541921613
 31
0.0
  0
LINE
  5
285
  8
0
  6
CONTINUOUS
 62
     7
 10
-186.11571714059511
 20
-28.527566496896039
 30
0.0
 11
-184.45007165299521
 21
-29.285103793096031
 31
0.0
  0
LINE
  5
286
  8
0
  6
CONTINUOUS
 62
     7
 10
-72.31783141195524
 20
-43.746557775896108
 30
0.0
 11
-84.208011548235277
 21
-39.418886121376211
 31
0.0
  0
LINE
  5
287
  8
0
  6
CONTINUOUS
 62
     7
 10
-187.6136512541951
 20
-27.763153684856089
 30
0.0
 11
-185.98676176223509
 21
-28.58961528821613
 31
0.0
  0
LINE
  5
288
  8
0
  6
CONTINUOUS
 62
     7
 10
-189.0772391677551
 20
-26.93487421873624
 30
0.0
 11
-187.4919422011952
 21
-27.82833080113619
 31
0.0
  0
LINE
  5
289
  8
0
  6
CONTINUOUS
 62
     7
 10
-190.5037594389151
 20
-26.044268095456001
 30
0.0
 11
-188.96279704967509
 21
-27.002674535256119
 31
0.0
  0
LINE
  5
28A
  8
0
  6
CONTINUOUS
 62
     7
 10
-191.8905595456751
 20
-25.092991217216198
 30
0.0
 11
-190.39657498475509
 21
-26.114190922336089
 31
0.0
  0
LINE
  5
28B
  8
0
  6
CONTINUOUS
 62
     7
 10
-193.235038944595
 20
-24.082829463096228
 30
0.0
 11
-191.79059404075511
 21
-25.164541919936031
 31
0.0
  0
LINE
  5
28C
  8
0
  6
CONTINUOUS
 62
     7
 10
-194.5346998860351
 20
-23.015663860576069
 30
0.0
 11
-193.14224628283509
 21
-24.155504171696069
 31
0.0
  0
LINE
  5
28D
  8
0
  6
CONTINUOUS
 62
     7
 10
-195.78712815587519
 20
-21.893481248456169
 30
0.0
 11
-194.44900340007521
 21
-23.088965171936142
 31
0.0
  0
LINE
  5
28E
  8
0
  6
CONTINUOUS
 62
     7
 10
-196.98997806411509
 20
-20.7183904718961
 30
0.0
 11
-195.70842105903509
 21
-21.966919999216088
 31
0.0
  0
LINE
  5
28F
  8
0
  6
CONTINUOUS
 62
     7
 10
-198.14101835283509
 20
-19.492581193776122
 30
0.0
 11
-196.9181431811152
 21
-20.791467831456089
 31
0.0
  0
LINE
  5
290
  8
0
  6
CONTINUOUS
 62
     7
 10
-199.23811441619509
 20
-18.21833701633625
 30
0.0
 11
-198.0759069971551
 21
-19.564807506016109
 31
0.0
  0
LINE
  5
291
  8
0
  6
CONTINUOUS
 62
     7
 10
-236.14150442943509
 20
137.12980521538381
 30
0.0
 11
-236.14150442943509
 21
-13.415231108216171
 31
0.0
  0
LINE
  5
292
  8
0
  6
CONTINUOUS
 62
     7
 10
-200.2792155394751
 20
-16.89805339833617
 30
0.0
 11
-199.17954692347519
 21
-18.289233623336031
 31
0.0
  0
LINE
  5
293
  8
0
  6
CONTINUOUS
 62
     7
 10
-201.2623955390751
 20
-15.5341901773761
 30
0.0
 11
-200.2269983667951
 21
-16.967132615016219
 31
0.0
  0
LINE
  5
294
  8
0
  6
CONTINUOUS
 62
     7
 10
-202.18583527715509
 20
-14.129289019696101
 30
0.0
 11
-201.2163021539952
 21
-15.60097763841611
 31
0.0
  0
LINE
  5
295
  8
0
  6
CONTINUOUS
 62
     7
 10
-203.04781256259511
 20
-12.68599303405608
 30
0.0
 11
-202.1456078696751
 21
-14.19332424341621
 31
0.0
  0
LINE
  5
296
  8
0
  6
CONTINUOUS
 62
     7
 10
-203.84673682199511
 20
-11.206994412176069
 30
0.0
 11
-203.01317711243519
 21
-12.74680600361614
 31
0.0
  0
LINE
  5
297
  8
0
  6
CONTINUOUS
 62
     7
 10
-204.58113843167521
 20
-9.6950449494161148
 30
0.0
 11
-203.8173872286751
 21
-11.26412884705621
 31
0.0
  0
LINE
  5
298
  8
0
  6
CONTINUOUS
 62
     7
 10
-205.24965860339529
 20
-8.1529785440961842
 30
0.0
 11
-204.5567341370751
 21
-9.7480662403761471
 31
0.0
  0
LINE
  5
299
  8
0
  6
CONTINUOUS
 62
     7
 10
-205.85106816511521
 20
-6.5836755054161813
 30
0.0
 11
-205.2298349397152
 21
-8.2014544136161476
 31
0.0
  0
LINE
  5
29A
  8
0
  6
CONTINUOUS
 62
     7
 10
-206.3842706394752
 20
-4.9900470035760227
 30
0.0
 11
-205.8354307821152
 21
-6.6271865893361328
 31
0.0
  0
LINE
  5
29B
  8
0
  6
CONTINUOUS
 62
     7
 10
-206.84829486763519
 20
-3.3750480237761158
 30
0.0
 11
-206.37238919003519
 21
-5.0282074352561494
 31
0.0
  0
LINE
  5
29C
  8
0
  6
CONTINUOUS
 62
     7
 10
-207.06869841463509
 20
-2.4997209047361362
 30
0.0
 11
-206.84829486763519
 21
-3.3750480237761158
 31
0.0
  0
LINE
  5
29D
  8
0
  6
CONTINUOUS
 62
     7
 10
-207.2365076954751
 20
-1.76811836997615
 30
0.0
 11
-206.8397060506752
 21
-3.4075078064561231
 31
0.0
  0
POLYLINE
  5
29E
  8
0
  6
CONTINUOUS
 62
     7
 66
     1
 10
0.0
 20
0.0
 30
0.0
  0
VERTEX
  5
80A
  8
0
  6
CONTINUOUS
 62
     7
 10
-208.14150443259521
 20
6.5847444061038232
 30
0.0
  0
VERTEX
  5
80B
  8
0
  6
CONTINUOUS
 62
     7
 10
-208.10572461083521
 20
4.914575595063865
 30
0.0
  0
VERTEX
  5
80C
  8
0
  6
CONTINUOUS
 62
     7
 10
-207.9970665096352
 20
3.2313683696639819
 30
0.0
  0
VERTEX
  5
80D
  8
0
  6
CONTINUOUS
 62
     7
 10
-207.81572944279509
 20
1.5544290209838889
 30
0.0
  0
VERTEX
  5
80E
  8
0
  6
CONTINUOUS
 62
     7
 10
-207.5620518399152
 20
-0.113106597456067
 30
0.0
  0
VERTEX
  5
80F
  8
0
  6
CONTINUOUS
 62
     7
 10
-207.2365076954751
 20
-1.76811836997615
 30
0.0
  0
SEQEND
  5
810
  8
0
  6
CONTINUOUS
 62
     7
  0
LINE
  5
29F
  8
0
  6
CONTINUOUS
 62
     7
 10
-208.14150443259521
 20
137.12980521538381
 30
0.0
 11
-208.14150443259521
 21
6.5847688917039022
 31
0.0
  0
LINE
  5
2A0
  8
0
  6
CONTINUOUS
 62
     7
 10
-371.96517745007509
 20
-63.7465577758162
 30
0.0
 11
-360.07499730871518
 21
-59.418886121296161
 31
0.0
  0
LINE
  5
2A7
  8
0
  6
CONTINUOUS
 62
     7
 10
-213.03805111903509
 20
143.25341816498391
 30
0.0
 11
-209.0091713027951
 21
139.22453834366391
 31
0.0
  0
LINE
  5
2A8
  8
0
  6
CONTINUOUS
 62
     7
 10
-85.155212945675203
 20
-38.620489496176113
 30
0.0
 11
-86.197307386755142
 21
-36.796824223016188
 31
0.0
  0
LINE
  5
2AB
  8
0
  6
CONTINUOUS
 62
     7
 10
167.46610215612489
 20
144.1210850351838
 30
0.0
 11
160.84949286968481
 21
144.121085035184
 31
0.0
  0
LINE
  5
2AD
  8
0
  6
CONTINUOUS
 62
     7
 10
-642.14150443187498
 20
155.70679328358389
 30
0.0
 11
197.85849556984471
 21
155.70679328358389
 31
0.0
  0
LINE
  5
2B0
  8
0
  6
CONTINUOUS
 62
     7
 10
-634.4846336343951
 20
163.12108503866369
 30
0.0
 11
190.20162477236471
 21
163.12108503866369
 31
0.0
  0
LINE
  5
2B1
  8
0
  6
CONTINUOUS
 62
     7
 10
18.0348225483649
 20
-43.746557775896108
 30
0.0
 11
29.92500268972492
 21
-39.418886121376211
 31
0.0
  0
LINE
  5
2B2
  8
0
  6
CONTINUOUS
 62
     7
 10
158.7550422605247
 20
143.25341816498391
 30
0.0
 11
154.7261624392047
 21
139.22453834366391
 31
0.0
  0
LINE
  5
2B3
  8
0
  6
CONTINUOUS
 62
     7
 10
30.87220408716485
 20
-38.620489496176113
 30
0.0
 11
31.914298528244789
 21
-36.796824223016188
 31
0.0
  0
LINE
  5
2B7
  8
0
  6
CONTINUOUS
 62
     7
 10
153.85849556900479
 20
137.13006711478391
 30
0.0
 11
153.85849556900479
 21
6.5847688917039022
 31
0.0
  0
LINE
  5
2B8
  8
0
  6
CONTINUOUS
 62
     7
 10
172.2957312878047
 20
147.8269898103039
 30
0.0
 11
174.4071392112848
 21
155.70687147494391
 31
0.0
  0
LINE
  5
2B9
  8
0
  6
CONTINUOUS
 62
     7
 10
193.03006305248479
 20
161.94951755198389
 30
0.0
 11
197.85849556984471
 21
157.121085034624
 31
0.0
  0
LINE
  5
2BB
  8
0
  6
CONTINUOUS
 62
     7
 10
197.85849556984471
 20
157.121085034624
 30
0.0
 11
197.85849556984471
 21
155.70687147494391
 31
0.0
  0
ARC
  5
369
  8
0
  6
CONTINUOUS
 62
     7
 10
167.46610215612489
 20
149.12108503770369
 30
0.0
 40
5.0000000025199993
 50
270.0
 51
344.99999999999989
  0
ARC
  5
36A
  8
0
  6
CONTINUOUS
 62
     7
 10
160.84949286968481
 20
141.1586850367039
 30
0.0
 40
2.96239999848
 50
89.994535753799994
 51
134.999171348
  0
ARC
  5
36B
  8
0
  6
CONTINUOUS
 62
     7
 10
-215.13278425239511
 20
141.1586850367039
 30
0.0
 40
2.96239999848
 50
44.999999970399969
 51
80.805618910900037
  0
ARC
  5
36C
  8
0
  6
CONTINUOUS
 62
     7
 10
114.85849557068489
 20
6.5847689374239726
 30
0.0
 40
38.999999998319993
 50
271.99999999760001
 51
359.99671433890001
  0
ARC
  5
36D
  8
0
  6
CONTINUOUS
 62
     7
 10
-87.93379367247519
 20
-37.78910210129618
 30
0.0
 40
1.9999999979599989
 50
29.74488129700006
 51
87.000000000000057
  0
ARC
  5
36E
  8
0
  6
CONTINUOUS
 62
     7
 10
33.650784808884737
 20
-37.78910210129618
 30
0.0
 40
1.9999999979599989
 50
92.999999999999943
 51
150.25511870299991
  0
ARC
  5
36F
  8
0
  6
CONTINUOUS
 62
     7
 10
-83.592375289035203
 20
-37.727439405216053
 30
0.0
 40
1.8000000017199991
 50
209.74488129709999
 51
250.00000000009999
  0
ARC
  5
370
  8
0
  6
CONTINUOUS
 62
     7
 10
29.30936643052474
 20
-37.727439405216053
 30
0.0
 40
1.8000000017199991
 50
289.99999999729999
 51
330.25511869939999
  0
ARC
  5
371
  8
0
  6
CONTINUOUS
 62
     7
 10
-229.15052255163519
 20
141.1586850367039
 30
0.0
 40
2.96239999848
 50
99.192911070000022
 51
134.9991261150999
  0
ARC
  5
372
  8
0
  6
CONTINUOUS
 62
     7
 10
-605.13278425083513
 20
141.1586850367039
 30
0.0
 40
2.96239999848
 50
44.999999967100017
 51
90.0
  0
ARC
  5
373
  8
0
  6
CONTINUOUS
 62
     7
 10
-559.14150443271512
 20
-13.415231077736159
 30
0.0
 40
38.999999998319993
 50
180.00000004539999
 51
268.0000000015998
  0
ARC
  5
374
  8
0
  6
CONTINUOUS
 62
     7
 10
-275.14150443283518
 20
-13.415231062496099
 30
0.0
 40
38.999999998319993
 50
271.99999999749991
 51
359.99671433909998
  0
ARC
  5
375
  8
0
  6
CONTINUOUS
 62
     7
 10
-477.93379367091512
 20
-57.789102101216137
 30
0.0
 40
1.9999999979599989
 50
29.744881296900061
 51
87.000000000000057
  0
ARC
  5
376
  8
0
  6
CONTINUOUS
 62
     7
 10
-356.34921518955508
 20
-57.789102101216137
 30
0.0
 40
1.9999999979599989
 50
92.999999999999943
 51
150.2551187030999
  0
ARC
  5
377
  8
0
  6
CONTINUOUS
 62
     7
 10
-473.592375292555
 20
-57.727439405136117
 30
0.0
 40
1.8000000017199991
 50
209.7448812977
 51
250.00000000060001
  0
ARC
  5
378
  8
0
  6
CONTINUOUS
 62
     7
 10
-360.69063356791509
 20
-57.727439405136117
 30
0.0
 40
1.8000000017199991
 50
289.9999999977
 51
330.25511869999991
  0
ARC
  5
379
  8
0
  6
CONTINUOUS
 62
     7
 10
-634.48461708883508
 20
159.1210850376637
 30
0.0
 40
4.0000000010000001
 50
90.000236991699978
 51
135.00034261589991
  0
ARC
  5
37A
  8
0
  6
CONTINUOUS
 62
     7
 10
190.20164131792461
 20
159.1210850376637
 30
0.0
 40
4.0000000010000001
 50
45.000109236600039
 51
90.000237001099947
  0
ARC
  5
37B
  8
0
  6
CONTINUOUS
 62
     7
 10
-611.74911101307509
 20
149.12108503770369
 30
0.0
 40
5.0000000025199993
 50
195.0
 51
270.0
  0
ARC
  5
37C
  8
0
  6
CONTINUOUS
 62
     7
 10
-211.10390443107511
 20
137.13006711478391
 30
0.0
 40
2.96239999848
 50
359.99493462290002
 51
44.998949194200051
  0
ARC
  5
37D
  8
0
  6
CONTINUOUS
 62
     7
 10
156.82089556748471
 20
137.12980521538381
 30
0.0
 40
2.96239999848
 50
135.00000002740001
 51
180.0
  0
ARC
  5
37E
  8
0
  6
CONTINUOUS
 62
     7
 10
-233.17910443095511
 20
137.12980521538381
 30
0.0
 40
2.96239999848
 50
135.00000003049999
 51
180.0
  0
ARC
  5
37F
  8
0
  6
CONTINUOUS
 62
     7
 10
-601.10390442951496
 20
137.1300814099038
 30
0.0
 40
2.96239999848
 50
359.99465818490012
 51
44.998891837799952
  0
LINE
  5
558
  8
0
 10
-229.15052255163499
 20
144.08303608467619
 30
0.0
 11
-214.6594390054602
 21
144.0830239411741
 31
0.0
  0
LINE
  5
559
  8
0
 10
-611.74911101307509
 20
144.1210850351838
 30
0.0
 11
-605.13278425083513
 21
144.1210850351838
 31
0.0
  0
ENDSEC
  0
EOF
