  0
SECTION
  2
HEADER
  9
$ACADVER
  1
AC1009
  9
$DWGCODEPAGE
  3
ansi_1252
  9
$INSBASE
 10
0.0
 20
0.0
 30
0.0
  9
$EXTMIN
 10
-4.125
 20
-6.3125
 30
0.0
  9
$EXTMAX
 10
4.125
 20
0.0105292342919409
 30
0.0
  9
$LIMMIN
 10
0.0
 20
0.0
  9
$LIMMAX
 10
0.0
 20
0.0
  9
$ORTHOMODE
 70
     0
  9
$REGENMODE
 70
     1
  9
$FILLMODE
 70
     1
  9
$QTEXTMODE
 70
     0
  9
$MIRRTEXT
 70
     1
  9
$DRAGMODE
 70
     2
  9
$LTSCALE
 40
1.0
  9
$OSMODE
 70
    37
  9
$ATTMODE
 70
     1
  9
$TEXTSIZE
 40
0.0
  9
$TRACEWID
 40
0.05
  9
$TEXTSTYLE
  7
STANDARD
  9
$CLAYER
  8
0
  9
$CELTYPE
  6
CONTINUOUS
  9
$CECOLOR
 62
   256
  9
$DIMSCALE
 40
1.0
  9
$DIMASZ
 40
0.2362204724
  9
$DIMEXO
 40
0.0393700787
  9
$DIMDLI
 40
0.38
  9
$DIMRND
 40
0.0
  9
$DIMDLE
 40
0.0393700787
  9
$DIMEXE
 40
0.18
  9
$DIMTP
 40
0.0
  9
$DIMTM
 40
0.0
  9
$DIMTXT
 40
0.25
  9
$DIMCEN
 40
0.09
  9
$DIMTSZ
 40
0.0
  9
$DIMTOL
 70
     0
  9
$DIMLIM
 70
     0
  9
$DIMTIH
 70
     1
  9
$DIMTOH
 70
     1
  9
$DIMSE1
 70
     0
  9
$DIMSE2
 70
     0
  9
$DIMTAD
 70
     1
  9
$DIMZIN
 70
     0
  9
$DIMBLK
  1

  9
$DIMASO
 70
     1
  9
$DIMSHO
 70
     1
  9
$DIMPOST
  1

  9
$DIMAPOST
  1

  9
$DIMALT
 70
     0
  9
$DIMALTD
 70
     2
  9
$DIMALTF
 40
25.4
  9
$DIMLFAC
 40
1.0
  9
$DIMTOFL
 70
     0
  9
$DIMTVP
 40
0.0
  9
$DIMTIX
 70
     0
  9
$DIMSOXD
 70
     0
  9
$DIMSAH
 70
     0
  9
$DIMBLK1
  1

  9
$DIMBLK2
  1

  9
$DIMSTYLE
  2
STANDARD
  9
$DIMCLRD
 70
     0
  9
$DIMCLRE
 70
     0
  9
$DIMCLRT
 70
     0
  9
$DIMTFAC
 40
1.0
  9
$DIMGAP
 40
0.0393700787
  9
$LUNITS
 70
     2
  9
$LUPREC
 70
     3
  9
$SKETCHINC
 40
0.1
  9
$FILLETRAD
 40
0.0
  9
$AUNITS
 70
     0
  9
$AUPREC
 70
     2
  9
$MENU
  1
acad
  9
$ELEVATION
 40
0.0
  9
$PELEVATION
 40
0.0
  9
$THICKNESS
 40
0.0
  9
$LIMCHECK
 70
     0
  9
$CHAMFERA
 40
0.0
  9
$CHAMFERB
 40
0.0
  9
$SKPOLY
 70
     0
  9
$TDCREATE
 40
2311948.899701065
  9
$TDUPDATE
 40
2453505.79536691
  9
$TDINDWG
 40
0.0004349884
  9
$TDUSRTIMER
 40
0.0004349884
  9
$USRTIMER
 70
     1
  9
$ANGBASE
 50
0.0
  9
$ANGDIR
 70
     0
  9
$PDMODE
 70
     0
  9
$PDSIZE
 40
-1.0
  9
$PLINEWID
 40
0.0
  9
$COORDS
 70
     1
  9
$SPLFRAME
 70
     0
  9
$SPLINETYPE
 70
     6
  9
$SPLINESEGS
 70
     8
  9
$ATTDIA
 70
     0
  9
$ATTREQ
 70
     1
  9
$HANDLING
 70
     1
  9
$HANDSEED
  5
A5
  9
$SURFTAB1
 70
     6
  9
$SURFTAB2
 70
     6
  9
$SURFTYPE
 70
     6
  9
$SURFU
 70
     6
  9
$SURFV
 70
     6
  9
$UCSNAME
  2

  9
$UCSORG
 10
0.0
 20
0.0
 30
0.0
  9
$UCSXDIR
 10
1.0
 20
0.0
 30
0.0
  9
$UCSYDIR
 10
0.0
 20
1.0
 30
0.0
  9
$PUCSNAME
  2

  9
$PUCSORG
 10
0.0
 20
0.0
 30
0.0
  9
$PUCSXDIR
 10
1.0
 20
0.0
 30
0.0
  9
$PUCSYDIR
 10
0.0
 20
1.0
 30
0.0
  9
$USERI1
 70
     0
  9
$USERI2
 70
     0
  9
$USERI3
 70
     0
  9
$USERI4
 70
     0
  9
$USERI5
 70
     0
  9
$USERR1
 40
0.0
  9
$USERR2
 40
0.0
  9
$USERR3
 40
0.0
  9
$USERR4
 40
0.0
  9
$USERR5
 40
0.0
  9
$WORLDVIEW
 70
     1
  9
$SHADEDGE
 70
     3
  9
$SHADEDIF
 70
    70
  9
$TILEMODE
 70
     1
  9
$MAXACTVP
 70
    16
  9
$PLIMCHECK
 70
     0
  9
$PEXTMIN
 10
1.000000000000000E+20
 20
1.000000000000000E+20
 30
1.000000000000000E+20
  9
$PEXTMAX
 10
-1.000000000000000E+20
 20
-1.000000000000000E+20
 30
-1.000000000000000E+20
  9
$PLIMMIN
 10
0.0
 20
0.0
  9
$PLIMMAX
 10
12.0
 20
9.0
  9
$UNITMODE
 70
     0
  9
$VISRETAIN
 70
     0
  9
$PLINEGEN
 70
     1
  9
$PSLTSCALE
 70
     1
  0
ENDSEC
  0
SECTION
  2
TABLES
  0
TABLE
  2
VPORT
 70
     1
  0
VPORT
  2
*ACTIVE
 70
     0
 10
0.0
 20
0.0
 11
1.0
 21
1.0
 12
0.3409365326190468
 22
-3.151102697369211
 13
0.0
 23
0.0
 14
1.0
 24
1.0
 15
0.0
 25
0.0
 16
0.0
 26
0.0
 36
1.0
 17
0.0
 27
0.0
 37
0.0
 40
7.98909535108298
 41
1.825095057034221
 42
50.0
 43
0.0
 44
0.0
 50
0.0
 51
0.0
 71
     0
 72
  2000
 73
     1
 74
     1
 75
     0
 76
     0
 77
     0
 78
     0
  0
ENDTAB
  0
TABLE
  2
LTYPE
 70
     1
  0
LTYPE
  2
CONTINUOUS
 70
     0
  3
Solid line
 72
    65
 73
     0
 40
0.0
  0
ENDTAB
  0
TABLE
  2
LAYER
 70
     1
  0
LAYER
  2
0
 70
     0
 62
     7
  6
CONTINUOUS
  0
ENDTAB
  0
TABLE
  2
STYLE
 70
     1
  0
STYLE
  2
STANDARD
 70
     0
 40
0.0
 41
1.0
 50
0.0
 71
     0
 42
0.0
  3
txt
  4

  0
ENDTAB
  0
TABLE
  2
VIEW
 70
     0
  0
ENDTAB
  0
TABLE
  2
UCS
 70
     0
  0
ENDTAB
  0
TABLE
  2
APPID
 70
     1
  0
APPID
  2
ACAD
 70
     0
  0
ENDTAB
  0
TABLE
  2
DIMSTYLE
 70
     1
  0
DIMSTYLE
  2
STANDARD
 70
     0
  3

  4

  5

  6

  7

 40
1.0
 41
0.18
 42
0.0625
 43
0.38
 44
0.18
 45
0.0
 46
0.0
 47
0.0
 48
0.0
140
0.18
141
0.09
142
0.0
143
25.4
144
1.0
145
0.0
146
1.0
147
0.09
 71
     0
 72
     0
 73
     1
 74
     1
 75
     0
 76
     0
 77
     0
 78
     0
170
     0
171
     2
172
     0
173
     0
174
     0
175
     0
176
     0
177
     0
178
     0
  0
ENDTAB
  0
ENDSEC
  0
SECTION
  2
BLOCKS
  0
BLOCK
  8
0
  2
$MODEL_SPACE
 70
     0
 10
0.0
 20
0.0
 30
0.0
  3
$MODEL_SPACE
  1

  0
ENDBLK
  5
9
  8
0
  0
BLOCK
 67
     1
  8
0
  2
$PAPER_SPACE
 70
     0
 10
0.0
 20
0.0
 30
0.0
  3
$PAPER_SPACE
  1

  0
ENDBLK
  5
E
 67
     1
  8
0
  0
ENDSEC
  0
SECTION
  2
ENTITIES
  0
LINE
  5
24
  8
0
 10
-3.145000000000003
 20
-5.9625
 30
0.0
 11
-3.145000000000003
 21
-2.4295670269
 31
0.0
  0
LINE
  5
25
  8
0
 10
3.144999999999996
 20
-2.4295670269
 30
0.0
 11
3.144999999999996
 21
-5.9625
 31
0.0
  0
LINE
  5
26
  8
0
 10
2.061664367299997
 20
-6.0825
 30
0.0
 11
3.024999999999999
 21
-6.0825
 31
0.0
  0
LINE
  5
27
  8
0
 10
-3.025000000000006
 20
-6.0825
 30
0.0
 11
-2.060999764200005
 21
-6.0825
 31
0.0
  0
ARC
  5
28
  8
0
 10
-3.025000000000006
 20
-5.9625
 30
0.0
 40
0.12
 50
180.0
 51
270.0
  0
LINE
  5
29
  8
0
 10
-1.832500000000003
 20
-6.3125
 30
0.0
 11
1.832499999999996
 21
-6.3125
 31
0.0
  0
POLYLINE
  5
2A
  8
0
 66
     1
 10
0.0
 20
0.0
 30
0.0
  0
VERTEX
  5
6C
  8
0
 10
-2.061834591500002
 20
-6.0824722004
 30
0.0
  0
VERTEX
  5
6D
  8
0
 10
-2.062160068900006
 20
-6.0824831319
 30
0.0
  0
VERTEX
  5
6E
  8
0
 10
-2.046335305
 20
-6.0819577613
 30
0.0
  0
VERTEX
  5
6F
  8
0
 10
-2.004405417700006
 20
-6.0805669835
 30
0.0
  0
VERTEX
  5
70
  8
0
 10
-1.937149034600004
 20
-6.078402819099999
 30
0.0
  0
VERTEX
  5
71
  8
0
 10
-1.845856946700003
 20
-6.075587007999999
 30
0.0
  0
VERTEX
  5
72
  8
0
 10
-1.730938494500002
 20
-6.072230984699999
 30
0.0
  0
VERTEX
  5
73
  8
0
 10
-1.5939315392
 20
-6.068511592699999
 30
0.0
  0
VERTEX
  5
74
  8
0
 10
-1.437440184800003
 20
-6.064637247199999
 30
0.0
  0
VERTEX
  5
75
  8
0
 10
-1.262396552200002
 20
-6.0607833564
 30
0.0
  0
VERTEX
  5
76
  8
0
 10
-1.070976823100004
 20
-6.057135754499999
 30
0.0
  0
VERTEX
  5
77
  8
0
 10
-0.8667858356000053
 20
-6.053898178999999
 30
0.0
  0
VERTEX
  5
78
  8
0
 10
-0.6514007816000031
 20
-6.051237018999999
 30
0.0
  0
VERTEX
  5
79
  8
0
 10
-0.4271876415999998
 20
-6.0492617977
 30
0.0
  0
VERTEX
  5
7A
  8
0
 10
-0.1983436958000056
 20
-6.0480825886
 30
0.0
  0
VERTEX
  5
7B
  8
0
 10
0.0329531100999958
 20
-6.047780942999999
 30
0.0
  0
VERTEX
  5
7C
  8
0
 10
0.2645589195999989
 20
-6.0483437618
 30
0.0
  0
VERTEX
  5
7D
  8
0
 10
0.4921477508999956
 20
-6.049739725999999
 30
0.0
  0
VERTEX
  5
7E
  8
0
 10
0.7133275578999943
 20
-6.0519260443
 30
0.0
  0
VERTEX
  5
7F
  8
0
 10
0.9262830997999956
 20
-6.0547777616
 30
0.0
  0
VERTEX
  5
80
  8
0
 10
1.127025785099995
 20
-6.0581360693
 30
0.0
  0
VERTEX
  5
81
  8
0
 10
1.313333346499995
 20
-6.061852850199999
 30
0.0
  0
VERTEX
  5
82
  8
0
 10
1.483779001599999
 20
-6.0657459691
 30
0.0
  0
VERTEX
  5
83
  8
0
 10
1.635142021999997
 20
-6.0695977592
 30
0.0
  0
VERTEX
  5
84
  8
0
 10
1.765584966299997
 20
-6.0732182925
 30
0.0
  0
VERTEX
  5
85
  8
0
 10
1.874263542199998
 20
-6.0764479003
 30
0.0
  0
VERTEX
  5
86
  8
0
 10
1.9590998814
 20
-6.079105042099999
 30
0.0
  0
VERTEX
  5
87
  8
0
 10
2.0162707004
 20
-6.0809596521
 30
0.0
  0
VERTEX
  5
88
  8
0
 10
2.050903146099998
 20
-6.0821105558
 30
0.0
  0
SEQEND
  5
6B
  8
0
  0
POLYLINE
  5
2B
  8
0
 66
     1
 10
0.0
 20
0.0
 30
0.0
  0
VERTEX
  5
8A
  8
0
 10
-2.059971644600005
 20
-6.0823707039
 30
0.0
  0
VERTEX
  5
8B
  8
0
 10
-2.058096038700001
 20
-6.0823844163
 30
0.0
  0
VERTEX
  5
8C
  8
0
 10
-2.0530652152
 20
-6.0825146637
 30
0.0
  0
VERTEX
  5
8D
  8
0
 10
-2.038874427800003
 20
-6.0834788696
 30
0.0
  0
VERTEX
  5
8E
  8
0
 10
-2.015458834200004
 20
-6.0870252356
 30
0.0
  0
VERTEX
  5
8F
  8
0
 10
-1.988154919400003
 20
-6.094386461999999
 30
0.0
  0
VERTEX
  5
90
  8
0
 10
-1.9497599217
 20
-6.1113600667
 30
0.0
  0
VERTEX
  5
91
  8
0
 10
-1.906442890400001
 20
-6.1425419158
 30
0.0
  0
VERTEX
  5
92
  8
0
 10
-1.877122919200005
 20
-6.1749486858
 30
0.0
  0
VERTEX
  5
93
  8
0
 10
-1.852493819100005
 20
-6.2164974889
 30
0.0
  0
VERTEX
  5
94
  8
0
 10
-1.836725313700001
 20
-6.263913244399999
 30
0.0
  0
VERTEX
  5
95
  8
0
 10
-1.8317653075
 20
-6.3124450346
 30
0.0
  0
SEQEND
  5
89
  8
0
  0
POLYLINE
  5
2C
  8
0
 66
     1
 10
0.0
 20
0.0
 30
0.0
  0
VERTEX
  5
97
  8
0
 10
1.833106265699996
 20
-6.3124706155
 30
0.0
  0
VERTEX
  5
98
  8
0
 10
1.832620794099995
 20
-6.2926133071
 30
0.0
  0
VERTEX
  5
99
  8
0
 10
1.8429579855
 20
-6.241502951399999
 30
0.0
  0
VERTEX
  5
9A
  8
0
 10
1.862076840699999
 20
-6.198245152999999
 30
0.0
  0
VERTEX
  5
9B
  8
0
 10
1.8870710152
 20
-6.1627606769
 30
0.0
  0
VERTEX
  5
9C
  8
0
 10
1.915583028099995
 20
-6.134795391499999
 30
0.0
  0
VERTEX
  5
9D
  8
0
 10
1.945538178199996
 20
-6.113890615899999
 30
0.0
  0
VERTEX
  5
9E
  8
0
 10
1.9750793997
 20
-6.099323010099999
 30
0.0
  0
VERTEX
  5
9F
  8
0
 10
2.002529132099994
 20
-6.0901200716
 30
0.0
  0
VERTEX
  5
A0
  8
0
 10
2.0263248045
 20
-6.0851075339
 30
0.0
  0
VERTEX
  5
A1
  8
0
 10
2.044629196499997
 20
-6.082999838099999
 30
0.0
  0
VERTEX
  5
A2
  8
0
 10
2.054232974799994
 20
-6.0824843933
 30
0.0
  0
VERTEX
  5
A3
  8
0
 10
2.058593669399997
 20
-6.0823835
 30
0.0
  0
VERTEX
  5
A4
  8
0
 10
2.060521758199997
 20
-6.082368261399999
 30
0.0
  0
SEQEND
  5
96
  8
0
  0
LINE
  5
2D
  8
0
 10
2.060522026499996
 20
-6.082429010499999
 30
0.0
 11
2.061664367299997
 21
-6.0824668302
 31
0.0
  0
ARC
  5
2E
  8
0
 10
3.024999999999999
 20
-5.9625
 30
0.0
 40
0.12
 50
270.0
 51
0.0
  0
LINE
  5
2F
  8
0
 10
-4.125
 20
0.0
 30
0.0
 11
4.125
 21
0.0
 31
0.0
  0
LINE
  5
30
  8
0
 10
-4.125
 20
-0.0199999999999996
 30
0.0
 11
4.125
 21
-0.0199999999999996
 31
0.0
  0
LINE
  5
31
  8
0
 10
-3.145000000000003
 20
-2.4295670269
 30
0.0
 11
-3.145000000000003
 21
-0.0199999999999996
 31
0.0
  0
LINE
  5
32
  8
0
 10
-4.125
 20
-0.0199999999999996
 30
0.0
 11
-4.125
 21
0.0
 31
0.0
  0
LINE
  5
33
  8
0
 10
3.144999999999996
 20
-0.0199999999999996
 30
0.0
 11
3.144999999999996
 21
-2.4295670269
 31
0.0
  0
LINE
  5
34
  8
0
 10
4.125
 20
-0.0199999999999996
 30
0.0
 11
4.125
 21
0.0
 31
0.0
  0
ATTDEF
  5
5D
  8
0
 10
0.0000795397214935
 20
0.0085292342919409
 30
0.0
 40
0.002
  1
K-3156
  3

  2
MODELNUMBER
 70
     0
  0
ATTDEF
  5
5E
  8
0
 10
-0.0000498224828255
 20
0.0055227295431801
 30
0.0
 40
0.002
  1
Undertone
  3

  2
TRADENAME
 70
     0
  0
ATTDEF
  5
5F
  8
0
 10
0.0000555716696483
 20
0.0027026082388502
 30
0.0
 40
0.002
  1
Kitchen Sinks
  3

  2
PRODUCTS
 70
     0
  0
ATTDEF
  5
60
  8
0
 10
0.0
 20
0.0
 30
0.0
 40
0.002
  1
Stainless Steel
  3

  2
MATERIAL
 70
     0
  0
ENDSEC
  0
EOF
