  0
SECTION
  2
HEADER
  9
$ACADVER
  1
AC1009
  9
$DWGCODEPAGE
  3
ansi_1252
  9
$INSBASE
 10
0.0
 20
0.0
 30
0.0
  9
$EXTMIN
 10
-21.5
 20
-4.125
 30
0.0
  9
$EXTMAX
 10
21.5
 20
4.125
 30
0.0
  9
$LIMMIN
 10
0.0
 20
0.0
  9
$LIMMAX
 10
0.0
 20
0.0
  9
$ORTHOMODE
 70
     0
  9
$REGENMODE
 70
     1
  9
$FILLMODE
 70
     1
  9
$QTEXTMODE
 70
     0
  9
$MIRRTEXT
 70
     1
  9
$DRAGMODE
 70
     2
  9
$LTSCALE
 40
1.0
  9
$OSMODE
 70
    37
  9
$ATTMODE
 70
     1
  9
$TEXTSIZE
 40
0.0
  9
$TRACEWID
 40
0.05
  9
$TEXTSTYLE
  7
STANDARD
  9
$CLAYER
  8
0
  9
$CELTYPE
  6
CONTINUOUS
  9
$CECOLOR
 62
   256
  9
$DIMSCALE
 40
1.0
  9
$DIMASZ
 40
0.2362204724
  9
$DIMEXO
 40
0.0393700787
  9
$DIMDLI
 40
0.38
  9
$DIMRND
 40
0.0
  9
$DIMDLE
 40
0.0393700787
  9
$DIMEXE
 40
0.18
  9
$DIMTP
 40
0.0
  9
$DIMTM
 40
0.0
  9
$DIMTXT
 40
0.25
  9
$DIMCEN
 40
0.09
  9
$DIMTSZ
 40
0.0
  9
$DIMTOL
 70
     0
  9
$DIMLIM
 70
     0
  9
$DIMTIH
 70
     1
  9
$DIMTOH
 70
     1
  9
$DIMSE1
 70
     0
  9
$DIMSE2
 70
     0
  9
$DIMTAD
 70
     1
  9
$DIMZIN
 70
     0
  9
$DIMBLK
  1

  9
$DIMASO
 70
     1
  9
$DIMSHO
 70
     1
  9
$DIMPOST
  1

  9
$DIMAPOST
  1

  9
$DIMALT
 70
     0
  9
$DIMALTD
 70
     2
  9
$DIMALTF
 40
25.4
  9
$DIMLFAC
 40
1.0
  9
$DIMTOFL
 70
     0
  9
$DIMTVP
 40
0.0
  9
$DIMTIX
 70
     0
  9
$DIMSOXD
 70
     0
  9
$DIMSAH
 70
     0
  9
$DIMBLK1
  1

  9
$DIMBLK2
  1

  9
$DIMSTYLE
  2
STANDARD
  9
$DIMCLRD
 70
     0
  9
$DIMCLRE
 70
     0
  9
$DIMCLRT
 70
     0
  9
$DIMTFAC
 40
1.0
  9
$DIMGAP
 40
0.0393700787
  9
$LUNITS
 70
     2
  9
$LUPREC
 70
     3
  9
$SKETCHINC
 40
0.1
  9
$FILLETRAD
 40
0.0
  9
$AUNITS
 70
     0
  9
$AUPREC
 70
     2
  9
$MENU
  1
acad
  9
$ELEVATION
 40
0.0
  9
$PELEVATION
 40
0.0
  9
$THICKNESS
 40
0.0
  9
$LIMCHECK
 70
     0
  9
$CHAMFERA
 40
0.0
  9
$CHAMFERB
 40
0.0
  9
$SKPOLY
 70
     0
  9
$TDCREATE
 40
2311948.899701065
  9
$TDUPDATE
 40
2453505.795354734
  9
$TDINDWG
 40
0.0005569213
  9
$TDUSRTIMER
 40
0.0005569213
  9
$USRTIMER
 70
     1
  9
$ANGBASE
 50
0.0
  9
$ANGDIR
 70
     0
  9
$PDMODE
 70
     0
  9
$PDSIZE
 40
-1.0
  9
$PLINEWID
 40
0.0
  9
$COORDS
 70
     1
  9
$SPLFRAME
 70
     0
  9
$SPLINETYPE
 70
     6
  9
$SPLINESEGS
 70
     8
  9
$ATTDIA
 70
     0
  9
$ATTREQ
 70
     1
  9
$HANDLING
 70
     1
  9
$HANDSEED
  5
99
  9
$SURFTAB1
 70
     6
  9
$SURFTAB2
 70
     6
  9
$SURFTYPE
 70
     6
  9
$SURFU
 70
     6
  9
$SURFV
 70
     6
  9
$UCSNAME
  2

  9
$UCSORG
 10
0.0
 20
0.0
 30
0.0
  9
$UCSXDIR
 10
1.0
 20
0.0
 30
0.0
  9
$UCSYDIR
 10
0.0
 20
1.0
 30
0.0
  9
$PUCSNAME
  2

  9
$PUCSORG
 10
0.0
 20
0.0
 30
0.0
  9
$PUCSXDIR
 10
1.0
 20
0.0
 30
0.0
  9
$PUCSYDIR
 10
0.0
 20
1.0
 30
0.0
  9
$USERI1
 70
     0
  9
$USERI2
 70
     0
  9
$USERI3
 70
     0
  9
$USERI4
 70
     0
  9
$USERI5
 70
     0
  9
$USERR1
 40
0.0
  9
$USERR2
 40
0.0
  9
$USERR3
 40
0.0
  9
$USERR4
 40
0.0
  9
$USERR5
 40
0.0
  9
$WORLDVIEW
 70
     1
  9
$SHADEDGE
 70
     3
  9
$SHADEDIF
 70
    70
  9
$TILEMODE
 70
     1
  9
$MAXACTVP
 70
    16
  9
$PLIMCHECK
 70
     0
  9
$PEXTMIN
 10
1.000000000000000E+20
 20
1.000000000000000E+20
 30
1.000000000000000E+20
  9
$PEXTMAX
 10
-1.000000000000000E+20
 20
-1.000000000000000E+20
 30
-1.000000000000000E+20
  9
$PLIMMIN
 10
0.0
 20
0.0
  9
$PLIMMAX
 10
12.0
 20
9.0
  9
$UNITMODE
 70
     0
  9
$VISRETAIN
 70
     0
  9
$PLINEGEN
 70
     1
  9
$PSLTSCALE
 70
     1
  0
ENDSEC
  0
SECTION
  2
TABLES
  0
TABLE
  2
VPORT
 70
     1
  0
VPORT
  2
*ACTIVE
 70
     0
 10
0.0
 20
0.0
 11
1.0
 21
1.0
 12
1.327123583676602
 22
0.0002522063162651
 13
0.0
 23
0.0
 14
1.0
 24
1.0
 15
0.0
 25
0.0
 16
0.0
 26
0.0
 36
1.0
 17
0.0
 27
0.0
 37
0.0
 40
31.08863851255621
 41
1.825095057034221
 42
50.0
 43
0.0
 44
0.0
 50
0.0
 51
0.0
 71
     0
 72
  2000
 73
     1
 74
     1
 75
     0
 76
     0
 77
     0
 78
     0
  0
ENDTAB
  0
TABLE
  2
LTYPE
 70
     1
  0
LTYPE
  2
CONTINUOUS
 70
     0
  3
Solid line
 72
    65
 73
     0
 40
0.0
  0
ENDTAB
  0
TABLE
  2
LAYER
 70
     1
  0
LAYER
  2
0
 70
     0
 62
     7
  6
CONTINUOUS
  0
ENDTAB
  0
TABLE
  2
STYLE
 70
     1
  0
STYLE
  2
STANDARD
 70
     0
 40
0.0
 41
1.0
 50
0.0
 71
     0
 42
0.0
  3
txt
  4

  0
ENDTAB
  0
TABLE
  2
VIEW
 70
     0
  0
ENDTAB
  0
TABLE
  2
UCS
 70
     0
  0
ENDTAB
  0
TABLE
  2
APPID
 70
     1
  0
APPID
  2
ACAD
 70
     0
  0
ENDTAB
  0
TABLE
  2
DIMSTYLE
 70
     1
  0
DIMSTYLE
  2
STANDARD
 70
     0
  3

  4

  5

  6

  7

 40
1.0
 41
0.18
 42
0.0625
 43
0.38
 44
0.18
 45
0.0
 46
0.0
 47
0.0
 48
0.0
140
0.18
141
0.09
142
0.0
143
25.4
144
1.0
145
0.0
146
1.0
147
0.09
 71
     0
 72
     0
 73
     1
 74
     1
 75
     0
 76
     0
 77
     0
 78
     0
170
     0
171
     2
172
     0
173
     0
174
     0
175
     0
176
     0
177
     0
178
     0
  0
ENDTAB
  0
ENDSEC
  0
SECTION
  2
BLOCKS
  0
BLOCK
  8
0
  2
$MODEL_SPACE
 70
     0
 10
0.0
 20
0.0
 30
0.0
  3
$MODEL_SPACE
  1

  0
ENDBLK
  5
9
  8
0
  0
BLOCK
 67
     1
  8
0
  2
$PAPER_SPACE
 70
     0
 10
0.0
 20
0.0
 30
0.0
  3
$PAPER_SPACE
  1

  0
ENDBLK
  5
E
 67
     1
  8
0
  0
ENDSEC
  0
SECTION
  2
ENTITIES
  0
LINE
  5
24
  8
0
 10
20.4
 20
3.125
 30
0.0
 11
-20.4
 21
3.125
 31
0.0
  0
LINE
  5
25
  8
0
 10
20.4
 20
-3.125
 30
0.0
 11
-20.4
 21
-3.125
 31
0.0
  0
LINE
  5
26
  8
0
 10
21.5
 20
4.125
 30
0.0
 11
-21.5
 21
4.125
 31
0.0
  0
LINE
  5
27
  8
0
 10
-21.5
 20
-4.125
 30
0.0
 11
21.5
 21
-4.125
 31
0.0
  0
LINE
  5
28
  8
0
 10
-20.5
 20
-3.025
 30
0.0
 11
-20.5
 21
3.024999999999999
 31
0.0
  0
LINE
  5
29
  8
0
 10
-21.5
 20
4.125
 30
0.0
 11
-21.5
 21
-4.125
 31
0.0
  0
ARC
  5
2A
  8
0
 10
-20.4
 20
-3.025
 30
0.0
 40
0.1
 50
180.0
 51
270.0
  0
ARC
  5
2B
  8
0
 10
-20.4
 20
3.024999999999999
 30
0.0
 40
0.1
 50
90.0
 51
180.0
  0
POLYLINE
  5
2C
  8
0
 66
     1
 10
0.0
 20
0.0
 30
0.0
  0
VERTEX
  5
6E
  8
0
 10
0.0
 20
1.8125
 30
0.0
  0
VERTEX
  5
6F
  8
0
 10
0.1919352705000001
 20
1.802308825400001
 30
0.0
  0
VERTEX
  5
70
  8
0
 10
0.3814471039999994
 20
1.771877778699999
 30
0.0
  0
VERTEX
  5
71
  8
0
 10
0.5666879869999981
 20
1.7216332291
 30
0.0
  0
VERTEX
  5
72
  8
0
 10
0.8476495290999999
 20
1.601869113799999
 30
0.0
  0
VERTEX
  5
73
  8
0
 10
1.104695024199998
 20
1.436942988999999
 30
0.0
  0
VERTEX
  5
74
  8
0
 10
1.330068021199999
 20
1.231022177499998
 30
0.0
  0
VERTEX
  5
75
  8
0
 10
1.517969436599998
 20
0.9904165991000014
 30
0.0
  0
VERTEX
  5
76
  8
0
 10
1.6624556664
 20
0.7216211705000006
 30
0.0
  0
VERTEX
  5
77
  8
0
 10
1.760143642299997
 20
0.4324934780000014
 30
0.0
  0
VERTEX
  5
78
  8
0
 10
1.807580597099999
 20
0.1309424348999997
 30
0.0
  0
VERTEX
  5
79
  8
0
 10
1.804099512299999
 20
-0.1743020356999985
 30
0.0
  0
VERTEX
  5
7A
  8
0
 10
1.749040425499999
 20
-0.4747111207000003
 30
0.0
  0
VERTEX
  5
7B
  8
0
 10
1.644669432499999
 20
-0.7617208857999991
 30
0.0
  0
VERTEX
  5
7C
  8
0
 10
1.493278956499999
 20
-1.0269436357
 30
0.0
  0
VERTEX
  5
7D
  8
0
 10
1.299795887999999
 20
-1.263205010900002
 30
0.0
  0
VERTEX
  5
7E
  8
0
 10
1.069278109799999
 20
-1.463263830799999
 30
0.0
  0
VERTEX
  5
7F
  8
0
 10
0.8086368940999975
 20
-1.6221167108
 30
0.0
  0
VERTEX
  5
80
  8
0
 10
0.5249554771999989
 20
-1.734622982299999
 30
0.0
  0
VERTEX
  5
81
  8
0
 10
0.2264786052999988
 20
-1.798294661900002
 30
0.0
  0
VERTEX
  5
82
  8
0
 10
0.0
 20
-1.8125
 30
0.0
  0
SEQEND
  5
6D
  8
0
  0
POLYLINE
  5
2D
  8
0
 66
     1
 10
0.0
 20
0.0
 30
0.0
  0
VERTEX
  5
84
  8
0
 10
0.0
 20
-1.8125
 30
0.0
  0
VERTEX
  5
85
  8
0
 10
-0.1917983845000002
 20
-1.802294589100001
 30
0.0
  0
VERTEX
  5
86
  8
0
 10
-0.3814460379000018
 20
-1.771907212599999
 30
0.0
  0
VERTEX
  5
87
  8
0
 10
-0.6734638205000003
 20
-1.682539896000002
 30
0.0
  0
VERTEX
  5
88
  8
0
 10
-0.9464800883000031
 20
-1.545746322100001
 30
0.0
  0
VERTEX
  5
89
  8
0
 10
-1.192422590800003
 20
-1.364779956500001
 30
0.0
  0
VERTEX
  5
8A
  8
0
 10
-1.4047527504
 20
-1.145349710800002
 30
0.0
  0
VERTEX
  5
8B
  8
0
 10
-1.576968734400001
 20
-0.8931204271999995
 30
0.0
  0
VERTEX
  5
8C
  8
0
 10
-1.704722541800003
 20
-0.6156925414000014
 30
0.0
  0
VERTEX
  5
8D
  8
0
 10
-1.783651185900002
 20
-0.3210676144000004
 30
0.0
  0
VERTEX
  5
8E
  8
0
 10
-1.812416462200002
 20
-0.0174016538000004
 30
0.0
  0
VERTEX
  5
8F
  8
0
 10
-1.789430629800002
 20
0.2871077594000013
 30
0.0
  0
VERTEX
  5
90
  8
0
 10
-1.7160034829
 20
0.5835137502999999
 30
0.0
  0
VERTEX
  5
91
  8
0
 10
-1.593495754100001
 20
0.8632877506000014
 30
0.0
  0
VERTEX
  5
92
  8
0
 10
-1.4260626463
 20
1.1187053138
 30
0.0
  0
VERTEX
  5
93
  8
0
 10
-1.217949821000001
 20
1.342048734500001
 30
0.0
  0
VERTEX
  5
94
  8
0
 10
-0.9755210866000006
 20
1.5275846489
 30
0.0
  0
VERTEX
  5
95
  8
0
 10
-0.7052980507000015
 20
1.669446104799999
 30
0.0
  0
VERTEX
  5
96
  8
0
 10
-0.4151984401000028
 20
1.7643034052
 30
0.0
  0
VERTEX
  5
97
  8
0
 10
-0.2089904507
 20
1.8003701572
 30
0.0
  0
VERTEX
  5
98
  8
0
 10
0.0
 20
1.8125
 30
0.0
  0
SEQEND
  5
83
  8
0
  0
LINE
  5
2E
  8
0
 10
20.5
 20
-3.025
 30
0.0
 11
20.5
 21
3.024999999999999
 31
0.0
  0
LINE
  5
2F
  8
0
 10
21.5
 20
-4.125
 30
0.0
 11
21.5
 21
4.125
 31
0.0
  0
ARC
  5
30
  8
0
 10
20.4
 20
-3.025
 30
0.0
 40
0.1
 50
270.0
 51
0.0
  0
ARC
  5
31
  8
0
 10
20.4
 20
3.024999999999999
 30
0.0
 40
0.1
 50
0.0
 51
90.0
  0
ATTDEF
  5
5B
  8
0
 10
0.0000795397214935
 20
0.0085292342919409
 30
0.0
 40
0.002
  1
K-3156
  3

  2
MODELNUMBER
 70
     0
  0
ATTDEF
  5
5C
  8
0
 10
-0.0000498224828255
 20
0.0055227295431801
 30
0.0
 40
0.002
  1
Undertone
  3

  2
TRADENAME
 70
     0
  0
ATTDEF
  5
5D
  8
0
 10
0.0000555716696483
 20
0.0027026082388502
 30
0.0
 40
0.002
  1
Kitchen Sinks
  3

  2
PRODUCTS
 70
     0
  0
ATTDEF
  5
5E
  8
0
 10
0.0
 20
0.0
 30
0.0
 40
0.002
  1
Stainless Steel
  3

  2
MATERIAL
 70
     0
  0
ENDSEC
  0
EOF
