  0
SECTION
  2
HEADER
  9
$ACADVER
  1
AC1009
  9
$INSBASE
 10
4647.7055067249912099
 20
307.5988533824757951
 30
0.0
  9
$EXTMIN
 10
4638.2586224783335638
 20
307.5747973861203945
 30
-0.0000000000000058
  9
$EXTMAX
 10
4650.3211547588016401
 20
343.4745951838125961
 30
0.0000000000000104
  9
$LIMMIN
 10
0.0
 20
0.0
  9
$LIMMAX
 10
11.6929133858000007
 20
8.2677165353999982
  9
$ORTHOMODE
 70
     1
  9
$REGENMODE
 70
     1
  9
$FILLMODE
 70
     1
  9
$QTEXTMODE
 70
     0
  9
$MIRRTEXT
 70
     0
  9
$DRAGMODE
 70
     2
  9
$LTSCALE
 40
0.6431102362
  9
$OSMODE
 70
  4095
  9
$ATTMODE
 70
     1
  9
$TEXTSIZE
 40
0.2
  9
$TRACEWID
 40
0.05
  9
$TEXTSTYLE
  7
STANDARD
  9
$CLAYER
  8
0
  9
$CELTYPE
  6
BYLAYER
  9
$CECOLOR
 62
   256
  9
$DIMSCALE
 40
1.0
  9
$DIMASZ
 40
0.1875
  9
$DIMEXO
 40
0.0625
  9
$DIMDLI
 40
0.4443307087
  9
$DIMRND
 40
0.0
  9
$DIMDLE
 40
0.0
  9
$DIMEXE
 40
0.125
  9
$DIMTP
 40
0.01
  9
$DIMTM
 40
0.01
  9
$DIMTXT
 40
2.0
  9
$DIMCEN
 40
0.1052362205
  9
$DIMTSZ
 40
0.0
  9
$DIMTOL
 70
     1
  9
$DIMLIM
 70
     0
  9
$DIMTIH
 70
     1
  9
$DIMTOH
 70
     1
  9
$DIMSE1
 70
     0
  9
$DIMSE2
 70
     0
  9
$DIMTAD
 70
     0
  9
$DIMZIN
 70
     0
  9
$DIMBLK
  1

  9
$DIMASO
 70
     1
  9
$DIMSHO
 70
     1
  9
$DIMPOST
  1
\X
  9
$DIMAPOST
  1

  9
$DIMALT
 70
     1
  9
$DIMALTD
 70
     2
  9
$DIMALTF
 40
25.3999999999999986
  9
$DIMLFAC
 40
1.0
  9
$DIMTOFL
 70
     0
  9
$DIMTVP
 40
0.0
  9
$DIMTIX
 70
     0
  9
$DIMSOXD
 70
     0
  9
$DIMSAH
 70
     0
  9
$DIMBLK1
  1

  9
$DIMBLK2
  1

  9
$DIMSTYLE
  2
STANDARD
  9
$DIMCLRD
 70
     0
  9
$DIMCLRE
 70
     0
  9
$DIMCLRT
 70
     0
  9
$DIMTFAC
 40
1.0
  9
$DIMGAP
 40
0.09
  9
$LUNITS
 70
     2
  9
$LUPREC
 70
     4
  9
$SKETCHINC
 40
0.1
  9
$FILLETRAD
 40
0.0
  9
$AUNITS
 70
     0
  9
$AUPREC
 70
     0
  9
$MENU
  1
.
  9
$ELEVATION
 40
0.0
  9
$PELEVATION
 40
0.0
  9
$THICKNESS
 40
0.0
  9
$LIMCHECK
 70
     0
  9
$BLIPMODE
 70
     0
  9
$CHAMFERA
 40
0.0
  9
$CHAMFERB
 40
0.0
  9
$SKPOLY
 70
     0
  9
$TDCREATE
 40
2458060.468368056230247
  9
$TDUPDATE
 40
2459480.6737615740858018
  9
$TDINDWG
 40
0.657159838
  9
$TDUSRTIMER
 40
0.657159838
  9
$USRTIMER
 70
     1
  9
$ANGBASE
 50
0.0
  9
$ANGDIR
 70
     0
  9
$PDMODE
 70
     0
  9
$PDSIZE
 40
0.3125
  9
$PLINEWID
 40
0.0
  9
$COORDS
 70
     1
  9
$SPLFRAME
 70
     0
  9
$SPLINETYPE
 70
     6
  9
$SPLINESEGS
 70
     8
  9
$ATTDIA
 70
     1
  9
$ATTREQ
 70
     1
  9
$HANDLING
 70
     1
  9
$HANDSEED
  5
22038
  9
$SURFTAB1
 70
     6
  9
$SURFTAB2
 70
     6
  9
$SURFTYPE
 70
     6
  9
$SURFU
 70
     6
  9
$SURFV
 70
     6
  9
$UCSNAME
  2

  9
$UCSORG
 10
0.0
 20
0.0
 30
0.0
  9
$UCSXDIR
 10
1.0
 20
0.0
 30
0.0
  9
$UCSYDIR
 10
0.0
 20
1.0
 30
0.0
  9
$PUCSNAME
  2

  9
$PUCSORG
 10
0.0
 20
0.0
 30
0.0
  9
$PUCSXDIR
 10
1.0
 20
0.0
 30
0.0
  9
$PUCSYDIR
 10
0.0
 20
1.0
 30
0.0
  9
$USERI1
 70
     0
  9
$USERI2
 70
     0
  9
$USERI3
 70
     0
  9
$USERI4
 70
     0
  9
$USERI5
 70
     0
  9
$USERR1
 40
0.0
  9
$USERR2
 40
0.0
  9
$USERR3
 40
0.0
  9
$USERR4
 40
0.0
  9
$USERR5
 40
0.0
  9
$WORLDVIEW
 70
     1
  9
$SHADEDGE
 70
     3
  9
$SHADEDIF
 70
    70
  9
$TILEMODE
 70
     1
  9
$MAXACTVP
 70
    64
  9
$PLIMCHECK
 70
     0
  9
$PEXTMIN
 10
1.0000000000000000E+20
 20
1.0000000000000000E+20
 30
1.0000000000000000E+20
  9
$PEXTMAX
 10
-1.0000000000000000E+20
 20
-1.0000000000000000E+20
 30
-1.0000000000000000E+20
  9
$PLIMMIN
 10
0.0
 20
0.0
  9
$PLIMMAX
 10
12.0
 20
9.0
  9
$UNITMODE
 70
     0
  9
$VISRETAIN
 70
     1
  9
$PLINEGEN
 70
     0
  9
$PSLTSCALE
 70
     1
  0
ENDSEC
  0
SECTION
  2
TABLES
  0
TABLE
  2
VPORT
 70
     1
  0
VPORT
  2
*ACTIVE
 70
     0
 10
0.0
 20
0.0
 11
1.0
 21
1.0
 12
732.924532173255102
 22
192.9450911824274044
 13
0.0
 23
0.0
 14
1.0
 24
1.0
 15
0.0
 25
0.0
 16
0.0
 26
0.0
 36
60.4960186965801583
 17
3911.3653564453120453
 27
132.5796051025390057
 37
0.0
 40
36.1843404486647273
 41
1.67063492063492
 42
50.0
 43
0.0
 44
0.0
 50
0.0
 51
0.0
 71
     0
 72
   100
 73
     1
 74
     1
 75
     0
 76
     0
 77
     0
 78
     0
  0
ENDTAB
  0
TABLE
  2
LTYPE
 70
     2
  0
LTYPE
  2
CONTINUOUS
 70
     0
  3
Solid line
 72
    65
 73
     0
 40
0.0
  0
LTYPE
  2
PHANTOM2
 70
     0
  3
___ _ _ ___ _ _ ___ _ _ ___ _ _
 72
    65
 73
     6
 40
1.25
 49
0.625
 49
-0.125
 49
0.125
 49
-0.125
 49
0.125
 49
-0.125
  0
ENDTAB
  0
TABLE
  2
LAYER
 70
     2
  0
LAYER
  2
0
 70
     0
 62
   255
  6
CONTINUOUS
  0
LAYER
  2
DEFPOINTS
 70
     0
 62
     7
  6
CONTINUOUS
  0
ENDTAB
  0
TABLE
  2
STYLE
 70
     1
  0
STYLE
  2
STANDARD
 70
     0
 40
0.0
 41
0.8
 50
0.0
 71
     0
 42
0.2
  3
txt
  4

  0
ENDTAB
  0
TABLE
  2
VIEW
 70
     0
  0
ENDTAB
  0
TABLE
  2
UCS
 70
     0
  0
ENDTAB
  0
TABLE
  2
APPID
 70
    11
  0
APPID
  2
ACAD
 70
     0
  0
APPID
  2
ACAD_MLEADERVER
 70
     0
  0
APPID
  2
ACAD_EXEMPT_FROM_CAD_STANDARDS
 70
     0
  0
APPID
  2
ACAD_NAV_VCDISPLAY
 70
     0
  0
APPID
  2
ACAECLAYERSTANDARD
 70
     0
  0
APPID
  2
ACCMTRANSPARENCY
 70
     0
  0
APPID
  2
ACAD_DSTYLE_DIMJAG
 70
     0
  0
APPID
  2
ACAD_DSTYLE_DIMTALN
 70
     0
  0
APPID
  2
ACDBATTR
 70
     0
  0
APPID
  2
ACADANNOTATIVE
 70
     0
  0
APPID
  2
DCO15
 70
     0
  0
ENDTAB
  0
TABLE
  2
DIMSTYLE
 70
     1
  0
DIMSTYLE
  2
STANDARD
 70
     0
  3

  4

  5

  6

  7

 40
1.0
 41
0.1875
 42
0.0625
 43
0.38
 44
0.125
 45
0.0
 46
0.0
 47
0.01
 48
0.01
140
0.15625
141
0.09
142
0.0
143
25.3999999999999986
144
1.0
145
0.0
146
1.0
147
0.09
 71
     1
 72
     0
 73
     1
 74
     1
 75
     0
 76
     0
 77
     0
 78
     4
170
     0
171
     2
172
     0
173
     0
174
     0
175
     0
176
     0
177
     0
178
     0
  0
ENDTAB
  0
ENDSEC
  0
SECTION
  2
BLOCKS
  0
BLOCK
  8
0
  2
$MODEL_SPACE
 70
     0
 10
0.0
 20
0.0
 30
0.0
  3
$MODEL_SPACE
  1

  0
ENDBLK
  5
21
  8
0
  0
BLOCK
 67
     1
  8
0
  2
$PAPER_SPACE
 70
     0
 10
0.0
 20
0.0
 30
0.0
  3
$PAPER_SPACE
  1

  0
ENDBLK
  5
1D
 67
     1
  8
0
  0
ENDSEC
  0
SECTION
  2
ENTITIES
  0
ATTDEF
  5
211C4
  8
DEFPOINTS
 10
4647.70059763284371
 20
307.5968866149481755
 30
0.0
 40
0.001
  1
K-31138T-4
  3

  2
MODELNUMBER
 70
     0
1001
ACDBATTR
1070
     0
1070
     1
  0
ATTDEF
  5
211C5
  8
DEFPOINTS
 10
4647.70059763284371
 20
307.5952197745691024
 30
0.0
 40
0.001
  1
COMPOSED
  3

  2
TRADENAME
 70
     0
1001
ACDBATTR
1070
     0
1070
     1
  0
ATTDEF
  5
211C6
  8
DEFPOINTS
 10
4647.70059763284371
 20
307.5935532816149021
 30
0.0
 40
0.001
  1
BATHROOM SINK FAUCET
  3

  2
PRODUCT
 70
     0
1001
ACDBATTR
1070
     0
1070
     1
  0
LINE
  5
21EC1
  8
0
 10
4645.2763728667423493
 20
307.5988533824757951
 30
0.0
 11
4650.13464058324098
 21
307.5988533824757951
 31
0.0
  0
LINE
  5
21EC2
  8
0
 10
4645.2945618430421746
 20
308.7799557446758172
 30
0.0
 11
4650.1164516068420198
 21
308.7799557446758172
 31
0.0
  0
ARC
  5
21EC3
  8
0
 10
4646.7803248808486387
 20
333.0319392318455129
 30
0.0
 40
0.019700045706083
 50
180.0000550621828097
 51
270.0
  0
ARC
  5
21EC4
  8
0
 10
4648.6306886604479587
 20
333.0319391404335079
 30
0.0
 40
0.0196999542940841
 50
270.0
 51
0.0000550622739769
  0
LINE
  5
21EC5
  8
0
 10
4646.9506248351408431
 20
338.7014918568019084
 30
0.0
 11
4648.4603886147433514
 21
338.7014918568019084
 31
0.0
  0
LINE
  5
21EC6
  8
0
 10
4645.2645618430424292
 20
308.7499557446757876
 30
0.0
 11
4645.2645618430424292
 21
307.6106644060757844
 31
0.0
  0
LINE
  5
21EC7
  8
0
 10
4650.1464516068417652
 20
308.7499557446757876
 30
0.0
 11
4650.1464516068417652
 21
307.6106644060757844
 31
0.0
  0
ARC
  5
21EC8
  8
0
 10
4650.1164516068420198
 20
308.7499557446757876
 30
0.0
 40
0.03
 50
359.9999999999869829
 51
90.0
  0
ARC
  5
21EC9
  8
0
 10
4645.2945618430421746
 20
308.7499557446757876
 30
0.0
 40
0.03
 50
90.0
 51
179.9999999999901945
  0
LINE
  5
21ECA
  8
0
 10
4645.2763728667423493
 20
307.5988533824757951
 30
0.0
 11
4645.2645618430424292
 21
307.6106644060757844
 31
0.0
  0
LINE
  5
21ECB
  8
0
 10
4650.1464516068417652
 20
307.6106644060757844
 30
0.0
 11
4650.13464058324098
 21
307.5988533824757951
 31
0.0
  0
LINE
  5
21ECC
  8
0
 10
4646.7606248351421527
 20
342.5929094553935101
 30
0.0
 11
4646.7606248351421527
 21
333.0319392129134144
 31
0.0
  0
LINE
  5
21ECD
  8
0
 10
4646.7606248351421527
 20
332.9822392126154114
 30
0.0
 11
4646.7606248351421527
 21
308.7799557446758172
 31
0.0
  0
LINE
  5
21ECE
  8
0
 10
4648.6503886147429512
 20
343.0813600310630136
 30
0.0
 11
4648.6503886147429512
 21
342.5890492688665177
 31
0.0
  0
LINE
  5
21ECF
  8
0
 10
4648.6503886147429512
 20
342.5290126962086106
 30
0.0
 11
4648.6503886147429512
 21
333.0319391593654927
 31
0.0
  0
LINE
  5
21ED0
  8
0
 10
4648.6503886147429512
 20
332.9822391596636066
 30
0.0
 11
4648.6503886147429512
 21
308.7799557446758172
 31
0.0
  0
LINE
  5
21ED1
  8
0
 10
4648.6214330645088921
 20
343.1113418442949978
 30
0.0
 11
4638.5870808654390203
 21
343.4608996494027906
 31
0.0
  0
LINE
  5
21ED2
  8
0
 10
4638.5678673765969506
 20
342.9100727595783269
 30
0.0
 11
4648.6214355996426093
 21
342.558994421019122
 31
0.0
  0
ARC
  5
21ED3
  8
0
 10
4648.6203886147422963
 20
343.0813600310630136
 30
0.0
 40
0.03
 50
359.9999999999935199
 51
88.0048446915909892
  0
LINE
  5
21ED4
  8
0
 10
4638.5389325956548419
 20
342.9411002936085993
 30
0.0
 11
4638.5560546498281838
 21
343.4319636453906242
 31
0.0
  0
ARC
  5
21ED5
  8
0
 10
4638.586036415669696
 20
343.4309178361706927
 30
0.0
 40
0.03
 50
88.0048446915909892
 51
178.0022467529190919
  0
ARC
  5
21ED6
  8
0
 10
4638.5689143614981731
 20
342.9400544843887815
 30
0.0
 40
0.03
 50
178.0022467529321091
 51
267.9999999995791882
  0
LINE
  5
21ED7
  8
0
 10
4639.0089204112409789
 20
342.863155586975779
 30
0.0
 11
4639.8745345132883813
 21
342.8329276749391852
 31
0.0
  0
LINE
  5
21ED8
  8
0
 10
4639.7947431255452102
 20
342.8041987918757059
 30
0.0
 11
4639.0865135795402239
 21
342.8289302736034756
 31
0.0
  0
LINE
  5
21ED9
  8
0
 10
4639.1567621489475641
 20
342.7535981193813086
 30
0.0
 11
4639.7194105681091969
 21
342.7339500037048765
 31
0.0
  0
ARC
  5
21EDA
  8
0
 10
4639.3078674047419554
 20
342.8797618192758137
 30
0.0
 40
0.1968503936999969
 50
195.2961300766974091
 51
219.8598285101089971
  0
ARC
  5
21EDB
  8
0
 10
4639.5774741319419263
 20
342.870346944975779
 30
0.0
 40
0.1968503937000928
 50
316.1401714898997852
 51
340.7038699232949739
  0
ARC
  5
21EDC
  8
0
 10
4639.673228294839646
 20
343.0582044247749991
 30
0.0
 40
0.6299212597972931
 50
198.2585262457915007
 51
201.344332037678214
  0
LINE
  5
21EDD
  8
0
 10
4639.0089204112409789
 20
342.863155586975779
 30
0.0
 11
4639.0100196080420574
 21
342.8946324633757854
 31
0.0
  0
LINE
  5
21EDE
  8
0
 10
4639.8745345132883813
 20
342.8329276749391852
 30
0.0
 11
4639.8756337101422105
 21
342.8644045528860147
 31
0.0
  0
LINE
  5
21EDF
  8
0
 10
4639.7947431255452102
 20
342.8041987918757059
 30
0.0
 11
4639.8084329091352629
 21
342.8352355895787014
 31
0.0
  0
ARC
  5
21EE0
  8
0
 10
4646.7906248351418981
 20
342.5929094553935101
 30
0.0
 40
0.03
 50
87.9999999996313846
 51
179.9999999999870113
  0
ARC
  5
21EE1
  8
0
 10
4648.6203886147422963
 20
342.5890492688665177
 30
0.0
 40
0.03
 50
267.9999999996314273
 51
359.9999999999674856
  0
ARC
  5
21EE2
  8
0
 10
4648.6203886147422963
 20
342.5290126962086106
 30
0.0
 40
0.03
 50
0.0000000000130276
 51
87.9999999995792024
  0
ARC
  5
21EE3
  8
0
 10
4646.7906247899445589
 20
332.9822392313366208
 30
0.0
 40
0.0299999548028838
 50
89.9999120216064625
 51
180.0000357550381125
  0
ARC
  5
21EE4
  8
0
 10
4648.6203885695449571
 20
332.9822391409422266
 30
0.0
 40
0.0300000451972396
 50
0.0000357550250679
 51
89.9999120216585737
  0
ARC
  5
21EE5
  8
0
 10
4646.9506265189984333
 20
338.8914935406518225
 30
0.0
 40
0.1900016838573973
 50
180.0002103267325992
 51
269.9994922263572903
  0
ARC
  5
21EE6
  8
0
 10
4648.4603869308848516
 20
338.8914935406518794
 30
0.0
 40
0.190001683857404
 50
270.0005077736427097
 51
359.9997896732674008
  0
ARC
  5
21EE7
  8
0
 10
4647.7055067249420972
 20
340.6697195272564045
 30
0.0
 40
0.9448818901478356
 50
359.9984453572150755
 51
180.0015546427848108
  0
LINE
  5
21EE9
  8
0
 10
4646.7803248808486387
 20
333.0122391861394817
 30
0.0
 11
4648.6306886604479587
 21
333.0122391861394817
 31
0.0
  0
ENDSEC
  0
EOF
