  0
SECTION
  2
HEADER
  9
$ACADVER
  1
AC1009
  9
$INSBASE
 10
4654.3462308641555865
 20
332.8819861228192849
 30
0.0
  9
$EXTMIN
 10
4651.9052859822058963
 20
323.7161881401049754
 30
0.0
  9
$EXTMAX
 10
4658.0489867696060173
 20
335.3237315040249769
 30
0.0
  9
$LIMMIN
 10
0.0
 20
0.0
  9
$LIMMAX
 10
11.6929133858000007
 20
8.2677165353999982
  9
$ORTHOMODE
 70
     1
  9
$REGENMODE
 70
     1
  9
$FILLMODE
 70
     1
  9
$QTEXTMODE
 70
     0
  9
$MIRRTEXT
 70
     0
  9
$DRAGMODE
 70
     2
  9
$LTSCALE
 40
0.6431102362
  9
$OSMODE
 70
  4095
  9
$ATTMODE
 70
     1
  9
$TEXTSIZE
 40
0.2
  9
$TRACEWID
 40
0.05
  9
$TEXTSTYLE
  7
STANDARD
  9
$CLAYER
  8
0
  9
$CELTYPE
  6
BYLAYER
  9
$CECOLOR
 62
   256
  9
$DIMSCALE
 40
1.0
  9
$DIMASZ
 40
0.1875
  9
$DIMEXO
 40
0.0625
  9
$DIMDLI
 40
0.4443307087
  9
$DIMRND
 40
0.0
  9
$DIMDLE
 40
0.0
  9
$DIMEXE
 40
0.125
  9
$DIMTP
 40
0.01
  9
$DIMTM
 40
0.01
  9
$DIMTXT
 40
2.0
  9
$DIMCEN
 40
0.1052362205
  9
$DIMTSZ
 40
0.0
  9
$DIMTOL
 70
     1
  9
$DIMLIM
 70
     0
  9
$DIMTIH
 70
     1
  9
$DIMTOH
 70
     1
  9
$DIMSE1
 70
     0
  9
$DIMSE2
 70
     0
  9
$DIMTAD
 70
     0
  9
$DIMZIN
 70
     0
  9
$DIMBLK
  1

  9
$DIMASO
 70
     1
  9
$DIMSHO
 70
     1
  9
$DIMPOST
  1
\X
  9
$DIMAPOST
  1

  9
$DIMALT
 70
     1
  9
$DIMALTD
 70
     2
  9
$DIMALTF
 40
25.3999999999999986
  9
$DIMLFAC
 40
1.0
  9
$DIMTOFL
 70
     0
  9
$DIMTVP
 40
0.0
  9
$DIMTIX
 70
     0
  9
$DIMSOXD
 70
     0
  9
$DIMSAH
 70
     0
  9
$DIMBLK1
  1

  9
$DIMBLK2
  1

  9
$DIMSTYLE
  2
STANDARD
  9
$DIMCLRD
 70
     0
  9
$DIMCLRE
 70
     0
  9
$DIMCLRT
 70
     0
  9
$DIMTFAC
 40
1.0
  9
$DIMGAP
 40
0.09
  9
$LUNITS
 70
     2
  9
$LUPREC
 70
     4
  9
$SKETCHINC
 40
0.1
  9
$FILLETRAD
 40
0.0
  9
$AUNITS
 70
     0
  9
$AUPREC
 70
     0
  9
$MENU
  1
.
  9
$ELEVATION
 40
0.0
  9
$PELEVATION
 40
0.0
  9
$THICKNESS
 40
0.0
  9
$LIMCHECK
 70
     0
  9
$BLIPMODE
 70
     0
  9
$CHAMFERA
 40
0.0
  9
$CHAMFERB
 40
0.0
  9
$SKPOLY
 70
     0
  9
$TDCREATE
 40
2458060.468368056230247
  9
$TDUPDATE
 40
2459480.6733796298503876
  9
$TDINDWG
 40
0.6566853009
  9
$TDUSRTIMER
 40
0.6566853009
  9
$USRTIMER
 70
     1
  9
$ANGBASE
 50
0.0
  9
$ANGDIR
 70
     0
  9
$PDMODE
 70
     0
  9
$PDSIZE
 40
0.3125
  9
$PLINEWID
 40
0.0
  9
$COORDS
 70
     1
  9
$SPLFRAME
 70
     0
  9
$SPLINETYPE
 70
     6
  9
$SPLINESEGS
 70
     8
  9
$ATTDIA
 70
     1
  9
$ATTREQ
 70
     1
  9
$HANDLING
 70
     1
  9
$HANDSEED
  5
21FFA
  9
$SURFTAB1
 70
     6
  9
$SURFTAB2
 70
     6
  9
$SURFTYPE
 70
     6
  9
$SURFU
 70
     6
  9
$SURFV
 70
     6
  9
$UCSNAME
  2

  9
$UCSORG
 10
0.0
 20
0.0
 30
0.0
  9
$UCSXDIR
 10
1.0
 20
0.0
 30
0.0
  9
$UCSYDIR
 10
0.0
 20
1.0
 30
0.0
  9
$PUCSNAME
  2

  9
$PUCSORG
 10
0.0
 20
0.0
 30
0.0
  9
$PUCSXDIR
 10
1.0
 20
0.0
 30
0.0
  9
$PUCSYDIR
 10
0.0
 20
1.0
 30
0.0
  9
$USERI1
 70
     0
  9
$USERI2
 70
     0
  9
$USERI3
 70
     0
  9
$USERI4
 70
     0
  9
$USERI5
 70
     0
  9
$USERR1
 40
0.0
  9
$USERR2
 40
0.0
  9
$USERR3
 40
0.0
  9
$USERR4
 40
0.0
  9
$USERR5
 40
0.0
  9
$WORLDVIEW
 70
     1
  9
$SHADEDGE
 70
     3
  9
$SHADEDIF
 70
    70
  9
$TILEMODE
 70
     1
  9
$MAXACTVP
 70
    64
  9
$PLIMCHECK
 70
     0
  9
$PEXTMIN
 10
1.0000000000000000E+20
 20
1.0000000000000000E+20
 30
1.0000000000000000E+20
  9
$PEXTMAX
 10
-1.0000000000000000E+20
 20
-1.0000000000000000E+20
 30
-1.0000000000000000E+20
  9
$PLIMMIN
 10
0.0
 20
0.0
  9
$PLIMMAX
 10
12.0
 20
9.0
  9
$UNITMODE
 70
     0
  9
$VISRETAIN
 70
     1
  9
$PLINEGEN
 70
     0
  9
$PSLTSCALE
 70
     1
  0
ENDSEC
  0
SECTION
  2
TABLES
  0
TABLE
  2
VPORT
 70
     1
  0
VPORT
  2
*ACTIVE
 70
     0
 10
0.0
 20
0.0
 11
1.0
 21
1.0
 12
743.6117799305939116
 22
196.9403547195259137
 13
0.0
 23
0.0
 14
1.0
 24
1.0
 15
0.0
 25
0.0
 16
0.0
 26
0.0
 36
60.4960186965801583
 17
3911.3653564453120453
 27
132.5796051025390057
 37
0.0
 40
11.6995450286274192
 41
1.67063492063492
 42
50.0
 43
0.0
 44
0.0
 50
0.0
 51
0.0
 71
     0
 72
   100
 73
     1
 74
     1
 75
     0
 76
     0
 77
     0
 78
     0
  0
ENDTAB
  0
TABLE
  2
LTYPE
 70
     2
  0
LTYPE
  2
CONTINUOUS
 70
     0
  3
Solid line
 72
    65
 73
     0
 40
0.0
  0
LTYPE
  2
PHANTOM2
 70
     0
  3
___ _ _ ___ _ _ ___ _ _ ___ _ _
 72
    65
 73
     6
 40
1.25
 49
0.625
 49
-0.125
 49
0.125
 49
-0.125
 49
0.125
 49
-0.125
  0
ENDTAB
  0
TABLE
  2
LAYER
 70
     2
  0
LAYER
  2
0
 70
     0
 62
   255
  6
CONTINUOUS
  0
LAYER
  2
DEFPOINTS
 70
     0
 62
     7
  6
CONTINUOUS
  0
ENDTAB
  0
TABLE
  2
STYLE
 70
     1
  0
STYLE
  2
STANDARD
 70
     0
 40
0.0
 41
0.8
 50
0.0
 71
     0
 42
0.2
  3
txt
  4

  0
ENDTAB
  0
TABLE
  2
VIEW
 70
     0
  0
ENDTAB
  0
TABLE
  2
UCS
 70
     0
  0
ENDTAB
  0
TABLE
  2
APPID
 70
    11
  0
APPID
  2
ACAD
 70
     0
  0
APPID
  2
ACAD_MLEADERVER
 70
     0
  0
APPID
  2
ACAD_EXEMPT_FROM_CAD_STANDARDS
 70
     0
  0
APPID
  2
ACAD_NAV_VCDISPLAY
 70
     0
  0
APPID
  2
ACAECLAYERSTANDARD
 70
     0
  0
APPID
  2
ACCMTRANSPARENCY
 70
     0
  0
APPID
  2
ACAD_DSTYLE_DIMJAG
 70
     0
  0
APPID
  2
ACAD_DSTYLE_DIMTALN
 70
     0
  0
APPID
  2
ACDBATTR
 70
     0
  0
APPID
  2
ACADANNOTATIVE
 70
     0
  0
APPID
  2
DCO15
 70
     0
  0
ENDTAB
  0
TABLE
  2
DIMSTYLE
 70
     1
  0
DIMSTYLE
  2
STANDARD
 70
     0
  3

  4

  5

  6

  7

 40
1.0
 41
0.1875
 42
0.0625
 43
0.38
 44
0.125
 45
0.0
 46
0.0
 47
0.01
 48
0.01
140
0.15625
141
0.09
142
0.0
143
25.3999999999999986
144
1.0
145
0.0
146
1.0
147
0.09
 71
     1
 72
     0
 73
     1
 74
     1
 75
     0
 76
     0
 77
     0
 78
     4
170
     0
171
     2
172
     0
173
     0
174
     0
175
     0
176
     0
177
     0
178
     0
  0
ENDTAB
  0
ENDSEC
  0
SECTION
  2
BLOCKS
  0
BLOCK
  8
0
  2
$MODEL_SPACE
 70
     0
 10
0.0
 20
0.0
 30
0.0
  3
$MODEL_SPACE
  1

  0
ENDBLK
  5
21
  8
0
  0
BLOCK
 67
     1
  8
0
  2
$PAPER_SPACE
 70
     0
 10
0.0
 20
0.0
 30
0.0
  3
$PAPER_SPACE
  1

  0
ENDBLK
  5
1D
 67
     1
  8
0
  0
ENDSEC
  0
SECTION
  2
ENTITIES
  0
ATTDEF
  5
211C4
  8
DEFPOINTS
 10
4654.3412928178531729
 20
332.8793029289831793
 30
0.0
 40
0.001
  1
K-31138T-4
  3

  2
MODELNUMBER
 70
     0
1001
ACDBATTR
1070
     0
1070
     1
  0
ATTDEF
  5
211C5
  8
DEFPOINTS
 10
4654.3412928178531729
 20
332.8776360886041061
 30
0.0
 40
0.001
  1
COMPOSED
  3

  2
TRADENAME
 70
     0
1001
ACDBATTR
1070
     0
1070
     1
  0
ATTDEF
  5
211C6
  8
DEFPOINTS
 10
4654.3412928178531729
 20
332.8759695956497922
 30
0.0
 40
0.001
  1
BATHROOM SINK FAUCET
  3

  2
PRODUCT
 70
     0
1001
ACDBATTR
1070
     0
1070
     1
  0
LINE
  5
21EC7
  8
0
 10
4658.0489867696060173
 20
333.7968681822250119
 30
0.0
 11
4658.0489867696060173
 21
331.9671044030250187
 31
0.0
  0
LINE
  5
21EC8
  8
0
 10
4657.3796954311055742
 20
333.8268681822249846
 30
0.0
 11
4657.3796954311055742
 21
331.9371044030249891
 31
0.0
  0
LINE
  5
21EC9
  8
0
 10
4657.2359946437063627
 20
333.8268681825250042
 30
0.0
 11
4657.2359946437063627
 21
331.9371044030249891
 31
0.0
  0
LINE
  5
21ECA
  8
0
 10
4655.2911127539064182
 20
332.8811856235827804
 30
0.0
 11
4655.2911127539064182
 21
323.855426039324982
 31
0.0
  0
LINE
  5
21ECB
  8
0
 10
4653.4013489742555976
 20
332.8811856235723212
 30
0.0
 11
4653.4013489742555976
 21
323.855426039324982
 31
0.0
  0
LINE
  5
21ECC
  8
0
 10
4655.9407190531073866
 20
333.8268681822249846
 30
0.0
 11
4657.2359946437063627
 21
333.8268681822249846
 31
0.0
  0
LINE
  5
21ECD
  8
0
 10
4657.3796954311055742
 20
333.8268681822249846
 30
0.0
 11
4658.018986769606272
 21
333.8268681822249846
 31
0.0
  0
ARC
  5
21ECE
  8
0
 10
4654.3462308640810079
 20
332.8819861228192849
 30
0.0
 40
0.9448822289144885
 50
359.9514593122402744
 51
180.0485406883948087
  0
ARC
  5
21ECF
  8
0
 10
4654.3462308641055643
 20
332.8827866221250247
 30
0.0
 40
0.9913256549000095
 50
70.9183993042034757
 51
197.6077346789616058
  0
ARC
  5
21ED0
  8
0
 10
4666.1749677546804378
 20
-1577.3191839211779097
 30
0.0
 40
1911.1734542727690496
 50
90.3068178130609311
 51
90.3449045092015837
  0
ARC
  5
21ED1
  8
0
 10
4654.3462308641055643
 20
332.8827866221250247
 30
0.0
 40
2.4409448819000001
 50
292.7739724014854801
 51
337.2060985269833964
  0
ARC
  5
21ED2
  8
0
 10
4654.3462308641055643
 20
332.8827866221250247
 30
0.0
 40
2.4409448819000001
 50
22.7535995483808016
 51
247.2260275972670911
  0
ARC
  5
21ED3
  8
0
 10
4658.018986769606272
 20
333.7968681822250119
 30
0.0
 40
0.03
 50
359.9999999999869829
 51
90.0
  0
LINE
  5
21ED4
  8
0
 10
4657.2359946437063627
 20
333.8071831431249734
 30
0.0
 11
4657.2459127733063724
 21
333.8071831431249734
 31
0.0
  0
ARC
  5
21ED5
  8
0
 10
4656.9103420675055531
 20
333.2280948965247944
 30
0.0
 40
0.6692913386002879
 50
45.4692080801044227
 51
59.9081712150341872
  0
LINE
  5
21ED6
  8
0
 10
4657.2459162773620847
 20
333.8071811125623753
 30
0.0
 11
4657.2459157206221789
 21
333.3073506600792939
 31
0.0
  0
LINE
  5
21ED7
  8
0
 10
4657.2459155589203874
 20
333.1621778354092953
 30
0.0
 11
4657.2459142145071382
 21
331.9551896196234111
 31
0.0
  0
LINE
  5
21ED8
  8
0
 10
4657.2459142145071382
 20
331.9551896196235816
 30
0.0
 11
4657.2359946437063627
 21
331.9551887833250134
 31
0.0
  0
ARC
  5
21ED9
  8
0
 10
4656.9103459366024254
 20
332.5342719590378806
 30
0.0
 40
0.6692850102591023
 50
300.0915558024793768
 51
314.5308602404774092
  0
LINE
  5
21EDA
  8
0
 10
4657.267490706706667
 20
333.3020022300963774
 30
0.0
 11
4657.2459157206221789
 21
333.3073506600792939
 31
0.0
  0
LINE
  5
21EDB
  8
0
 10
4657.2459157206221789
 20
333.3073506600792939
 30
0.0
 11
4657.2359946437063627
 21
333.3075056523250055
 31
0.0
  0
LINE
  5
21EDC
  8
0
 10
4657.267490706706667
 20
333.3020022301250265
 30
0.0
 11
4657.267490706706667
 21
333.1575252251358279
 31
0.0
  0
LINE
  5
21EDD
  8
0
 10
4657.267490706706667
 20
333.1575252251358279
 30
0.0
 11
4657.2459155589203874
 21
333.1621778354092953
 31
0.0
  0
LINE
  5
21EDE
  8
0
 10
4657.2459155589203874
 20
333.1621778354092953
 30
0.0
 11
4657.2359946437063627
 21
333.1621778354092953
 31
0.0
  0
LINE
  5
21EDF
  8
0
 10
4655.9407190531073866
 20
331.9371044030249891
 30
0.0
 11
4657.2359946437063627
 21
331.9371044030249891
 31
0.0
  0
LINE
  5
21EE0
  8
0
 10
4657.3796954311055742
 20
331.9371044030249891
 30
0.0
 11
4658.018986769606272
 21
331.9371044030249891
 31
0.0
  0
ARC
  5
21EE1
  8
0
 10
4666.1749677546804378
 20
2243.0831565064281676
 30
0.0
 40
1911.1734542727690496
 50
269.6737071008575981
 51
269.6931821869389978
  0
ARC
  5
21EE2
  8
0
 10
4658.018986769606272
 20
331.9671044030250187
 30
0.0
 40
0.03
 50
270.0
 51
0.0000000000130276
  0
LINE
  5
21EE3
  8
0
 10
4653.541348974255925
 20
323.7161942586809005
 30
0.0
 11
4655.1511127539060908
 21
323.7161942586809005
 31
0.0
  0
ARC
  5
21EE4
  8
0
 10
4653.5400461947901931
 20
323.8548864104013774
 30
0.0
 40
0.1386982702963855
 50
179.7770805809983017
 51
270.538181640799678
  0
ARC
  5
21EE5
  8
0
 10
4655.1524155333727322
 20
323.8548864104013774
 30
0.0
 40
0.1386982702963841
 50
269.461818359200322
 51
0.2229194190049787
  0
ARC
  5
21EE7
  8
0
 10
4654.2143411004062727
 20
333.8130886409250024
 30
0.0
 40
0.0118110236000177
 50
89.9999996835347105
 51
166.0773688987474088
  0
LINE
  5
21EE8
  8
0
 10
4654.2143411004708469
 20
333.8248996645249917
 30
0.0
 11
4654.2852679295510825
 21
333.8248996645249917
 31
0.0
  0
ARC
  5
21EE9
  8
0
 10
4654.3462308641555865
 20
332.8819861228192849
 30
0.0
 40
0.9488189578908018
 50
98.5645456687132651
 51
185.2213487078500123
  0
ARC
  5
21EEA
  8
0
 10
4654.3462308641555865
 20
332.8819861228192849
 30
0.0
 40
0.9488189578908018
 50
83.6041728423839743
 51
96.3958271576160541
  0
LINE
  5
21EEB
  8
0
 10
4654.4781206278057653
 20
333.8248996645249917
 30
0.0
 11
4654.4071937986100238
 21
333.8248996645249917
 31
0.0
  0
ARC
  5
21EEC
  8
0
 10
4654.4781206279058097
 20
333.8130886409250024
 30
0.0
 40
0.0118110236000035
 50
13.9226309815871101
 51
90.0
  0
ENDSEC
  0
EOF
