  0
SECTION
  2
HEADER
  9
$ACADVER
  1
AC1009
  9
$INSBASE
 10
4661.7053203252826279
 20
308.844346873647396
 30
0.0
  9
$EXTMIN
 10
4659.2643754433311187
 20
308.8391325197541732
 30
0.0
  9
$EXTMAX
 10
4665.4080762307321493
 20
344.7064126008723974
 30
0.0
  9
$LIMMIN
 10
0.0
 20
0.0
  9
$LIMMAX
 10
11.6929133858000007
 20
8.2677165353999982
  9
$ORTHOMODE
 70
     1
  9
$REGENMODE
 70
     1
  9
$FILLMODE
 70
     1
  9
$QTEXTMODE
 70
     0
  9
$MIRRTEXT
 70
     0
  9
$DRAGMODE
 70
     2
  9
$LTSCALE
 40
0.6431102362
  9
$OSMODE
 70
  4095
  9
$ATTMODE
 70
     1
  9
$TEXTSIZE
 40
0.2
  9
$TRACEWID
 40
0.05
  9
$TEXTSTYLE
  7
STANDARD
  9
$CLAYER
  8
0
  9
$CELTYPE
  6
BYLAYER
  9
$CECOLOR
 62
   256
  9
$DIMSCALE
 40
1.0
  9
$DIMASZ
 40
0.1875
  9
$DIMEXO
 40
0.0625
  9
$DIMDLI
 40
0.4443307087
  9
$DIMRND
 40
0.0
  9
$DIMDLE
 40
0.0
  9
$DIMEXE
 40
0.125
  9
$DIMTP
 40
0.01
  9
$DIMTM
 40
0.01
  9
$DIMTXT
 40
2.0
  9
$DIMCEN
 40
0.1052362205
  9
$DIMTSZ
 40
0.0
  9
$DIMTOL
 70
     1
  9
$DIMLIM
 70
     0
  9
$DIMTIH
 70
     1
  9
$DIMTOH
 70
     1
  9
$DIMSE1
 70
     0
  9
$DIMSE2
 70
     0
  9
$DIMTAD
 70
     0
  9
$DIMZIN
 70
     0
  9
$DIMBLK
  1

  9
$DIMASO
 70
     1
  9
$DIMSHO
 70
     1
  9
$DIMPOST
  1
\X
  9
$DIMAPOST
  1

  9
$DIMALT
 70
     1
  9
$DIMALTD
 70
     2
  9
$DIMALTF
 40
25.3999999999999986
  9
$DIMLFAC
 40
1.0
  9
$DIMTOFL
 70
     0
  9
$DIMTVP
 40
0.0
  9
$DIMTIX
 70
     0
  9
$DIMSOXD
 70
     0
  9
$DIMSAH
 70
     0
  9
$DIMBLK1
  1

  9
$DIMBLK2
  1

  9
$DIMSTYLE
  2
STANDARD
  9
$DIMCLRD
 70
     0
  9
$DIMCLRE
 70
     0
  9
$DIMCLRT
 70
     0
  9
$DIMTFAC
 40
1.0
  9
$DIMGAP
 40
0.09
  9
$LUNITS
 70
     2
  9
$LUPREC
 70
     4
  9
$SKETCHINC
 40
0.1
  9
$FILLETRAD
 40
0.0
  9
$AUNITS
 70
     0
  9
$AUPREC
 70
     0
  9
$MENU
  1
.
  9
$ELEVATION
 40
0.0
  9
$PELEVATION
 40
0.0
  9
$THICKNESS
 40
0.0
  9
$LIMCHECK
 70
     0
  9
$BLIPMODE
 70
     0
  9
$CHAMFERA
 40
0.0
  9
$CHAMFERB
 40
0.0
  9
$SKPOLY
 70
     0
  9
$TDCREATE
 40
2458060.468368056230247
  9
$TDUPDATE
 40
2459480.6743287038989365
  9
$TDINDWG
 40
0.6417894676
  9
$TDUSRTIMER
 40
0.6417894676
  9
$USRTIMER
 70
     1
  9
$ANGBASE
 50
0.0
  9
$ANGDIR
 70
     0
  9
$PDMODE
 70
     0
  9
$PDSIZE
 40
0.3125
  9
$PLINEWID
 40
0.0
  9
$COORDS
 70
     1
  9
$SPLFRAME
 70
     0
  9
$SPLINETYPE
 70
     6
  9
$SPLINESEGS
 70
     8
  9
$ATTDIA
 70
     1
  9
$ATTREQ
 70
     1
  9
$HANDLING
 70
     1
  9
$HANDSEED
  5
22597
  9
$SURFTAB1
 70
     6
  9
$SURFTAB2
 70
     6
  9
$SURFTYPE
 70
     6
  9
$SURFU
 70
     6
  9
$SURFV
 70
     6
  9
$UCSNAME
  2

  9
$UCSORG
 10
0.0
 20
0.0
 30
0.0
  9
$UCSXDIR
 10
1.0
 20
0.0
 30
0.0
  9
$UCSYDIR
 10
0.0
 20
1.0
 30
0.0
  9
$PUCSNAME
  2

  9
$PUCSORG
 10
0.0
 20
0.0
 30
0.0
  9
$PUCSXDIR
 10
1.0
 20
0.0
 30
0.0
  9
$PUCSYDIR
 10
0.0
 20
1.0
 30
0.0
  9
$USERI1
 70
     0
  9
$USERI2
 70
     0
  9
$USERI3
 70
     0
  9
$USERI4
 70
     0
  9
$USERI5
 70
     0
  9
$USERR1
 40
0.0
  9
$USERR2
 40
0.0
  9
$USERR3
 40
0.0
  9
$USERR4
 40
0.0
  9
$USERR5
 40
0.0
  9
$WORLDVIEW
 70
     1
  9
$SHADEDGE
 70
     3
  9
$SHADEDIF
 70
    70
  9
$TILEMODE
 70
     1
  9
$MAXACTVP
 70
    64
  9
$PLIMCHECK
 70
     0
  9
$PEXTMIN
 10
1.0000000000000000E+20
 20
1.0000000000000000E+20
 30
1.0000000000000000E+20
  9
$PEXTMAX
 10
-1.0000000000000000E+20
 20
-1.0000000000000000E+20
 30
-1.0000000000000000E+20
  9
$PLIMMIN
 10
0.0
 20
0.0
  9
$PLIMMAX
 10
12.0
 20
9.0
  9
$UNITMODE
 70
     0
  9
$VISRETAIN
 70
     1
  9
$PLINEGEN
 70
     0
  9
$PSLTSCALE
 70
     1
  0
ENDSEC
  0
SECTION
  2
TABLES
  0
TABLE
  2
VPORT
 70
     1
  0
VPORT
  2
*ACTIVE
 70
     0
 10
0.0
 20
0.0
 11
1.0
 21
1.0
 12
750.9708693917195887
 22
194.1931674577741944
 13
0.0
 23
0.0
 14
1.0
 24
1.0
 15
0.0
 25
0.0
 16
0.0
 26
0.0
 36
60.4960186965801583
 17
3911.3653564453120453
 27
132.5796051025390057
 37
0.0
 40
36.1515649958959102
 41
1.67063492063492
 42
50.0
 43
0.0
 44
0.0
 50
0.0
 51
0.0
 71
     0
 72
   100
 73
     1
 74
     1
 75
     0
 76
     0
 77
     0
 78
     0
  0
ENDTAB
  0
TABLE
  2
LTYPE
 70
     2
  0
LTYPE
  2
CONTINUOUS
 70
     0
  3
Solid line
 72
    65
 73
     0
 40
0.0
  0
LTYPE
  2
PHANTOM2
 70
     0
  3
___ _ _ ___ _ _ ___ _ _ ___ _ _
 72
    65
 73
     6
 40
1.25
 49
0.625
 49
-0.125
 49
0.125
 49
-0.125
 49
0.125
 49
-0.125
  0
ENDTAB
  0
TABLE
  2
LAYER
 70
     2
  0
LAYER
  2
0
 70
     0
 62
   255
  6
CONTINUOUS
  0
LAYER
  2
DEFPOINTS
 70
     0
 62
     7
  6
CONTINUOUS
  0
ENDTAB
  0
TABLE
  2
STYLE
 70
     1
  0
STYLE
  2
STANDARD
 70
     0
 40
0.0
 41
0.8
 50
0.0
 71
     0
 42
0.2
  3
txt
  4

  0
ENDTAB
  0
TABLE
  2
VIEW
 70
     0
  0
ENDTAB
  0
TABLE
  2
UCS
 70
     0
  0
ENDTAB
  0
TABLE
  2
APPID
 70
    11
  0
APPID
  2
ACAD
 70
     0
  0
APPID
  2
ACAD_MLEADERVER
 70
     0
  0
APPID
  2
ACAD_EXEMPT_FROM_CAD_STANDARDS
 70
     0
  0
APPID
  2
ACAD_NAV_VCDISPLAY
 70
     0
  0
APPID
  2
ACAECLAYERSTANDARD
 70
     0
  0
APPID
  2
ACCMTRANSPARENCY
 70
     0
  0
APPID
  2
ACAD_DSTYLE_DIMJAG
 70
     0
  0
APPID
  2
ACAD_DSTYLE_DIMTALN
 70
     0
  0
APPID
  2
ACDBATTR
 70
     0
  0
APPID
  2
ACADANNOTATIVE
 70
     0
  0
APPID
  2
DCO15
 70
     0
  0
ENDTAB
  0
TABLE
  2
DIMSTYLE
 70
     1
  0
DIMSTYLE
  2
STANDARD
 70
     0
  3

  4

  5

  6

  7

 40
1.0
 41
0.1875
 42
0.0625
 43
0.38
 44
0.125
 45
0.0
 46
0.0
 47
0.01
 48
0.01
140
0.15625
141
0.09
142
0.0
143
25.3999999999999986
144
1.0
145
0.0
146
1.0
147
0.09
 71
     1
 72
     0
 73
     1
 74
     1
 75
     0
 76
     0
 77
     0
 78
     4
170
     0
171
     2
172
     0
173
     0
174
     0
175
     0
176
     0
177
     0
178
     0
  0
ENDTAB
  0
ENDSEC
  0
SECTION
  2
BLOCKS
  0
BLOCK
  8
0
  2
$MODEL_SPACE
 70
     0
 10
0.0
 20
0.0
 30
0.0
  3
$MODEL_SPACE
  1

  0
ENDBLK
  5
21
  8
0
  0
BLOCK
 67
     1
  8
0
  2
$PAPER_SPACE
 70
     0
 10
0.0
 20
0.0
 30
0.0
  3
$PAPER_SPACE
  1

  0
ENDBLK
  5
1D
 67
     1
  8
0
  0
ENDSEC
  0
SECTION
  2
ENTITIES
  0
ATTDEF
  5
211C4
  8
DEFPOINTS
 10
4661.6986942035464381
 20
308.8424658530875035
 30
0.0
 40
0.001
  1
K-31138T-4
  3

  2
MODELNUMBER
 70
     0
1001
ACDBATTR
1070
     0
1070
     1
  0
ATTDEF
  5
211C5
  8
DEFPOINTS
 10
4661.6986942035464381
 20
308.8407990127083735
 30
0.0
 40
0.001
  1
COMPOSED
  3

  2
TRADENAME
 70
     0
1001
ACDBATTR
1070
     0
1070
     1
  0
ATTDEF
  5
211C6
  8
DEFPOINTS
 10
4661.6986942035464381
 20
308.8391325197541732
 30
0.0
 40
0.001
  1
BATHROOM SINK FAUCET
  3

  2
PRODUCT
 70
     0
1001
ACDBATTR
1070
     0
1070
     1
  0
LINE
  5
222CF
  8
0
 10
4665.0855136139971364
 20
341.9151873803475041
 30
0.0
 11
4665.4080762307321493
 21
341.9151873803475041
 31
0.0
  0
LINE
  5
222D0
  8
0
 10
4663.1409079510831361
 20
342.8600949085757748
 30
0.0
 11
4664.5950841048315851
 21
342.8600949085757748
 31
0.0
  0
LINE
  5
222D1
  8
0
 10
4660.7999142924918488
 20
344.7064113273423231
 30
0.0
 11
4662.6107263580579456
 21
344.7064113273423231
 31
0.0
  0
LINE
  5
222D2
  8
0
 10
4660.7762607561935511
 20
344.1555662507499278
 30
0.0
 11
4662.6343798942716603
 21
344.1555662507499278
 31
0.0
  0
LINE
  5
222D3
  8
0
 10
4659.2761864670319483
 20
308.844346873647396
 30
0.0
 11
4664.134454183532398
 21
308.844346873647396
 31
0.0
  0
LINE
  5
222D4
  8
0
 10
4659.2943754433326831
 20
310.0254492358474181
 30
0.0
 11
4664.1162652071316188
 21
310.0254492358474181
 31
0.0
  0
LINE
  5
222D5
  8
0
 10
4659.2643754433311187
 20
309.9954492358473885
 30
0.0
 11
4659.2643754433311187
 21
308.8561578972473853
 31
0.0
  0
LINE
  5
222D6
  8
0
 10
4664.1462652071322736
 20
309.9954492358473885
 30
0.0
 11
4664.1462652071322736
 21
308.8561578972473853
 31
0.0
  0
ARC
  5
222D7
  8
0
 10
4664.1162652071316188
 20
309.9954492358473885
 30
0.0
 40
0.03
 50
359.9999999999869829
 51
90.0
  0
ARC
  5
222D8
  8
0
 10
4659.2943754433326831
 20
309.9954492358473885
 30
0.0
 40
0.03
 50
90.0
 51
179.9999999999901945
  0
LINE
  5
222D9
  8
0
 10
4659.2761864670319483
 20
308.844346873647396
 30
0.0
 11
4659.2643754433311187
 21
308.8561578972473853
 31
0.0
  0
LINE
  5
222DA
  8
0
 10
4664.1462652071322736
 20
308.8561578972473853
 30
0.0
 11
4664.134454183532398
 21
308.844346873647396
 31
0.0
  0
ARC
  5
222DB
  8
0
 10
4660.7801384810882155
 20
334.2774327230171139
 30
0.0
 40
0.0197000457060919
 50
180.0000550622185926
 51
270.0
  0
ARC
  5
222DC
  8
0
 10
4662.6305022606529747
 20
334.2774326316903739
 30
0.0
 40
0.0196999543794281
 50
270.0000001028656129
 51
0.0000548140567723
  0
LINE
  5
222DD
  8
0
 10
4660.7604384353817295
 20
344.6707611809588911
 30
0.0
 11
4660.7604384353817295
 21
343.869189953093894
 31
0.0
  0
LINE
  5
222DE
  8
0
 10
4660.7604384353817295
 20
343.8022476569618107
 30
0.0
 11
4660.7604384353817295
 21
334.2774327040850153
 31
0.0
  0
LINE
  5
222DF
  8
0
 10
4660.7604384353817295
 20
334.2277327037870123
 30
0.0
 11
4660.7604384353817295
 21
310.0254492358474181
 31
0.0
  0
LINE
  5
222E0
  8
0
 10
4662.6502022150316407
 20
344.6707611825473805
 30
0.0
 11
4662.6502022150316407
 21
343.1796940283962272
 31
0.0
  0
LINE
  5
222E1
  8
0
 10
4662.6502022150316407
 20
334.2277326508352076
 30
0.0
 11
4662.6502022150316407
 21
310.0254492358474181
 31
0.0
  0
ARC
  5
222E2
  8
0
 10
4660.7904383901850451
 20
334.2277327225082217
 30
0.0
 40
0.0299999548028785
 50
89.9999120216064625
 51
180.0000357550381125
  0
ARC
  5
222E3
  8
0
 10
4662.6202021697499731
 20
334.2277326320285056
 30
0.0
 40
0.0300000452825865
 50
0.0000359180225413
 51
89.999911954175829
  0
ARC
  5
222E4
  8
0
 10
4661.6870533949268065
 20
321.7492883099595247
 30
0.0
 40
22.1190669714198407
 50
89.9526825371101921
 51
91.3359561368203146
  0
ARC
  5
222E5
  8
0
 10
4661.3633082300293609
 20
335.6313832162550739
 30
0.0
 40
8.2331975381005194
 50
91.3359561368203146
 51
93.2587311759354805
  0
ARC
  5
222E6
  8
0
 10
4660.9309898866704316
 20
343.0692455384329946
 30
0.0
 40
0.7828366133807662
 50
92.6135822241852651
 51
100.2317532994175053
  0
ARC
  5
222E7
  8
0
 10
4660.7993032632375616
 20
343.8014672116826773
 30
0.0
 40
0.0388726632149528
 50
100.9272014939977993
 51
178.8495910653377052
  0
LINE
  5
222E8
  8
0
 10
4665.4080762307321493
 20
339.9795406073623099
 30
0.0
 11
4665.4080762307321493
 21
342.8245074516300974
 31
0.0
  0
LINE
  5
222E9
  8
0
 10
4665.053745522131976
 20
339.9769863343466909
 30
0.0
 11
4665.053745522131976
 21
341.4517147805923969
 31
0.0
  0
ARC
  5
222EA
  8
0
 10
4665.0852669190080633
 20
339.9785452710506775
 30
0.0
 40
0.0315599230771527
 50
182.8313395016724883
 51
270.4529930903207742
  0
LINE
  5
222EB
  8
0
 10
4665.3783380267987013
 20
339.9495417496704022
 30
0.0
 11
4665.0855164361310017
 21
339.9469863343474003
 31
0.0
  0
ARC
  5
222EC
  8
0
 10
4665.3764835405718259
 20
339.9811194589730121
 30
0.0
 40
0.0316321172854466
 50
273.3609889233214858
 51
357.1390110796234012
  0
LINE
  5
222ED
  8
0
 10
4663.2998085151320993
 20
340.9703311210474226
 30
0.0
 11
4664.3470616030726887
 21
340.9703311210474226
 31
0.0
  0
ARC
  5
222EE
  8
0
 10
4664.44548230275268
 20
340.0312692174450717
 30
0.0
 40
0.9442054294075294
 50
84.0168182906307521
 51
95.9831817093692479
  0
LINE
  5
222EF
  8
0
 10
4664.5950841048315851
 20
340.9703311210474226
 30
0.0
 11
4664.5950841048306756
 21
342.8600949085757748
 31
0.0
  0
LINE
  5
222F0
  8
0
 10
4664.5950841048315851
 20
342.8404098612473945
 30
0.0
 11
4664.6050022344315948
 21
342.8404098612473945
 31
0.0
  0
ARC
  5
222F1
  8
0
 10
4664.2694315281250965
 20
342.261321614062922
 30
0.0
 40
0.6692913393721019
 50
45.4695932948749473
 51
59.9085178998899224
  0
LINE
  5
222F2
  8
0
 10
4664.7387848922317062
 20
342.8600949085757748
 30
0.0
 11
4664.7387848922317062
 21
340.9703384068474179
 31
0.0
  0
ARC
  5
222F3
  8
0
 10
4663.1227463647974218
 20
343.916999048270327
 30
0.0
 40
1.057060170340272
 50
253.7186135403121909
 51
270.9844599912029821
  0
ARC
  5
222F4
  8
0
 10
4662.895116198425967
 20
343.1319315522603119
 30
0.0
 40
0.2396647768180572
 50
199.0575915391380875
 51
253.3370309192692957
  0
ARC
  5
222F5
  8
0
 10
4663.5757156091749493
 20
343.2503698819992906
 30
0.0
 40
0.9282080149517687
 50
184.3668565236546897
 51
192.2340998689304001
  0
LINE
  5
222F6
  8
0
 10
4662.6502022150316407
 20
334.2774326505370937
 30
0.0
 11
4662.6502022150316407
 21
340.4392006184473871
 31
0.0
  0
ARC
  5
222F7
  8
0
 10
4663.2278250677891265
 20
338.8838484442243839
 30
0.0
 40
2.0877240184884891
 50
88.0240849275789401
 51
97.8743139557519299
  0
ARC
  5
222F8
  8
0
 10
4662.9909452568326742
 20
340.5965889048652002
 30
0.0
 40
0.358680372320532
 50
97.8743139557519299
 51
142.7385535295267971
  0
ARC
  5
222F9
  8
0
 10
4663.0020982734986319
 20
340.6362576603314096
 30
0.0
 40
0.3456703403666827
 50
149.1039845085865068
 51
175.6696122141732985
  0
ARC
  5
222FA
  8
0
 10
4669.0923832923690497
 20
340.3426827746822028
 30
0.0
 40
6.4429040600771028
 50
177.1560049409351052
 51
179.1416491844287862
  0
ARC
  5
222FB
  8
0
 10
4664.2694315286325946
 20
341.5691044070474049
 30
0.0
 40
0.6692913385998867
 50
300.0914820882978233
 51
314.5289164345011841
  0
LINE
  5
222FC
  8
0
 10
4664.5439030024317617
 20
340.9703311210474226
 30
0.0
 11
4664.5950841048315851
 21
340.9703311210474226
 31
0.0
  0
LINE
  5
222FD
  8
0
 10
4664.6050022344315948
 20
340.9900161604473965
 30
0.0
 11
4664.5950841048315851
 21
340.9900161604473965
 31
0.0
  0
LINE
  5
222FE
  8
0
 10
4664.7387848922317062
 20
340.9703384068474179
 30
0.0
 11
4664.9831355530513974
 21
340.9724677212308848
 31
0.0
  0
ARC
  5
222FF
  8
0
 10
4664.9734070569611504
 20
340.8920414299769277
 30
0.0
 40
0.0810125419985045
 50
7.3963557890770604
 51
83.1029170143679039
  0
ARC
  5
22300
  8
0
 10
4666.4842075478672996
 20
341.3256876443222154
 30
0.0
 40
1.5178454003675359
 50
157.1463076816399109
 51
173.8825859752209908
  0
ARC
  5
22301
  8
0
 10
4670.6846961899627786
 20
341.2985737950269822
 30
0.0
 40
5.6330327384628021
 50
173.7155888191022086
 51
178.4421800055087033
  0
LINE
  5
22302
  8
0
 10
4664.975005364603021
 20
341.4874387786292118
 30
0.0
 11
4664.975005364603021
 21
340.9723968733474067
 31
0.0
  0
LINE
  5
22303
  8
0
 10
4664.7387848922317062
 20
342.8600949085757748
 30
0.0
 11
4665.3783380272598151
 21
342.8545063093179124
 31
0.0
  0
ARC
  5
22304
  8
0
 10
4665.3780762307333134
 20
342.8245074516300974
 30
0.0
 40
0.03
 50
0.0
 51
89.4999991153779462
  0
ARC
  5
22305
  8
0
 10
4663.234514872669024
 20
341.8703948354796012
 30
0.0
 40
1.5458777987738039
 50
112.2086887141937979
 51
247.7913140372311034
  0
ARC
  5
22306
  8
0
 10
4660.7995977814862272
 20
344.6670806733370114
 30
0.0
 40
0.0393319275353951
 50
89.5389258354092306
 51
174.6306591177500138
  0
ARC
  5
22307
  8
0
 10
4662.6110428689053151
 20
344.6670806731485754
 30
0.0
 40
0.0393319277231655
 50
5.3693434564007481
 51
90.4610740580740753
  0
LINE
  5
22308
  8
0
 10
4661.2722494591316718
 20
344.1319304101475041
 30
0.0
 11
4661.2722494591316718
 21
344.0935351228474133
 31
0.0
  0
LINE
  5
22309
  8
0
 10
4661.3352602525046677
 20
344.1013787067399221
 30
0.0
 11
4661.3510240767282085
 21
344.0618859402499083
 31
0.0
  0
ARC
  5
2230A
  8
0
 10
4661.570578048882453
 20
344.1205267307258282
 30
0.0
 40
0.1969875153967264
 50
195.7554955658939093
 51
221.8811998407589101
  0
ARC
  5
2230B
  8
0
 10
4661.353587138556577
 20
344.0641360927756978
 30
0.0
 40
0.0034155556726064
 50
221.5224411825691107
 51
256.2955518533498207
  0
ARC
  5
2230C
  8
0
 10
4661.3946972902631387
 20
344.2654109648851772
 30
0.0
 40
0.2088434928015257
 50
258.4208565142815814
 51
267.1165218826600949
  0
ARC
  5
2230D
  8
0
 10
4661.4714108308899085
 20
341.7128800691835977
 30
0.0
 40
2.3923759574119692
 50
92.2339206446204116
 51
93.4308396812905642
  0
ARC
  5
2230E
  8
0
 10
4661.7127781615499771
 20
333.3681219899910957
 30
0.0
 40
10.7405296773829502
 50
90.0397841254180946
 51
91.7853361916900354
  0
ARC
  5
2230F
  8
0
 10
4661.2730872194260883
 20
344.0936196848970212
 30
0.0
 40
0.0008411828596749
 50
185.7657297237495868
 51
231.2286918016064874
  0
ARC
  5
22310
  8
0
 10
4661.2870072110881665
 20
344.1258615659360203
 30
0.0
 40
0.0359300431408365
 50
246.2917262107183092
 51
264.6806847405617873
  0
ARC
  5
22311
  8
0
 10
4661.3752583215209597
 20
344.851563410921699
 30
0.0
 40
0.7669646212337895
 50
263.1420366944378202
 51
267.4895664804191142
  0
ARC
  5
22312
  8
0
 10
4661.391602209485427
 20
343.876812268147205
 30
0.0
 40
0.1905215978173646
 50
93.1926189404152154
 51
101.6664952945816935
  0
ARC
  5
22313
  8
0
 10
4662.7557417550942773
 20
319.4208622520449126
 30
0.0
 40
24.6844875463930897
 50
93.0561509390459065
 51
93.1926189404152154
  0
ARC
  5
22314
  8
0
 10
4662.3274274405557662
 20
296.1130135031939972
 30
0.0
 40
47.9654447653993472
 50
90.743141478060906
 51
91.0604728895993674
  0
ARC
  5
22315
  8
0
 10
4661.3538883865649041
 20
344.0601740489793201
 30
0.0
 40
0.0033246677376851
 50
104.1443379822525941
 51
149.2911648840266139
  0
ARC
  5
22316
  8
0
 10
4661.3483493506810191
 20
343.6491553992468084
 30
0.0
 40
0.4522601114029599
 50
92.5481591226148339
 51
99.1026774834694777
  0
ARC
  5
22317
  8
0
 10
4661.2790744032918155
 20
344.082727338002428
 30
0.0
 40
0.0131901834565746
 50
99.9296762383451096
 51
115.8308176665762943
  0
ARC
  5
22318
  8
0
 10
4661.2743505739499597
 20
344.0924856500703868
 30
0.0
 40
0.0023486329177162
 50
115.8308176665236999
 51
153.4586153550835093
  0
ARC
  5
22319
  8
0
 10
4661.2891302378620821
 20
344.4248688832847733
 30
0.0
 40
0.3072453160659329
 50
259.6164066151096108
 51
266.8353071176924232
  0
ARC
  5
2231A
  8
0
 10
4661.2360720903807305
 20
344.1353108124696973
 30
0.0
 40
0.0128662349676247
 50
238.1891939983173074
 51
259.6164066151089855
  0
ARC
  5
2231B
  8
0
 10
4661.2296928771911553
 20
344.1250265262660832
 30
0.0
 40
0.0007641316937686
 50
114.2849269333285065
 51
238.1891939983173074
  0
ARC
  5
2231C
  8
0
 10
4661.2796946235757787
 20
343.9293645377525763
 30
0.0
 40
0.2027026470786128
 50
92.1049181024999228
 51
104.3725453534526935
  0
ARC
  5
2231D
  8
0
 10
4661.7484277228231804
 20
330.4159213240636745
 30
0.0
 40
13.7242723300123597
 50
90.1799640774737696
 51
91.9883372374416268
  0
ARC
  5
2231E
  8
0
 10
4660.7919241907602554
 20
344.1828806768377831
 30
0.0
 40
0.0314868393923412
 50
180.4754360561657904
 51
240.1679212014713869
  0
ARC
  5
2231F
  8
0
 10
4660.7963456154411688
 20
343.8696051741699762
 30
0.0
 40
0.0359095807318213
 50
180.6625236195272919
 51
247.2278964271633868
  0
ARC
  5
22320
  8
0
 10
4661.4290663089477675
 20
343.9973685698595887
 30
0.0
 40
0.0098355949995237
 50
238.7433809932186932
 51
263.1930115166219935
  0
ARC
  5
22321
  8
0
 10
4661.5296771897610597
 20
344.8402423261588865
 30
0.0
 40
0.8586928965503527
 50
263.1930115166219935
 51
270.0970750232016826
  0
ARC
  5
22322
  8
0
 10
4661.677300436049336
 20
349.4821033022417964
 30
0.0
 40
5.5024943928202221
 50
268.4778145985483775
 51
269.3832587131748824
  0
ARC
  5
22323
  8
0
 10
4661.7051535959872126
 20
351.8104889056025968
 30
0.0
 40
7.831045412500993
 50
269.3628537416913105
 51
270.0012198731303101
  0
ARC
  5
22324
  8
0
 10
4661.4259266950866731
 20
343.9873450256122851
 30
0.0
 40
0.0029791944606472
 50
104.9146616934099967
 51
129.6448397261420098
  0
ARC
  5
22325
  8
0
 10
4661.4243330228446212
 20
343.9892683777246134
 30
0.0
 40
0.0004813805027917
 50
129.6448397262028891
 51
219.7456358992234868
  0
ARC
  5
22326
  8
0
 10
4661.4811801367577573
 20
343.6753546353338038
 30
0.0
 40
0.3198138353439266
 50
90.1713571188323044
 51
100.0882668692556052
  0
ARC
  5
22327
  8
0
 10
4661.6296525783818652
 20
340.5382058653476065
 30
0.0
 40
3.460189238821878
 50
91.0019471372931008
 51
92.4750987325227953
  0
ARC
  5
22328
  8
0
 10
4661.6984239566490942
 20
337.0816021660841102
 30
0.0
 40
6.91747199157028
 50
90.2058842585602179
 51
91.0708378689846683
  0
ARC
  5
22329
  8
0
 10
4661.7049047359323595
 20
336.0950764889664129
 30
0.0
 40
7.9040151325122521
 50
89.9969874151856857
 51
90.2271657508226355
  0
LINE
  5
2232A
  8
0
 10
4661.7013833174323736
 20
343.9982665941474238
 30
0.0
 11
4661.7013833174323736
 21
343.9962740017473948
 31
0.0
  0
LINE
  5
2232B
  8
0
 10
4661.7013833174323736
 20
343.9962740017473948
 30
0.0
 11
4661.6609984124597759
 21
343.996102494878528
 31
0.0
  0
LINE
  5
2232C
  8
0
 10
4661.6609984124597759
 20
343.996102494878528
 30
0.0
 11
4661.6609984119322689
 21
343.9981330695474071
 31
0.0
  0
LINE
  5
2232D
  8
0
 10
4661.6609984119322689
 20
343.9981330695474071
 30
0.0
 11
4661.7013833174323736
 21
343.9982665941922733
 31
0.0
  0
LINE
  5
2232E
  8
0
 10
4661.7013833174323736
 20
343.9960678614900758
 30
0.0
 11
4661.7013833174323736
 21
343.9940749921785823
 31
0.0
  0
LINE
  5
2232F
  8
0
 10
4661.7013833174323736
 20
343.9940749921785823
 30
0.0
 11
4661.6398603635616382
 21
343.9934996730748935
 31
0.0
  0
LINE
  5
22330
  8
0
 10
4661.6398603635616382
 20
343.9934996730748935
 30
0.0
 11
4661.6398603635316249
 21
343.995674043847373
 31
0.0
  0
LINE
  5
22331
  8
0
 10
4661.6398603635316249
 20
343.995674043847373
 30
0.0
 11
4661.7013833174323736
 21
343.9960678614900758
 31
0.0
  0
LINE
  5
22332
  8
0
 10
4661.6743359631273051
 20
343.9938220644718854
 30
0.0
 11
4661.6743766522668011
 21
343.9914162841228062
 31
0.0
  0
LINE
  5
22333
  8
0
 10
4661.6743766522668011
 20
343.9914162841228062
 30
0.0
 11
4661.7053203252480671
 21
343.9916724625743996
 31
0.0
  0
LINE
  5
22334
  8
0
 10
4661.6950896034877587
 20
343.9915877638230768
 30
0.0
 11
4661.6951092049475847
 21
343.9901613080959919
 31
0.0
  0
LINE
  5
22335
  8
0
 10
4661.6951092049475847
 20
343.9901613080959919
 30
0.0
 11
4661.7053203252216917
 21
343.9902297668389792
 31
0.0
  0
LINE
  5
22336
  8
0
 10
4661.6772953881018111
 20
343.9872991274122001
 30
0.0
 11
4661.6950916787400274
 21
343.988374872252507
 31
0.0
  0
LINE
  5
22337
  8
0
 10
4661.6950916787400274
 20
343.988374872252507
 30
0.0
 11
4661.7053203252517051
 21
343.98830617244829
 31
0.0
  0
LINE
  5
22338
  8
0
 10
4661.7053203252980893
 20
343.9870695762214723
 30
0.0
 11
4661.6772953881018111
 21
343.9872991274122001
 31
0.0
  0
LINE
  5
22339
  8
0
 10
4661.7053203252517051
 20
343.9868634768204743
 30
0.0
 11
4661.6743373441322547
 21
343.9871203204473886
 31
0.0
  0
LINE
  5
2233A
  8
0
 10
4661.6743373441322547
 20
343.9871203204473886
 30
0.0
 11
4661.6428143794319112
 21
343.9852148297474059
 31
0.0
  0
LINE
  5
2233B
  8
0
 10
4661.6428143794319112
 20
343.9852148297474059
 30
0.0
 11
4661.7053203252353342
 21
343.9846650832888031
 31
0.0
  0
LINE
  5
2233C
  8
0
 10
4661.6462144548322613
 20
343.9805078828474052
 30
0.0
 11
4661.7013833174323736
 21
343.9802693451720188
 31
0.0
  0
LINE
  5
2233D
  8
0
 10
4661.7013833174323736
 20
343.9802693451720188
 30
0.0
 11
4661.7013833174323736
 21
343.9822619375473778
 31
0.0
  0
LINE
  5
2233E
  8
0
 10
4661.6462144548322613
 20
343.9805078828474052
 30
0.0
 11
4661.6609984119322689
 21
343.9824334444473948
 31
0.0
  0
LINE
  5
2233F
  8
0
 10
4661.7013833174323736
 20
343.9824680778474999
 30
0.0
 11
4661.7013833174323736
 21
343.9846997096922792
 31
0.0
  0
LINE
  5
22340
  8
0
 10
4661.6113088154570505
 20
343.9833103907669738
 30
0.0
 11
4661.6428143794319112
 21
343.9852148297474059
 31
0.0
  0
LINE
  5
22341
  8
0
 10
4661.6113088154570505
 20
343.9833103907669738
 30
0.0
 11
4661.6616539527258283
 21
343.9826377248498943
 31
0.0
  0
LINE
  5
22342
  8
0
 10
4661.7013833174323736
 20
343.9824680778474999
 30
0.0
 11
4661.6616539527258283
 21
343.9826377248498943
 31
0.0
  0
LINE
  5
22343
  8
0
 10
4661.7013833174323736
 20
343.9822619375473778
 30
0.0
 11
4661.6609984119322689
 21
343.9824334444473948
 31
0.0
  0
LINE
  5
22344
  8
0
 10
4661.6083554742317574
 20
343.9976068892473791
 30
0.0
 11
4661.6083554742317574
 21
343.9954040712623282
 31
0.0
  0
LINE
  5
22345
  8
0
 10
4661.6083554742317574
 20
343.9954040712623282
 30
0.0
 11
4661.6457869816322273
 21
343.9959602483473873
 31
0.0
  0
LINE
  5
22346
  8
0
 10
4661.6457869816322273
 20
343.9959602483473873
 30
0.0
 11
4661.6310030245285816
 21
343.9978858099314039
 31
0.0
  0
LINE
  5
22347
  8
0
 10
4661.6310030245285816
 20
343.9978858099314039
 30
0.0
 11
4661.6083554742317574
 21
343.9976063060266256
 31
0.0
  0
LINE
  5
22348
  8
0
 10
4661.5690191759322261
 20
343.9969071951474007
 30
0.0
 11
4661.5690191759322261
 21
343.9944134359474219
 31
0.0
  0
LINE
  5
22349
  8
0
 10
4661.5690191759322261
 20
343.9944134359474219
 30
0.0
 11
4661.6015363765318398
 21
343.9952666716474141
 31
0.0
  0
LINE
  5
2234A
  8
0
 10
4661.6015363765318398
 20
343.9952666716474141
 30
0.0
 11
4661.5729887961606437
 21
343.996992307206483
 31
0.0
  0
LINE
  5
2234B
  8
0
 10
4661.5690191759322261
 20
343.9944134359474219
 30
0.0
 11
4661.5286286539321736
 21
343.9958230447473966
 31
0.0
  0
LINE
  5
2234C
  8
0
 10
4661.5286286539321736
 20
343.9958230447473966
 30
0.0
 11
4661.5729887961606437
 21
343.996992307206483
 31
0.0
  0
LINE
  5
2234D
  8
0
 10
4661.5880033378316512
 20
343.9946976457474079
 30
0.0
 11
4661.5880033378316512
 21
343.9917904725139124
 31
0.0
  0
LINE
  5
2234E
  8
0
 10
4661.5880033378316512
 20
343.9917904725139124
 30
0.0
 11
4661.6330412658317073
 21
343.993362273447417
 31
0.0
  0
LINE
  5
2234F
  8
0
 10
4661.6330412658317073
 20
343.993362273447417
 30
0.0
 11
4661.6044897174324433
 21
343.9950881489473886
 31
0.0
  0
LINE
  5
22350
  8
0
 10
4661.6044897174324433
 20
343.9950881489473886
 30
0.0
 11
4661.5880033378316512
 21
343.9946976457474079
 31
0.0
  0
LINE
  5
22351
  8
0
 10
4661.5880033378316512
 20
343.9946976457474079
 30
0.0
 11
4661.5385506053326026
 21
343.9927869071473765
 31
0.0
  0
LINE
  5
22352
  8
0
 10
4661.5385506053326026
 20
343.9927869071473765
 30
0.0
 11
4661.5880033378316512
 21
343.9917904725139124
 31
0.0
  0
LINE
  5
22353
  8
0
 10
4661.483989409231981
 20
343.9938862734474014
 30
0.0
 11
4661.5174931140318222
 21
343.9954344200473884
 31
0.0
  0
LINE
  5
22354
  8
0
 10
4661.5174931140318222
 20
343.9954344200473884
 30
0.0
 11
4661.5578836360318746
 21
343.9940248111474261
 31
0.0
  0
LINE
  5
22355
  8
0
 10
4661.5578836360318746
 20
343.9940248111474261
 30
0.0
 11
4661.5334352688323634
 21
343.9928899772473869
 31
0.0
  0
LINE
  5
22356
  8
0
 10
4661.5334352688323634
 20
343.9928899772473869
 30
0.0
 11
4661.483989409231981
 21
343.9938862734474014
 31
0.0
  0
LINE
  5
22357
  8
0
 10
4661.5334352688323634
 20
343.9948780468474183
 30
0.0
 11
4661.5334352688323634
 21
343.9928899772473869
 31
0.0
  0
LINE
  5
22358
  8
0
 10
4661.4583872436332967
 20
343.9918616060475074
 30
0.0
 11
4661.480052401332614
 21
343.9936482903473802
 31
0.0
  0
LINE
  5
22359
  8
0
 10
4661.480052401332614
 20
343.9936482903473802
 30
0.0
 11
4661.5294982609311774
 21
343.9926519941474226
 31
0.0
  0
LINE
  5
2235A
  8
0
 10
4661.5294982609311774
 20
343.9926519941474226
 30
0.0
 11
4661.5135617227324474
 21
343.9913456533474232
 31
0.0
  0
LINE
  5
2235B
  8
0
 10
4661.5135617227324474
 20
343.9913456533474232
 30
0.0
 11
4661.5135617227324474
 21
343.9929731031862161
 31
0.0
  0
LINE
  5
2235C
  8
0
 10
4661.5135617227324474
 20
343.9913456533474232
 30
0.0
 11
4661.4583872436332967
 21
343.9918616060475074
 31
0.0
  0
LINE
  5
2235D
  8
0
 10
4661.4543113531317431
 20
343.9913307347474074
 30
0.0
 11
4661.5094858323318476
 21
343.9908147821474245
 31
0.0
  0
ARC
  5
2235E
  8
0
 10
4661.5103722239282433
 20
343.9784518838993108
 30
0.0
 40
0.0123946336434587
 50
94.1009591878149081
 51
117.9046018657356001
  0
ARC
  5
2235F
  8
0
 10
4661.5111134318276527
 20
344.0026684811688824
 30
0.0
 40
0.0150356767563905
 50
244.2088365329591966
 51
263.7856024131028789
  0
LINE
  5
22360
  8
0
 10
4661.504571525531901
 20
343.989405369247379
 30
0.0
 11
4661.4474763647322106
 21
343.989405369247379
 31
0.0
  0
ARC
  5
22361
  8
0
 10
4661.4555732872213412
 20
343.9737562252688008
 30
0.0
 40
0.0176197576901374
 50
94.1070629329885833
 51
117.3572053366369943
  0
LINE
  5
22362
  8
0
 10
4661.4543113531317431
 20
343.9891305700473936
 30
0.0
 11
4661.4543113531317431
 21
343.987205204547422
 31
0.0
  0
LINE
  5
22363
  8
0
 10
4661.4543113531317431
 20
343.9891305700473936
 30
0.0
 11
4661.504571525531901
 21
343.9891305700473936
 31
0.0
  0
LINE
  5
22364
  8
0
 10
4661.5094858323318476
 20
343.9877211571474049
 30
0.0
 11
4661.4543113531317431
 21
343.987205204547422
 31
0.0
  0
LINE
  5
22365
  8
0
 10
4661.480052401332614
 20
343.986876930477024
 30
0.0
 11
4661.480052401332614
 21
343.9848876489473923
 31
0.0
  0
LINE
  5
22366
  8
0
 10
4661.480052401332614
 20
343.986876930477024
 30
0.0
 11
4661.5135617227324474
 21
343.9871902859474062
 31
0.0
  0
LINE
  5
22367
  8
0
 10
4661.5135617227324474
 20
343.9871902859474062
 30
0.0
 11
4661.5294982609311774
 21
343.9858839451474068
 31
0.0
  0
LINE
  5
22368
  8
0
 10
4661.5294982609311774
 20
343.9858839451474068
 30
0.0
 11
4661.480052401332614
 21
343.9848876489473923
 31
0.0
  0
LINE
  5
22369
  8
0
 10
4661.5174931140318222
 20
343.9831015192474979
 30
0.0
 11
4661.5174931140318222
 21
343.9853247398473854
 31
0.0
  0
LINE
  5
2236A
  8
0
 10
4661.5174931140318222
 20
343.9853247398473854
 30
0.0
 11
4661.483989409231981
 21
343.984649665847428
 31
0.0
  0
LINE
  5
2236B
  8
0
 10
4661.483989409231981
 20
343.984649665847428
 30
0.0
 11
4661.5174931140318222
 21
343.9831015192474979
 31
0.0
  0
LINE
  5
2236C
  8
0
 10
4661.5174931140318222
 20
343.9831015192474979
 30
0.0
 11
4661.5578836360318746
 21
343.9845111281474033
 31
0.0
  0
LINE
  5
2236D
  8
0
 10
4661.5578836360318746
 20
343.9845111281474033
 30
0.0
 11
4661.5334352688323634
 21
343.9856459620473856
 31
0.0
  0
LINE
  5
2236E
  8
0
 10
4661.5334352688323634
 20
343.9856459620473856
 30
0.0
 11
4661.5174931140318222
 21
343.9853247398473854
 31
0.0
  0
LINE
  5
2236F
  8
0
 10
4661.5346135974323261
 20
343.9891305700473936
 30
0.0
 11
4661.5346135974323261
 21
343.9859870152474173
 31
0.0
  0
LINE
  5
22370
  8
0
 10
4661.5346135974323261
 20
343.9859870152474173
 30
0.0
 11
4661.5840663299322841
 21
343.9869834499473882
 31
0.0
  0
LINE
  5
22371
  8
0
 10
4661.5840663299322841
 20
343.9869834499473882
 30
0.0
 11
4661.5739396566677897
 21
343.9878177570554953
 31
0.0
  0
LINE
  5
22372
  8
0
 10
4661.5739396566677897
 20
343.9878177570554953
 30
0.0
 11
4661.567581304131636
 21
343.9891305700473936
 31
0.0
  0
LINE
  5
22373
  8
0
 10
4661.567581304131636
 20
343.9891305700473936
 30
0.0
 11
4661.5346135974323261
 21
343.9891305700473936
 31
0.0
  0
LINE
  5
22374
  8
0
 10
4661.5104782073321985
 20
343.989405369247379
 30
0.0
 11
4661.567581304131636
 21
343.989405369247379
 31
0.0
  0
LINE
  5
22375
  8
0
 10
4661.567581304131636
 20
343.989405369247379
 30
0.0
 11
4661.567581304131636
 21
343.9918846500474956
 31
0.0
  0
LINE
  5
22376
  8
0
 10
4661.567581304131636
 20
343.9918846499966776
 30
0.0
 11
4661.5840663299322841
 21
343.9915524893473844
 31
0.0
  0
LINE
  5
22377
  8
0
 10
4661.5840663299322841
 20
343.9915524893473844
 30
0.0
 11
4661.5744300010055667
 21
343.9907711956632284
 31
0.0
  0
LINE
  5
22378
  8
0
 10
4661.5744300010055667
 20
343.9907711956632284
 30
0.0
 11
4661.567581304131636
 21
343.9894053694483773
 31
0.0
  0
LINE
  5
22379
  8
0
 10
4661.5104782073321985
 20
343.989405369247379
 30
0.0
 11
4661.5143310878565899
 21
343.9906205593642881
 31
0.0
  0
LINE
  5
2237A
  8
0
 10
4661.5143310878565899
 20
343.9906205593642881
 30
0.0
 11
4661.5346135974323261
 21
343.9925489240474121
 31
0.0
  0
LINE
  5
2237B
  8
0
 10
4661.5346135974323261
 20
343.9925489240474121
 30
0.0
 11
4661.567581304131636
 21
343.9918846499966776
 31
0.0
  0
LINE
  5
2237C
  8
0
 10
4661.5734893359322086
 20
343.989405369247379
 30
0.0
 11
4661.6365352654320304
 21
343.989405369247379
 31
0.0
  0
LINE
  5
2237D
  8
0
 10
4661.6365352654320304
 20
343.989405369247379
 30
0.0
 11
4661.6365352654320304
 21
343.9931510692733241
 31
0.0
  0
LINE
  5
2237E
  8
0
 10
4661.6365352654320304
 20
343.9891305700473936
 30
0.0
 11
4661.5734893359322086
 21
343.9891305700473936
 31
0.0
  0
LINE
  5
2237F
  8
0
 10
4661.6359952817319936
 20
343.9853522293474271
 30
0.0
 11
4661.6359952817319936
 21
343.9891305700473936
 31
0.0
  0
LINE
  5
22380
  8
0
 10
4661.6359952817319936
 20
343.9931837100473899
 30
0.0
 11
4661.5814668223156332
 21
343.9908500936152791
 31
0.0
  0
LINE
  5
22381
  8
0
 10
4661.5814668223156332
 20
343.9908500936152791
 30
0.0
 11
4661.5734893359322086
 21
343.989405369247379
 31
0.0
  0
LINE
  5
22382
  8
0
 10
4661.6359952817319936
 20
343.9931837100473899
 30
0.0
 11
4661.6675182465323815
 21
343.9912782192474197
 31
0.0
  0
LINE
  5
22383
  8
0
 10
4661.6675182465323815
 20
343.9912782192474197
 30
0.0
 11
4661.6392903760606714
 21
343.9899540429823901
 31
0.0
  0
LINE
  5
22384
  8
0
 10
4661.6392903760606714
 20
343.9899540429823901
 30
0.0
 11
4661.6365352654320304
 21
343.989405369247379
 31
0.0
  0
LINE
  5
22385
  8
0
 10
4661.6365352654320304
 20
343.9891305700473936
 30
0.0
 11
4661.6397087932227805
 21
343.9885345518487725
 31
0.0
  0
LINE
  5
22386
  8
0
 10
4661.6397087932227805
 20
343.9885345518487725
 30
0.0
 11
4661.6675182465323815
 21
343.9872577200474097
 31
0.0
  0
LINE
  5
22387
  8
0
 10
4661.6675182465323815
 20
343.9872577200474097
 30
0.0
 11
4661.6359952817319936
 21
343.9853522293474271
 31
0.0
  0
LINE
  5
22388
  8
0
 10
4661.6359952817319936
 20
343.9853522293474271
 30
0.0
 11
4661.5931201741350378
 21
343.9868485671815961
 31
0.0
  0
LINE
  5
22389
  8
0
 10
4661.5385506053326026
 20
343.9857490321473961
 30
0.0
 11
4661.5931201741350378
 21
343.9868485671815961
 31
0.0
  0
LINE
  5
2238A
  8
0
 10
4661.5385506053326026
 20
343.9857490321473961
 30
0.0
 11
4661.6044897174324433
 21
343.9834477903473839
 31
0.0
  0
LINE
  5
2238B
  8
0
 10
4661.6044897174324433
 20
343.9834477903473839
 30
0.0
 11
4661.6359952817319936
 21
343.9853522293474271
 31
0.0
  0
LINE
  5
2238C
  8
0
 10
4661.6044897174324433
 20
343.9834477903473839
 30
0.0
 11
4661.6044897174324433
 21
343.9864517710275891
 31
0.0
  0
LINE
  5
2238D
  8
0
 10
4661.5729693004132059
 20
343.9842756780357718
 30
0.0
 11
4661.5729887961606437
 21
343.9815436320882895
 31
0.0
  0
LINE
  5
2238E
  8
0
 10
4661.5729887961606437
 20
343.9815436320882895
 30
0.0
 11
4661.5286286539321736
 21
343.982712894547376
 31
0.0
  0
LINE
  5
2238F
  8
0
 10
4661.5286286539321736
 20
343.982712894547376
 30
0.0
 11
4661.5729693004132059
 21
343.9842756780357718
 31
0.0
  0
LINE
  5
22390
  8
0
 10
4661.5729693004132059
 20
343.9842756780357718
 30
0.0
 11
4661.6044897174324433
 21
343.9834477903473839
 31
0.0
  0
LINE
  5
22391
  8
0
 10
4661.5729887966117531
 20
343.9815436320764093
 30
0.0
 11
4661.6044897174324433
 21
343.9834477903473839
 31
0.0
  0
LINE
  5
22392
  8
0
 10
4661.6310030245322196
 20
343.9830472546644273
 30
0.0
 11
4661.6310030245322196
 21
343.9806501293825818
 31
0.0
  0
LINE
  5
22393
  8
0
 10
4661.6310030245322196
 20
343.9806501293825818
 30
0.0
 11
4661.6476951924687455
 21
343.982824229103926
 31
0.0
  0
LINE
  5
22394
  8
0
 10
4661.6310030245522285
 20
343.9806501293851966
 30
0.0
 11
4661.579807893832367
 21
343.981406232447398
 31
0.0
  0
LINE
  5
22395
  8
0
 10
4661.579807893832367
 20
343.981406232447398
 30
0.0
 11
4661.6113088154570505
 21
343.9833103907669738
 31
0.0
  0
LINE
  5
22396
  8
0
 10
4661.6424513511319674
 20
343.9891305700473936
 30
0.0
 11
4661.6780439346321145
 21
343.9891305700473936
 31
0.0
  0
LINE
  5
22397
  8
0
 10
4661.6780439346321145
 20
343.9891305700473936
 30
0.0
 11
4661.6818919279221518
 21
343.9887614621495118
 31
0.0
  0
LINE
  5
22398
  8
0
 10
4661.6818919279221518
 20
343.9887614621495118
 30
0.0
 11
4661.6882725811319688
 21
343.9885122718474122
 31
0.0
  0
LINE
  5
22399
  8
0
 10
4661.6882725811319688
 20
343.9885122718474122
 30
0.0
 11
4661.6704762893332372
 21
343.9874365269474197
 31
0.0
  0
LINE
  5
2239A
  8
0
 10
4661.6704762893332372
 20
343.9874365269474197
 30
0.0
 11
4661.6446756118602934
 21
343.9886738021190808
 31
0.0
  0
LINE
  5
2239B
  8
0
 10
4661.6446756118602934
 20
343.9886738021190808
 30
0.0
 11
4661.6424513511319674
 21
343.9891305700473936
 31
0.0
  0
LINE
  5
2239C
  8
0
 10
4661.6424513511319674
 20
343.989405369247379
 30
0.0
 11
4661.6780439346321145
 21
343.989405369247379
 31
0.0
  0
LINE
  5
2239D
  8
0
 10
4661.6780439346321145
 20
343.989405369247379
 30
0.0
 11
4661.681423639474815
 21
343.9897470721792843
 31
0.0
  0
LINE
  5
2239E
  8
0
 10
4661.681423639474815
 20
343.9897470721792843
 30
0.0
 11
4661.6882725811319688
 21
343.9900236674474172
 31
0.0
  0
LINE
  5
2239F
  8
0
 10
4661.6882725811319688
 20
343.9900236674474172
 30
0.0
 11
4661.6780439346321145
 21
343.990641965597888
 31
0.0
  0
LINE
  5
223A0
  8
0
 10
4661.6780439346321145
 20
343.990641965597888
 30
0.0
 11
4661.6704762893332372
 21
343.9910994123474097
 31
0.0
  0
LINE
  5
223A1
  8
0
 10
4661.6704762893332372
 20
343.9910994123474097
 30
0.0
 11
4661.6447403773745464
 21
343.989870130786926
 31
0.0
  0
LINE
  5
223A2
  8
0
 10
4661.6447403773745464
 20
343.989870130786926
 30
0.0
 11
4661.6424513511319674
 21
343.989405369247379
 31
0.0
  0
LINE
  5
223A3
  8
0
 10
4661.6704762893332372
 20
343.9891305700473936
 30
0.0
 11
4661.6704762893332372
 21
343.9874365269474197
 31
0.0
  0
LINE
  5
223A4
  8
0
 10
4661.6780439346321145
 20
343.989405369247379
 30
0.0
 11
4661.6780439346321145
 21
343.990641965597888
 31
0.0
  0
LINE
  5
223A5
  8
0
 10
4661.504571525531901
 20
343.989405369247379
 30
0.0
 11
4661.504571525531901
 21
343.9908607372594247
 31
0.0
  0
ARC
  5
223A6
  8
0
 10
4661.7235872555365859
 20
321.7492883099595247
 30
0.0
 40
22.1190669714198407
 50
88.6640438631796997
 51
90.0473174628898221
  0
ARC
  5
223A7
  8
0
 10
4662.0473324204340315
 20
335.6313832162550739
 30
0.0
 40
8.2331975381005194
 50
86.7412688240645338
 51
88.6640438631796997
  0
ARC
  5
223A8
  8
0
 10
4662.4796135396209138
 20
343.0687744657216172
 30
0.0
 40
0.7833088936489082
 50
79.7717153423458996
 51
87.385269047515024
  0
ARC
  5
223A9
  8
0
 10
4662.6118115444651266
 20
343.8018666533941996
 30
0.0
 40
0.0383925611320594
 50
0.5686063677506782
 51
79.6545948211932
  0
LINE
  5
223AA
  8
0
 10
4662.1383911913326301
 20
344.1319304101475041
 30
0.0
 11
4662.1383911913326301
 21
344.0935351228474133
 31
0.0
  0
LINE
  5
223AB
  8
0
 10
4662.0753803979596341
 20
344.1013787067399221
 30
0.0
 11
4662.0596165737370029
 21
344.0618859402499083
 31
0.0
  0
ARC
  5
223AC
  8
0
 10
4661.8400626015818489
 20
344.1205267307258282
 30
0.0
 40
0.1969875153967264
 50
318.1188001592411183
 51
344.2445044341060907
  0
ARC
  5
223AD
  8
0
 10
4662.0570535119068154
 20
344.0641360927756978
 30
0.0
 40
0.0034155556726064
 50
283.7044481466501793
 51
318.4775588174308041
  0
ARC
  5
223AE
  8
0
 10
4662.0159433602011632
 20
344.2654109648851772
 30
0.0
 40
0.2088434928015257
 50
272.8834781173400188
 51
281.5791434857183049
  0
ARC
  5
223AF
  8
0
 10
4661.9392298195743933
 20
341.7128800691835977
 30
0.0
 40
2.3923759574119692
 50
86.5691603187094501
 51
87.7660793553795742
  0
ARC
  5
223B0
  8
0
 10
4661.6978624889134153
 20
333.3681219899910957
 30
0.0
 40
10.7405296773829502
 50
88.2146638083099646
 51
89.960215874581877
  0
ARC
  5
223B1
  8
0
 10
4662.1375534310373041
 20
344.0936196848970212
 30
0.0
 40
0.0008411828596749
 50
308.7713081983935126
 51
354.2342702762504132
  0
ARC
  5
223B2
  8
0
 10
4662.1236334393761354
 20
344.1258615659360203
 30
0.0
 40
0.0359300431408365
 50
275.3193152594382127
 51
293.7082737892815771
  0
ARC
  5
223B3
  8
0
 10
4662.0353823289433421
 20
344.851563410921699
 30
0.0
 40
0.7669646212337895
 50
272.5104335195808858
 51
276.8579633055621798
  0
ARC
  5
223B4
  8
0
 10
4662.0190384409797844
 20
343.876812268147205
 30
0.0
 40
0.1905215978173646
 50
78.3335047054182496
 51
86.8073810595847846
  0
ARC
  5
223B5
  8
0
 10
4660.6548988953691151
 20
319.4208622520449126
 30
0.0
 40
24.6844875463930897
 50
86.8073810595847846
 51
86.9438490609540651
  0
ARC
  5
223B6
  8
0
 10
4661.534073256640113
 20
324.7557711700380878
 30
0.0
 40
19.3194115757870897
 50
88.7042614921144548
 51
89.4921241395528995
  0
ARC
  5
223B7
  8
0
 10
4662.0567522638993978
 20
344.0601740489793201
 30
0.0
 40
0.0033246677376851
 50
30.7088351159733683
 51
75.8556620177474059
  0
ARC
  5
223B8
  8
0
 10
4662.0622912997832827
 20
343.6491553992468084
 30
0.0
 40
0.4522601114029599
 50
80.8973225165305081
 51
87.4518408773851519
  0
ARC
  5
223B9
  8
0
 10
4662.1315662471706673
 20
344.082727338002428
 30
0.0
 40
0.0131901834565746
 50
64.1691823334236915
 51
80.0703237616548762
  0
ARC
  5
223BA
  8
0
 10
4662.1362900765152517
 20
344.0924856500703868
 30
0.0
 40
0.0023486329177162
 50
26.5413846449164303
 51
64.1691823334762717
  0
ARC
  5
223BB
  8
0
 10
4662.1215104126022197
 20
344.4248688832847733
 30
0.0
 40
0.3072453160659329
 50
273.16469288230752
 51
280.3835933848903892
  0
ARC
  5
223BC
  8
0
 10
4662.1745685600817524
 20
344.1353108124696973
 30
0.0
 40
0.0128662349676247
 50
280.3835933848910145
 51
301.8108060016828063
  0
ARC
  5
223BD
  8
0
 10
4662.1809477732740561
 20
344.1250265262660832
 30
0.0
 40
0.0007641316937686
 50
301.8108060016828063
 51
65.7150730666714651
  0
ARC
  5
223BE
  8
0
 10
4662.1309460268867042
 20
343.9293645377525763
 30
0.0
 40
0.2027026470786128
 50
75.6274546465472639
 51
87.8950818975000914
  0
ARC
  5
223BF
  8
0
 10
4661.6622129276411215
 20
330.4159213240636745
 30
0.0
 40
13.7242723300123597
 50
88.0116627625583732
 51
89.8200359225262162
  0
ARC
  5
223C0
  8
0
 10
4661.9815743415156248
 20
343.9973685698595887
 30
0.0
 40
0.0098355949995237
 50
276.8069884833780065
 51
301.2566190067813068
  0
ARC
  5
223C1
  8
0
 10
4661.8809634607023327
 20
344.8402423261588865
 30
0.0
 40
0.8586928965503527
 50
269.9029249767983174
 51
276.8069884833780065
  0
ARC
  5
223C2
  8
0
 10
4661.7333402144140564
 20
349.4821033022417964
 30
0.0
 40
5.5024943928202221
 50
270.616741286825004
 51
271.5221854014516225
  0
ARC
  5
223C3
  8
0
 10
4661.7054870544770893
 20
351.8104889056025968
 30
0.0
 40
7.831045412500993
 50
269.9987801268696899
 51
270.6371462583086895
  0
ARC
  5
223C4
  8
0
 10
4661.9847139553758097
 20
343.9873450256122851
 30
0.0
 40
0.0029791944606472
 50
50.3551602738579689
 51
75.0853383065899607
  0
ARC
  5
223C5
  8
0
 10
4661.9863076276196807
 20
343.9892683777246134
 30
0.0
 40
0.0004813805027917
 50
320.2543641007765132
 51
50.3551602737970612
  0
ARC
  5
223C6
  8
0
 10
4661.9294605137056351
 20
343.6753546353338038
 30
0.0
 40
0.3198138353439266
 50
79.9117331307444374
 51
89.8286428811676956
  0
ARC
  5
223C7
  8
0
 10
4661.7809880720806177
 20
340.5382058653476065
 30
0.0
 40
3.460189238821878
 50
87.5249012674772331
 51
88.9980528627069134
  0
ARC
  5
223C8
  8
0
 10
4661.7122166938142982
 20
337.0816021660841102
 30
0.0
 40
6.91747199157028
 50
88.9291621310153459
 51
89.7941157414397964
  0
ARC
  5
223C9
  8
0
 10
4661.7057359145346709
 20
336.095076490271083
 30
0.0
 40
7.9040151312075411
 50
89.7728342491773788
 51
90.0030125840847433
  0
LINE
  5
223CA
  8
0
 10
4661.7092573330319283
 20
343.9982665941474238
 30
0.0
 11
4661.7092573330319283
 21
343.9962740017473948
 31
0.0
  0
LINE
  5
223CB
  8
0
 10
4661.7092573330319283
 20
343.9962740017473948
 30
0.0
 11
4661.749642238002707
 21
343.996102494878528
 31
0.0
  0
LINE
  5
223CC
  8
0
 10
4661.749642238002707
 20
343.996102494878528
 30
0.0
 11
4661.7496422385320329
 21
343.9981330695474071
 31
0.0
  0
LINE
  5
223CD
  8
0
 10
4661.7496422385320329
 20
343.9981330695474071
 30
0.0
 11
4661.7092573330319283
 21
343.9982665941922733
 31
0.0
  0
LINE
  5
223CE
  8
0
 10
4661.7092573330319283
 20
343.9960678614900758
 30
0.0
 11
4661.7092573330319283
 21
343.9940749921785823
 31
0.0
  0
LINE
  5
223CF
  8
0
 10
4661.7092573330319283
 20
343.9940749921785823
 30
0.0
 11
4661.7707802869026636
 21
343.9934996730748935
 31
0.0
  0
LINE
  5
223D0
  8
0
 10
4661.7707802869026636
 20
343.9934996730748935
 30
0.0
 11
4661.7707802869317675
 21
343.995674043847373
 31
0.0
  0
LINE
  5
223D1
  8
0
 10
4661.7707802869317675
 20
343.995674043847373
 30
0.0
 11
4661.7092573330319283
 21
343.9960678614900758
 31
0.0
  0
LINE
  5
223D2
  8
0
 10
4661.7363046873369967
 20
343.9938220644718854
 30
0.0
 11
4661.7362639981965913
 21
343.9914162841228062
 31
0.0
  0
LINE
  5
223D3
  8
0
 10
4661.7362639981965913
 20
343.9914162841228062
 30
0.0
 11
4661.7053203252162348
 21
343.9916724625743996
 31
0.0
  0
LINE
  5
223D4
  8
0
 10
4661.7155510469756337
 20
343.9915877638230768
 30
0.0
 11
4661.7155314455167172
 21
343.9901613080959919
 31
0.0
  0
LINE
  5
223D5
  8
0
 10
4661.7155314455167172
 20
343.9901613080959919
 30
0.0
 11
4661.7053203252417006
 21
343.9902297668389792
 31
0.0
  0
LINE
  5
223D6
  8
0
 10
4661.7333452623606718
 20
343.9872991274122001
 30
0.0
 11
4661.715548971723365
 21
343.988374872252507
 31
0.0
  0
LINE
  5
223D7
  8
0
 10
4661.715548971723365
 20
343.988374872252507
 30
0.0
 11
4661.7053203252125968
 21
343.98830617244829
 31
0.0
  0
LINE
  5
223D8
  8
0
 10
4661.7053203251671221
 20
343.9870695762214723
 30
0.0
 11
4661.7333452623606718
 21
343.9872991274122001
 31
0.0
  0
LINE
  5
223D9
  8
0
 10
4661.7053203252125968
 20
343.9868634768204743
 30
0.0
 11
4661.7363033063320472
 21
343.9871203204473886
 31
0.0
  0
LINE
  5
223DA
  8
0
 10
4661.7363033063320472
 20
343.9871203204473886
 30
0.0
 11
4661.7678262710333001
 21
343.9852148297474059
 31
0.0
  0
LINE
  5
223DB
  8
0
 10
4661.7678262710333001
 20
343.9852148297474059
 30
0.0
 11
4661.7053203252280582
 21
343.9846650832888031
 31
0.0
  0
LINE
  5
223DC
  8
0
 10
4661.7644261956320406
 20
343.9805078828474052
 30
0.0
 11
4661.7092573330319283
 21
343.9802693451720188
 31
0.0
  0
LINE
  5
223DD
  8
0
 10
4661.7092573330319283
 20
343.9802693451720188
 30
0.0
 11
4661.7092573330319283
 21
343.9822619375473778
 31
0.0
  0
LINE
  5
223DE
  8
0
 10
4661.7644261956320406
 20
343.9805078828474052
 30
0.0
 11
4661.7496422385320329
 21
343.9824334444473948
 31
0.0
  0
LINE
  5
223DF
  8
0
 10
4661.7092573330319283
 20
343.9824680778474999
 30
0.0
 11
4661.7092573330319283
 21
343.9846997096922792
 31
0.0
  0
LINE
  5
223E0
  8
0
 10
4661.7993318350081609
 20
343.9833103907669738
 30
0.0
 11
4661.7678262710333001
 21
343.9852148297474059
 31
0.0
  0
LINE
  5
223E1
  8
0
 10
4661.7993318350072514
 20
343.9833103907669738
 30
0.0
 11
4661.7489866977375641
 21
343.9826377248498943
 31
0.0
  0
LINE
  5
223E2
  8
0
 10
4661.7092573330319283
 20
343.9824680778474999
 30
0.0
 11
4661.7489866977375641
 21
343.9826377248498943
 31
0.0
  0
LINE
  5
223E3
  8
0
 10
4661.7092573330319283
 20
343.9822619375473778
 30
0.0
 11
4661.7496422385320329
 21
343.9824334444473948
 31
0.0
  0
LINE
  5
223E4
  8
0
 10
4661.802285176231635
 20
343.9976068892473791
 30
0.0
 11
4661.802285176231635
 21
343.9954040712623282
 31
0.0
  0
LINE
  5
223E5
  8
0
 10
4661.802285176231635
 20
343.9954040712623282
 30
0.0
 11
4661.7648536688320746
 21
343.9959602483473873
 31
0.0
  0
LINE
  5
223E6
  8
0
 10
4661.7648536688320746
 20
343.9959602483473873
 30
0.0
 11
4661.7796376259357203
 21
343.9978858099314039
 31
0.0
  0
LINE
  5
223E7
  8
0
 10
4661.7796376259357203
 20
343.9978858099314039
 30
0.0
 11
4661.802285176231635
 21
343.9976063060266256
 31
0.0
  0
LINE
  5
223E8
  8
0
 10
4661.8416214745320758
 20
343.9969071951474007
 30
0.0
 11
4661.8416214745320758
 21
343.9944134359474219
 31
0.0
  0
LINE
  5
223E9
  8
0
 10
4661.8416214745320758
 20
343.9944134359474219
 30
0.0
 11
4661.8091042739315526
 21
343.9952666716474141
 31
0.0
  0
LINE
  5
223EA
  8
0
 10
4661.8091042739315526
 20
343.9952666716474141
 30
0.0
 11
4661.8376518543036582
 21
343.996992307206483
 31
0.0
  0
LINE
  5
223EB
  8
0
 10
4661.8416214745320758
 20
343.9944134359474219
 30
0.0
 11
4661.8820119965321283
 21
343.9958230447473966
 31
0.0
  0
LINE
  5
223EC
  8
0
 10
4661.8820119965321283
 20
343.9958230447473966
 30
0.0
 11
4661.8376518543036582
 21
343.996992307206483
 31
0.0
  0
LINE
  5
223ED
  8
0
 10
4661.8226373126317412
 20
343.9946976457474079
 30
0.0
 11
4661.8226373126317412
 21
343.9917904725139124
 31
0.0
  0
LINE
  5
223EE
  8
0
 10
4661.8226373126317412
 20
343.9917904725139124
 30
0.0
 11
4661.7775993846325946
 21
343.993362273447417
 31
0.0
  0
LINE
  5
223EF
  8
0
 10
4661.7775993846325946
 20
343.993362273447417
 30
0.0
 11
4661.8061509330309491
 21
343.9950881489473886
 31
0.0
  0
LINE
  5
223F0
  8
0
 10
4661.8061509330309491
 20
343.9950881489473886
 30
0.0
 11
4661.8226373126317412
 21
343.9946976457474079
 31
0.0
  0
LINE
  5
223F1
  8
0
 10
4661.8226373126317412
 20
343.9946976457474079
 30
0.0
 11
4661.8720900451316993
 21
343.9927869071473765
 31
0.0
  0
LINE
  5
223F2
  8
0
 10
4661.8720900451316993
 20
343.9927869071473765
 30
0.0
 11
4661.8226373126317412
 21
343.9917904725139124
 31
0.0
  0
LINE
  5
223F3
  8
0
 10
4661.9266512412323209
 20
343.9938862734474014
 30
0.0
 11
4661.8931475364315702
 21
343.9954344200473884
 31
0.0
  0
LINE
  5
223F4
  8
0
 10
4661.8931475364315702
 20
343.9954344200473884
 30
0.0
 11
4661.8527570144324272
 21
343.9940248111474261
 31
0.0
  0
LINE
  5
223F5
  8
0
 10
4661.8527570144324272
 20
343.9940248111474261
 30
0.0
 11
4661.8772053816319385
 21
343.9928899772473869
 31
0.0
  0
LINE
  5
223F6
  8
0
 10
4661.8772053816319385
 20
343.9928899772473869
 30
0.0
 11
4661.9266512412323209
 21
343.9938862734474014
 31
0.0
  0
LINE
  5
223F7
  8
0
 10
4661.8772053816319385
 20
343.9948780468474183
 30
0.0
 11
4661.8772053816319385
 21
343.9928899772473869
 31
0.0
  0
LINE
  5
223F8
  8
0
 10
4661.9522534068310051
 20
343.9918616060475074
 30
0.0
 11
4661.9305882491316879
 21
343.9936482903473802
 31
0.0
  0
LINE
  5
223F9
  8
0
 10
4661.9305882491316879
 20
343.9936482903473802
 30
0.0
 11
4661.881142389532215
 21
343.9926519941474226
 31
0.0
  0
LINE
  5
223FA
  8
0
 10
4661.881142389532215
 20
343.9926519941474226
 30
0.0
 11
4661.8970789277318545
 21
343.9913456533474232
 31
0.0
  0
LINE
  5
223FB
  8
0
 10
4661.8970789277318545
 20
343.9913456533474232
 30
0.0
 11
4661.8970789277318545
 21
343.9929731031862161
 31
0.0
  0
LINE
  5
223FC
  8
0
 10
4661.8970789277318545
 20
343.9913456533474232
 30
0.0
 11
4661.9522534068310051
 21
343.9918616060475074
 31
0.0
  0
LINE
  5
223FD
  8
0
 10
4661.9563292973316493
 20
343.9913307347474074
 30
0.0
 11
4661.9011548181324542
 21
343.9908147821474245
 31
0.0
  0
ARC
  5
223FE
  8
0
 10
4661.9002684265360585
 20
343.9784518838993108
 30
0.0
 40
0.0123946336434587
 50
62.0953981342643786
 51
85.8990408121850777
  0
ARC
  5
223FF
  8
0
 10
4661.8995272186348302
 20
344.0026684811688824
 30
0.0
 40
0.0150356767563905
 50
276.2143975868971211
 51
295.7911634670408034
  0
LINE
  5
22400
  8
0
 10
4661.9060691249324009
 20
343.989405369247379
 30
0.0
 11
4661.9631642857320912
 21
343.989405369247379
 31
0.0
  0
ARC
  5
22401
  8
0
 10
4661.9550673632429607
 20
343.9737562252688008
 30
0.0
 40
0.0176197576901374
 50
62.6427946633629773
 51
85.8929370670114167
  0
LINE
  5
22402
  8
0
 10
4661.9563292973316493
 20
343.9891305700473936
 30
0.0
 11
4661.9563292973316493
 21
343.987205204547422
 31
0.0
  0
LINE
  5
22403
  8
0
 10
4661.9563292973316493
 20
343.9891305700473936
 30
0.0
 11
4661.9060691249324009
 21
343.9891305700473936
 31
0.0
  0
LINE
  5
22404
  8
0
 10
4661.9011548181324542
 20
343.9877211571474049
 30
0.0
 11
4661.9563292973316493
 21
343.987205204547422
 31
0.0
  0
LINE
  5
22405
  8
0
 10
4661.9305882491316879
 20
343.986876930477024
 30
0.0
 11
4661.9305882491316879
 21
343.9848876489473923
 31
0.0
  0
LINE
  5
22406
  8
0
 10
4661.9305882491316879
 20
343.986876930477024
 30
0.0
 11
4661.8970789277318545
 21
343.9871902859474062
 31
0.0
  0
LINE
  5
22407
  8
0
 10
4661.8970789277318545
 20
343.9871902859474062
 30
0.0
 11
4661.881142389532215
 21
343.9858839451474068
 31
0.0
  0
LINE
  5
22408
  8
0
 10
4661.881142389532215
 20
343.9858839451474068
 30
0.0
 11
4661.9305882491316879
 21
343.9848876489473923
 31
0.0
  0
LINE
  5
22409
  8
0
 10
4661.8931475364315702
 20
343.9831015192474979
 30
0.0
 11
4661.8931475364315702
 21
343.9853247398473854
 31
0.0
  0
LINE
  5
2240A
  8
0
 10
4661.8931475364315702
 20
343.9853247398473854
 30
0.0
 11
4661.9266512412323209
 21
343.984649665847428
 31
0.0
  0
LINE
  5
2240B
  8
0
 10
4661.9266512412323209
 20
343.984649665847428
 30
0.0
 11
4661.8931475364315702
 21
343.9831015192474979
 31
0.0
  0
LINE
  5
2240C
  8
0
 10
4661.8931475364315702
 20
343.9831015192474979
 30
0.0
 11
4661.8527570144324272
 21
343.9845111281474033
 31
0.0
  0
LINE
  5
2240D
  8
0
 10
4661.8527570144324272
 20
343.9845111281474033
 30
0.0
 11
4661.8772053816319385
 21
343.9856459620473856
 31
0.0
  0
LINE
  5
2240E
  8
0
 10
4661.8772053816319385
 20
343.9856459620473856
 30
0.0
 11
4661.8931475364315702
 21
343.9853247398473854
 31
0.0
  0
LINE
  5
2240F
  8
0
 10
4661.8760270530319758
 20
343.9891305700473936
 30
0.0
 11
4661.8760270530319758
 21
343.9859870152474173
 31
0.0
  0
LINE
  5
22410
  8
0
 10
4661.8760270530319758
 20
343.9859870152474173
 30
0.0
 11
4661.8265743205320177
 21
343.9869834499473882
 31
0.0
  0
LINE
  5
22411
  8
0
 10
4661.8265743205320177
 20
343.9869834499473882
 30
0.0
 11
4661.8367009937956027
 21
343.9878177570554953
 31
0.0
  0
LINE
  5
22412
  8
0
 10
4661.8367009937956027
 20
343.9878177570554953
 30
0.0
 11
4661.8430593463326659
 21
343.9891305700473936
 31
0.0
  0
LINE
  5
22413
  8
0
 10
4661.8430593463326659
 20
343.9891305700473936
 30
0.0
 11
4661.8760270530319758
 21
343.9891305700473936
 31
0.0
  0
LINE
  5
22414
  8
0
 10
4661.9001624431311939
 20
343.989405369247379
 30
0.0
 11
4661.8430593463326659
 21
343.989405369247379
 31
0.0
  0
LINE
  5
22415
  8
0
 10
4661.8430593463326659
 20
343.989405369247379
 30
0.0
 11
4661.8430593463326659
 21
343.9918846500474956
 31
0.0
  0
LINE
  5
22416
  8
0
 10
4661.8430593463326659
 20
343.9918846499966776
 30
0.0
 11
4661.8265743205320177
 21
343.9915524893473844
 31
0.0
  0
LINE
  5
22417
  8
0
 10
4661.8265743205320177
 20
343.9915524893473844
 30
0.0
 11
4661.8362106494569161
 21
343.9907711956632284
 31
0.0
  0
LINE
  5
22418
  8
0
 10
4661.8362106494569161
 20
343.9907711956632284
 30
0.0
 11
4661.8430593463326659
 21
343.9894053694483773
 31
0.0
  0
LINE
  5
22419
  8
0
 10
4661.9001624431311939
 20
343.989405369247379
 30
0.0
 11
4661.896309562607712
 21
343.9906205593642881
 31
0.0
  0
LINE
  5
2241A
  8
0
 10
4661.896309562607712
 20
343.9906205593642881
 30
0.0
 11
4661.8760270530319758
 21
343.9925489240474121
 31
0.0
  0
LINE
  5
2241B
  8
0
 10
4661.8760270530319758
 20
343.9925489240474121
 30
0.0
 11
4661.8430593463326659
 21
343.9918846499966776
 31
0.0
  0
LINE
  5
2241C
  8
0
 10
4661.8371513145311837
 20
343.989405369247379
 30
0.0
 11
4661.7741053850322714
 21
343.989405369247379
 31
0.0
  0
LINE
  5
2241D
  8
0
 10
4661.7741053850322714
 20
343.989405369247379
 30
0.0
 11
4661.7741053850322714
 21
343.9931510692733241
 31
0.0
  0
LINE
  5
2241E
  8
0
 10
4661.7741053850322714
 20
343.9891305700473936
 30
0.0
 11
4661.8371513145311837
 21
343.9891305700473936
 31
0.0
  0
LINE
  5
2241F
  8
0
 10
4661.7746453687323083
 20
343.9853522293474271
 30
0.0
 11
4661.7746453687323083
 21
343.9891305700473936
 31
0.0
  0
LINE
  5
22420
  8
0
 10
4661.7746453687323083
 20
343.9931837100473899
 30
0.0
 11
4661.8291738281477592
 21
343.9908500936152791
 31
0.0
  0
LINE
  5
22421
  8
0
 10
4661.8291738281477592
 20
343.9908500936152791
 30
0.0
 11
4661.8371513145311837
 21
343.989405369247379
 31
0.0
  0
LINE
  5
22422
  8
0
 10
4661.7746453687323083
 20
343.9931837100473899
 30
0.0
 11
4661.7431224039319204
 21
343.9912782192474197
 31
0.0
  0
LINE
  5
22423
  8
0
 10
4661.7431224039319204
 20
343.9912782192474197
 30
0.0
 11
4661.771350274402721
 21
343.9899540429823901
 31
0.0
  0
LINE
  5
22424
  8
0
 10
4661.771350274402721
 20
343.9899540429823901
 30
0.0
 11
4661.7741053850322714
 21
343.989405369247379
 31
0.0
  0
LINE
  5
22425
  8
0
 10
4661.7741053850322714
 20
343.9891305700473936
 30
0.0
 11
4661.7709318572406119
 21
343.9885345518487725
 31
0.0
  0
LINE
  5
22426
  8
0
 10
4661.7709318572406119
 20
343.9885345518487725
 30
0.0
 11
4661.7431224039319204
 21
343.9872577200474097
 31
0.0
  0
LINE
  5
22427
  8
0
 10
4661.7431224039319204
 20
343.9872577200474097
 30
0.0
 11
4661.7746453687323083
 21
343.9853522293474271
 31
0.0
  0
LINE
  5
22428
  8
0
 10
4661.7746453687323083
 20
343.9853522293474271
 30
0.0
 11
4661.8175204763301736
 21
343.9868485671815961
 31
0.0
  0
LINE
  5
22429
  8
0
 10
4661.8720900451316993
 20
343.9857490321473961
 30
0.0
 11
4661.8175204763301736
 21
343.9868485671815961
 31
0.0
  0
LINE
  5
2242A
  8
0
 10
4661.8720900451316993
 20
343.9857490321473961
 30
0.0
 11
4661.8061509330309491
 21
343.9834477903473839
 31
0.0
  0
LINE
  5
2242B
  8
0
 10
4661.8061509330309491
 20
343.9834477903473839
 30
0.0
 11
4661.7746453687323083
 21
343.9853522293474271
 31
0.0
  0
LINE
  5
2242C
  8
0
 10
4661.8061509330309491
 20
343.9834477903473839
 30
0.0
 11
4661.8061509330309491
 21
343.9864517710275891
 31
0.0
  0
LINE
  5
2242D
  8
0
 10
4661.8376713500510959
 20
343.9842756780357718
 30
0.0
 11
4661.8376518543036582
 21
343.9815436320882895
 31
0.0
  0
LINE
  5
2242E
  8
0
 10
4661.8376518543036582
 20
343.9815436320882895
 30
0.0
 11
4661.8820119965321283
 21
343.982712894547376
 31
0.0
  0
LINE
  5
2242F
  8
0
 10
4661.8820119965321283
 20
343.982712894547376
 30
0.0
 11
4661.8376713500510959
 21
343.9842756780357718
 31
0.0
  0
LINE
  5
22430
  8
0
 10
4661.8376713500510959
 20
343.9842756780357718
 30
0.0
 11
4661.8061509330309491
 21
343.9834477903473839
 31
0.0
  0
LINE
  5
22431
  8
0
 10
4661.8376518538516393
 20
343.9815436320764093
 30
0.0
 11
4661.8061509330309491
 21
343.9834477903473839
 31
0.0
  0
LINE
  5
22432
  8
0
 10
4661.7796376259320823
 20
343.9830472546644273
 30
0.0
 11
4661.7796376259320823
 21
343.9806501293825818
 31
0.0
  0
LINE
  5
22433
  8
0
 10
4661.7796376259320823
 20
343.9806501293825818
 30
0.0
 11
4661.7629454579955564
 21
343.982824229103926
 31
0.0
  0
LINE
  5
22434
  8
0
 10
4661.7796376259129829
 20
343.9806501293851966
 30
0.0
 11
4661.8308327566310254
 21
343.981406232447398
 31
0.0
  0
LINE
  5
22435
  8
0
 10
4661.8308327566310254
 20
343.981406232447398
 30
0.0
 11
4661.7993318350072514
 21
343.9833103907669738
 31
0.0
  0
LINE
  5
22436
  8
0
 10
4661.768189299333244
 20
343.9891305700473936
 30
0.0
 11
4661.7325967158321873
 21
343.9891305700473936
 31
0.0
  0
LINE
  5
22437
  8
0
 10
4661.7325967158321873
 20
343.9891305700473936
 30
0.0
 11
4661.7287487225421501
 21
343.9887614621495118
 31
0.0
  0
LINE
  5
22438
  8
0
 10
4661.7287487225421501
 20
343.9887614621495118
 30
0.0
 11
4661.7223680693323331
 21
343.9885122718474122
 31
0.0
  0
LINE
  5
22439
  8
0
 10
4661.7223680693323331
 20
343.9885122718474122
 30
0.0
 11
4661.7401643611319741
 21
343.9874365269474197
 31
0.0
  0
LINE
  5
2243A
  8
0
 10
4661.7401643611319741
 20
343.9874365269474197
 30
0.0
 11
4661.7659650386030989
 21
343.9886738021190808
 31
0.0
  0
LINE
  5
2243B
  8
0
 10
4661.7659650386030989
 20
343.9886738021190808
 30
0.0
 11
4661.768189299333244
 21
343.9891305700473936
 31
0.0
  0
LINE
  5
2243C
  8
0
 10
4661.768189299333244
 20
343.989405369247379
 30
0.0
 11
4661.7325967158321873
 21
343.989405369247379
 31
0.0
  0
LINE
  5
2243D
  8
0
 10
4661.7325967158321873
 20
343.989405369247379
 30
0.0
 11
4661.7292170109885774
 21
343.9897470721792843
 31
0.0
  0
LINE
  5
2243E
  8
0
 10
4661.7292170109885774
 20
343.9897470721792843
 30
0.0
 11
4661.7223680693323331
 21
343.9900236674474172
 31
0.0
  0
LINE
  5
2243F
  8
0
 10
4661.7223680693323331
 20
343.9900236674474172
 30
0.0
 11
4661.7325967158321873
 21
343.990641965597888
 31
0.0
  0
LINE
  5
22440
  8
0
 10
4661.7325967158321873
 20
343.990641965597888
 30
0.0
 11
4661.7401643611319741
 21
343.9910994123474097
 31
0.0
  0
LINE
  5
22441
  8
0
 10
4661.7401643611319741
 20
343.9910994123474097
 30
0.0
 11
4661.765900273088846
 21
343.989870130786926
 31
0.0
  0
LINE
  5
22442
  8
0
 10
4661.765900273088846
 20
343.989870130786926
 30
0.0
 11
4661.768189299333244
 21
343.989405369247379
 31
0.0
  0
LINE
  5
22443
  8
0
 10
4661.7401643611319741
 20
343.9891305700473936
 30
0.0
 11
4661.7401643611319741
 21
343.9874365269474197
 31
0.0
  0
LINE
  5
22444
  8
0
 10
4661.7325967158321873
 20
343.989405369247379
 30
0.0
 11
4661.7325967158321873
 21
343.990641965597888
 31
0.0
  0
LINE
  5
22445
  8
0
 10
4661.9060691249324009
 20
343.989405369247379
 30
0.0
 11
4661.9060691249324009
 21
343.9908607372594247
 31
0.0
  0
ARC
  5
22446
  8
0
 10
4662.6187164598431991
 20
344.1828806766993125
 30
0.0
 40
0.0314868392038499
 50
299.8320787071008908
 51
359.5245641930566762
  0
LINE
  5
22448
  8
0
 10
4662.6305022606893544
 20
334.2577326773110826
 30
0.0
 11
4660.7801384810882155
 21
334.2577326773110826
 31
0.0
  0
ENDSEC
  0
EOF
